  0
SECTION
  2
HEADER
  9
$ACADVER
  1
AC1015
  9
$ACADMAINTVER
 70
     6
  9
$DWGCODEPAGE
  3
DOS932
  9
$INSBASE
 10
0.0
 20
0.0
 30
0.0
  9
$EXTMIN
 10
0.0
 20
0.0
 30
0.0
  9
$EXTMAX
 10
215.9
 20
139.7
 30
0.0
  9
$LIMMIN
 10
0.0
 20
0.0
  9
$LIMMAX
 10
215.9
 20
139.7
  9
$ORTHOMODE
 70
     0
  9
$REGENMODE
 70
     1
  9
$FILLMODE
 70
     1
  9
$QTEXTMODE
 70
     0
  9
$MIRRTEXT
 70
     1
  9
$LTSCALE
 40
0.5
  9
$ATTMODE
 70
     1
  9
$TEXTSIZE
 40
1.75
  9
$TRACEWID
 40
1.0
  9
$TEXTSTYLE
  7
Standard
  9
$CLAYER
  8
0
  9
$CELTYPE
  6
ByLayer
  9
$CECOLOR
 62
   256
  9
$CELTSCALE
 40
1.0
  9
$DISPSILH
 70
     0
  9
$DIMSCALE
 40
1.0
  9
$DIMASZ
 40
1.651
  9
$DIMEXO
 40
0.5
  9
$DIMDLI
 40
3.75
  9
$DIMRND
 40
0.0
  9
$DIMDLE
 40
0.0
  9
$DIMEXE
 40
0.5
  9
$DIMTP
 40
0.0
  9
$DIMTM
 40
0.0
  9
$DIMTXT
 40
1.75
  9
$DIMCEN
 40
2.5
  9
$DIMTSZ
 40
0.0
  9
$DIMTOL
 70
     0
  9
$DIMLIM
 70
     0
  9
$DIMTIH
 70
     1
  9
$DIMTOH
 70
     1
  9
$DIMSE1
 70
     0
  9
$DIMSE2
 70
     0
  9
$DIMTAD
 70
     1
  9
$DIMZIN
 70
     1
  9
$DIMBLK
  1

  9
$DIMASO
 70
     1
  9
$DIMSHO
 70
     1
  9
$DIMPOST
  1

  9
$DIMAPOST
  1

  9
$DIMALT
 70
     0
  9
$DIMALTD
 70
     3
  9
$DIMALTF
 40
0.0393700787
  9
$DIMLFAC
 40
1.0
  9
$DIMTOFL
 70
     1
  9
$DIMTVP
 40
0.0
  9
$DIMTIX
 70
     0
  9
$DIMSOXD
 70
     0
  9
$DIMSAH
 70
     0
  9
$DIMBLK1
  1

  9
$DIMBLK2
  1

  9
$DIMSTYLE
  2
ISO-25
  9
$DIMCLRD
 70
     0
  9
$DIMCLRE
 70
     0
  9
$DIMCLRT
 70
     0
  9
$DIMTFAC
 40
1.0
  9
$DIMGAP
 40
0.762
  9
$DIMJUST
 70
     0
  9
$DIMSD1
 70
     0
  9
$DIMSD2
 70
     0
  9
$DIMTOLJ
 70
     0
  9
$DIMTZIN
 70
     1
  9
$DIMALTZ
 70
     0
  9
$DIMALTTZ
 70
     0
  9
$DIMUPT
 70
     0
  9
$DIMDEC
 70
     2
  9
$DIMTDEC
 70
     2
  9
$DIMALTU
 70
     2
  9
$DIMALTTD
 70
     3
  9
$DIMTXSTY
  7
Standard
  9
$DIMAUNIT
 70
     0
  9
$DIMADEC
 70
     2
  9
$DIMALTRND
 40
0.0
  9
$DIMAZIN
 70
     0
  9
$DIMDSEP
 70
    44
  9
$DIMATFIT
 70
     3
  9
$DIMFRAC
 70
     0
  9
$DIMLDRBLK
  1

  9
$DIMLUNIT
 70
     2
  9
$DIMLWD
 70
    -2
  9
$DIMLWE
 70
    -2
  9
$DIMTMOVE
 70
     0
  9
$LUNITS
 70
     2
  9
$LUPREC
 70
     2
  9
$SKETCHINC
 40
1.0
  9
$FILLETRAD
 40
10.0
  9
$AUNITS
 70
     0
  9
$AUPREC
 70
     2
  9
$MENU
  1
.
  9
$ELEVATION
 40
0.0
  9
$PELEVATION
 40
0.0
  9
$THICKNESS
 40
0.0
  9
$LIMCHECK
 70
     0
  9
$CHAMFERA
 40
0.0
  9
$CHAMFERB
 40
0.0
  9
$CHAMFERC
 40
0.0
  9
$CHAMFERD
 40
0.0
  9
$SKPOLY
 70
     0
  9
$TDCREATE
 40
2459230.770128403
  9
$TDUCREATE
 40
2459230.395128403
  9
$TDUPDATE
 40
2459230.770129028
  9
$TDUUPDATE
 40
2459230.395129028
  9
$TDINDWG
 40
0.0000000116
  9
$TDUSRTIMER
 40
0.0000000116
  9
$USRTIMER
 70
     1
  9
$ANGBASE
 50
0.0
  9
$ANGDIR
 70
     0
  9
$PDMODE
 70
     0
  9
$PDSIZE
 40
-1.0
  9
$PLINEWID
 40
0.0
  9
$SPLFRAME
 70
     0
  9
$SPLINETYPE
 70
     6
  9
$SPLINESEGS
 70
     8
  9
$HANDSEED
  5
261
  9
$SURFTAB1
 70
     6
  9
$SURFTAB2
 70
     6
  9
$SURFTYPE
 70
     6
  9
$SURFU
 70
     6
  9
$SURFV
 70
     6
  9
$UCSBASE
  2

  9
$UCSNAME
  2

  9
$UCSORG
 10
0.0
 20
0.0
 30
0.0
  9
$UCSXDIR
 10
1.0
 20
0.0
 30
0.0
  9
$UCSYDIR
 10
0.0
 20
1.0
 30
0.0
  9
$UCSORTHOREF
  2

  9
$UCSORTHOVIEW
 70
     0
  9
$UCSORGTOP
 10
0.0
 20
0.0
 30
0.0
  9
$UCSORGBOTTOM
 10
0.0
 20
0.0
 30
0.0
  9
$UCSORGLEFT
 10
0.0
 20
0.0
 30
0.0
  9
$UCSORGRIGHT
 10
0.0
 20
0.0
 30
0.0
  9
$UCSORGFRONT
 10
0.0
 20
0.0
 30
0.0
  9
$UCSORGBACK
 10
0.0
 20
0.0
 30
0.0
  9
$PUCSBASE
  2

  9
$PUCSNAME
  2

  9
$PUCSORG
 10
0.0
 20
0.0
 30
0.0
  9
$PUCSXDIR
 10
1.0
 20
0.0
 30
0.0
  9
$PUCSYDIR
 10
0.0
 20
1.0
 30
0.0
  9
$PUCSORTHOREF
  2

  9
$PUCSORTHOVIEW
 70
     0
  9
$PUCSORGTOP
 10
0.0
 20
0.0
 30
0.0
  9
$PUCSORGBOTTOM
 10
0.0
 20
0.0
 30
0.0
  9
$PUCSORGLEFT
 10
0.0
 20
0.0
 30
0.0
  9
$PUCSORGRIGHT
 10
0.0
 20
0.0
 30
0.0
  9
$PUCSORGFRONT
 10
0.0
 20
0.0
 30
0.0
  9
$PUCSORGBACK
 10
0.0
 20
0.0
 30
0.0
  9
$USERI1
 70
     0
  9
$USERI2
 70
     0
  9
$USERI3
 70
     0
  9
$USERI4
 70
     0
  9
$USERI5
 70
     0
  9
$USERR1
 40
0.0
  9
$USERR2
 40
0.0
  9
$USERR3
 40
0.0
  9
$USERR4
 40
0.0
  9
$USERR5
 40
0.0
  9
$WORLDVIEW
 70
     1
  9
$SHADEDGE
 70
     3
  9
$SHADEDIF
 70
    70
  9
$TILEMODE
 70
     1
  9
$MAXACTVP
 70
    64
  9
$PINSBASE
 10
0.0
 20
0.0
 30
0.0
  9
$PLIMCHECK
 70
     0
  9
$PEXTMIN
 10
1.0000000000E+20
 20
1.0000000000E+20
 30
1.0000000000E+20
  9
$PEXTMAX
 10
-1.0000000000E+20
 20
-1.0000000000E+20
 30
-1.0000000000E+20
  9
$PLIMMIN
 10
0.0
 20
0.0
  9
$PLIMMAX
 10
420.0
 20
297.0
  9
$UNITMODE
 70
     0
  9
$VISRETAIN
 70
     1
  9
$PLINEGEN
 70
     0
  9
$PSLTSCALE
 70
     1
  9
$TREEDEPTH
 70
  3020
  9
$CMLSTYLE
  2
Standard
  9
$CMLJUST
 70
     0
  9
$CMLSCALE
 40
20.0
  9
$PROXYGRAPHICS
 70
     1
  9
$MEASUREMENT
 70
     1
  9
$CELWEIGHT
370
    -1
  9
$ENDCAPS
280
     0
  9
$JOINSTYLE
280
     0
  9
$LWDISPLAY
290
     1
  9
$INSUNITS
 70
     4
  9
$HYPERLINKBASE
  1

  9
$STYLESHEET
  1

  9
$XEDIT
290
     1
  9
$CEPSNTYPE
380
     0
  9
$PSTYLEMODE
290
     1
  9
$FINGERPRINTGUID
  2
{56CD4FC6-846A-4C38-BD06-A460CDC73771}
  9
$VERSIONGUID
  2
{FAEB1C32-E019-11D5-929B-00C0DF256EC4}
  9
$EXTNAMES
290
     1
  9
$PSVPSCALE
 40
0.0
  9
$OLESTARTUP
290
     0
  0
ENDSEC
  0
SECTION
  2
CLASSES
  0
CLASS
  1
ACDBDICTIONARYWDFLT
  2
AcDbDictionaryWithDefault
  3
ObjectDBX Classes
 90
        0
280
     0
281
     0
  0
CLASS
  1
VISUALSTYLE
  2
AcDbVisualStyle
  3
ObjectDBX Classes
 90
     4095
280
     0
281
     0
  0
CLASS
  1
MATERIAL
  2
AcDbMaterial
  3
ObjectDBX Classes
 90
     1153
280
     0
281
     0
  0
CLASS
  1
SCALE
  2
AcDbScale
  3
ObjectDBX Classes
 90
     1153
280
     0
281
     0
  0
CLASS
  1
TABLESTYLE
  2
AcDbTableStyle
  3
ObjectDBX Classes
 90
     4095
280
     0
281
     0
  0
CLASS
  1
MLEADERSTYLE
  2
AcDbMLeaderStyle
  3
ACDB_MLEADERSTYLE_CLASS
 90
     4095
280
     0
281
     0
  0
CLASS
  1
SUN
  2
AcDbSun
  3
SCENEOE
 90
     1153
280
     0
281
     0
  0
CLASS
  1
ACDBPLACEHOLDER
  2
AcDbPlaceHolder
  3
ObjectDBX Classes
 90
        0
280
     0
281
     0
  0
CLASS
  1
LAYOUT
  2
AcDbLayout
  3
ObjectDBX Classes
 90
        0
280
     0
281
     0
  0
ENDSEC
  0
SECTION
  2
TABLES
  0
TABLE
  2
VPORT
  5
8
330
0
100
AcDbSymbolTable
 70
     1
  0
VPORT
  5
29
330
8
100
AcDbSymbolTableRecord
100
AcDbViewportTableRecord
  2
*Active
 70
     0
 10
0.0
 20
0.0
 11
1.0
 21
1.0
 12
107.95
 22
69.85
 13
0.0
 23
0.0
 14
10.0
 24
10.0
 15
10.0
 25
10.0
 16
0.0
 26
0.0
 36
1.0
 17
0.0
 27
0.0
 37
0.0
 40
139.7
 41
1.5454545455
 42
50.0
 43
0.0
 44
0.0
 50
0.0
 51
0.0
 71
     0
 72
  2000
 73
     1
 74
     3
 75
     0
 76
     0
 77
     0
 78
     0
281
     0
 65
     1
110
0.0
120
0.0
130
0.0
111
1.0
121
0.0
131
0.0
112
0.0
122
1.0
132
0.0
 79
     0
146
0.0
  0
ENDTAB
  0
TABLE
  2
LTYPE
  5
5
330
0
100
AcDbSymbolTable
 70
     6
  0
LTYPE
  5
14
330
5
100
AcDbSymbolTableRecord
100
AcDbLinetypeTableRecord
  2
ByBlock
 70
     0
  3

 72
    65
 73
     0
 40
0.0
  0
LTYPE
  5
15
330
5
100
AcDbSymbolTableRecord
100
AcDbLinetypeTableRecord
  2
ByLayer
 70
     0
  3

 72
    65
 73
     0
 40
0.0
  0
LTYPE
  5
16
330
5
100
AcDbSymbolTableRecord
100
AcDbLinetypeTableRecord
  2
Continuous
 70
     0
  3
Solid line
 72
    65
 73
     0
 40
0.0
  0
LTYPE
  5
6E
330
5
100
AcDbSymbolTableRecord
100
AcDbLinetypeTableRecord
  2
HIDDEN
 70
     0
  3
Hidden __ __ __ __ __ __ __ __ __ __ __ __ __ __
 72
    65
 73
     2
 40
1.905
 49
1.27
 74
     0
 49
-0.635
 74
     0
  0
LTYPE
  5
6F
330
5
100
AcDbSymbolTableRecord
100
AcDbLinetypeTableRecord
  2
PHANTOM
 70
     0
  3
Phantom ______  __  __  ______  __  __  ______
 72
    65
 73
     6
 40
12.7
 49
6.35
 74
     0
 49
-1.27
 74
     0
 49
1.27
 74
     0
 49
-1.27
 74
     0
 49
1.27
 74
     0
 49
-1.27
 74
     0
  0
LTYPE
  5
70
330
5
100
AcDbSymbolTableRecord
100
AcDbLinetypeTableRecord
  2
CENTER
 70
     0
  3
Center ____ _ ____ _ ____ _ ____ _ ____ _ ____
 72
    65
 73
     4
 40
10.16
 49
6.35
 74
     0
 49
-1.27
 74
     0
 49
1.27
 74
     0
 49
-1.27
 74
     0
  0
LTYPE
  5
71
330
5
100
AcDbSymbolTableRecord
100
AcDbLinetypeTableRecord
  2
CENTERX2
 70
     0
  3
Center (2x) ________  __  ________  __  _____
 72
    65
 73
     4
 40
20.32
 49
12.7
 74
     0
 49
-2.54
 74
     0
 49
2.54
 74
     0
 49
-2.54
 74
     0
  0
LTYPE
  5
72
330
5
100
AcDbSymbolTableRecord
100
AcDbLinetypeTableRecord
  2
DOT2
 70
     0
  3
Dot (.5x) ........................................
 72
    65
 73
     2
 40
0.635
 49
0.0
 74
     0
 49
-0.635
 74
     0
  0
ENDTAB
  0
TABLE
  2
LAYER
  5
2
330
0
100
AcDbSymbolTable
 70
     1
  0
LAYER
  5
10
330
2
100
AcDbSymbolTableRecord
100
AcDbLayerTableRecord
  2
0
 70
     0
 62
     7
  6
Continuous
370
    -3
390
F
  0
ENDTAB
  0
TABLE
  2
STYLE
  5
3
330
0
100
AcDbSymbolTable
 70
     2
  0
STYLE
  5
11
330
3
100
AcDbSymbolTableRecord
100
AcDbTextStyleTableRecord
  2
Standard
 70
     0
 40
0.0
 41
1.0
 50
0.0
 71
     0
 42
1.75
  3
txt
  4
bigfont
  0
STYLE
  5
73
330
3
100
AcDbSymbolTableRecord
100
AcDbTextStyleTableRecord
  2
SLDTEXTSTYLE0
 70
     0
 40
0.0
 41
0.7
 50
0.0
 71
     0
 42
1.75
  3
TXT
  4
bigfont
  0
ENDTAB
  0
TABLE
  2
VIEW
  5
6
330
0
100
AcDbSymbolTable
 70
     0
  0
ENDTAB
  0
TABLE
  2
UCS
  5
7
330
0
100
AcDbSymbolTable
 70
     0
  0
ENDTAB
  0
TABLE
  2
APPID
  5
9
330
0
100
AcDbSymbolTable
 70
     1
  0
APPID
  5
12
330
9
100
AcDbSymbolTableRecord
100
AcDbRegAppTableRecord
  2
ACAD
 70
     0
  0
ENDTAB
  0
TABLE
  2
DIMSTYLE
  5
A
330
0
100
AcDbSymbolTable
 70
     1
100
AcDbDimStyleTable
  0
DIMSTYLE
105
27
330
A
100
AcDbSymbolTableRecord
100
AcDbDimStyleTableRecord
  2
ISO-25
 70
     0
 41
2.5
 42
0.625
 43
3.75
 44
1.25
 73
     0
 74
     0
 77
     1
 78
     8
140
2.5
141
2.5
143
0.0393700787
147
0.625
171
     3
172
     1
178
     0
271
     2
272
     2
274
     3
278
    44
283
     0
284
     8
340
11
  0
ENDTAB
  0
TABLE
  2
BLOCK_RECORD
  5
1
330
0
100
AcDbSymbolTable
 70
     3
  0
BLOCK_RECORD
  5
1F
330
1
100
AcDbSymbolTableRecord
100
AcDbBlockTableRecord
  2
*Model_Space
340
22
  0
BLOCK_RECORD
  5
1B
330
1
100
AcDbSymbolTableRecord
100
AcDbBlockTableRecord
  2
*Paper_Space
340
1E
  0
BLOCK_RECORD
  5
23
330
1
100
AcDbSymbolTableRecord
100
AcDbBlockTableRecord
  2
*Paper_Space0
340
26
  0
BLOCK_RECORD
  5
1E1
330
1
100
AcDbSymbolTableRecord
100
AcDbBlockTableRecord
  2
SW_CENTERMARKSYMBOL_0
340
0
102
{BLKREFS
331
1EC
102
}
  0
BLOCK_RECORD
  5
251
330
1
100
AcDbSymbolTableRecord
100
AcDbBlockTableRecord
  2
SW_CENTERMARKSYMBOL_1
340
0
102
{BLKREFS
331
25C
102
}
  0
ENDTAB
  0
ENDSEC
  0
SECTION
  2
BLOCKS
  0
BLOCK
  5
20
330
1F
100
AcDbEntity
  8
0
100
AcDbBlockBegin
  2
*Model_Space
 70
     0
 10
0.0
 20
0.0
 30
0.0
  3
*Model_Space
  1

  0
ENDBLK
  5
21
330
1F
100
AcDbEntity
  8
0
100
AcDbBlockEnd
  0
BLOCK
  5
1C
330
1B
100
AcDbEntity
 67
     1
  8
0
100
AcDbBlockBegin
  2
*Paper_Space
 70
     0
 10
0.0
 20
0.0
 30
0.0
  3
*Paper_Space
  1

  0
ENDBLK
  5
1D
330
1B
100
AcDbEntity
 67
     1
  8
0
100
AcDbBlockEnd
  0
BLOCK
  5
24
330
23
100
AcDbEntity
  8
0
100
AcDbBlockBegin
  2
*Paper_Space0
 70
     0
 10
0.0
 20
0.0
 30
0.0
  3
*Paper_Space0
  1

  0
ENDBLK
  5
25
330
23
100
AcDbEntity
  8
0
100
AcDbBlockEnd
  0
BLOCK
  5
1E2
330
1E1
100
AcDbEntity
  8
0
100
AcDbBlockBegin
  2
SW_CENTERMARKSYMBOL_0
 70
     0
 10
0.0
 20
0.0
 30
0.0
  3
SW_CENTERMARKSYMBOL_0
  1

  0
LINE
  5
1E4
330
1E1
100
AcDbEntity
  8
0
  6
Continuous
 62
     0
370
    18
100
AcDbLine
 10
0.0
 20
0.0
 30
0.0
 11
0.0
 21
2.5
 31
0.0
  0
LINE
  5
1E5
330
1E1
100
AcDbEntity
  8
0
  6
Continuous
 62
     0
370
    18
100
AcDbLine
 10
0.0
 20
0.0
 30
0.0
 11
-2.5
 21
0.0
 31
0.0
  0
LINE
  5
1E6
330
1E1
100
AcDbEntity
  8
0
  6
Continuous
 62
     0
370
    18
100
AcDbLine
 10
0.0
 20
0.0
 30
0.0
 11
0.0
 21
-2.5
 31
0.0
  0
LINE
  5
1E7
330
1E1
100
AcDbEntity
  8
0
  6
Continuous
 62
     0
370
    18
100
AcDbLine
 10
0.0
 20
0.0
 30
0.0
 11
2.5
 21
0.0
 31
0.0
  0
LINE
  5
1E8
330
1E1
100
AcDbEntity
  8
0
  6
Continuous
 62
     0
370
    18
100
AcDbLine
 10
0.0
 20
2.5
 30
0.0
 11
0.0
 21
23.4726583363
 31
0.0
  0
LINE
  5
1E9
330
1E1
100
AcDbEntity
  8
0
  6
Continuous
 62
     0
370
    18
100
AcDbLine
 10
-2.5
 20
0.0
 30
0.0
 11
-6.8855982156
 21
0.0
 31
0.0
  0
LINE
  5
1EA
330
1E1
100
AcDbEntity
  8
0
  6
Continuous
 62
     0
370
    18
100
AcDbLine
 10
0.0
 20
-2.5
 30
0.0
 11
0.0
 21
-7.1389888044
 31
0.0
  0
LINE
  5
1EB
330
1E1
100
AcDbEntity
  8
0
  6
Continuous
 62
     0
370
    18
100
AcDbLine
 10
2.5
 20
0.0
 30
0.0
 11
7.1792126329
 21
0.0
 31
0.0
  0
ENDBLK
  5
1E3
330
1E1
100
AcDbEntity
  8
0
100
AcDbBlockEnd
  0
BLOCK
  5
252
330
251
100
AcDbEntity
  8
0
100
AcDbBlockBegin
  2
SW_CENTERMARKSYMBOL_1
 70
     0
 10
0.0
 20
0.0
 30
0.0
  3
SW_CENTERMARKSYMBOL_1
  1

  0
LINE
  5
254
330
251
100
AcDbEntity
  8
0
  6
Continuous
 62
     0
370
    18
100
AcDbLine
 10
0.0
 20
0.0
 30
0.0
 11
0.0
 21
2.5
 31
0.0
  0
LINE
  5
255
330
251
100
AcDbEntity
  8
0
  6
Continuous
 62
     0
370
    18
100
AcDbLine
 10
0.0
 20
0.0
 30
0.0
 11
-2.5
 21
0.0
 31
0.0
  0
LINE
  5
256
330
251
100
AcDbEntity
  8
0
  6
Continuous
 62
     0
370
    18
100
AcDbLine
 10
0.0
 20
0.0
 30
0.0
 11
0.0
 21
-2.5
 31
0.0
  0
LINE
  5
257
330
251
100
AcDbEntity
  8
0
  6
Continuous
 62
     0
370
    18
100
AcDbLine
 10
0.0
 20
0.0
 30
0.0
 11
2.5
 21
0.0
 31
0.0
  0
LINE
  5
258
330
251
100
AcDbEntity
  8
0
  6
Continuous
 62
     0
370
    18
100
AcDbLine
 10
0.0
 20
5.0
 30
0.0
 11
0.0
 21
9.75
 31
0.0
  0
LINE
  5
259
330
251
100
AcDbEntity
  8
0
  6
Continuous
 62
     0
370
    18
100
AcDbLine
 10
-5.0
 20
0.0
 30
0.0
 11
-9.75
 21
0.0
 31
0.0
  0
LINE
  5
25A
330
251
100
AcDbEntity
  8
0
  6
Continuous
 62
     0
370
    18
100
AcDbLine
 10
0.0
 20
-5.0
 30
0.0
 11
0.0
 21
-9.75
 31
0.0
  0
LINE
  5
25B
330
251
100
AcDbEntity
  8
0
  6
Continuous
 62
     0
370
    18
100
AcDbLine
 10
5.0
 20
0.0
 30
0.0
 11
20.3429101659
 21
0.0
 31
0.0
  0
ENDBLK
  5
253
330
251
100
AcDbEntity
  8
0
100
AcDbBlockEnd
  0
ENDSEC
  0
SECTION
  2
ENTITIES
  0
MTEXT
  5
74
330
1F
100
AcDbEntity
  8
0
  6
Continuous
 62
     7
370
     0
100
AcDbMText
 10
81.0251232772
 20
70.1667846777
 30
0.0
 40
2.6458333333
 41
0.0
 71
     1
 72
     1
  1
5R-LK1011
  7
SLDTEXTSTYLE0
 73
     1
 44
1.0
  0
LINE
  5
75
330
1F
100
AcDbEntity
  8
0
  6
Continuous
 62
     7
370
    25
100
AcDbLine
 10
69.5214012365
 20
61.6876305712
 30
0.0
 11
69.0214016202
 21
62.1876297218
 31
0.0
  0
LINE
  5
76
330
1F
100
AcDbEntity
  8
0
  6
Continuous
 62
     7
370
    25
100
AcDbLine
 10
55.52140127
 20
62.1876297218
 30
0.0
 11
55.0214016537
 21
61.6876305712
 31
0.0
  0
ARC
  5
77
330
1F
100
AcDbEntity
  8
0
  6
Continuous
 62
     7
370
    25
100
AcDbCircle
 10
55.5214014451
 20
50.687629841
 30
0.0
 40
0.5
100
AcDbArc
 50
180.0
 51
270.0
  0
ARC
  5
78
330
1F
100
AcDbEntity
  8
0
  6
Continuous
 62
     7
370
    25
100
AcDbCircle
 10
69.0214014451
 20
50.687629841
 30
0.0
 40
0.5
100
AcDbArc
 50
270.0
 51
0.0
  0
LINE
  5
79
330
1F
100
AcDbEntity
  8
0
  6
Continuous
 62
     7
370
    25
100
AcDbLine
 10
55.0214016537
 20
61.6876305712
 30
0.0
 11
55.0214016537
 21
50.6876296995
 31
0.0
  0
LINE
  5
7A
330
1F
100
AcDbEntity
  8
0
  6
Continuous
 62
     7
370
    25
100
AcDbLine
 10
69.5214012365
 20
50.6876296995
 30
0.0
 11
69.5214012365
 21
61.6876305712
 31
0.0
  0
ARC
  5
7B
330
1F
100
AcDbEntity
  8
0
  6
Continuous
 62
     7
370
    25
100
AcDbCircle
 10
55.7714014451
 20
49.687629841
 30
0.0
 40
0.5
100
AcDbArc
 50
0.0
 51
90.0
  0
ARC
  5
7C
330
1F
100
AcDbEntity
  8
0
  6
Continuous
 62
     7
370
    25
100
AcDbCircle
 10
68.7714014451
 20
49.687629841
 30
0.0
 40
0.5
100
AcDbArc
 50
90.0
 51
180.0
  0
LINE
  5
7D
330
1F
100
AcDbEntity
  8
0
  6
Continuous
 62
     7
370
    25
100
AcDbLine
 10
58.2714012551
 20
34.1876297889
 30
0.0
 11
69.8397137883
 21
34.1876297889
 31
0.0
  0
LINE
  5
7E
330
1F
100
AcDbEntity
  8
0
  6
Continuous
 62
     7
370
    25
100
AcDbLine
 10
69.8397137883
 20
46.1876298932
 30
0.0
 11
68.2714014972
 21
46.1876298932
 31
0.0
  0
LINE
  5
7F
330
1F
100
AcDbEntity
  8
0
  6
Continuous
 62
     7
370
    25
100
AcDbLine
 10
68.2714014972
 20
46.1876298932
 30
0.0
 11
68.2714014972
 21
49.6876295356
 31
0.0
  0
LINE
  5
80
330
1F
100
AcDbEntity
  8
0
  6
Continuous
 62
     7
370
    25
100
AcDbLine
 10
56.2714013929
 20
49.6876295356
 30
0.0
 11
56.2714013929
 21
36.1876296511
 31
0.0
  0
LINE
  5
81
330
1F
100
AcDbEntity
  8
0
  6
Continuous
 62
     7
370
    25
100
AcDbLine
 10
69.8397137883
 20
34.1876297889
 30
0.0
 11
70.771401907
 21
35.119317442
 31
0.0
  0
LINE
  5
82
330
1F
100
AcDbEntity
  8
0
  6
Continuous
 62
     7
370
    25
100
AcDbLine
 10
70.771401907
 20
45.2559422401
 30
0.0
 11
69.8397137883
 21
46.1876298932
 31
0.0
  0
LINE
  5
83
330
1F
100
AcDbEntity
  8
0
  6
Continuous
 62
     7
370
    25
100
AcDbLine
 10
70.771401907
 20
35.119317442
 30
0.0
 11
79.9159949372
 21
35.4050858577
 31
0.0
  0
LINE
  5
84
330
1F
100
AcDbEntity
  8
0
  6
Continuous
 62
     7
370
    25
100
AcDbLine
 10
79.9159949372
 20
44.9701738244
 30
0.0
 11
70.771401907
 21
45.2559422401
 31
0.0
  0
LINE
  5
85
330
1F
100
AcDbEntity
  8
0
  6
Continuous
 62
     7
370
    25
100
AcDbLine
 10
79.9159949372
 20
35.4050858577
 30
0.0
 11
81.2714008341
 21
36.1876296511
 31
0.0
  0
LINE
  5
86
330
1F
100
AcDbEntity
  8
0
  6
Continuous
 62
     7
370
    25
100
AcDbLine
 10
81.2714008341
 20
44.187630031
 30
0.0
 11
79.9159949372
 21
44.9701738244
 31
0.0
  0
ARC
  5
87
330
1F
100
AcDbEntity
  8
0
  6
Continuous
 62
     7
370
    25
100
AcDbCircle
 10
58.2714014451
 20
36.187629841
 30
0.0
 40
2.000000000000004
100
AcDbArc
 50
179.8309835189
 51
270.1912668661
  0
LINE
  5
88
330
1F
100
AcDbEntity
  8
0
  6
Continuous
 62
     7
370
    25
100
AcDbLine
 10
69.5214012365
 20
61.6876305712
 30
0.0
 11
55.0214016537
 21
61.6876305712
 31
0.0
  0
LINE
  5
89
330
1F
100
AcDbEntity
  8
0
  6
Continuous
 62
     7
370
    25
100
AcDbLine
 10
55.52140127
 20
62.1876297218
 30
0.0
 11
69.0214016202
 21
62.1876297218
 31
0.0
  0
LINE
  5
8A
330
1F
100
AcDbEntity
  8
0
  6
Continuous
 62
     7
370
    25
100
AcDbLine
 10
69.0214016202
 20
50.1876296175
 30
0.0
 11
55.52140127
 21
50.1876296175
 31
0.0
  0
SPLINE
  5
8B
330
1F
100
AcDbEntity
  8
0
  6
Continuous
 62
     7
370
    25
100
AcDbSpline
210
0.0
220
0.0
230
1.0
 70
     8
 71
     3
 72
     8
 73
     4
 74
     0
 42
0.000000001
 43
0.00000001
 40
0.0
 40
0.0
 40
0.0
 40
0.0
 40
1.0
 40
1.0
 40
1.0
 40
1.0
 10
59.2714014450867
 20
35.14762984104047
 30
0.0
 10
59.1549348578645
 20
35.14762984104047
 30
0.0
 10
59.04062328740245
 20
35.15625066417068
 30
0.0
 10
58.92824732345687
 20
35.17289865859574
 30
0.0
  0
LINE
  5
8C
330
1F
100
AcDbEntity
  8
0
  6
Continuous
 62
     7
370
    25
100
AcDbLine
 10
68.5214015382
 20
35.1476296482
 30
0.0
 11
59.271401419
 21
35.1476296482
 31
0.0
  0
SPLINE
  5
8D
330
1F
100
AcDbEntity
  8
0
  6
Continuous
 62
     7
370
    25
100
AcDbSpline
210
0.0
220
0.0
230
1.0
 70
     8
 71
     3
 72
    14
 73
    10
 74
     0
 42
0.000000001
 43
0.00000001
 40
0.0
 40
0.0
 40
0.0
 40
0.0
 40
0.25
 40
0.25
 40
0.5
 40
0.5
 40
0.75
 40
0.75
 40
1.0
 40
1.0
 40
1.0
 40
1.0
 10
68.5214014450867
 20
35.14762984104047
 30
0.0
 10
68.60871947409308
 20
35.14762984104047
 30
0.0
 10
68.69034758191468
 20
35.17058263982692
 30
0.0
 10
68.81804870004812
 20
35.23507823898861
 30
0.0
 10
68.86743949287369
 20
35.27631072579489
 30
0.0
 10
68.94479816043173
 20
35.36577256576396
 30
0.0
 10
68.9733669700036
 20
35.41524740312413
 30
0.0
 10
69.01143433897072
 20
35.51781966105631
 30
0.0
 10
69.0214014450867
 20
35.57142942233759
 30
0.0
 10
69.0214014450867
 20
35.62762984104047
 30
0.0
  0
LINE
  5
8E
330
1F
100
AcDbEntity
  8
0
  6
Continuous
 62
     7
370
    25
100
AcDbLine
 10
69.0214016202
 20
37.8361197354
 30
0.0
 11
69.0214016202
 21
35.6276300435
 31
0.0
  0
SPLINE
  5
8F
330
1F
100
AcDbEntity
  8
0
  6
Continuous
 62
     7
370
    25
100
AcDbSpline
210
0.0
220
0.0
230
1.0
 70
    24
 71
     3
 72
    14
 73
    10
 74
     0
 42
0.000000001
 43
0.00000001
 40
0.0
 40
0.0
 40
0.0
 40
0.0
 40
0.25
 40
0.25
 40
0.5
 40
0.5
 40
0.75
 40
0.75
 40
1.0
 40
1.0
 40
1.0
 40
1.0
 10
69.0214014450867
 20
40.18762984104048
 30
0.0
 10
69.0214014450867
 20
39.98909252645145
 30
0.0
 10
69.0214014450867
 20
39.7905537956181
 30
0.0
 10
69.0214014450867
 20
39.39438495934455
 30
0.0
 10
69.0214014450867
 20
39.19675201402325
 30
0.0
 10
69.0214014450867
 20
38.80338558513306
 30
0.0
 10
69.0214014450867
 20
38.60764924447677
 30
0.0
 10
69.0214014450867
 20
38.21923733158497
 30
0.0
 10
69.0214014450867
 20
38.02655889050613
 30
0.0
 10
69.0214014450867
 20
37.83611968796862
 30
0.0
  0
SPLINE
  5
90
330
1F
100
AcDbEntity
  8
0
  6
Continuous
 62
     7
370
    25
100
AcDbSpline
210
0.0
220
0.0
230
1.0
 70
    24
 71
     3
 72
    14
 73
    10
 74
     0
 42
0.000000001
 43
0.00000001
 40
0.0
 40
0.0
 40
0.0
 40
0.0
 40
0.25
 40
0.25
 40
0.5
 40
0.5
 40
0.75
 40
0.75
 40
1.0
 40
1.0
 40
1.0
 40
1.0
 10
69.0214014450867
 20
40.18762984104048
 30
0.0
 10
69.0214014450867
 20
40.38616715562949
 30
0.0
 10
69.0214014450867
 20
40.58470588646286
 30
0.0
 10
69.0214014450867
 20
40.9808747227364
 30
0.0
 10
69.0214014450867
 20
41.1785076680577
 30
0.0
 10
69.0214014450867
 20
41.57187409694788
 30
0.0
 10
69.0214014450867
 20
41.76761043760418
 30
0.0
 10
69.0214014450867
 20
42.15602235049598
 30
0.0
 10
69.0214014450867
 20
42.34870079157482
 30
0.0
 10
69.0214014450867
 20
42.53913999411233
 30
0.0
  0
LINE
  5
91
330
1F
100
AcDbEntity
  8
0
  6
Continuous
 62
     7
370
    25
100
AcDbLine
 10
69.0214016202
 20
44.7476296385
 30
0.0
 11
69.0214016202
 21
42.5391399467
 31
0.0
  0
SPLINE
  5
92
330
1F
100
AcDbEntity
  8
0
  6
Continuous
 62
     7
370
    25
100
AcDbSpline
210
0.0
220
0.0
230
1.0
 70
     8
 71
     3
 72
    14
 73
    10
 74
     0
 42
0.000000001
 43
0.00000001
 40
0.0
 40
0.0
 40
0.0
 40
0.0
 40
0.25
 40
0.25
 40
0.5
 40
0.5
 40
0.75
 40
0.75
 40
1.0
 40
1.0
 40
1.0
 40
1.0
 10
69.0214014450867
 20
44.74762984104048
 30
0.0
 10
69.0214014450867
 20
44.80378308137131
 30
0.0
 10
69.01144813853419
 20
44.85753667368985
 30
0.0
 10
68.97307652271819
 20
44.96066008209934
 30
0.0
 10
68.94453759074503
 20
45.00983805810698
 30
0.0
 10
68.86735004346491
 20
45.09900257043275
 30
0.0
 10
68.81792135827698
 20
45.14025123470462
 30
0.0
 10
68.69041287109992
 20
45.20463858770663
 30
0.0
 10
68.60879666104579
 20
45.22762984104048
 30
0.0
 10
68.5214014450867
 20
45.22762984104048
 30
0.0
  0
LINE
  5
93
330
1F
100
AcDbEntity
  8
0
  6
Continuous
 62
     7
370
    25
100
AcDbLine
 10
68.2714014972
 20
45.2276300339
 30
0.0
 11
68.5214015382
 21
45.2276300339
 31
0.0
  0
SPLINE
  5
94
330
1F
100
AcDbEntity
  8
0
  6
Continuous
 62
     7
370
    25
100
AcDbSpline
210
0.0
220
0.0
230
1.0
 70
     8
 71
     3
 72
    12
 73
     8
 74
     0
 42
0.000000001
 43
0.00000001
 40
0.0
 40
0.0
 40
0.0
 40
0.0
 40
0.5000000000000009
 40
0.5000000000000009
 40
0.7500000000000004
 40
0.7500000000000004
 40
1.0
 40
1.0
 40
1.0
 40
1.0
 10
67.64113520794835
 20
45.55736360390214
 30
0.0
 10
67.68818336249677
 20
45.4873394095298
 30
0.0
 10
67.7532215937064
 20
45.4138961047671
 30
0.0
 10
67.90669494675838
 20
45.3157280045009
 30
0.0
 10
67.96685466648343
 20
45.28580087314818
 30
0.0
 10
68.10814218804856
 20
45.24127944788491
 30
0.0
 10
68.18858249687221
 20
45.22762984104048
 30
0.0
 10
68.27140144508671
 20
45.22762984104048
 30
0.0
  0
LINE
  5
95
330
1F
100
AcDbEntity
  8
0
  6
Continuous
 62
     7
370
    25
100
AcDbLine
 10
67.6411349985
 20
45.5573633944
 30
0.0
 11
68.2714014972
 21
46.1876298932
 31
0.0
  0
LINE
  5
96
330
1F
100
AcDbEntity
  8
0
  6
Continuous
 62
     7
370
    25
100
AcDbLine
 10
69.8397137883
 20
34.1876297889
 30
0.0
 11
69.8397137883
 21
46.1876298932
 31
0.0
  0
SPLINE
  5
97
330
1F
100
AcDbEntity
  8
0
  6
Continuous
 62
     7
370
    25
100
AcDbSpline
210
0.0
220
0.0
230
1.0
 70
    24
 71
     3
 72
    14
 73
    10
 74
     0
 42
0.000000001
 43
0.00000001
 40
0.0
 40
0.0
 40
0.0
 40
0.0
 40
0.25
 40
0.25
 40
0.5
 40
0.5
 40
0.75
 40
0.75
 40
1.0
 40
1.0
 40
1.0
 40
1.0
 10
62.2714014450867
 20
46.93762984104048
 30
0.0
 10
62.46993875967573
 20
46.93762984104048
 30
0.0
 10
62.66847749050908
 20
46.93762984104048
 30
0.0
 10
63.06464632678263
 20
46.93762984104048
 30
0.0
 10
63.26227927210392
 20
46.93762984104048
 30
0.0
 10
63.65564570099411
 20
46.93762984104048
 30
0.0
 10
63.8513820416504
 20
46.93762984104048
 30
0.0
 10
64.2397939545422
 20
46.93762984104048
 30
0.0
 10
64.43247239562103
 20
46.93762984104048
 30
0.0
 10
64.62291159815855
 20
46.93762984104048
 30
0.0
  0
SPLINE
  5
98
330
1F
100
AcDbEntity
  8
0
  6
Continuous
 62
     7
370
    25
100
AcDbSpline
210
0.0
220
0.0
230
1.0
 70
    24
 71
     3
 72
    14
 73
    10
 74
     0
 42
0.000000001
 43
0.00000001
 40
0.0
 40
0.0
 40
0.0
 40
0.0
 40
0.25
 40
0.25
 40
0.5
 40
0.5
 40
0.75
 40
0.75
 40
1.0
 40
1.0
 40
1.0
 40
1.0
 10
62.2714014450867
 20
46.93762984104048
 30
0.0
 10
62.07286413049768
 20
46.93762984104048
 30
0.0
 10
61.87432539966432
 20
46.93762984104048
 30
0.0
 10
61.47815656339078
 20
46.93762984104048
 30
0.0
 10
61.28052361806947
 20
46.93762984104048
 30
0.0
 10
60.88715718917929
 20
46.93762984104048
 30
0.0
 10
60.69142084852299
 20
46.93762984104048
 30
0.0
 10
60.30300893563119
 20
46.93762984104048
 30
0.0
 10
60.11033049455235
 20
46.93762984104048
 30
0.0
 10
59.91989129201485
 20
46.93762984104048
 30
0.0
  0
LINE
  5
99
330
1F
100
AcDbEntity
  8
0
  6
Continuous
 62
     7
370
    25
100
AcDbLine
 10
57.7114016476
 20
46.9376300161
 30
0.0
 11
59.9198913394
 21
46.9376300161
 31
0.0
  0
SPLINE
  5
9A
330
1F
100
AcDbEntity
  8
0
  6
Continuous
 62
     7
370
    25
100
AcDbSpline
210
0.0
220
0.0
230
1.0
 70
     8
 71
     3
 72
    14
 73
    10
 74
     0
 42
0.000000001
 43
0.00000001
 40
0.0
 40
0.0
 40
0.0
 40
0.0
 40
0.25
 40
0.25
 40
0.5
 40
0.5
 40
0.75
 40
0.75
 40
1.0
 40
1.0
 40
1.0
 40
1.0
 10
57.7114014450867
 20
46.93762984104048
 30
0.0
 10
57.65524820475587
 20
46.93762984104048
 30
0.0
 10
57.60149461243733
 20
46.92767653448796
 30
0.0
 10
57.49837120402784
 20
46.88930491867197
 30
0.0
 10
57.44919322802019
 20
46.86076598669879
 30
0.0
 10
57.36002871569443
 20
46.78357843941869
 30
0.0
 10
57.31878005142255
 20
46.73414975423076
 30
0.0
 10
57.25439269842055
 20
46.6066412670537
 30
0.0
 10
57.2314014450867
 20
46.52502505699956
 30
0.0
 10
57.2314014450867
 20
46.43762984104048
 30
0.0
  0
LINE
  5
9B
330
1F
100
AcDbEntity
  8
0
  6
Continuous
 62
     7
370
    25
100
AcDbLine
 10
57.2314012523
 20
37.187629815
 30
0.0
 11
57.2314012523
 21
46.4376299342
 31
0.0
  0
SPLINE
  5
9C
330
1F
100
AcDbEntity
  8
0
  6
Continuous
 62
     7
370
    25
100
AcDbSpline
210
0.0
220
0.0
230
1.0
 70
     8
 71
     3
 72
     8
 73
     4
 74
     0
 42
0.000000001
 43
0.00000001
 40
0.0
 40
0.0
 40
0.0
 40
0.0
 40
1.0
 40
1.0
 40
1.0
 40
1.0
 10
57.25667026264197
 20
36.84447571941066
 30
0.0
 10
57.2400222682169
 20
36.95685168335623
 30
0.0
 10
57.2314014450867
 20
37.07116325381828
 30
0.0
 10
57.2314014450867
 20
37.18762984104048
 30
0.0
  0
SPLINE
  5
9D
330
1F
100
AcDbEntity
  8
0
  6
Continuous
 62
     7
370
    25
100
AcDbSpline
210
0.0
220
0.0
230
1.0
 70
     8
 71
     3
 72
    12
 73
     8
 74
     0
 42
0.000000001
 43
0.00000001
 40
0.0
 40
0.0
 40
0.0
 40
0.0
 40
0.2499999999999999
 40
0.2499999999999999
 40
0.4999999999999998
 40
0.4999999999999998
 40
1.0
 40
1.0
 40
1.0
 40
1.0
 10
67.3114014450867
 20
46.18762984104048
 30
0.0
 10
67.3114014450867
 20
46.104810892826
 30
0.0
 10
67.32505105193114
 20
46.02437058400233
 30
0.0
 10
67.36957247719438
 20
45.8830830624372
 30
0.0
 10
67.39949960854712
 20
45.82292334271216
 30
0.0
 10
67.49766770881332
 20
45.66944998966018
 30
0.0
 10
67.57111101357596
 20
45.60441175845022
 30
0.0
 10
67.64113520794832
 20
45.55736360390181
 30
0.0
  0
LINE
  5
9E
330
1F
100
AcDbEntity
  8
0
  6
Continuous
 62
     7
370
    25
100
AcDbLine
 10
67.3114016379
 20
46.4376299342
 30
0.0
 11
67.3114016379
 21
46.1876298932
 31
0.0
  0
SPLINE
  5
9F
330
1F
100
AcDbEntity
  8
0
  6
Continuous
 62
     7
370
    25
100
AcDbSpline
210
0.0
220
0.0
230
1.0
 70
     8
 71
     3
 72
    14
 73
    10
 74
     0
 42
0.000000001
 43
0.00000001
 40
0.0
 40
0.0
 40
0.0
 40
0.0
 40
0.25
 40
0.25
 40
0.5
 40
0.5
 40
0.75
 40
0.75
 40
1.0
 40
1.0
 40
1.0
 40
1.0
 10
67.3114014450867
 20
46.43762984104048
 30
0.0
 10
67.3114014450867
 20
46.52494787004687
 30
0.0
 10
67.28844864630025
 20
46.60657597786846
 30
0.0
 10
67.22395304713858
 20
46.7342770960019
 30
0.0
 10
67.18272056033229
 20
46.78366788882747
 30
0.0
 10
67.09325872036321
 20
46.8610265563855
 30
0.0
 10
67.04378388300304
 20
46.88959536595738
 30
0.0
 10
66.94121162507086
 20
46.92766273492448
 30
0.0
 10
66.88760186378957
 20
46.93762984104048
 30
0.0
 10
66.8314014450867
 20
46.93762984104048
 30
0.0
  0
LINE
  5
A0
330
1F
100
AcDbEntity
  8
0
  6
Continuous
 62
     7
370
    25
100
AcDbLine
 10
64.6229115507
 20
46.9376300161
 30
0.0
 11
66.8314012426
 21
46.9376300161
 31
0.0
  0
LINE
  5
A1
330
1F
100
AcDbEntity
  8
0
  6
Continuous
 62
     7
370
    25
100
AcDbLine
 10
67.0214012923
 20
46.4376299342
 30
0.0
 11
64.7208911094
 21
46.4376299342
 31
0.0
  0
SPLINE
  5
A2
330
1F
100
AcDbEntity
  8
0
  6
Continuous
 62
     7
370
    25
100
AcDbSpline
210
0.0
220
0.0
230
1.0
 70
     8
 71
     3
 72
    10
 73
     6
 74
     0
 42
0.000000001
 43
0.00000001
 40
0.0
 40
0.0
 40
0.0
 40
0.0
 40
0.5
 40
0.5
 40
1.0
 40
1.0
 40
1.0
 40
1.0
 10
64.70663509805755
 20
46.61440653633633
 30
0.0
 10
64.71022599245764
 20
46.58597824547859
 30
0.0
 10
64.71379001491071
 20
46.55304431704178
 30
0.0
 10
64.71912261261684
 20
46.49013036020987
 30
0.0
 10
64.7208911878699
 20
46.46015033181477
 30
0.0
 10
64.7208911878699
 20
46.43762984104048
 30
0.0
  0
SPLINE
  5
A3
330
1F
100
AcDbEntity
  8
0
  6
Continuous
 62
     7
370
    25
100
AcDbSpline
210
0.0
220
0.0
230
1.0
 70
     8
 71
     3
 72
    12
 73
     8
 74
     0
 42
0.000000001
 43
0.00000001
 40
0.0
 40
0.0
 40
0.0
 40
0.0
 40
0.25
 40
0.25
 40
0.5
 40
0.5
 40
1.0
 40
1.0
 40
1.0
 40
1.0
 10
64.70663509805755
 20
46.61440653633633
 30
0.0
 10
64.7048396508575
 20
46.6286206817652
 30
0.0
 10
64.70281239105071
 20
46.64030421102364
 30
0.0
 10
64.69976076064043
 20
46.65936388519149
 30
0.0
 10
64.69873639003693
 20
46.6667400301009
 30
0.0
 10
64.6993673836565
 20
46.6835381602933
 30
0.0
 10
64.70472685330962
 20
46.68762984104048
 30
0.0
 10
64.72089118786988
 20
46.68762984104048
 30
0.0
  0
LINE
  5
A4
330
1F
100
AcDbEntity
  8
0
  6
Continuous
 62
     7
370
    25
100
AcDbLine
 10
64.7208911094
 20
46.6876299752
 30
0.0
 11
67.0214012923
 21
46.6876299752
 31
0.0
  0
LINE
  5
A5
330
1F
100
AcDbEntity
  8
0
  6
Continuous
 62
     7
370
    25
100
AcDbLine
 10
67.0214012923
 20
46.4376299342
 30
0.0
 11
67.0214012923
 21
46.6876299752
 31
0.0
  0
LINE
  5
A6
330
1F
100
AcDbEntity
  8
0
  6
Continuous
 62
     7
370
    25
100
AcDbLine
 10
57.5214015978
 20
46.6876299752
 30
0.0
 11
59.8219117808
 21
46.6876299752
 31
0.0
  0
SPLINE
  5
A7
330
1F
100
AcDbEntity
  8
0
  6
Continuous
 62
     7
370
    25
100
AcDbSpline
210
0.0
220
0.0
230
1.0
 70
     8
 71
     3
 72
    12
 73
     8
 74
     0
 42
0.000000001
 43
0.00000001
 40
0.0
 40
0.0
 40
0.0
 40
0.0
 40
0.25
 40
0.25
 40
0.5
 40
0.5
 40
1.0
 40
1.0
 40
1.0
 40
1.0
 10
59.83616779211585
 20
46.61440653633633
 30
0.0
 10
59.8379632393159
 20
46.6286206817652
 30
0.0
 10
59.83999049912268
 20
46.64030421102364
 30
0.0
 10
59.84304212953298
 20
46.65936388519149
 30
0.0
 10
59.84406650013648
 20
46.6667400301009
 30
0.0
 10
59.8434355065169
 20
46.6835381602933
 30
0.0
 10
59.83807603686378
 20
46.68762984104048
 30
0.0
 10
59.82191170230351
 20
46.68762984104048
 30
0.0
  0
SPLINE
  5
A8
330
1F
100
AcDbEntity
  8
0
  6
Continuous
 62
     7
370
    25
100
AcDbSpline
210
0.0
220
0.0
230
1.0
 70
     8
 71
     3
 72
    10
 73
     6
 74
     0
 42
0.000000001
 43
0.00000001
 40
0.0
 40
0.0
 40
0.0
 40
0.0
 40
0.5
 40
0.5
 40
1.0
 40
1.0
 40
1.0
 40
1.0
 10
59.83616779211585
 20
46.61440653633633
 30
0.0
 10
59.83257689771576
 20
46.58597824547859
 30
0.0
 10
59.82901287526268
 20
46.55304431704178
 30
0.0
 10
59.82368027755655
 20
46.49013036020987
 30
0.0
 10
59.82191170230352
 20
46.46015033181477
 30
0.0
 10
59.82191170230352
 20
46.43762984104048
 30
0.0
  0
LINE
  5
A9
330
1F
100
AcDbEntity
  8
0
  6
Continuous
 62
     7
370
    25
100
AcDbLine
 10
59.8219117808
 20
46.4376299342
 30
0.0
 11
57.5214015978
 21
46.4376299342
 31
0.0
  0
LINE
  5
AA
330
1F
100
AcDbEntity
  8
0
  6
Continuous
 62
     7
370
    25
100
AcDbLine
 10
57.5214015978
 20
46.4376299342
 30
0.0
 11
57.5214015978
 21
46.6876299752
 31
0.0
  0
LINE
  5
AB
330
1F
100
AcDbEntity
  8
0
  6
Continuous
 62
     7
370
    25
100
AcDbLine
 10
68.7714015792
 20
44.9376296883
 30
0.0
 11
68.7714015792
 21
42.6371195053
 31
0.0
  0
SPLINE
  5
AC
330
1F
100
AcDbEntity
  8
0
  6
Continuous
 62
     7
370
    25
100
AcDbSpline
210
0.0
220
0.0
230
1.0
 70
     8
 71
     3
 72
    12
 73
     8
 74
     0
 42
0.000000001
 43
0.00000001
 40
0.0
 40
0.0
 40
0.0
 40
0.0
 40
0.25
 40
0.25
 40
0.5
 40
0.5
 40
1.0
 40
1.0
 40
1.0
 40
1.0
 10
68.69817814038255
 20
42.62286349401132
 30
0.0
 10
68.71239228581142
 20
42.62106804681127
 30
0.0
 10
68.72407581506987
 20
42.61904078700449
 30
0.0
 10
68.74313548923772
 20
42.6159891565942
 30
0.0
 10
68.75051163414713
 20
42.61496478599071
 30
0.0
 10
68.76730976433953
 20
42.61559577961027
 30
0.0
 10
68.7714014450867
 20
42.6209552492634
 30
0.0
 10
68.7714014450867
 20
42.63711958382365
 30
0.0
  0
SPLINE
  5
AD
330
1F
100
AcDbEntity
  8
0
  6
Continuous
 62
     7
370
    25
100
AcDbSpline
210
0.0
220
0.0
230
1.0
 70
     8
 71
     3
 72
    10
 73
     6
 74
     0
 42
0.000000001
 43
0.00000001
 40
0.0
 40
0.0
 40
0.0
 40
0.0
 40
0.5
 40
0.5
 40
1.0
 40
1.0
 40
1.0
 40
1.0
 10
68.69817814038255
 20
42.62286349401132
 30
0.0
 10
68.66974984952482
 20
42.62645438841142
 30
0.0
 10
68.636815921088
 20
42.6300184108645
 30
0.0
 10
68.5739019642561
 20
42.63535100857062
 30
0.0
 10
68.54392193586101
 20
42.63711958382365
 30
0.0
 10
68.5214014450867
 20
42.63711958382365
 30
0.0
  0
LINE
  5
AE
330
1F
100
AcDbEntity
  8
0
  6
Continuous
 62
     7
370
    25
100
AcDbLine
 10
68.5214015382
 20
42.6371195053
 30
0.0
 11
68.5214015382
 21
44.9376296883
 31
0.0
  0
LINE
  5
AF
330
1F
100
AcDbEntity
  8
0
  6
Continuous
 62
     7
370
    25
100
AcDbLine
 10
68.7714015792
 20
44.9376296883
 30
0.0
 11
68.5214015382
 21
44.9376296883
 31
0.0
  0
SPLINE
  5
B0
330
1F
100
AcDbEntity
  8
0
  6
Continuous
 62
     7
370
    25
100
AcDbSpline
210
0.0
220
0.0
230
1.0
 70
     8
 71
     3
 72
    12
 73
     8
 74
     0
 42
0.000000001
 43
0.00000001
 40
0.0
 40
0.0
 40
0.0
 40
0.0
 40
0.25
 40
0.25
 40
0.5
 40
0.5
 40
1.0
 40
1.0
 40
1.0
 40
1.0
 10
68.69817814038255
 20
37.75239618806963
 30
0.0
 10
68.71239228581142
 20
37.75419163526968
 30
0.0
 10
68.72407581506987
 20
37.75621889507647
 30
0.0
 10
68.74313548923772
 20
37.75927052548675
 30
0.0
 10
68.75051163414713
 20
37.76029489609024
 30
0.0
 10
68.76730976433953
 20
37.75966390247068
 30
0.0
 10
68.7714014450867
 20
37.75430443281756
 30
0.0
 10
68.7714014450867
 20
37.7381400982573
 30
0.0
  0
LINE
  5
B1
330
1F
100
AcDbEntity
  8
0
  6
Continuous
 62
     7
370
    25
100
AcDbLine
 10
68.7714015792
 20
37.7381401768
 30
0.0
 11
68.7714015792
 21
35.4376299938
 31
0.0
  0
LINE
  5
B2
330
1F
100
AcDbEntity
  8
0
  6
Continuous
 62
     7
370
    25
100
AcDbLine
 10
68.7714015792
 20
35.4376299938
 30
0.0
 11
68.5214015382
 21
35.4376299938
 31
0.0
  0
LINE
  5
B3
330
1F
100
AcDbEntity
  8
0
  6
Continuous
 62
     7
370
    25
100
AcDbLine
 10
68.5214015382
 20
35.4376299938
 30
0.0
 11
68.5214015382
 21
37.7381401768
 31
0.0
  0
SPLINE
  5
B4
330
1F
100
AcDbEntity
  8
0
  6
Continuous
 62
     7
370
    25
100
AcDbSpline
210
0.0
220
0.0
230
1.0
 70
     8
 71
     3
 72
    10
 73
     6
 74
     0
 42
0.000000001
 43
0.00000001
 40
0.0
 40
0.0
 40
0.0
 40
0.0
 40
0.5
 40
0.5
 40
1.0
 40
1.0
 40
1.0
 40
1.0
 10
68.69817814038255
 20
37.75239618806963
 30
0.0
 10
68.66974984952482
 20
37.74880529366953
 30
0.0
 10
68.636815921088
 20
37.74524127121645
 30
0.0
 10
68.5739019642561
 20
37.73990867351034
 30
0.0
 10
68.54392193586101
 20
37.7381400982573
 30
0.0
 10
68.5214014450867
 20
37.7381400982573
 30
0.0
  0
LINE
  5
B5
330
1F
100
AcDbEntity
  8
0
  6
Continuous
 62
     7
370
    25
100
AcDbLine
 10
67.0214012923
 20
46.1876298932
 30
0.0
 11
67.0214012923
 21
46.4376299342
 31
0.0
  0
ARC
  5
B6
330
1F
100
AcDbEntity
  8
0
  6
Continuous
 62
     7
370
    25
100
AcDbCircle
 10
68.2714014451
 20
46.187629841
 30
0.0
 40
1.25
100
AcDbArc
 50
180.0
 51
270.0
  0
LINE
  5
B7
330
1F
100
AcDbEntity
  8
0
  6
Continuous
 62
     7
370
    25
100
AcDbLine
 10
68.5214015382
 20
44.9376296883
 30
0.0
 11
68.2714014972
 21
44.9376296883
 31
0.0
  0
LINE
  5
B8
330
1F
100
AcDbEntity
  8
0
  6
Continuous
 62
     7
370
    25
100
AcDbLine
 10
68.5214015382
 20
42.6371195053
 30
0.0
 11
68.5214015382
 21
40.187629841
 31
0.0
  0
LINE
  5
B9
330
1F
100
AcDbEntity
  8
0
  6
Continuous
 62
     7
370
    25
100
AcDbLine
 10
68.5214015382
 20
40.187629841
 30
0.0
 11
68.5214015382
 21
37.7381401768
 31
0.0
  0
LINE
  5
BA
330
1F
100
AcDbEntity
  8
0
  6
Continuous
 62
     7
370
    25
100
AcDbLine
 10
59.271401419
 20
35.4376299938
 30
0.0
 11
68.5214015382
 21
35.4376299938
 31
0.0
  0
ARC
  5
BB
330
1F
100
AcDbEntity
  8
0
  6
Continuous
 62
     7
370
    25
100
AcDbCircle
 10
59.2714014451
 20
37.187629841
 30
0.0
 40
1.750000000000007
100
AcDbArc
 50
180.0
 51
270.0
  0
LINE
  5
BC
330
1F
100
AcDbEntity
  8
0
  6
Continuous
 62
     7
370
    25
100
AcDbLine
 10
57.5214015978
 20
46.4376299342
 30
0.0
 11
57.5214015978
 21
37.187629815
 31
0.0
  0
LINE
  5
BD
330
1F
100
AcDbEntity
  8
0
  6
Continuous
 62
     7
370
    25
100
AcDbLine
 10
59.8219117808
 20
46.4376299342
 30
0.0
 11
62.2714014451
 21
46.4376299342
 31
0.0
  0
LINE
  5
BE
330
1F
100
AcDbEntity
  8
0
  6
Continuous
 62
     7
370
    25
100
AcDbLine
 10
62.2714014451
 20
46.4376299342
 30
0.0
 11
64.7208911094
 21
46.4376299342
 31
0.0
  0
SPLINE
  5
BF
330
1F
100
AcDbEntity
  8
0
  6
Continuous
 62
     7
370
    25
100
AcDbSpline
210
0.0
220
0.0
230
1.0
 70
     8
 71
     3
 72
    14
 73
    10
 74
     0
 42
0.000000001
 43
0.00000001
 40
0.0
 40
0.0
 40
0.0
 40
0.0
 40
0.25
 40
0.25
 40
0.5
 40
0.5
 40
0.75
 40
0.75
 40
1.0
 40
1.0
 40
1.0
 40
1.0
 10
64.97826444244902
 20
40.46827714498406
 30
0.0
 10
65.03509043195997
 20
40.59165402263135
 30
0.0
 10
65.12768954964274
 20
40.69494223877116
 30
0.0
 10
65.35746366464925
 20
40.8380420620372
 30
0.0
 10
65.4909884356083
 20
40.87572712457619
 30
0.0
 10
65.76244866514347
 20
40.87548799967594
 30
0.0
 10
65.89582330898192
 20
40.83732354113926
 30
0.0
 10
66.12325087589237
 20
40.69570267798459
 30
0.0
 10
66.21705218065712
 20
40.5916643202934
 30
0.0
 10
66.2738829131542
 20
40.46827714498459
 30
0.0
  0
LINE
  5
C0
330
1F
100
AcDbEntity
  8
0
  6
Continuous
 62
     7
370
    25
100
AcDbLine
 10
64.086470097
 20
37.974859325
 30
0.0
 11
64.9782644312
 21
40.4682771468
 31
0.0
  0
SPLINE
  5
C1
330
1F
100
AcDbEntity
  8
0
  6
Continuous
 62
     7
370
    25
100
AcDbSpline
210
0.0
220
0.0
230
1.0
 70
     8
 71
     3
 72
    10
 73
     6
 74
     0
 42
0.000000001
 43
0.00000001
 40
0.0
 40
0.0
 40
0.0
 40
0.0
 40
0.5
 40
0.5
 40
1.0
 40
1.0
 40
1.0
 40
1.0
 10
63.75071178561758
 20
37.86204281209415
 30
0.0
 10
63.80979566540337
 20
37.82952829679493
 30
0.0
 10
63.88100703524864
 20
37.82342343994901
 30
0.0
 10
64.00802769401058
 20
37.86362385097473
 30
0.0
 10
64.06371694155641
 20
37.91124262796166
 30
0.0
 10
64.08647006722946
 20
37.97485936482867
 30
0.0
  0
LINE
  5
C2
330
1F
100
AcDbEntity
  8
0
  6
Continuous
 62
     7
370
    25
100
AcDbLine
 10
62.9865106737
 20
38.282591121
 30
0.0
 11
63.7507117779
 21
37.8620428664
 31
0.0
  0
LINE
  5
C3
330
1F
100
AcDbEntity
  8
0
  6
Continuous
 62
     7
370
    25
100
AcDbLine
 10
63.9336811571
 20
36.4769682919
 30
0.0
 11
62.9865106737
 21
38.282591121
 31
0.0
  0
SPLINE
  5
C4
330
1F
100
AcDbEntity
  8
0
  6
Continuous
 62
     7
370
    25
100
AcDbSpline
210
0.0
220
0.0
230
1.0
 70
     8
 71
     3
 72
    10
 73
     6
 74
     0
 42
0.000000001
 43
0.00000001
 40
0.0
 40
0.0
 40
0.0
 40
0.0
 40
0.5000000000000006
 40
0.5000000000000006
 40
1.0
 40
1.0
 40
1.0
 40
1.0
 10
64.41522216284034
 20
36.38991440524241
 30
0.0
 10
64.34439591551349
 20
36.32704897778422
 30
0.0
 10
64.24552196815857
 20
36.30002064445693
 30
0.0
 10
64.06140054544696
 20
36.33297137275495
 30
0.0
 10
63.97767623142078
 20
36.39309899275765
 30
0.0
 10
63.93368116821181
 20
36.47696825977039
 30
0.0
  0
SPLINE
  5
C5
330
1F
100
AcDbEntity
  8
0
  6
Continuous
 62
     7
370
    25
100
AcDbSpline
210
0.0
220
0.0
230
1.0
 70
     8
 71
     3
 72
    14
 73
    10
 74
     0
 42
0.000000001
 43
0.00000001
 40
0.0
 40
0.0
 40
0.0
 40
0.0
 40
0.2500000000000001
 40
0.2500000000000001
 40
0.3750000000000003
 40
0.3750000000000003
 40
0.5000000000000004
 40
0.5000000000000004
 40
1.0
 40
1.0
 40
1.0
 40
1.0
 10
66.83692519276356
 20
36.38991440524207
 30
0.0
 10
66.67062497105755
 20
36.53752260020489
 30
0.0
 10
66.48045423626766
 20
36.65024029895866
 30
0.0
 10
66.16937737448025
 20
36.76588688352209
 30
0.0
 10
66.0634788749539
 20
36.79465684473139
 30
0.0
 10
65.84744003761763
 20
36.83339507957313
 30
0.0
 10
65.73619270098273
 20
36.84330185321596
 30
0.0
 10
65.1852223123507
 20
36.84327973421751
 30
0.0
 10
64.74778528385568
 20
36.68509766778208
 30
0.0
 10
64.41522216284034
 20
36.38991440524241
 30
0.0
  0
SPLINE
  5
C6
330
1F
100
AcDbEntity
  8
0
  6
Continuous
 62
     7
370
    25
100
AcDbSpline
210
0.0
220
0.0
230
1.0
 70
     8
 71
     3
 72
    10
 73
     6
 74
     0
 42
0.000000001
 43
0.00000001
 40
0.0
 40
0.0
 40
0.0
 40
0.0
 40
0.5
 40
0.5
 40
1.0
 40
1.0
 40
1.0
 40
1.0
 10
67.31846618739185
 20
36.4769682597704
 30
0.0
 10
67.27447417734116
 20
36.39310481309585
 30
0.0
 10
67.19122015883727
 20
36.33319372027665
 30
0.0
 10
67.00704027589362
 20
36.29995791966947
 30
0.0
 10
66.90774312392217
 20
36.32705635922097
 30
0.0
 10
66.8369251927636
 20
36.38991440524212
 30
0.0
  0
LINE
  5
C7
330
1F
100
AcDbEntity
  8
0
  6
Continuous
 62
     7
370
    25
100
AcDbLine
 10
68.2771961863
 20
38.3046276101
 30
0.0
 11
67.3184661853
 21
36.4769682919
 31
0.0
  0
LINE
  5
C8
330
1F
100
AcDbEntity
  8
0
  6
Continuous
 62
     7
370
    25
100
AcDbLine
 10
67.5049267436
 20
37.8633064383
 30
0.0
 11
68.2771961863
 21
38.3046276101
 31
0.0
  0
SPLINE
  5
C9
330
1F
100
AcDbEntity
  8
0
  6
Continuous
 62
     7
370
    25
100
AcDbSpline
210
0.0
220
0.0
230
1.0
 70
     8
 71
     3
 72
    10
 73
     6
 74
     0
 42
0.000000001
 43
0.00000001
 40
0.0
 40
0.0
 40
0.0
 40
0.0
 40
0.5
 40
0.5
 40
1.0
 40
1.0
 40
1.0
 40
1.0
 10
67.1658841928153
 20
37.97428086912502
 30
0.0
 10
67.18880031422916
 20
37.91020840334892
 30
0.0
 10
67.24492796504313
 20
37.86236683212947
 30
0.0
 10
67.37400960781179
 20
37.82250304025224
 30
0.0
 10
67.44596077251612
 20
37.82960951977955
 30
0.0
 10
67.50492693372645
 20
37.86330634178049
 30
0.0
  0
LINE
  5
CA
330
1F
100
AcDbEntity
  8
0
  6
Continuous
 62
     7
370
    25
100
AcDbLine
 10
66.2738831441
 20
40.4682771468
 30
0.0
 11
67.1658843483
 21
37.9742809737
 31
0.0
  0
SPLINE
  5
CB
330
1F
100
AcDbEntity
  8
0
  6
Continuous
 62
     7
370
    25
100
AcDbSpline
210
0.0
220
0.0
230
1.0
 70
     8
 71
     3
 72
    12
 73
     8
 74
     0
 42
0.000000001
 43
0.00000001
 40
0.0
 40
0.0
 40
0.0
 40
0.0
 40
0.25
 40
0.25
 40
0.5
 40
0.5
 40
1.0
 40
1.0
 40
1.0
 40
1.0
 10
62.2714014450867
 20
46.68963744133016
 30
0.0
 10
62.473608867507
 20
46.67937398204103
 30
0.0
 10
62.67549569161143
 20
46.67179520224425
 30
0.0
 10
63.08087287875966
 20
46.65738174679518
 30
0.0
 10
63.28436324180343
 20
46.65054707114289
 30
0.0
 10
63.90060674270029
 20
46.62422131814245
 30
0.0
 10
64.30059826856404
 20
46.61455436678147
 30
0.0
 10
64.70663509805755
 20
46.61440653633633
 30
0.0
  0
SPLINE
  5
CC
330
1F
100
AcDbEntity
  8
0
  6
Continuous
 62
     7
370
    25
100
AcDbSpline
210
0.0
220
0.0
230
1.0
 70
    24
 71
     3
 72
    10
 73
     6
 74
     0
 42
0.000000001
 43
0.00000001
 40
0.0
 40
0.0
 40
0.0
 40
0.0
 40
0.5
 40
0.5
 40
1.0
 40
1.0
 40
1.0
 40
1.0
 10
62.2714014450867
 20
46.68963744133016
 30
0.0
 10
62.2714014450867
 20
46.64858360417363
 30
0.0
 10
62.2714014450867
 20
46.60450925186059
 30
0.0
 10
62.2714014450867
 20
46.51315798234866
 30
0.0
 10
62.2714014450867
 20
46.48040820085164
 30
0.0
 10
62.2714014450867
 20
46.43762984104048
 30
0.0
  0
SPLINE
  5
CD
330
1F
100
AcDbEntity
  8
0
  6
Continuous
 62
     7
370
    25
100
AcDbSpline
210
0.0
220
0.0
230
1.0
 70
     8
 71
     3
 72
    12
 73
     8
 74
     0
 42
0.000000001
 43
0.00000001
 40
0.0
 40
0.0
 40
0.0
 40
0.0
 40
0.25
 40
0.25
 40
0.5
 40
0.5
 40
1.0
 40
1.0
 40
1.0
 40
1.0
 10
68.7734090453764
 20
40.18762984104048
 30
0.0
 10
68.76314558608726
 20
39.98542241862019
 30
0.0
 10
68.75556680629047
 20
39.78353559451574
 30
0.0
 10
68.7411533508414
 20
39.37815840736751
 30
0.0
 10
68.73431867518912
 20
39.17466804432375
 30
0.0
 10
68.70799292218868
 20
38.55842454342689
 30
0.0
 10
68.6983259708277
 20
38.15843301756313
 30
0.0
 10
68.69817814038255
 20
37.75239618806963
 30
0.0
  0
SPLINE
  5
CE
330
1F
100
AcDbEntity
  8
0
  6
Continuous
 62
     7
370
    25
100
AcDbSpline
210
0.0
220
0.0
230
1.0
 70
    24
 71
     3
 72
    10
 73
     6
 74
     0
 42
0.000000001
 43
0.00000001
 40
0.0
 40
0.0
 40
0.0
 40
0.0
 40
0.5
 40
0.5
 40
1.0
 40
1.0
 40
1.0
 40
1.0
 10
68.7734090453764
 20
40.18762984104048
 30
0.0
 10
68.73235520821986
 20
40.18762984104048
 30
0.0
 10
68.68828085590683
 20
40.18762984104048
 30
0.0
 10
68.5969295863949
 20
40.18762984104048
 30
0.0
 10
68.56417980489788
 20
40.18762984104048
 30
0.0
 10
68.5214014450867
 20
40.18762984104048
 30
0.0
  0
SPLINE
  5
CF
330
1F
100
AcDbEntity
  8
0
  6
Continuous
 62
     7
370
    25
100
AcDbSpline
210
0.0
220
0.0
230
1.0
 70
     8
 71
     3
 72
    12
 73
     8
 74
     0
 42
0.000000001
 43
0.00000001
 40
0.0
 40
0.0
 40
0.0
 40
0.0
 40
0.25
 40
0.25
 40
0.5
 40
0.5
 40
1.0
 40
1.0
 40
1.0
 40
1.0
 10
62.2714014450867
 20
46.68963744133016
 30
0.0
 10
62.0691940226664
 20
46.67937398204103
 30
0.0
 10
61.86730719856196
 20
46.67179520224425
 30
0.0
 10
61.46193001141374
 20
46.65738174679518
 30
0.0
 10
61.25843964836996
 20
46.65054707114289
 30
0.0
 10
60.64219614747311
 20
46.62422131814245
 30
0.0
 10
60.24220462160935
 20
46.61455436678147
 30
0.0
 10
59.83616779211585
 20
46.61440653633633
 30
0.0
  0
SPLINE
  5
D0
330
1F
100
AcDbEntity
  8
0
  6
Continuous
 62
     7
370
    25
100
AcDbSpline
210
0.0
220
0.0
230
1.0
 70
     8
 71
     3
 72
    12
 73
     8
 74
     0
 42
0.000000001
 43
0.00000001
 40
0.0
 40
0.0
 40
0.0
 40
0.0
 40
0.25
 40
0.25
 40
0.5
 40
0.5
 40
1.0
 40
1.0
 40
1.0
 40
1.0
 10
68.7734090453764
 20
40.18762984104048
 30
0.0
 10
68.76314558608726
 20
40.38983726346077
 30
0.0
 10
68.75556680629049
 20
40.59172408756521
 30
0.0
 10
68.74115335084142
 20
40.99710127471344
 30
0.0
 10
68.73431867518912
 20
41.20059163775721
 30
0.0
 10
68.70799292218868
 20
41.81683513865406
 30
0.0
 10
68.6983259708277
 20
42.21682666451783
 30
0.0
 10
68.69817814038255
 20
42.62286349401132
 30
0.0
  0
LWPOLYLINE
  5
D1
330
1F
100
AcDbEntity
  8
0
  6
Continuous
 62
     7
370
    25
100
AcDbPolyline
 90
        9
 70
   128
 43
0.0
 10
67.1658843483
 20
37.9742809737
 10
67.1199603665
 20
37.9578559359
 10
67.0758017066
 20
37.942062102
 10
67.0351047727
 20
37.9275062287
 10
66.9994332555
 20
37.9147482736
 10
66.970158993
 20
37.9042778795
 10
66.9484056259
 20
37.8964976107
 10
66.9350104133
 20
37.8917066546
 10
66.9304874453
 20
37.8900889473
  0
LINE
  5
D2
330
1F
100
AcDbEntity
  8
0
  6
Continuous
 62
     7
370
    25
100
AcDbLine
 10
66.9304874453
 20
37.8900889473
 30
0.0
 11
66.0426250386
 21
40.3725127971
 31
0.0
  0
SPLINE
  5
D3
330
1F
100
AcDbEntity
  8
0
  6
Continuous
 62
     7
370
    25
100
AcDbSpline
210
0.0
220
0.0
230
1.0
 70
     8
 71
     3
 72
    10
 73
     6
 74
     0
 42
0.000000001
 43
0.00000001
 40
0.0
 40
0.0
 40
0.0
 40
0.0
 40
0.5
 40
0.5
 40
1.0
 40
1.0
 40
1.0
 40
1.0
 10
66.04262495609926
 20
40.37251280364023
 30
0.0
 10
66.04262495609926
 20
40.37251280364023
 30
0.0
 10
66.06764100344994
 20
40.38309546740117
 30
0.0
 10
66.15286727074911
 20
40.41860176662286
 30
0.0
 10
66.21356909055272
 20
40.44364490115378
 30
0.0
 10
66.27388291315425
 20
40.4682771449846
 30
0.0
  0
SPLINE
  5
D4
330
1F
100
AcDbEntity
  8
0
  6
Continuous
 62
     7
370
    25
100
AcDbSpline
210
0.0
220
0.0
230
1.0
 70
     8
 71
     3
 72
    14
 73
    10
 74
     0
 42
0.000000001
 43
0.00000001
 40
0.0
 40
0.0
 40
0.0
 40
0.0
 40
0.25
 40
0.25
 40
0.5
 40
0.5
 40
0.75
 40
0.75
 40
1.0
 40
1.0
 40
1.0
 40
1.0
 10
66.04262495609929
 20
40.37251280364024
 30
0.0
 10
66.0047232743506
 20
40.45009603641392
 30
0.0
 10
65.94361416235873
 20
40.5146855017268
 30
0.0
 10
65.797680479806
 20
40.60214020633061
 30
0.0
 10
65.71280185965338
 20
40.62551992369195
 30
0.0
 10
65.54032569137169
 20
40.62569527036361
 30
0.0
 10
65.45566833696537
 20
40.60281501784158
 30
0.0
 10
65.30768879526373
 20
40.51422456104362
 30
0.0
 10
65.24741761689134
 20
40.45008280412321
 30
0.0
 10
65.2095223995043
 20
40.37251280364049
 30
0.0
  0
SPLINE
  5
D5
330
1F
100
AcDbEntity
  8
0
  6
Continuous
 62
     7
370
    25
100
AcDbSpline
210
0.0
220
0.0
230
1.0
 70
     8
 71
     3
 72
    10
 73
     6
 74
     0
 42
0.000000001
 43
0.00000001
 40
0.0
 40
0.0
 40
0.0
 40
0.0
 40
0.5
 40
0.5
 40
1.0
 40
1.0
 40
1.0
 40
1.0
 10
65.20952239950412
 20
40.37251280364015
 30
0.0
 10
65.20952239950412
 20
40.37251280364015
 30
0.0
 10
65.1845063521533
 20
40.38309546740068
 30
0.0
 10
65.09928008485414
 20
40.41860176662234
 30
0.0
 10
65.0385782650505
 20
40.44364490115316
 30
0.0
 10
64.97826444244903
 20
40.46827714498405
 30
0.0
  0
LINE
  5
D6
330
1F
100
AcDbEntity
  8
0
  6
Continuous
 62
     7
370
    25
100
AcDbLine
 10
65.2095223038
 20
40.3725127971
 30
0.0
 11
64.3218671164
 21
37.8906675314
 31
0.0
  0
LWPOLYLINE
  5
D7
330
1F
100
AcDbEntity
  8
0
  6
Continuous
 62
     7
370
    25
100
AcDbPolyline
 90
        9
 70
   128
 43
0.0
 10
64.086470097
 20
37.974859325
 10
64.1323937296
 20
37.9584342872
 10
64.1765526223
 20
37.9426404533
 10
64.2172495561
 20
37.9280848128
 10
64.2529208406
 20
37.9153266249
 10
64.2821955687
 20
37.9048562308
 10
64.3039484701
 20
37.8970761949
 10
64.3173439155
 20
37.8922852387
 10
64.3218671164
 20
37.8906675314
  0
SPLINE
  5
D8
330
1F
100
AcDbEntity
  8
0
  6
Continuous
 62
     7
370
    25
100
AcDbSpline
210
0.0
220
0.0
230
1.0
 70
     8
 71
     3
 72
     8
 73
     4
 74
     0
 42
0.000000001
 43
0.00000001
 40
0.0
 40
0.0
 40
0.0
 40
0.0
 40
1.0
 40
1.0
 40
1.0
 40
1.0
 10
69.0214014450867
 20
37.83611968796862
 30
0.0
 10
68.9559478737487
 20
37.84031697460473
 30
0.0
 10
68.89089744495058
 20
37.83396078326747
 30
0.0
 10
68.84461684934614
 20
37.8201707619244
 30
0.0
  0
SPLINE
  5
D9
330
1F
100
AcDbEntity
  8
0
  6
Continuous
 62
     7
370
    25
100
AcDbSpline
210
0.0
220
0.0
230
1.0
 70
     8
 71
     3
 72
    12
 73
     8
 74
     0
 42
0.000000001
 43
0.00000001
 40
0.0
 40
0.0
 40
0.0
 40
0.0
 40
0.25
 40
0.25
 40
0.5
 40
0.5
 40
1.0
 40
1.0
 40
1.0
 40
1.0
 10
68.7734090453764
 20
40.18762984104048
 30
0.0
 10
68.78367250466552
 20
39.98542241862019
 30
0.0
 10
68.79833739509628
 20
39.7848325860899
 30
0.0
 10
68.83007277327978
 20
39.38685860613598
 30
0.0
 10
68.84714326103254
 20
39.18947445871234
 30
0.0
 10
68.89236722283196
 20
38.60208630209132
 30
0.0
 10
68.88554379556525
 20
38.20616570491011
 30
0.0
 10
68.84461684934614
 20
37.8201707619244
 30
0.0
  0
SPLINE
  5
DA
330
1F
100
AcDbEntity
  8
0
  6
Continuous
 62
     7
370
    25
100
AcDbSpline
210
0.0
220
0.0
230
1.0
 70
    24
 71
     3
 72
    10
 73
     6
 74
     0
 42
0.000000001
 43
0.00000001
 40
0.0
 40
0.0
 40
0.0
 40
0.0
 40
0.5
 40
0.5
 40
1.0
 40
1.0
 40
1.0
 40
1.0
 10
68.7734090453764
 20
40.18762984104048
 30
0.0
 10
68.81446288253292
 20
40.18762984104048
 30
0.0
 10
68.85793971291393
 20
40.18762984104048
 30
0.0
 10
68.94699841263828
 20
40.18762984104048
 30
0.0
 10
68.97910178216193
 20
40.18762984104048
 30
0.0
 10
69.0214014450867
 20
40.18762984104048
 30
0.0
  0
SPLINE
  5
DB
330
1F
100
AcDbEntity
  8
0
  6
Continuous
 62
     7
370
    25
100
AcDbSpline
210
0.0
220
0.0
230
1.0
 70
    24
 71
     3
 72
    10
 73
     6
 74
     0
 42
0.000000001
 43
0.00000001
 40
0.0
 40
0.0
 40
0.0
 40
0.0
 40
0.5
 40
0.5
 40
1.0
 40
1.0
 40
1.0
 40
1.0
 10
62.2714014450867
 20
46.68963744133016
 30
0.0
 10
62.2714014450867
 20
46.7306912784867
 30
0.0
 10
62.2714014450867
 20
46.7741681088677
 30
0.0
 10
62.2714014450867
 20
46.86322680859205
 30
0.0
 10
62.2714014450867
 20
46.89533017811571
 30
0.0
 10
62.2714014450867
 20
46.93762984104048
 30
0.0
  0
SPLINE
  5
DC
330
1F
100
AcDbEntity
  8
0
  6
Continuous
 62
     7
370
    25
100
AcDbSpline
210
0.0
220
0.0
230
1.0
 70
     8
 71
     3
 72
    10
 73
     6
 74
     0
 42
0.000000001
 43
0.00000001
 40
0.0
 40
0.0
 40
0.0
 40
0.0
 40
0.5
 40
0.5
 40
1.0
 40
1.0
 40
1.0
 40
1.0
 10
64.63886052420277
 20
46.7608452452999
 30
0.0
 10
64.63099129182254
 20
46.78927250536718
 30
0.0
 10
64.62672444443761
 20
46.82349914353404
 30
0.0
 10
64.62279560812364
 20
46.88652118907159
 30
0.0
 10
64.62291159815855
 20
46.91510690836358
 30
0.0
 10
64.62291159815855
 20
46.93762984104048
 30
0.0
  0
SPLINE
  5
DD
330
1F
100
AcDbEntity
  8
0
  6
Continuous
 62
     7
370
    25
100
AcDbSpline
210
0.0
220
0.0
230
1.0
 70
     8
 71
     3
 72
    14
 73
    10
 74
     0
 42
0.000000001
 43
0.00000001
 40
0.0
 40
0.0
 40
0.0
 40
0.0
 40
0.25
 40
0.25
 40
0.5
 40
0.5
 40
0.75
 40
0.75
 40
1.0
 40
1.0
 40
1.0
 40
1.0
 10
62.2714014450867
 20
46.68963744133016
 30
0.0
 10
62.473608867507
 20
46.6999009006193
 30
0.0
 10
62.67419870003728
 20
46.71456579105005
 30
0.0
 10
63.0721726799912
 20
46.74630116923355
 30
0.0
 10
63.26955682741484
 20
46.76337165698631
 30
0.0
 10
63.66114893182883
 20
46.7935209648526
 30
0.0
 10
63.85802710722766
 20
46.7993524350025
 30
0.0
 10
64.25038416766819
 20
46.79324631178093
 30
0.0
 10
64.44586305270992
 20
46.78130871840947
 30
0.0
 10
64.63886052420277
 20
46.7608452452999
 30
0.0
  0
SPLINE
  5
DE
330
1F
100
AcDbEntity
  8
0
  6
Continuous
 62
     7
370
    25
100
AcDbSpline
210
0.0
220
0.0
230
1.0
 70
     8
 71
     3
 72
    12
 73
     8
 74
     0
 42
0.000000001
 43
0.00000001
 40
0.0
 40
0.0
 40
0.0
 40
0.0
 40
0.25
 40
0.25
 40
0.5
 40
0.5
 40
1.0
 40
1.0
 40
1.0
 40
1.0
 10
68.7734090453764
 20
40.18762984104048
 30
0.0
 10
68.78367250466552
 20
40.38983726346077
 30
0.0
 10
68.79833739509628
 20
40.59042709599105
 30
0.0
 10
68.8300727732798
 20
40.98840107594497
 30
0.0
 10
68.84714326103254
 20
41.18578522336861
 30
0.0
 10
68.89236722283195
 20
41.77317337998963
 30
0.0
 10
68.88554379556525
 20
42.16909397717085
 30
0.0
 10
68.84461684934614
 20
42.55508892015656
 30
0.0
  0
SPLINE
  5
DF
330
1F
100
AcDbEntity
  8
0
  6
Continuous
 62
     7
370
    25
100
AcDbSpline
210
0.0
220
0.0
230
1.0
 70
     8
 71
     3
 72
    10
 73
     6
 74
     0
 42
0.000000001
 43
0.00000001
 40
0.0
 40
0.0
 40
0.0
 40
0.0
 40
0.5
 40
0.5
 40
1.0
 40
1.0
 40
1.0
 40
1.0
 10
68.84461684934614
 20
42.55508892015656
 30
0.0
 10
68.8730441094134
 20
42.54721968777631
 30
0.0
 10
68.90727074758027
 20
42.54295284039139
 30
0.0
 10
68.97029279311782
 20
42.53902400407741
 30
0.0
 10
68.9988785124098
 20
42.53913999411233
 30
0.0
 10
69.0214014450867
 20
42.53913999411233
 30
0.0
  0
SPLINE
  5
E0
330
1F
100
AcDbEntity
  8
0
  6
Continuous
 62
     7
370
    25
100
AcDbSpline
210
0.0
220
0.0
230
1.0
 70
     8
 71
     3
 72
    14
 73
    10
 74
     0
 42
0.000000001
 43
0.00000001
 40
0.0
 40
0.0
 40
0.0
 40
0.0
 40
0.25
 40
0.25
 40
0.5
 40
0.5
 40
0.75
 40
0.75
 40
1.0
 40
1.0
 40
1.0
 40
1.0
 10
62.2714014450867
 20
46.68963744133016
 30
0.0
 10
62.0691940226664
 20
46.6999009006193
 30
0.0
 10
61.86860419013612
 20
46.71456579105005
 30
0.0
 10
61.4706302101822
 20
46.74630116923356
 30
0.0
 10
61.27324606275857
 20
46.76337165698632
 30
0.0
 10
60.88165395834456
 20
46.7935209648526
 30
0.0
 10
60.68477578294575
 20
46.7993524350025
 30
0.0
 10
60.29241872250521
 20
46.79324631178093
 30
0.0
 10
60.09693983746347
 20
46.78130871840947
 30
0.0
 10
59.90394236597061
 20
46.7608452452999
 30
0.0
  0
SPLINE
  5
E1
330
1F
100
AcDbEntity
  8
0
  6
Continuous
 62
     7
370
    25
100
AcDbSpline
210
0.0
220
0.0
230
1.0
 70
     8
 71
     3
 72
     8
 73
     4
 74
     0
 42
0.000000001
 43
0.00000001
 40
0.0
 40
0.0
 40
0.0
 40
0.0
 40
1.0
 40
1.0
 40
1.0
 40
1.0
 10
59.90394236597061
 20
46.7608452452999
 30
0.0
 10
59.91773238731369
 20
46.80712584090436
 30
0.0
 10
59.92408857865095
 20
46.87217626970248
 30
0.0
 10
59.91989129201485
 20
46.93762984104048
 30
0.0
  0
SPLINE
  5
E2
330
1F
100
AcDbEntity
  8
0
  6
Continuous
 62
     7
370
    25
100
AcDbSpline
210
0.0
220
0.0
230
1.0
 70
     8
 71
     3
 72
    14
 73
    10
 74
     0
 42
0.000000001
 43
0.00000001
 40
0.0
 40
0.0
 40
0.0
 40
0.0
 40
0.0526822267945598
 40
0.1287456339724992
 40
0.2353187193853958
 40
0.3749156516620482
 40
0.5485969096886099
 40
0.7568720674016369
 40
0.9999999999999999
 40
0.9999999999999999
 40
0.9999999999999999
 40
0.9999999999999999
 10
59.82191170230351
 20
46.68762984104048
 30
0.0
 10
59.82539238694716
 20
46.68764064204827
 30
0.0
 10
59.83389853747211
 20
46.68766703771679
 30
0.0
 10
59.84444819638118
 20
46.68849394418316
 30
0.0
 10
59.85609175363479
 20
46.69119744457723
 30
0.0
 10
59.86836734745812
 20
46.6974978853342
 30
0.0
 10
59.88111471243326
 20
46.70967206430937
 30
0.0
 10
59.89385950642896
 20
46.72977635358942
 30
0.0
 10
59.900412754313
 20
46.74996925105268
 30
0.0
 10
59.90394236597061
 20
46.7608452452999
 30
0.0
  0
SPLINE
  5
E3
330
1F
100
AcDbEntity
  8
0
  6
Continuous
 62
     7
370
    25
100
AcDbSpline
210
0.0
220
0.0
230
1.0
 70
     8
 71
     3
 72
    12
 73
     8
 74
     0
 42
0.000000001
 43
0.00000001
 40
0.0
 40
0.0
 40
0.0
 40
0.0
 40
0.25
 40
0.25
 40
0.5
 40
0.5
 40
1.0
 40
1.0
 40
1.0
 40
1.0
 10
68.84461684934614
 20
42.55508892015656
 30
0.0
 10
68.8304032193125
 20
42.55902353634668
 30
0.0
 10
68.81770169555992
 20
42.56392107016823
 30
0.0
 10
68.79663426621748
 20
42.57530770393313
 30
0.0
 10
68.78826836062763
 20
42.58179680387646
 30
0.0
 10
68.77164117950296
 20
42.60315004917751
 30
0.0
 10
68.7714014450867
 20
42.61955100516624
 30
0.0
 10
68.7714014450867
 20
42.63711958382365
 30
0.0
  0
SPLINE
  5
E4
330
1F
100
AcDbEntity
  8
0
  6
Continuous
 62
     7
370
    25
100
AcDbSpline
210
0.0
220
0.0
230
1.0
 70
     8
 71
     3
 72
    14
 73
    10
 74
     0
 42
0.000000001
 43
0.00000001
 40
0.0
 40
0.0
 40
0.0
 40
0.0
 40
0.243127932598341
 40
0.4514030903113563
 40
0.6250843483379128
 40
0.7646812806145595
 40
0.8712543660274661
 40
0.9473177732054238
 40
1.0
 40
1.0
 40
1.0
 40
1.0
 10
68.84461684934614
 20
37.8201707619244
 30
0.0
 10
68.8337408550989
 20
37.81664115026678
 30
0.0
 10
68.81354795763565
 20
37.81008790238275
 30
0.0
 10
68.79344366835561
 20
37.79734310838704
 30
0.0
 10
68.78126948938043
 20
37.78459574341192
 30
0.0
 10
68.77496904862346
 20
37.77232014958859
 30
0.0
 10
68.77226554822938
 20
37.76067659233497
 30
0.0
 10
68.77143864176303
 20
37.7501269334259
 30
0.0
 10
68.7714122460945
 20
37.74162078290095
 30
0.0
 10
68.7714014450867
 20
37.7381400982573
 30
0.0
  0
SPLINE
  5
E5
330
1F
100
AcDbEntity
  8
0
  6
Continuous
 62
     7
370
    25
100
AcDbSpline
210
0.0
220
0.0
230
1.0
 70
     8
 71
     3
 72
    12
 73
     8
 74
     0
 42
0.000000001
 43
0.00000001
 40
0.0
 40
0.0
 40
0.0
 40
0.0
 40
0.25
 40
0.25
 40
0.5
 40
0.5
 40
1.0
 40
1.0
 40
1.0
 40
1.0
 10
64.63886052420277
 20
46.7608452452999
 30
0.0
 10
64.64279514039289
 20
46.74663161526627
 30
0.0
 10
64.64769267421445
 20
46.7339300915137
 30
0.0
 10
64.65907930797934
 20
46.71286266217127
 30
0.0
 10
64.66556840792269
 20
46.70449675658141
 30
0.0
 10
64.68692165322375
 20
46.68786957545674
 30
0.0
 10
64.70332260921246
 20
46.68762984104048
 30
0.0
 10
64.72089118786988
 20
46.68762984104048
 30
0.0
  0
LINE
  5
E6
330
1F
100
AcDbEntity
  8
0
  6
Continuous
 62
     7
370
    25
100
AcDbLine
 10
70.771401907
 20
40.187629841
 30
0.0
 11
70.771401907
 21
45.2559422401
 31
0.0
  0
LINE
  5
E7
330
1F
100
AcDbEntity
  8
0
  6
Continuous
 62
     7
370
    25
100
AcDbLine
 10
70.771401907
 20
35.119317442
 30
0.0
 11
70.771401907
 21
40.187629841
 31
0.0
  0
LWPOLYLINE
  5
E8
330
1F
100
AcDbEntity
  8
0
  6
Continuous
 62
     7
370
    25
100
AcDbPolyline
 90
        9
 70
   128
 43
0.0
 10
62.9865106737
 20
38.282591121
 10
63.1049915526
 20
38.1617198864
 10
63.2189191954
 20
38.0454933902
 10
63.3239156294
 20
37.9383784884
 10
63.4159456665
 20
37.8444916268
 10
63.4914727841
 20
37.7674407491
 10
63.5475945153
 20
37.7101865297
 10
63.5821541498
 20
37.6749296838
 10
63.5938233889
 20
37.6630248202
  0
LINE
  5
E9
330
1F
100
AcDbEntity
  8
0
  6
Continuous
 62
     7
370
    25
100
AcDbLine
 10
63.5938233889
 20
37.6630248202
 30
0.0
 11
64.1550700373
 21
36.5931016558
 31
0.0
  0
LWPOLYLINE
  5
EA
330
1F
100
AcDbEntity
  8
0
  6
Continuous
 62
     7
370
    25
100
AcDbPolyline
 90
        9
 70
   128
 43
0.0
 10
64.1550700373
 20
36.5931016558
 10
64.150816105
 20
36.5908702069
 10
64.1382178717
 20
36.584261542
 10
64.1177592759
 20
36.5735296791
 10
64.0902268194
 20
36.5590869614
 10
64.056678252
 20
36.5414884572
 10
64.0184029897
 20
36.5214105395
 10
63.9768720564
 20
36.499624809
 10
63.9336811571
 20
36.4769682919
  0
SPLINE
  5
EB
330
1F
100
AcDbEntity
  8
0
  6
Continuous
 62
     7
370
    25
100
AcDbSpline
210
0.0
220
0.0
230
1.0
 70
     8
 71
     3
 72
    10
 73
     6
 74
     0
 42
0.000000001
 43
0.00000001
 40
0.0
 40
0.0
 40
0.0
 40
0.0
 40
0.5
 40
0.5
 40
1.0
 40
1.0
 40
1.0
 40
1.0
 10
64.32186700489945
 20
37.8906674309182
 30
0.0
 10
64.27463225957823
 20
37.75860116418878
 30
0.0
 10
64.16396073919688
 20
37.65514914819617
 30
0.0
 10
63.90300119482971
 20
37.56419750465956
 30
0.0
 10
63.75293578978663
 20
37.57546362240561
 30
0.0
 10
63.6301797865981
 20
37.64301761442874
 30
0.0
  0
LWPOLYLINE
  5
EC
330
1F
100
AcDbEntity
  8
0
  6
Continuous
 62
     7
370
    25
100
AcDbPolyline
 90
        9
 70
   128
 43
0.0
 10
63.7507117779
 20
37.8620428664
 10
63.7271971634
 20
37.8193130882
 10
63.7045861647
 20
37.7782254645
 10
63.6837478221
 20
37.74035882
 10
63.6654828402
 20
37.7071685789
 10
63.650493087
 20
37.6799299547
 10
63.6393547018
 20
37.6596899869
 10
63.6324957439
 20
37.6472260968
 10
63.6301797774
 20
37.643017683
  0
SPLINE
  5
ED
330
1F
100
AcDbEntity
  8
0
  6
Continuous
 62
     7
370
    25
100
AcDbSpline
210
0.0
220
0.0
230
1.0
 70
     8
 71
     3
 72
    14
 73
    10
 74
     0
 42
0.000000001
 43
0.00000001
 40
0.0
 40
0.0
 40
0.0
 40
0.0
 40
0.5000000000000003
 40
0.5000000000000003
 40
0.6250000000000006
 40
0.6250000000000006
 40
0.7500000000000008
 40
0.7500000000000008
 40
1.0
 40
1.0
 40
1.0
 40
1.0
 10
64.24926579172069
 20
36.57688628249885
 30
0.0
 10
64.62747813742551
 20
36.91258782931238
 30
0.0
 10
65.12467989268308
 20
37.09327860977568
 30
0.0
 10
65.75132266196886
 20
37.09330213434268
 30
0.0
 10
65.87784510043825
 20
37.08199733380955
 30
0.0
 10
66.12352462908986
 20
37.0378096759493
 30
0.0
 10
66.24394510969373
 20
37.00499635850499
 30
0.0
 10
66.59766738990253
 20
36.8731514956709
 30
0.0
 10
66.81375685007724
 20
36.74475351286883
 30
0.0
 10
67.00288156388291
 20
36.57688628249877
 30
0.0
  0
LWPOLYLINE
  5
EE
330
1F
100
AcDbEntity
  8
0
  6
Continuous
 62
     7
370
    25
100
AcDbPolyline
 90
        9
 70
   128
 43
0.0
 10
67.0028814773
 20
36.5768863985
 10
66.9996926288
 20
36.5732935888
 10
66.9902490179
 20
36.5626539269
 10
66.9749129291
 20
36.5453757977
 10
66.9542738895
 20
36.5221234669
 10
66.929125386
 20
36.4937903059
 10
66.9004341314
 20
36.4614654963
 10
66.8693018804
 20
36.426390724
 10
66.8369253824
 20
36.3899143112
  0
LWPOLYLINE
  5
EF
330
1F
100
AcDbEntity
  8
0
  6
Continuous
 62
     7
370
    25
100
AcDbPolyline
 90
        9
 70
   128
 43
0.0
 10
64.2492658651
 20
36.5768863985
 10
64.2524544808
 20
36.5732935888
 10
64.2618985574
 20
36.5626539269
 10
64.2772344134
 20
36.5453757977
 10
64.2978732201
 20
36.5221234669
 10
64.3230217236
 20
36.4937903059
 10
64.3517134438
 20
36.4614654963
 10
64.3828456948
 20
36.426390724
 10
64.4152221928
 20
36.3899143112
  0
LINE
  5
F0
330
1F
100
AcDbEntity
  8
0
  6
Continuous
 62
     7
370
    25
100
AcDbLine
 10
63.6301797774
 20
37.643017683
 30
0.0
 11
63.5938233889
 21
37.6630248202
 31
0.0
  0
SPLINE
  5
F1
330
1F
100
AcDbEntity
  8
0
  6
Continuous
 62
     7
370
    25
100
AcDbSpline
210
0.0
220
0.0
230
1.0
 70
     8
 71
     3
 72
    23
 73
    19
 74
     0
 42
0.000000001
 43
0.00000001
 40
0.0
 40
0.0
 40
0.0
 40
0.0
 40
0.0000069464595966
 40
0.0000069464595966
 40
0.0000069464595966
 40
0.0000269173558753
 40
0.0000269173558753
 40
0.0000269173558753
 40
0.0000477420212559
 40
0.0000477420212559
 40
0.0000477420212559
 40
0.0000689844307043
 40
0.0000689844307043
 40
0.0000689844307043
 40
0.0000900350769267
 40
0.0000900350769267
 40
0.0000900350769267
 40
0.0001105259114901
 40
0.0001105259114901
 40
0.0001105259114901
 40
0.0001105259114901
 10
64.15507006959393
 20
36.59310160702611
 30
0.0
 10
64.15614569039997
 20
36.59105111494799
 30
0.0
 10
64.15735109535993
 20
36.58906383137279
 30
0.0
 10
64.15867073284623
 20
36.58716119247232
 30
0.0
 10
64.16241602132855
 20
36.58176127648481
 30
0.0
 10
64.16717432988669
 20
36.5769573436898
 30
0.0
 10
64.17250766769179
 20
36.57311784029162
 30
0.0
 10
64.17806723783605
 20
36.56911547081094
 30
0.0
 10
64.18440915728128
 20
36.56604305420061
 30
0.0
 10
64.19098363495598
 20
36.56411846984197
 30
0.0
 10
64.19768960298791
 20
36.56215539356087
 30
0.0
 10
64.20482719552069
 20
36.56132856453939
 30
0.0
 10
64.21180506172271
 20
36.56169333706752
 30
0.0
 10
64.21872102559354
 20
36.56205487361073
 30
0.0
 10
64.22567204192673
 20
36.56359711879338
 30
0.0
 10
64.23208289562953
 20
36.56621670267938
 30
0.0
 10
64.23832397508684
 20
36.56876691392044
 30
0.0
 10
64.24422352935346
 20
36.57241076683896
 30
0.0
 10
64.24926579171873
 20
36.57688628249711
 30
0.0
  0
LINE
  5
F2
330
1F
100
AcDbEntity
  8
0
  6
Continuous
 62
     7
370
    25
100
AcDbLine
 10
68.2714014972
 20
45.1876297293
 30
0.0
 11
68.5214015382
 21
45.1876297293
 31
0.0
  0
LINE
  5
F3
330
1F
100
AcDbEntity
  8
0
  6
Continuous
 62
     7
370
    25
100
AcDbLine
 10
68.5214015382
 20
45.1876297293
 30
0.0
 11
68.5214015382
 21
44.9376296883
 31
0.0
  0
LINE
  5
F4
330
1F
100
AcDbEntity
  8
0
  6
Continuous
 62
     7
370
    25
100
AcDbLine
 10
68.2714014972
 20
45.1876297293
 30
0.0
 11
68.2714014972
 21
44.9376296883
 31
0.0
  0
LINE
  5
F5
330
1F
100
AcDbEntity
  8
0
  6
Continuous
 62
     7
370
    25
100
AcDbLine
 10
65.3557404137
 20
37.9670506509
 30
0.0
 11
65.5697837199
 21
38.5383042439
 31
0.0
  0
ELLIPSE
  5
F6
330
1F
100
AcDbEntity
  8
0
  6
Continuous
 62
     7
370
    25
100
AcDbEllipse
 10
65.6260736792
 20
38.5191422331
 30
0.0
 11
0.05977206589648176
 21
0.0
 31
0.0
210
0.0
220
0.0
230
1.0
 40
0.9531667975
 41
0.3430239404213355
 42
2.798568713169163
  0
LINE
  5
F7
330
1F
100
AcDbEntity
  8
0
  6
Continuous
 62
     7
370
    25
100
AcDbLine
 10
65.8401170938
 20
37.8909159617
 30
0.0
 11
65.4120302486
 21
37.8909159617
 31
0.0
  0
ELLIPSE
  5
F8
330
1F
100
AcDbEntity
  8
0
  6
Continuous
 62
     7
370
    25
100
AcDbEllipse
 10
65.4120302035
 20
37.9478886604
 30
0.0
 11
-0.05977206589648176
 21
0.0
 31
0.0
210
0.0
220
0.0
230
1.0
 40
0.9531667975
 41
5.940161364897897
 42
7.853981633974483
  0
LINE
  5
F9
330
1F
100
AcDbEntity
  8
0
  6
Continuous
 62
     7
370
    25
100
AcDbLine
 10
65.6823636225
 20
38.5383042439
 30
0.0
 11
65.8964069287
 21
37.9670506509
 31
0.0
  0
ELLIPSE
  5
FA
330
1F
100
AcDbEntity
  8
0
  6
Continuous
 62
     7
370
    25
100
AcDbEllipse
 10
65.8401171524
 20
37.9478886604
 30
0.0
 11
0.05977206589648176
 21
0.0
 31
0.0
210
0.0
220
0.0
230
1.0
 40
0.9531667975
 41
4.712388980384703
 42
6.626209245739529
  0
ARC
  5
FB
330
1F
100
AcDbEntity
  8
0
  6
Continuous
 62
     7
370
    25
100
AcDbCircle
 10
57.5214014451
 20
46.437629841
 30
0.0
 40
0.25
100
AcDbArc
 50
90.0
 51
180.0
  0
LINE
  5
FC
330
1F
100
AcDbEntity
  8
0
  6
Continuous
 62
     7
370
    25
100
AcDbLine
 10
57.2714015568
 20
46.4376299342
 30
0.0
 11
57.5214015978
 21
46.4376299342
 31
0.0
  0
ARC
  5
FD
330
1F
100
AcDbEntity
  8
0
  6
Continuous
 62
     7
370
    25
100
AcDbCircle
 10
67.0214014451
 20
46.437629841
 30
0.0
 40
0.25
100
AcDbArc
 50
0.0
 51
90.0
  0
LINE
  5
FE
330
1F
100
AcDbEntity
  8
0
  6
Continuous
 62
     7
370
    25
100
AcDbLine
 10
67.0214012923
 20
46.4376299342
 30
0.0
 11
67.2714013333
 21
46.4376299342
 31
0.0
  0
ARC
  5
FF
330
1F
100
AcDbEntity
  8
0
  6
Continuous
 62
     7
370
    25
100
AcDbCircle
 10
59.2714014451
 20
37.187629841
 30
0.0
 40
2.0
100
AcDbArc
 50
180.0
 51
270.0
  0
LINE
  5
100
330
1F
100
AcDbEntity
  8
0
  6
Continuous
 62
     7
370
    25
100
AcDbLine
 10
57.2714015568
 20
37.187629815
 30
0.0
 11
57.5214015978
 21
37.187629815
 31
0.0
  0
LINE
  5
101
330
1F
100
AcDbEntity
  8
0
  6
Continuous
 62
     7
370
    25
100
AcDbLine
 10
59.271401419
 20
35.4376299938
 30
0.0
 11
59.271401419
 21
35.1876299528
 31
0.0
  0
ARC
  5
102
330
1F
100
AcDbEntity
  8
0
  6
Continuous
 62
     7
370
    25
100
AcDbCircle
 10
68.5214014451
 20
44.937629841
 30
0.0
 40
0.25
100
AcDbArc
 50
0.0
 51
90.0
  0
LINE
  5
103
330
1F
100
AcDbEntity
  8
0
  6
Continuous
 62
     7
370
    25
100
AcDbLine
 10
67.0214012923
 20
46.1876298932
 30
0.0
 11
67.2714013333
 21
46.1876298932
 31
0.0
  0
ARC
  5
104
330
1F
100
AcDbEntity
  8
0
  6
Continuous
 62
     7
370
    25
100
AcDbCircle
 10
68.2714014451
 20
46.187629841
 30
0.0
 40
1.0
100
AcDbArc
 50
180.0
 51
270.0
  0
LINE
  5
105
330
1F
100
AcDbEntity
  8
0
  6
Continuous
 62
     7
370
    25
100
AcDbLine
 10
67.0970773051
 20
36.5931016558
 30
0.0
 11
67.6583239536
 21
37.6630248202
 31
0.0
  0
LWPOLYLINE
  5
106
330
1F
100
AcDbEntity
  8
0
  6
Continuous
 62
     7
370
    25
100
AcDbPolyline
 90
        9
 70
   128
 43
0.0
 10
67.6583239536
 20
37.6630248202
 10
67.6702155459
 20
37.6753532027
 10
67.7054325777
 20
37.7118640745
 10
67.7626227687
 20
37.7711543979
 10
67.8395872663
 20
37.8509459251
 10
67.9333691212
 20
37.9481722766
 10
68.0403641152
 20
38.0590969862
 10
68.156460459
 20
38.1794571576
 10
68.2771961863
 20
38.3046276101
  0
LWPOLYLINE
  5
107
330
1F
100
AcDbEntity
  8
0
  6
Continuous
 62
     7
370
    25
100
AcDbPolyline
 90
        9
 70
   128
 43
0.0
 10
67.0970773051
 20
36.5931016558
 10
67.101331121
 20
36.5908702069
 10
67.1139295871
 20
36.584261542
 10
67.1343879501
 20
36.5735296791
 10
67.1619206394
 20
36.5590869614
 10
67.1954692068
 20
36.5414884572
 10
67.2337442363
 20
36.5214105395
 10
67.2752751696
 20
36.499624809
 10
67.3184661853
 20
36.4769682919
  0
LINE
  5
108
330
1F
100
AcDbEntity
  8
0
  6
Continuous
 62
     7
370
    25
100
AcDbLine
 10
68.5214015382
 20
35.4376299938
 30
0.0
 11
68.5214015382
 21
35.1876299528
 31
0.0
  0
LINE
  5
109
330
1F
100
AcDbEntity
  8
0
  6
Continuous
 62
     7
370
    25
100
AcDbLine
 10
68.5214015382
 20
35.1876299528
 30
0.0
 11
59.271401419
 21
35.1876299528
 31
0.0
  0
LINE
  5
10A
330
1F
100
AcDbEntity
  8
0
  6
Continuous
 62
     7
370
    25
100
AcDbLine
 10
67.6583239536
 20
37.6630248202
 30
0.0
 11
67.6289668034
 21
37.646248441
 31
0.0
  0
LWPOLYLINE
  5
10B
330
1F
100
AcDbEntity
  8
0
  6
Continuous
 62
     7
370
    25
100
AcDbPolyline
 90
        9
 70
   128
 43
0.0
 10
67.6289668034
 20
37.646248441
 10
67.6265835489
 20
37.6504191363
 10
67.6195250551
 20
37.6627710348
 10
67.6080623369
 20
37.6828293947
 10
67.5926363754
 20
37.7098233139
 10
67.5738399575
 20
37.7427155317
 10
67.5523948583
 20
37.7802420107
 10
67.5291257637
 20
37.820960365
 10
67.5049267436
 20
37.8633064383
  0
LINE
  5
10C
330
1F
100
AcDbEntity
  8
0
  6
Continuous
 62
     7
370
    25
100
AcDbLine
 10
57.2714015568
 20
37.187629815
 30
0.0
 11
57.2714015568
 21
46.4376299342
 31
0.0
  0
ARC
  5
10D
330
1F
100
AcDbEntity
  8
0
  6
Continuous
 62
     7
370
    25
100
AcDbCircle
 10
68.5214014451
 20
35.437629841
 30
0.0
 40
0.25
100
AcDbArc
 50
270.0
 51
0.0
  0
LINE
  5
10E
330
1F
100
AcDbEntity
  8
0
  6
Continuous
 62
     7
370
    25
100
AcDbLine
 10
67.2714013333
 20
46.4376299342
 30
0.0
 11
67.2714013333
 21
46.1876298932
 31
0.0
  0
SPLINE
  5
10F
330
1F
100
AcDbEntity
  8
0
  6
Continuous
 62
     7
370
    25
100
AcDbSpline
210
0.0
220
0.0
230
1.0
 70
     8
 71
     3
 72
    23
 73
    19
 74
     0
 42
0.000000001
 43
0.00000001
 40
0.0
 40
0.0
 40
0.0
 40
0.0
 40
0.0000076769896581
 40
0.0000076769896581
 40
0.0000076769896581
 40
0.0000285420058146
 40
0.0000285420058146
 40
0.0000285420058146
 40
0.0000497754494318
 40
0.0000497754494318
 40
0.0000497754494318
 40
0.00007072706396
 40
0.00007072706396
 40
0.00007072706396
 40
0.0000909558732107
 40
0.0000909558732107
 40
0.0000909558732107
 40
0.0001104364738497
 40
0.0001104364738497
 40
0.0001104364738497
 40
0.0001104364738497
 10
67.00288156388295
 20
36.57688628249882
 30
0.0
 10
67.00479540544035
 20
36.57518755537244
 30
0.0
 10
67.00682459429474
 20
36.57361087906396
 30
0.0
 10
67.00894185757369
 20
36.57217363880417
 30
0.0
 10
67.01462462736336
 20
36.56831606208707
 30
0.0
 10
67.02106498237941
 20
36.56541084114166
 30
0.0
 10
67.02770719441634
 20
36.56366275937373
 30
0.0
 10
67.03446645239738
 20
36.56188387372904
 30
0.0
 10
67.04162570882748
 20
36.56125077334423
 30
0.0
 10
67.0485930625913
 20
36.56180573651489
 30
0.0
 10
67.05546950323564
 20
36.56235345828016
 30
0.0
 10
67.06234892799459
 20
36.56407377202041
 30
0.0
 10
67.06866316746915
 20
36.56685150759549
 30
0.0
 10
67.07476146842464
 20
36.56953424834043
 30
0.0
 10
67.08049655443214
 20
36.57327808849954
 30
0.0
 10
67.08537349776041
 20
36.57781700865979
 30
0.0
 10
67.09007084789111
 20
36.58218878330895
 30
0.0
 10
67.0940963889026
 20
36.587419022728
 30
0.0
 10
67.09707728600844
 20
36.5931016070237
 30
0.0
  0
SPLINE
  5
110
330
1F
100
AcDbEntity
  8
0
  6
Continuous
 62
     7
370
    25
100
AcDbSpline
210
0.0
220
0.0
230
1.0
 70
     8
 71
     3
 72
    10
 73
     6
 74
     0
 42
0.000000001
 43
0.00000001
 40
0.0
 40
0.0
 40
0.0
 40
0.0
 40
0.5
 40
0.5
 40
1.0
 40
1.0
 40
1.0
 40
1.0
 10
67.62896686503574
 20
37.64624852588624
 30
0.0
 10
67.50628488006303
 20
37.57614063815038
 30
0.0
 10
67.35529625128056
 20
37.56274464017157
 30
0.0
 10
67.08987707563281
 20
37.65288967576519
 30
0.0
 10
66.97811525527098
 20
37.75692314537923
 30
0.0
 10
66.93048725514525
 20
37.89008893521467
 30
0.0
  0
ARC
  5
111
330
1F
100
AcDbEntity
  8
0
  6
Continuous
 62
     7
370
    25
100
AcDbCircle
 10
68.9950017979
 20
35.4028929284
 30
0.0
 40
0.2262823933024138
100
AcDbArc
 50
83.3001813581
 51
171.1694920169
  0
ARC
  5
112
330
1F
100
AcDbEntity
  8
0
  6
Continuous
 62
     7
370
    25
100
AcDbCircle
 10
67.0561383577
 20
46.9112301939
 30
0.0
 40
0.2262823933024068
100
AcDbArc
 50
173.3001813581
 51
261.1694920169
  0
ARC
  5
113
330
1F
100
AcDbEntity
  8
0
  6
Continuous
 62
     7
370
    25
100
AcDbCircle
 10
68.9950017979
 20
44.9723667536
 30
0.0
 40
0.2262823933024127
100
AcDbArc
 50
188.8305079831
 51
276.6998186419
  0
ARC
  5
114
330
1F
100
AcDbEntity
  8
0
  6
Continuous
 62
     7
370
    25
100
AcDbCircle
 10
57.4866645325
 20
46.9112301939
 30
0.0
 40
0.2262823933024079
100
AcDbArc
 50
278.8305079831
 51
6.6998186419
  0
LINE
  5
115
330
1F
100
AcDbEntity
  8
0
  6
Continuous
 62
     7
370
    25
100
AcDbLine
 10
79.9159949372
 20
40.187629841
 30
0.0
 11
79.9159949372
 21
35.4050858577
 31
0.0
  0
LINE
  5
116
330
1F
100
AcDbEntity
  8
0
  6
Continuous
 62
     7
370
    25
100
AcDbLine
 10
79.9159949372
 20
44.9701738244
 30
0.0
 11
79.9159949372
 21
40.187629841
 31
0.0
  0
LINE
  5
117
330
1F
100
AcDbEntity
  8
0
  6
Continuous
 62
     7
370
    25
100
AcDbLine
 10
81.2714008341
 20
44.187630031
 30
0.0
 11
81.2714008341
 21
36.1876296511
 31
0.0
  0
LINE
  5
118
330
1F
100
AcDbEntity
  8
0
  6
Continuous
 62
     7
370
    25
100
AcDbLine
 10
67.2714013333
 20
46.4376299342
 30
0.0
 11
67.3114016379
 21
46.4376299342
 31
0.0
  0
LINE
  5
119
330
1F
100
AcDbEntity
  8
0
  6
Continuous
 62
     7
370
    25
100
AcDbLine
 10
68.5214015382
 20
35.1476296482
 30
0.0
 11
68.5214015382
 21
35.1876299528
 31
0.0
  0
LINE
  5
11A
330
1F
100
AcDbEntity
  8
0
  6
Continuous
 62
     7
370
    25
100
AcDbLine
 10
57.2714015568
 20
46.4376299342
 30
0.0
 11
57.2314012523
 21
46.4376299342
 31
0.0
  0
LINE
  5
11B
330
1F
100
AcDbEntity
  8
0
  6
Continuous
 62
     7
370
    25
100
AcDbLine
 10
68.5214015382
 20
45.2276300339
 30
0.0
 11
68.5214015382
 21
45.1876297293
 31
0.0
  0
LWPOLYLINE
  5
11C
330
1F
100
AcDbEntity
  8
0
  6
Continuous
 62
     7
370
    25
100
AcDbPolyline
 90
        9
 70
   128
 43
0.0
 10
58.9282472345
 20
35.172898758
 10
58.9333059459
 20
35.1821952199
 10
58.9383360191
 20
35.1902697866
 10
58.9433097473
 20
35.1970768233
 10
58.948198958
 20
35.2025786114
 10
58.9529766428
 20
35.2067439517
 10
58.9576157934
 20
35.2095495609
 10
58.9620903327
 20
35.2109800724
 10
58.9663755807
 20
35.2110271042
  0
SPLINE
  5
11D
330
1F
100
AcDbEntity
  8
0
  6
Continuous
 62
     7
370
    25
100
AcDbSpline
210
0.0
220
0.0
230
1.0
 70
     8
 71
     3
 72
    14
 73
    10
 74
     0
 42
0.000000001
 43
0.00000001
 40
0.0
 40
0.0
 40
0.0
 40
0.0
 40
0.2500000000000003
 40
0.2500000000000003
 40
0.5000000000000002
 40
0.5000000000000002
 40
0.7500000000000001
 40
0.7500000000000001
 40
1.0
 40
1.0
 40
1.0
 40
1.0
 10
58.92824732345687
 20
35.17289865859574
 30
0.0
 10
58.72023543379164
 20
35.2026525573213
 30
0.0
 10
58.52027637671413
 20
35.2640082968651
 30
0.0
 10
58.13772249731539
 20
35.45376253804683
 30
0.0
 10
57.96542153048498
 20
35.5771791876175
 30
0.0
 10
57.66174990772161
 20
35.880654311887
 30
0.0
 10
57.5379214768513
 20
36.05337165283891
 30
0.0
 10
57.34812604794831
 20
36.43560605583866
 30
0.0
 10
57.28642584300704
 20
36.63645207326882
 30
0.0
 10
57.25667026264197
 20
36.84447571941066
 30
0.0
  0
LWPOLYLINE
  5
11E
330
1F
100
AcDbEntity
  8
0
  6
Continuous
 62
     7
370
    25
100
AcDbPolyline
 90
        9
 70
   128
 43
0.0
 10
57.2947987082
 20
36.8826039766
 10
57.2947516764
 20
36.8783187287
 10
57.293321165
 20
36.8738441893
 10
57.2905155557
 20
36.8692050388
 10
57.2863502155
 20
36.864427354
 10
57.2808484274
 20
36.8595381433
 10
57.2740413907
 20
36.8545644151
 10
57.265966824
 20
36.8495343418
 10
57.256670362
 20
36.8444756304
  0
LINE
  5
11F
330
1F
100
AcDbEntity
  8
0
  6
Continuous
 62
     7
370
    25
100
AcDbLine
 10
59.271401419
 20
35.1476296482
 30
0.0
 11
59.271401419
 21
35.1876299528
 31
0.0
  0
LINE
  5
120
330
1F
100
AcDbEntity
  8
0
  6
Continuous
 62
     7
370
    25
100
AcDbLine
 10
57.2714015568
 20
37.187629815
 30
0.0
 11
57.2314012523
 21
37.187629815
 31
0.0
  0
SPLINE
  5
121
330
1F
100
AcDbEntity
  8
0
  6
Continuous
 62
     7
370
    25
100
AcDbSpline
210
0.0
220
0.0
230
1.0
 70
    24
 71
     3
 72
    10
 73
     6
 74
     0
 42
0.000000001
 43
0.00000001
 40
0.0
 40
0.0
 40
0.0
 40
0.0
 40
0.5
 40
0.5
 40
1.0
 40
1.0
 40
1.0
 40
1.0
 10
67.64113520794835
 20
45.55736360390214
 30
0.0
 10
67.61582318693003
 20
45.5320515828838
 30
0.0
 10
67.59747718860947
 20
45.51370558456326
 30
0.0
 10
67.57137895239237
 20
45.48760734834613
 30
0.0
 10
67.56429466390092
 20
45.48052305985468
 30
0.0
 10
67.56429466390016
 20
45.48052305985393
 30
0.0
  0
LINE
  5
122
330
1F
100
AcDbEntity
  8
0
  6
Continuous
 62
     7
370
    25
100
AcDbLine
 10
67.2714013333
 20
46.1876298932
 30
0.0
 11
67.3114016379
 21
46.1876298932
 31
0.0
  0
LINE
  5
123
330
1F
100
AcDbEntity
  8
0
  6
Continuous
 62
     7
370
    25
100
AcDbLine
 10
68.2714014972
 20
45.2276300339
 30
0.0
 11
68.2714014972
 21
45.1876297293
 31
0.0
  0
LINE
  5
124
330
1F
100
AcDbEntity
  8
0
  6
Continuous
 62
     8
370
    25
100
AcDbLine
 10
55.0214016537
 20
50.6876296995
 30
0.0
 11
69.5214012365
 21
50.6876296995
 31
0.0
  0
LINE
  5
125
330
1F
100
AcDbEntity
  8
0
  6
Continuous
 62
     8
370
    25
100
AcDbLine
 10
68.2714014972
 20
49.6876295356
 30
0.0
 11
56.2714013929
 21
49.6876295356
 31
0.0
  0
LWPOLYLINE
  5
126
330
1F
100
AcDbEntity
  8
0
  6
Continuous
 62
     8
370
    25
100
AcDbPolyline
 90
       10
 70
   128
 43
0.0
 10
58.9282472345
 20
35.172898758
 10
58.793482064
 20
34.9707505365
 10
58.6732168875
 20
34.7903528882
 10
58.5679536878
 20
34.6324583215
 10
58.4781311179
 20
34.4977243503
 10
58.4041235695
 20
34.3867130277
 10
58.3462395432
 20
34.2998872211
 10
58.3047207172
 20
34.2376087492
 10
58.2797398518
 20
34.2001374511
 10
58.2714012551
 20
34.1876297889
  0
LWPOLYLINE
  5
127
330
1F
100
AcDbEntity
  8
0
  6
Continuous
 62
     8
370
    25
100
AcDbPolyline
 90
       10
 70
   128
 43
0.0
 10
56.2714013929
 20
36.1876296511
 10
56.2839090551
 20
36.1959682477
 10
56.3213803532
 20
36.2209491131
 10
56.3836588251
 20
36.2624679392
 10
56.4704846318
 20
36.3203519655
 10
56.5814959544
 20
36.3943595139
 10
56.7162299256
 20
36.4841820838
 10
56.8741244922
 20
36.5894452834
 10
57.0545221406
 20
36.7097104599
 10
57.256670362
 20
36.8444756304
  0
LINE
  5
128
330
1F
100
AcDbEntity
  8
0
  6
Continuous
 62
     7
370
    18
100
AcDbLine
 10
80.8311897801
 20
35.9334735178
 30
0.0
 11
72.2714014451
 21
35.6659801323
 31
0.0
  0
LINE
  5
129
330
1F
100
AcDbEntity
  8
0
  6
Continuous
 62
     7
370
    18
100
AcDbLine
 10
80.8311897801
 20
44.4417861643
 30
0.0
 11
72.2714014451
 21
44.7092795498
 31
0.0
  0
LINE
  5
12A
330
1F
100
AcDbEntity
  8
0
  6
Continuous
 62
     7
370
    18
100
AcDbLine
 10
72.2714014451
 20
45.209067341
 30
0.0
 11
72.2714014451
 21
35.166192341
 31
0.0
  0
LINE
  5
12B
330
1F
100
AcDbEntity
  8
0
  6
CENTERX2
 62
     7
370
    18
100
AcDbLine
 10
55.6872606005
 20
40.187629841
 30
0.0
 11
82.2714014451
 21
40.187629841
 31
0.0
  0
LINE
  5
12C
330
1F
100
AcDbEntity
  8
0
  6
CENTERX2
 62
     7
370
    18
100
AcDbLine
 10
62.2714014451
 20
33.5889564864
 30
0.0
 11
62.2714014451
 21
63.187629841
 31
0.0
  0
LINE
  5
12D
330
1F
100
AcDbEntity
  8
0
  6
Continuous
 62
     7
370
    25
100
AcDbLine
 10
105.7825604706
 20
40.6837512555
 30
0.0
 11
105.7752286337
 21
40.6831434511
 31
0.0
  0
LINE
  5
12E
330
1F
100
AcDbEntity
  8
0
  6
Continuous
 62
     7
370
    25
100
AcDbLine
 10
105.7752221144
 20
39.6920401536
 30
0.0
 11
105.7840398766
 21
39.6913090653
 31
0.0
  0
ARC
  5
12F
330
1F
100
AcDbEntity
  8
0
  6
Continuous
 62
     7
370
    25
100
AcDbCircle
 10
105.8403839894
 20
39.9336245594
 30
0.0
 40
0.2500147818832059
100
AcDbArc
 50
265.1340068411
 51
270.6980361725
  0
ARC
  5
130
330
1F
100
AcDbEntity
  8
0
  6
Continuous
 62
     7
370
    25
100
AcDbCircle
 10
105.8403843399
 20
40.4416424308
 30
0.0
 40
0.2500082853591122
100
AcDbArc
 50
89.1644539523
 51
94.7837352991
  0
LINE
  5
131
330
1F
100
AcDbEntity
  8
0
  6
Continuous
 62
     7
370
    25
100
AcDbLine
 10
107.0457188665
 20
61.6876305712
 30
0.0
 11
106.5457192502
 21
62.1876297218
 31
0.0
  0
LINE
  5
132
330
1F
100
AcDbEntity
  8
0
  6
Continuous
 62
     7
370
    25
100
AcDbLine
 10
93.0457189001
 20
62.1876297218
 30
0.0
 11
92.5457192838
 21
61.6876305712
 31
0.0
  0
ARC
  5
133
330
1F
100
AcDbEntity
  8
0
  6
Continuous
 62
     7
370
    25
100
AcDbCircle
 10
93.0457190751
 20
50.687629841
 30
0.0
 40
0.5
100
AcDbArc
 50
180.0
 51
270.0
  0
ARC
  5
134
330
1F
100
AcDbEntity
  8
0
  6
Continuous
 62
     7
370
    25
100
AcDbCircle
 10
106.5457190751
 20
50.687629841
 30
0.0
 40
0.5
100
AcDbArc
 50
270.0
 51
0.0
  0
LINE
  5
135
330
1F
100
AcDbEntity
  8
0
  6
Continuous
 62
     7
370
    25
100
AcDbLine
 10
92.5457192838
 20
61.6876305712
 30
0.0
 11
92.5457192838
 21
50.6876296995
 31
0.0
  0
LINE
  5
136
330
1F
100
AcDbEntity
  8
0
  6
Continuous
 62
     7
370
    25
100
AcDbLine
 10
107.0457188665
 20
50.6876296995
 30
0.0
 11
107.0457188665
 21
61.6876305712
 31
0.0
  0
SPLINE
  5
137
330
1F
100
AcDbEntity
  8
0
  6
Continuous
 62
     7
370
    25
100
AcDbSpline
210
0.0
220
0.0
230
1.0
 70
     8
 71
     3
 72
    10
 73
     6
 74
     0
 42
0.000000001
 43
0.00000001
 40
0.0
 40
0.0
 40
0.0
 40
0.0
 40
0.3008047229885543
 40
0.7769899948797071
 40
1.0
 40
1.0
 40
1.0
 40
1.0
 10
105.7974732733678
 20
40.68637071666832
 30
0.0
 10
105.7972620630509
 20
40.74940348195197
 30
0.0
 10
105.7967164988008
 20
40.912219502553
 30
0.0
 10
105.7957932694705
 20
41.12035060476654
 30
0.0
 10
105.7957900146306
 20
41.2664061481978
 30
0.0
 10
105.7957889764916
 20
41.31299091294001
 30
0.0
  0
LINE
  5
138
330
1F
100
AcDbEntity
  8
0
  6
Continuous
 62
     7
370
    25
100
AcDbLine
 10
105.7957191273
 20
37.7381401768
 30
0.0
 11
105.7975817724
 21
39.6860896426
 31
0.0
  0
LINE
  5
139
330
1F
100
AcDbEntity
  8
0
  6
Continuous
 62
     7
370
    25
100
AcDbLine
 10
93.795719023
 20
42.6371195053
 30
0.0
 11
93.7933767467
 21
40.187629841
 31
0.0
  0
SPLINE
  5
13A
330
1F
100
AcDbEntity
  8
0
  6
Continuous
 62
     7
370
    25
100
AcDbSpline
210
0.0
220
0.0
230
1.0
 70
     8
 71
     3
 72
    11
 73
     7
 74
     0
 42
0.000000001
 43
0.00000001
 40
0.0
 40
0.0
 40
0.0
 40
0.0
 40
0.3058801849457398
 40
0.6101304004582054
 40
0.8756501591920236
 40
1.0
 40
1.0
 40
1.0
 40
1.0
 10
93.79337674671525
 20
40.18762984104048
 30
0.0
 10
93.79329628180588
 20
40.07264338695735
 30
0.0
 10
93.79313578076723
 20
39.843283216767
 30
0.0
 10
93.79458165160703
 20
39.51411377228083
 30
0.0
 10
93.79563656466716
 20
39.25489798563567
 30
0.0
 10
93.79564612462569
 20
39.10885085166546
 30
0.0
 10
93.79564917379732
 20
39.06226876914094
 30
0.0
  0
ARC
  5
13B
330
1F
100
AcDbEntity
  8
0
  6
Continuous
 62
     7
370
    25
100
AcDbCircle
 10
93.2957190751
 20
49.687629841
 30
0.0
 40
0.5
100
AcDbArc
 50
0.0
 51
90.0
  0
ARC
  5
13C
330
1F
100
AcDbEntity
  8
0
  6
Continuous
 62
     7
370
    25
100
AcDbCircle
 10
106.2957190751
 20
49.687629841
 30
0.0
 40
0.5
100
AcDbArc
 50
90.0
 51
180.0
  0
LINE
  5
13D
330
1F
100
AcDbEntity
  8
0
  6
Continuous
 62
     7
370
    25
100
AcDbLine
 10
105.7957191273
 20
46.9376300161
 30
0.0
 11
105.7957191273
 21
49.6876295356
 31
0.0
  0
LINE
  5
13E
330
1F
100
AcDbEntity
  8
0
  6
Continuous
 62
     7
370
    25
100
AcDbLine
 10
93.795719023
 20
49.6876295356
 30
0.0
 11
93.795719023
 21
46.9376300161
 31
0.0
  0
LINE
  5
13F
330
1F
100
AcDbEntity
  8
0
  6
Continuous
 62
     7
370
    25
100
AcDbLine
 10
93.795719023
 20
37.8319543952
 30
0.0
 11
93.795719023
 21
37.8319685978
 31
0.0
  0
SPLINE
  5
140
330
1F
100
AcDbEntity
  8
0
  6
Continuous
 62
     7
370
    25
100
AcDbSpline
210
0.0
220
0.0
230
1.0
 70
     8
 71
     3
 72
    12
 73
     8
 74
     0
 42
0.000000001
 43
0.00000001
 40
0.0
 40
0.0
 40
0.0
 40
0.0
 40
0.2625517127662953
 40
0.6028333174086461
 40
0.853109219532485
 40
0.9680212700063291
 40
1.0
 40
1.0
 40
1.0
 40
1.0
 10
96.4406262404632
 20
35.18450443423878
 30
0.0
 10
96.44902718068077
 20
35.18330754809053
 30
0.0
 10
96.46831620609728
 20
35.18055943100644
 30
0.0
 10
96.49459496336436
 20
35.1713441780801
 30
0.0
 10
96.51496655136076
 20
35.16208730348976
 30
0.0
 10
96.52638007549571
 20
35.15580703530581
 30
0.0
 10
96.52922636319354
 20
35.15412680374456
 30
0.0
 10
96.52984601178879
 20
35.15376101038943
 30
0.0
  0
CIRCLE
  5
141
330
1F
100
AcDbEntity
  8
0
  6
Continuous
 62
     7
370
    25
100
AcDbCircle
 10
99.7957190751
 20
40.187629841
 30
0.0
 40
2.899999999999991
  0
CIRCLE
  5
142
330
1F
100
AcDbEntity
  8
0
  6
Continuous
 62
     7
370
    25
100
AcDbCircle
 10
99.7957190751
 20
40.187629841
 30
0.0
 40
2.200000000000003
  0
CIRCLE
  5
143
330
1F
100
AcDbEntity
  8
0
  6
Continuous
 62
     7
370
    25
100
AcDbCircle
 10
99.7957190751
 20
40.187629841
 30
0.0
 40
3.0
  0
CIRCLE
  5
144
330
1F
100
AcDbEntity
  8
0
  6
Continuous
 62
     7
370
    25
100
AcDbCircle
 10
99.7957190751
 20
40.187629841
 30
0.0
 40
3.099999999999994
  0
CIRCLE
  5
145
330
1F
100
AcDbEntity
  8
0
  6
Continuous
 62
     7
370
    25
100
AcDbCircle
 10
99.7957190751
 20
40.187629841
 30
0.0
 40
4.0
  0
CIRCLE
  5
146
330
1F
100
AcDbEntity
  8
0
  6
Continuous
 62
     7
370
    25
100
AcDbCircle
 10
99.7957190751
 20
40.187629841
 30
0.0
 40
4.78254393283845
  0
CIRCLE
  5
147
330
1F
100
AcDbEntity
  8
0
  6
Continuous
 62
     7
370
    25
100
AcDbCircle
 10
99.7957190751
 20
40.187629841
 30
0.0
 40
1.999999999999986
  0
CIRCLE
  5
148
330
1F
100
AcDbEntity
  8
0
  6
Continuous
 62
     7
370
    25
100
AcDbCircle
 10
99.7957190751
 20
40.187629841
 30
0.0
 40
5.068312500000005
  0
SPLINE
  5
149
330
1F
100
AcDbEntity
  8
0
  6
Continuous
 62
     7
370
    25
100
AcDbSpline
210
0.0
220
0.0
230
1.0
 70
     8
 71
     3
 72
    12
 73
     8
 74
     0
 42
0.000000001
 43
0.00000001
 40
0.0
 40
0.0
 40
0.0
 40
0.0
 40
0.2499999999999999
 40
0.2499999999999999
 40
0.4999999999999999
 40
0.4999999999999999
 40
1.0
 40
1.0
 40
1.0
 40
1.0
 10
106.094934583665
 20
40.28704803462271
 30
0.0
 10
106.0941089744034
 20
40.33935929151802
 30
0.0
 10
106.0901205473989
 20
40.39107227548406
 30
0.0
 10
106.0668780088351
 20
40.49143183643752
 30
0.0
 10
106.047864355695
 20
40.53862293919094
 30
0.0
 10
105.97097429704
 20
40.65648197924593
 30
0.0
 10
105.8937205674612
 20
40.69987154686505
 30
0.0
 10
105.8196290062104
 20
40.6902626240507
 30
0.0
  0
ARC
  5
14A
330
1F
100
AcDbEntity
  8
0
  6
Continuous
 62
     7
370
    25
100
AcDbCircle
 10
99.7957190751
 20
40.187629841
 30
0.0
 40
6.300000000000009
100
AcDbArc
 50
359.0957722411
 51
0.904203071
  0
SPLINE
  5
14B
330
1F
100
AcDbEntity
  8
0
  6
Continuous
 62
     7
370
    25
100
AcDbSpline
210
0.0
220
0.0
230
1.0
 70
     8
 71
     3
 72
    12
 73
     8
 74
     0
 42
0.000000001
 43
0.00000001
 40
0.0
 40
0.0
 40
0.0
 40
0.0
 40
0.4999999999999989
 40
0.4999999999999989
 40
0.7499999999999994
 40
0.7499999999999994
 40
1.0
 40
1.0
 40
1.0
 40
1.0
 10
105.8196327963211
 20
39.68503523809532
 30
0.0
 10
105.8936794973701
 20
39.67533782047474
 30
0.0
 10
105.9708289034047
 20
39.7187616091234
 30
0.0
 10
106.0476246536733
 20
39.83616167986342
 30
0.0
 10
106.0667126940299
 20
39.88326962098258
 30
0.0
 10
106.0901192569582
 20
39.98403002644682
 30
0.0
 10
106.0941080437009
 20
40.03584285057034
 30
0.0
 10
106.0949345408266
 20
40.08820893322123
 30
0.0
  0
SPLINE
  5
14C
330
1F
100
AcDbEntity
  8
0
  6
Continuous
 62
     7
370
    25
100
AcDbSpline
210
0.0
220
0.0
230
1.0
 70
     8
 71
     3
 72
     8
 73
     4
 74
     0
 42
0.000000001
 43
0.00000001
 40
0.0
 40
0.0
 40
0.0
 40
0.0
 40
0.0000635432464213
 40
0.0000635432464213
 40
0.0000635432464213
 40
0.0000635432464213
 10
105.7752899755097
 20
39.69285142623847
 30
0.0
 10
105.7899782723975
 20
39.68958592106213
 30
0.0
 10
105.8047740182418
 20
39.68698119617748
 30
0.0
 10
105.8196327963221
 20
39.68503523809519
 30
0.0
  0
ARC
  5
14D
330
1F
100
AcDbEntity
  8
0
  6
Continuous
 62
     7
370
    25
100
AcDbCircle
 10
99.7957190751
 20
40.187629841
 30
0.0
 40
6.000000000000011
100
AcDbArc
 50
4.7311557042
 51
355.2699153048
  0
SPLINE
  5
14E
330
1F
100
AcDbEntity
  8
0
  6
Continuous
 62
     7
370
    25
100
AcDbSpline
210
0.0
220
0.0
230
1.0
 70
     8
 71
     3
 72
     8
 73
     4
 74
     0
 42
0.000000001
 43
0.00000001
 40
0.0000077174294832
 40
0.0000077174294832
 40
0.0000077174294832
 40
0.0000077174294832
 40
0.0000712580293169
 40
0.0000712580293169
 40
0.0000712580293169
 40
0.0000712580293169
 10
105.8196290062116
 20
40.69026262405086
 30
0.0
 10
105.8047688516825
 20
40.68833541296952
 30
0.0
 10
105.7899722920717
 20
40.68573859822259
 30
0.0
 10
105.7752846255372
 20
40.68247315833928
 30
0.0
  0
LINE
  5
14F
330
1F
100
AcDbEntity
  8
0
  6
Continuous
 62
     7
370
    25
100
AcDbLine
 10
99.7957190751
 20
61.6876305712
 30
0.0
 11
92.5457192838
 21
61.6876305712
 31
0.0
  0
LINE
  5
150
330
1F
100
AcDbEntity
  8
0
  6
Continuous
 62
     7
370
    25
100
AcDbLine
 10
107.0457188665
 20
61.6876305712
 30
0.0
 11
99.7957190751
 21
61.6876305712
 31
0.0
  0
LINE
  5
151
330
1F
100
AcDbEntity
  8
0
  6
Continuous
 62
     7
370
    25
100
AcDbLine
 10
99.7957190751
 20
62.1876297218
 30
0.0
 11
106.5457192502
 21
62.1876297218
 31
0.0
  0
LINE
  5
152
330
1F
100
AcDbEntity
  8
0
  6
Continuous
 62
     7
370
    25
100
AcDbLine
 10
93.0457189001
 20
62.1876297218
 30
0.0
 11
99.7957190751
 21
62.1876297218
 31
0.0
  0
LINE
  5
153
330
1F
100
AcDbEntity
  8
0
  6
Continuous
 62
     7
370
    25
100
AcDbLine
 10
99.7957190751
 20
50.1876296175
 30
0.0
 11
93.0457189001
 21
50.1876296175
 31
0.0
  0
LINE
  5
154
330
1F
100
AcDbEntity
  8
0
  6
Continuous
 62
     7
370
    25
100
AcDbLine
 10
106.5457192502
 20
50.1876296175
 30
0.0
 11
99.7957190751
 21
50.1876296175
 31
0.0
  0
ARC
  5
155
330
1F
100
AcDbEntity
  8
0
  6
Continuous
 62
     7
370
    25
100
AcDbCircle
 10
96.4045540836
 20
34.937629841
 30
0.0
 40
0.25
100
AcDbArc
 50
57.1401196211
 51
90.0
  0
SPLINE
  5
156
330
1F
100
AcDbEntity
  8
0
  6
Continuous
 62
     7
370
    25
100
AcDbSpline
210
0.0
220
0.0
230
1.0
 70
     8
 71
     3
 72
    14
 73
    10
 74
     0
 42
0.000000001
 43
0.00000001
 40
0.0
 40
0.0
 40
0.0
 40
0.0
 40
0.5000000000000001
 40
0.5000000000000001
 40
0.7499999999999998
 40
0.7499999999999998
 40
0.875
 40
0.875
 40
1.0
 40
1.0
 40
1.0
 40
1.0
 10
95.73369987282649
 20
35.43762984104047
 30
0.0
 10
95.8563729234544
 20
35.3851771792239
 30
0.0
 10
95.97983895247928
 20
35.33653476885344
 30
0.0
 10
96.16183580996186
 20
35.26984350027363
 30
0.0
 10
96.22222945567296
 20
35.2485816746384
 30
0.0
 10
96.30724020480653
 20
35.21964940407226
 30
0.0
 10
96.33504055383976
 20
35.21037024483547
 30
0.0
 10
96.38275445809974
 20
35.19466362779476
 30
0.0
 10
96.40455408358184
 20
35.18762984104047
 30
0.0
 10
96.40455408358184
 20
35.18762984104047
 30
0.0
  0
LWPOLYLINE
  5
157
330
1F
100
AcDbEntity
  8
0
  6
Continuous
 62
     7
370
    25
100
AcDbPolyline
 90
        9
 70
   128
 43
0.0
 10
95.8961806513
 20
35.6276300435
 10
95.8930586252
 20
35.6239792591
 10
95.8838126875
 20
35.6131670696
 10
95.8687979049
 20
35.5956088451
 10
95.848590999
 20
35.5719802601
 10
95.8239691585
 20
35.543187957
 10
95.795878607
 20
35.5103397442
 10
95.7653982818
 20
35.4746970979
 10
95.7336997866
 20
35.4376299938
  0
SPLINE
  5
158
330
1F
100
AcDbEntity
  8
0
  6
Continuous
 62
     7
370
    25
100
AcDbSpline
210
0.0
220
0.0
230
1.0
 70
     8
 71
     3
 72
    14
 73
    10
 74
     0
 42
0.000000001
 43
0.00000001
 40
0.0
 40
0.0
 40
0.0
 40
0.0
 40
0.4999999999999984
 40
0.4999999999999984
 40
0.7499999999999981
 40
0.7499999999999981
 40
0.874999999999999
 40
0.874999999999999
 40
1.0
 40
1.0
 40
1.0
 40
1.0
 10
103.8577382774625
 20
44.93762984104048
 30
0.0
 10
103.7350652268346
 20
44.99008250285705
 30
0.0
 10
103.6115991978097
 20
45.0387249132275
 30
0.0
 10
103.4296023403271
 20
45.10541618180732
 30
0.0
 10
103.369208694616
 20
45.12667800744255
 30
0.0
 10
103.2841979454824
 20
45.15561027800869
 30
0.0
 10
103.2563975964492
 20
45.16488943724548
 30
0.0
 10
103.2086836921892
 20
45.18059605428619
 30
0.0
 10
103.1868840667071
 20
45.18762984104048
 30
0.0
 10
103.1868840667071
 20
45.18762984104048
 30
0.0
  0
LWPOLYLINE
  5
159
330
1F
100
AcDbEntity
  8
0
  6
Continuous
 62
     7
370
    25
100
AcDbPolyline
 90
        9
 70
   128
 43
0.0
 10
103.8577383637
 20
44.9376296883
 10
103.8260398685
 20
44.9005625842
 10
103.7955595433
 20
44.8649199379
 10
103.7674689918
 20
44.8320717251
 10
103.7428471513
 20
44.803279422
 10
103.7226402453
 20
44.779650837
 10
103.7076254628
 20
44.7620926125
 10
103.6983795251
 20
44.751280423
 10
103.695257499
 20
44.7476296385
  0
ARC
  5
15A
330
1F
100
AcDbEntity
  8
0
  6
Continuous
 62
     7
370
    25
100
AcDbCircle
 10
103.1868840667
 20
45.437629841
 30
0.0
 40
0.25
100
AcDbArc
 50
237.1401196211
 51
270.0
  0
LWPOLYLINE
  5
15B
330
1F
100
AcDbEntity
  8
0
  6
Continuous
 62
     7
370
    25
100
AcDbPolyline
 90
        9
 70
   128
 43
0.0
 10
95.8961806513
 20
44.7476296385
 10
95.8930586252
 20
44.751280423
 10
95.8838126875
 20
44.7620926125
 10
95.8687979049
 20
44.779650837
 10
95.848590999
 20
44.803279422
 10
95.8239691585
 20
44.8320717251
 10
95.795878607
 20
44.8649199379
 10
95.7653982818
 20
44.9005625842
 10
95.7336997866
 20
44.9376296883
  0
SPLINE
  5
15C
330
1F
100
AcDbEntity
  8
0
  6
Continuous
 62
     7
370
    25
100
AcDbSpline
210
0.0
220
0.0
230
1.0
 70
     8
 71
     3
 72
    14
 73
    10
 74
     0
 42
0.000000001
 43
0.00000001
 40
0.0
 40
0.0
 40
0.0
 40
0.0
 40
0.1250000000000003
 40
0.1250000000000003
 40
0.2500000000000006
 40
0.2500000000000006
 40
0.5000000000000008
 40
0.5000000000000008
 40
1.0
 40
1.0
 40
1.0
 40
1.0
 10
96.40455408358184
 20
45.18762984104048
 30
0.0
 10
96.40455408358184
 20
45.18762984104048
 30
0.0
 10
96.38280321862246
 20
45.1806120237229
 30
0.0
 10
96.33504161127533
 20
45.16488986696689
 30
0.0
 10
96.30723132192549
 20
45.1556071422094
 30
0.0
 10
96.22233149019239
 20
45.12671295860816
 30
0.0
 10
96.1618598520791
 20
45.1054236952631
 30
0.0
 10
95.98021176102775
 20
45.03886411455479
 30
0.0
 10
95.85633718273941
 20
44.9900672208075
 30
0.0
 10
95.73369987282649
 20
44.93762984104047
 30
0.0
  0
ARC
  5
15D
330
1F
100
AcDbEntity
  8
0
  6
Continuous
 62
     7
370
    25
100
AcDbCircle
 10
96.4045540836
 20
45.437629841
 30
0.0
 40
0.25
100
AcDbArc
 50
270.0
 51
302.8598803789
  0
LWPOLYLINE
  5
15E
330
1F
100
AcDbEntity
  8
0
  6
Continuous
 62
     7
370
    25
100
AcDbPolyline
 90
        9
 70
   128
 43
0.0
 10
103.695257499
 20
35.6276300435
 10
103.6983795251
 20
35.6239792591
 10
103.7076254628
 20
35.6131670696
 10
103.7226402453
 20
35.5956088451
 10
103.7428471513
 20
35.5719802601
 10
103.7674689918
 20
35.543187957
 10
103.7955595433
 20
35.5103397442
 10
103.8260398685
 20
35.4746970979
 10
103.8577383637
 20
35.4376299938
  0
SPLINE
  5
15F
330
1F
100
AcDbEntity
  8
0
  6
Continuous
 62
     7
370
    25
100
AcDbSpline
210
0.0
220
0.0
230
1.0
 70
     8
 71
     3
 72
    14
 73
    10
 74
     0
 42
0.000000001
 43
0.00000001
 40
0.0
 40
0.0
 40
0.0
 40
0.0
 40
0.1250000000000007
 40
0.1250000000000007
 40
0.2500000000000014
 40
0.2500000000000014
 40
0.5000000000000006
 40
0.5000000000000006
 40
1.0
 40
1.0
 40
1.0
 40
1.0
 10
103.1868840667071
 20
35.18762984104047
 30
0.0
 10
103.1868840667071
 20
35.18762984104047
 30
0.0
 10
103.2086349316665
 20
35.19464765835805
 30
0.0
 10
103.2563965390136
 20
35.21036981511406
 30
0.0
 10
103.2842068283635
 20
35.21965253987155
 30
0.0
 10
103.3691066600966
 20
35.24854672347279
 30
0.0
 10
103.4295782982098
 20
35.26983598681785
 30
0.0
 10
103.6112263892612
 20
35.33639556752616
 30
0.0
 10
103.7351009675496
 20
35.38519246127345
 30
0.0
 10
103.8577382774625
 20
35.43762984104048
 30
0.0
  0
ARC
  5
160
330
1F
100
AcDbEntity
  8
0
  6
Continuous
 62
     7
370
    25
100
AcDbCircle
 10
103.1868840667
 20
34.937629841
 30
0.0
 40
0.2500000000000019
100
AcDbArc
 50
90.0
 51
122.8598803789
  0
SPLINE
  5
161
330
1F
100
AcDbEntity
  8
0
  6
Continuous
 62
     7
370
    25
100
AcDbSpline
210
0.0
220
0.0
230
1.0
 70
     8
 71
     3
 72
     8
 73
     4
 74
     0
 42
0.000000001
 43
0.00000001
 40
0.0
 40
0.0
 40
0.0
 40
0.0
 40
1.0
 40
1.0
 40
1.0
 40
1.0
 10
94.27571907514448
 20
37.83611968796862
 30
0.0
 10
94.27393103852488
 20
37.84031697460473
 30
0.0
 10
94.24735471443205
 20
37.83396078326747
 30
0.0
 10
94.20293132803886
 20
37.8201707619244
 30
0.0
  0
ARC
  5
162
330
1F
100
AcDbEntity
  8
0
  6
Continuous
 62
     7
370
    25
100
AcDbCircle
 10
99.7957190751
 20
40.187629841
 30
0.0
 40
6.250000000000008
100
AcDbArc
 50
203.0739180656
 51
229.4641978887
  0
SPLINE
  5
163
330
1F
100
AcDbEntity
  8
0
  6
Continuous
 62
     7
370
    25
100
AcDbSpline
210
0.0
220
0.0
230
1.0
 70
     8
 71
     3
 72
    14
 73
    10
 74
     0
 42
0.000000001
 43
0.00000001
 40
0.0
 40
0.0
 40
0.0
 40
0.0
 40
0.243127932598341
 40
0.4514030903113563
 40
0.6250843483379128
 40
0.7646812806145595
 40
0.8712543660274661
 40
0.9473177732054238
 40
1.0
 40
1.0
 40
1.0
 40
1.0
 10
94.20293132803886
 20
37.8201707619244
 30
0.0
 10
94.19121744705441
 20
37.81664115026678
 30
0.0
 10
94.1694688885099
 20
37.81008790238275
 30
0.0
 10
94.13450571036283
 20
37.79734310838704
 30
0.0
 10
94.10421520540083
 20
37.78459574341192
 30
0.0
 10
94.07938711253075
 20
37.77232014958859
 30
0.0
 10
94.0616248123448
 20
37.76067659233497
 30
0.0
 10
94.04893124867164
 20
37.7501269334259
 30
0.0
 10
94.04665181201051
 20
37.74162078290095
 30
0.0
 10
94.04571907514448
 20
37.7381400982573
 30
0.0
  0
ARC
  5
164
330
1F
100
AcDbEntity
  8
0
  6
Continuous
 62
     7
370
    25
100
AcDbCircle
 10
99.7957190751
 20
40.187629841
 30
0.0
 40
6.250000000000013
100
AcDbArc
 50
23.0739180656
 51
49.4641978887
  0
SPLINE
  5
165
330
1F
100
AcDbEntity
  8
0
  6
Continuous
 62
     7
370
    25
100
AcDbSpline
210
0.0
220
0.0
230
1.0
 70
     8
 71
     3
 72
    12
 73
     8
 74
     0
 42
0.000000001
 43
0.00000001
 40
0.0
 40
0.0
 40
0.0
 40
0.0
 40
0.25
 40
0.25
 40
0.5
 40
0.5
 40
1.0
 40
1.0
 40
1.0
 40
1.0
 10
105.3885068222501
 20
42.55508892015656
 30
0.0
 10
105.4022772956611
 20
42.55902353634668
 30
0.0
 10
105.4183413155123
 20
42.56392107016823
 30
0.0
 10
105.4517326197077
 20
42.57530770393313
 30
0.0
 10
105.4690599040518
 20
42.58179680387646
 30
0.0
 10
105.5179509112421
 20
42.60315004917751
 30
0.0
 10
105.5457190751445
 20
42.61955100516624
 30
0.0
 10
105.5457190751445
 20
42.63711958382365
 30
0.0
  0
SPLINE
  5
166
330
1F
100
AcDbEntity
  8
0
  6
Continuous
 62
     7
370
    25
100
AcDbSpline
210
0.0
220
0.0
230
1.0
 70
     8
 71
     3
 72
    10
 73
     6
 74
     0
 42
0.000000001
 43
0.00000001
 40
0.0
 40
0.0
 40
0.0
 40
0.0
 40
0.5
 40
0.5
 40
1.0
 40
1.0
 40
1.0
 40
1.0
 10
105.3885068222501
 20
42.55508892015656
 30
0.0
 10
105.3609658754281
 20
42.54721968777632
 30
0.0
 10
105.3413527415384
 20
42.54295284039139
 30
0.0
 10
105.3190438682501
 20
42.53902400407741
 30
0.0
 10
105.3157190751445
 20
42.53913999411233
 30
0.0
 10
105.3157190751445
 20
42.53913999411233
 30
0.0
  0
SPLINE
  5
167
330
1F
100
AcDbEntity
  8
0
  6
Continuous
 62
     7
370
    25
100
AcDbSpline
210
0.0
220
0.0
230
1.0
 70
     8
 71
     3
 72
    10
 73
     6
 74
     0
 42
0.000000001
 43
0.00000001
 40
0.0
 40
0.0
 40
0.0
 40
0.0
 40
0.5
 40
0.5
 40
1.0
 40
1.0
 40
1.0
 40
1.0
 10
94.20293132803886
 20
42.55508892015656
 30
0.0
 10
94.23047227486089
 20
42.54721968777631
 30
0.0
 10
94.25008540875055
 20
42.54295284039139
 30
0.0
 10
94.27239428203887
 20
42.53902400407741
 30
0.0
 10
94.27571907514448
 20
42.53913999411233
 30
0.0
 10
94.27571907514448
 20
42.53913999411233
 30
0.0
  0
SPLINE
  5
168
330
1F
100
AcDbEntity
  8
0
  6
Continuous
 62
     7
370
    25
100
AcDbSpline
210
0.0
220
0.0
230
1.0
 70
     8
 71
     3
 72
    12
 73
     8
 74
     0
 42
0.000000001
 43
0.00000001
 40
0.0
 40
0.0
 40
0.0
 40
0.0
 40
0.25
 40
0.25
 40
0.5
 40
0.5
 40
1.0
 40
1.0
 40
1.0
 40
1.0
 10
94.20293132803886
 20
42.55508892015656
 30
0.0
 10
94.18916085462786
 20
42.55902353634668
 30
0.0
 10
94.17309683477662
 20
42.56392107016823
 30
0.0
 10
94.13970553058128
 20
42.57530770393313
 30
0.0
 10
94.12237824623716
 20
42.58179680387646
 30
0.0
 10
94.07348723904686
 20
42.60315004917751
 30
0.0
 10
94.04571907514448
 20
42.61955100516624
 30
0.0
 10
94.04571907514448
 20
42.63711958382365
 30
0.0
  0
ARC
  5
169
330
1F
100
AcDbEntity
  8
0
  6
Continuous
 62
     7
370
    25
100
AcDbCircle
 10
99.7957190751
 20
40.187629841
 30
0.0
 40
6.250000000000003
100
AcDbArc
 50
130.5358021113
 51
156.9260819344
  0
SPLINE
  5
16A
330
1F
100
AcDbEntity
  8
0
  6
Continuous
 62
     7
370
    25
100
AcDbSpline
210
0.0
220
0.0
230
1.0
 70
     8
 71
     3
 72
     8
 73
     4
 74
     0
 42
0.000000001
 43
0.00000001
 40
0.0
 40
0.0
 40
0.0
 40
0.0
 40
1.0
 40
1.0
 40
1.0
 40
1.0
 10
105.3885068222501
 20
37.82017076192439
 30
0.0
 10
105.3440834358569
 20
37.83396078326746
 30
0.0
 10
105.3175071117641
 20
37.84031697460472
 30
0.0
 10
105.3157190751445
 20
37.83611968796861
 30
0.0
  0
SPLINE
  5
16B
330
1F
100
AcDbEntity
  8
0
  6
Continuous
 62
     7
370
    25
100
AcDbSpline
210
0.0
220
0.0
230
1.0
 70
     8
 71
     3
 72
    14
 73
    10
 74
     0
 42
0.000000001
 43
0.00000001
 40
0.0
 40
0.0
 40
0.0
 40
0.0
 40
0.052682226794541
 40
0.1287456339724752
 40
0.2353187193853811
 40
0.3749156516620353
 40
0.5485969096886005
 40
0.7568720674016325
 40
1.0
 40
1.0
 40
1.0
 40
1.0
 10
105.5457190751445
 20
37.73814009825729
 30
0.0
 10
105.5447863382784
 20
37.74162078290093
 30
0.0
 10
105.5425069016173
 20
37.75012693342588
 30
0.0
 10
105.5298133379442
 20
37.76067659233495
 30
0.0
 10
105.5120510377582
 20
37.77232014958857
 30
0.0
 10
105.4872229448881
 20
37.7845957434119
 30
0.0
 10
105.4569324399261
 20
37.79734310838702
 30
0.0
 10
105.4219692617791
 20
37.81008790238273
 30
0.0
 10
105.4002207032345
 20
37.81664115026677
 30
0.0
 10
105.3885068222501
 20
37.82017076192439
 30
0.0
  0
ARC
  5
16C
330
1F
100
AcDbEntity
  8
0
  6
Continuous
 62
     7
370
    25
100
AcDbCircle
 10
99.7957190751
 20
40.187629841
 30
0.0
 40
6.250000000000013
100
AcDbArc
 50
310.5358021113
 51
336.9260819344
  0
SPLINE
  5
16D
330
1F
100
AcDbEntity
  8
0
  6
Continuous
 62
     7
370
    25
100
AcDbSpline
210
0.0
220
0.0
230
1.0
 70
     8
 71
     3
 72
    12
 73
     8
 74
     0
 42
0.000000001
 43
0.00000001
 40
0.0
 40
0.0
 40
0.0
 40
0.0
 40
0.25
 40
0.25
 40
0.5
 40
0.5
 40
1.0
 40
1.0
 40
1.0
 40
1.0
 10
105.7224957704419
 20
37.75239618806963
 30
0.0
 10
105.7082816250132
 20
37.75419163526968
 30
0.0
 10
105.6909867560537
 20
37.75621889507647
 30
0.0
 10
105.654662689177
 20
37.75927052548675
 30
0.0
 10
105.6356334912599
 20
37.76029489609024
 30
0.0
 10
105.5825850812278
 20
37.75966390247068
 30
0.0
 10
105.5526050528322
 20
37.75430443281755
 30
0.0
 10
105.5457190751445
 20
37.7381400982573
 30
0.0
  0
SPLINE
  5
16E
330
1F
100
AcDbEntity
  8
0
  6
Continuous
 62
     7
370
    25
100
AcDbSpline
210
0.0
220
0.0
230
1.0
 70
     8
 71
     3
 72
    12
 73
     8
 74
     0
 42
0.000000001
 43
0.00000001
 40
0.0
 40
0.0
 40
0.0
 40
0.0
 40
0.25
 40
0.25
 40
0.5
 40
0.5
 40
1.0
 40
1.0
 40
1.0
 40
1.0
 10
93.86894237984706
 20
37.75239618806963
 30
0.0
 10
93.8831565252758
 20
37.75419163526968
 30
0.0
 10
93.90045139423529
 20
37.75621889507647
 30
0.0
 10
93.93677546111192
 20
37.75927052548675
 30
0.0
 10
93.95580465902907
 20
37.76029489609024
 30
0.0
 10
94.00885306906116
 20
37.75966390247068
 30
0.0
 10
94.03883309745679
 20
37.75430443281756
 30
0.0
 10
94.04571907514448
 20
37.7381400982573
 30
0.0
  0
SPLINE
  5
16F
330
1F
100
AcDbEntity
  8
0
  6
Continuous
 62
     7
370
    25
100
AcDbSpline
210
0.0
220
0.0
230
1.0
 70
     8
 71
     3
 72
    12
 73
     8
 74
     0
 42
0.000000001
 43
0.00000001
 40
0.0
 40
0.0
 40
0.0
 40
0.0
 40
0.25
 40
0.25
 40
0.5
 40
0.5
 40
1.0
 40
1.0
 40
1.0
 40
1.0
 10
105.7224957704419
 20
42.62286349401132
 30
0.0
 10
105.7082816250132
 20
42.62106804681127
 30
0.0
 10
105.6909867560537
 20
42.61904078700449
 30
0.0
 10
105.654662689177
 20
42.6159891565942
 30
0.0
 10
105.6356334912599
 20
42.6149647859907
 30
0.0
 10
105.5825850812278
 20
42.61559577961027
 30
0.0
 10
105.5526050528322
 20
42.6209552492634
 30
0.0
 10
105.5457190751445
 20
42.63711958382365
 30
0.0
  0
SPLINE
  5
170
330
1F
100
AcDbEntity
  8
0
  6
Continuous
 62
     7
370
    25
100
AcDbSpline
210
0.0
220
0.0
230
1.0
 70
     8
 71
     3
 72
    12
 73
     8
 74
     0
 42
0.000000001
 43
0.00000001
 40
0.0
 40
0.0
 40
0.0
 40
0.0
 40
0.25
 40
0.25
 40
0.5
 40
0.5
 40
1.0
 40
1.0
 40
1.0
 40
1.0
 10
93.86894237984706
 20
42.62286349401132
 30
0.0
 10
93.8831565252758
 20
42.62106804681127
 30
0.0
 10
93.90045139423529
 20
42.61904078700449
 30
0.0
 10
93.93677546111192
 20
42.6159891565942
 30
0.0
 10
93.95580465902907
 20
42.61496478599071
 30
0.0
 10
94.00885306906116
 20
42.61559577961027
 30
0.0
 10
94.03883309745679
 20
42.6209552492634
 30
0.0
 10
94.04571907514448
 20
42.63711958382365
 30
0.0
  0
LINE
  5
171
330
1F
100
AcDbEntity
  8
0
  6
Continuous
 62
     7
370
    25
100
AcDbLine
 10
94.045719064
 20
44.9376296883
 30
0.0
 11
94.045719064
 21
42.6371195053
 31
0.0
  0
LINE
  5
172
330
1F
100
AcDbEntity
  8
0
  6
Continuous
 62
     7
370
    25
100
AcDbLine
 10
95.7336997866
 20
44.9376296883
 30
0.0
 11
94.045719064
 21
44.9376296883
 31
0.0
  0
LINE
  5
173
330
1F
100
AcDbEntity
  8
0
  6
Continuous
 62
     7
370
    25
100
AcDbLine
 10
105.5457190863
 20
35.4376299938
 30
0.0
 11
105.5457190863
 21
37.7381401768
 31
0.0
  0
SPLINE
  5
174
330
1F
100
AcDbEntity
  8
0
  6
Continuous
 62
     7
370
    25
100
AcDbSpline
210
0.0
220
0.0
230
1.0
 70
     8
 71
     3
 72
    10
 73
     6
 74
     0
 42
0.000000001
 43
0.00000001
 40
0.0
 40
0.0
 40
0.0
 40
0.0
 40
0.5
 40
0.5
 40
1.0
 40
1.0
 40
1.0
 40
1.0
 10
105.7224957704419
 20
37.75239618806963
 30
0.0
 10
105.7509240612994
 20
37.74880529366953
 30
0.0
 10
105.769229887475
 20
37.74524127121645
 30
0.0
 10
105.7916273943976
 20
37.73990867351034
 30
0.0
 10
105.7957190751445
 20
37.7381400982573
 30
0.0
 10
105.7957190751445
 20
37.7381400982573
 30
0.0
  0
LINE
  5
175
330
1F
100
AcDbEntity
  8
0
  6
Continuous
 62
     7
370
    25
100
AcDbLine
 10
105.7957191273
 20
37.7381401768
 30
0.0
 11
105.7957191273
 21
35.4376299938
 31
0.0
  0
LINE
  5
176
330
1F
100
AcDbEntity
  8
0
  6
Continuous
 62
     7
370
    25
100
AcDbLine
 10
105.5457190863
 20
35.4376299938
 30
0.0
 11
105.7957191273
 21
35.4376299938
 31
0.0
  0
LINE
  5
177
330
1F
100
AcDbEntity
  8
0
  6
Continuous
 62
     7
370
    25
100
AcDbLine
 10
94.045719064
 20
35.4376299938
 30
0.0
 11
95.7336997866
 21
35.4376299938
 31
0.0
  0
LINE
  5
178
330
1F
100
AcDbEntity
  8
0
  6
Continuous
 62
     7
370
    25
100
AcDbLine
 10
94.045719064
 20
37.7381401768
 30
0.0
 11
94.045719064
 21
35.4376299938
 31
0.0
  0
LINE
  5
179
330
1F
100
AcDbEntity
  8
0
  6
Continuous
 62
     7
370
    25
100
AcDbLine
 10
105.5457190863
 20
44.9376296883
 30
0.0
 11
103.8577383637
 21
44.9376296883
 31
0.0
  0
LINE
  5
17A
330
1F
100
AcDbEntity
  8
0
  6
Continuous
 62
     7
370
    25
100
AcDbLine
 10
105.5457190863
 20
42.6371195053
 30
0.0
 11
105.5457190863
 21
44.9376296883
 31
0.0
  0
LINE
  5
17B
330
1F
100
AcDbEntity
  8
0
  6
Continuous
 62
     7
370
    25
100
AcDbLine
 10
103.8577383637
 20
35.4376299938
 30
0.0
 11
105.5457190863
 21
35.4376299938
 31
0.0
  0
LINE
  5
17C
330
1F
100
AcDbEntity
  8
0
  6
Continuous
 62
     7
370
    25
100
AcDbLine
 10
94.045719064
 20
35.4376299938
 30
0.0
 11
93.795719023
 21
35.4376299938
 31
0.0
  0
LINE
  5
17D
330
1F
100
AcDbEntity
  8
0
  6
Continuous
 62
     7
370
    25
100
AcDbLine
 10
93.795719023
 20
35.4376299938
 30
0.0
 11
93.795719023
 21
37.7381401768
 31
0.0
  0
SPLINE
  5
17E
330
1F
100
AcDbEntity
  8
0
  6
Continuous
 62
     7
370
    25
100
AcDbSpline
210
0.0
220
0.0
230
1.0
 70
     8
 71
     3
 72
    10
 73
     6
 74
     0
 42
0.000000001
 43
0.00000001
 40
0.0
 40
0.0
 40
0.0
 40
0.0
 40
0.5
 40
0.5
 40
1.0
 40
1.0
 40
1.0
 40
1.0
 10
93.86894237984706
 20
37.75239618806963
 30
0.0
 10
93.84051408898958
 20
37.74880529366953
 30
0.0
 10
93.82220826281393
 20
37.74524127121645
 30
0.0
 10
93.79981075589139
 20
37.73990867351034
 30
0.0
 10
93.79571907514448
 20
37.7381400982573
 30
0.0
 10
93.79571907514448
 20
37.7381400982573
 30
0.0
  0
SPLINE
  5
17F
330
1F
100
AcDbEntity
  8
0
  6
Continuous
 62
     7
370
    25
100
AcDbSpline
210
0.0
220
0.0
230
1.0
 70
     8
 71
     3
 72
    10
 73
     6
 74
     0
 42
0.000000001
 43
0.00000001
 40
0.0
 40
0.0
 40
0.0
 40
0.0
 40
0.5
 40
0.5
 40
1.0
 40
1.0
 40
1.0
 40
1.0
 10
93.86894237984706
 20
42.62286349401132
 30
0.0
 10
93.84051408898958
 20
42.62645438841142
 30
0.0
 10
93.82220826281393
 20
42.6300184108645
 30
0.0
 10
93.79981075589139
 20
42.63535100857062
 30
0.0
 10
93.79571907514448
 20
42.63711958382365
 30
0.0
 10
93.79571907514448
 20
42.63711958382365
 30
0.0
  0
LINE
  5
180
330
1F
100
AcDbEntity
  8
0
  6
Continuous
 62
     7
370
    25
100
AcDbLine
 10
93.795719023
 20
42.6371195053
 30
0.0
 11
93.795719023
 21
44.9376296883
 31
0.0
  0
LINE
  5
181
330
1F
100
AcDbEntity
  8
0
  6
Continuous
 62
     7
370
    25
100
AcDbLine
 10
94.045719064
 20
44.9376296883
 30
0.0
 11
93.795719023
 21
44.9376296883
 31
0.0
  0
LINE
  5
182
330
1F
100
AcDbEntity
  8
0
  6
Continuous
 62
     7
370
    25
100
AcDbLine
 10
105.7957191273
 20
44.9376296883
 30
0.0
 11
105.7957191273
 21
42.6371195053
 31
0.0
  0
SPLINE
  5
183
330
1F
100
AcDbEntity
  8
0
  6
Continuous
 62
     7
370
    25
100
AcDbSpline
210
0.0
220
0.0
230
1.0
 70
     8
 71
     3
 72
    10
 73
     6
 74
     0
 42
0.000000001
 43
0.00000001
 40
0.0
 40
0.0
 40
0.0
 40
0.0
 40
0.5
 40
0.5
 40
1.0
 40
1.0
 40
1.0
 40
1.0
 10
105.7224957704419
 20
42.62286349401132
 30
0.0
 10
105.7509240612994
 20
42.62645438841142
 30
0.0
 10
105.769229887475
 20
42.6300184108645
 30
0.0
 10
105.7916273943976
 20
42.63535100857062
 30
0.0
 10
105.7957190751445
 20
42.63711958382365
 30
0.0
 10
105.7957190751445
 20
42.63711958382365
 30
0.0
  0
LINE
  5
184
330
1F
100
AcDbEntity
  8
0
  6
Continuous
 62
     7
370
    25
100
AcDbLine
 10
105.7957191273
 20
44.9376296883
 30
0.0
 11
105.5457190863
 21
44.9376296883
 31
0.0
  0
LINE
  5
185
330
1F
100
AcDbEntity
  8
0
  6
Continuous
 62
     7
370
    25
100
AcDbLine
 10
105.7957191273
 20
41.3129909129
 30
0.0
 11
105.7957191273
 21
42.6371195053
 31
0.0
  0
LINE
  5
186
330
1F
100
AcDbEntity
  8
0
  6
Continuous
 62
     7
370
    25
100
AcDbLine
 10
93.795719023
 20
40.187629841
 30
0.0
 11
93.795719023
 21
40.1690190856
 31
0.0
  0
LINE
  5
187
330
1F
100
AcDbEntity
  8
0
  6
Continuous
 62
     7
370
    25
100
AcDbLine
 10
93.795719023
 20
39.0622687691
 30
0.0
 11
93.795719023
 21
37.7381401768
 31
0.0
  0
LINE
  5
188
330
1F
100
AcDbEntity
  8
0
  6
Continuous
 62
     7
370
    25
100
AcDbLine
 10
103.1868841286
 20
45.1876297293
 30
0.0
 11
105.5457190863
 21
45.1876297293
 31
0.0
  0
LINE
  5
189
330
1F
100
AcDbEntity
  8
0
  6
Continuous
 62
     7
370
    25
100
AcDbLine
 10
105.5457190863
 20
45.1876297293
 30
0.0
 11
105.5457190863
 21
44.9376296883
 31
0.0
  0
LINE
  5
18A
330
1F
100
AcDbEntity
  8
0
  6
Continuous
 62
     7
370
    25
100
AcDbLine
 10
105.5457190863
 20
35.1876299528
 30
0.0
 11
103.1868841286
 21
35.1876299528
 31
0.0
  0
LINE
  5
18B
330
1F
100
AcDbEntity
  8
0
  6
Continuous
 62
     7
370
    25
100
AcDbLine
 10
105.5457190863
 20
35.1876299528
 30
0.0
 11
105.5457190863
 21
35.4376299938
 31
0.0
  0
ARC
  5
18C
330
1F
100
AcDbEntity
  8
0
  6
Continuous
 62
     7
370
    25
100
AcDbCircle
 10
105.5457190751
 20
35.437629841
 30
0.0
 40
0.25
100
AcDbArc
 50
270.0
 51
0.0
  0
LINE
  5
18D
330
1F
100
AcDbEntity
  8
0
  6
Continuous
 62
     7
370
    25
100
AcDbLine
 10
94.045719064
 20
35.4376299938
 30
0.0
 11
94.045719064
 21
35.1876299528
 31
0.0
  0
ARC
  5
18E
330
1F
100
AcDbEntity
  8
0
  6
Continuous
 62
     7
370
    25
100
AcDbCircle
 10
94.0457190751
 20
35.437629841
 30
0.0
 40
0.25
100
AcDbArc
 50
180.0
 51
270.0
  0
ARC
  5
18F
330
1F
100
AcDbEntity
  8
0
  6
Continuous
 62
     7
370
    25
100
AcDbCircle
 10
94.0457190751
 20
44.937629841
 30
0.0
 40
0.25
100
AcDbArc
 50
90.0
 51
180.0
  0
LINE
  5
190
330
1F
100
AcDbEntity
  8
0
  6
Continuous
 62
     7
370
    25
100
AcDbLine
 10
94.045719064
 20
44.9376296883
 30
0.0
 11
94.045719064
 21
45.1876297293
 31
0.0
  0
LINE
  5
191
330
1F
100
AcDbEntity
  8
0
  6
Continuous
 62
     7
370
    25
100
AcDbLine
 10
94.045719064
 20
45.1876297293
 30
0.0
 11
96.4045540217
 21
45.1876297293
 31
0.0
  0
LINE
  5
192
330
1F
100
AcDbEntity
  8
0
  6
Continuous
 62
     7
370
    25
100
AcDbLine
 10
96.4045540217
 20
35.1876299528
 30
0.0
 11
94.045719064
 21
35.1876299528
 31
0.0
  0
ARC
  5
193
330
1F
100
AcDbEntity
  8
0
  6
Continuous
 62
     7
370
    25
100
AcDbCircle
 10
105.5457190751
 20
44.937629841
 30
0.0
 40
0.25
100
AcDbArc
 50
0.0
 51
90.0
  0
SPLINE
  5
194
330
1F
100
AcDbEntity
  8
0
  6
Continuous
 62
     7
370
    25
100
AcDbSpline
210
0.0
220
0.0
230
1.0
 70
     8
 71
     3
 72
    10
 73
     6
 74
     0
 42
0.000000001
 43
0.00000001
 40
0.0
 40
0.0
 40
0.0
 40
0.0
 40
0.5
 40
0.5
 40
1.0
 40
1.0
 40
1.0
 40
1.0
 10
96.40455408358184
 20
45.18762984104048
 30
0.0
 10
96.40455408358184
 20
45.18762984104048
 30
0.0
 10
96.44510078099788
 20
45.22302616436151
 30
0.0
 10
96.57793361813015
 20
45.3324119940599
 30
0.0
 10
96.66869502339019
 20
45.40465302656866
 30
0.0
 10
96.77161407850845
 20
45.48052305985393
 30
0.0
  0
SPLINE
  5
195
330
1F
100
AcDbEntity
  8
0
  6
Continuous
 62
     7
370
    25
100
AcDbSpline
210
0.0
220
0.0
230
1.0
 70
     8
 71
     3
 72
    10
 73
     6
 74
     0
 42
0.000000001
 43
0.00000001
 40
0.0
 40
0.0
 40
0.0
 40
0.0
 40
0.5
 40
0.5
 40
1.0
 40
1.0
 40
1.0
 40
1.0
 10
97.11878812422633
 20
45.55736360390214
 30
0.0
 10
97.06801400402802
 20
45.5320515828838
 30
0.0
 10
97.01254570459194
 20
45.51370558456326
 30
0.0
 10
96.89447031040007
 20
45.48760734834613
 30
0.0
 10
96.83284908992255
 20
45.48052305985468
 30
0.0
 10
96.77161407850845
 20
45.48052305985393
 30
0.0
  0
SPLINE
  5
196
330
1F
100
AcDbEntity
  8
0
  6
Continuous
 62
     7
370
    25
100
AcDbSpline
210
0.0
220
0.0
230
1.0
 70
     8
 71
     3
 72
    10
 73
     6
 74
     0
 42
0.000000001
 43
0.00000001
 40
0.0
 40
0.0
 40
0.0
 40
0.0
 40
0.5
 40
0.5
 40
1.0
 40
1.0
 40
1.0
 40
1.0
 10
102.8198240717805
 20
45.48052305985393
 30
0.0
 10
102.9227431268988
 20
45.40465302656866
 30
0.0
 10
103.0135045321588
 20
45.3324119940599
 30
0.0
 10
103.1463373692911
 20
45.22302616436151
 30
0.0
 10
103.1868840667071
 20
45.18762984104048
 30
0.0
 10
103.1868840667071
 20
45.18762984104048
 30
0.0
  0
SPLINE
  5
197
330
1F
100
AcDbEntity
  8
0
  6
Continuous
 62
     7
370
    25
100
AcDbSpline
210
0.0
220
0.0
230
1.0
 70
     8
 71
     3
 72
    10
 73
     6
 74
     0
 42
0.000000001
 43
0.00000001
 40
0.0
 40
0.0
 40
0.0
 40
0.0
 40
0.5
 40
0.5
 40
1.0
 40
1.0
 40
1.0
 40
1.0
 10
102.4726500260626
 20
45.55736360390214
 30
0.0
 10
102.5234241462609
 20
45.5320515828838
 30
0.0
 10
102.578892445697
 20
45.51370558456325
 30
0.0
 10
102.6969678398889
 20
45.48760734834613
 30
0.0
 10
102.7585890603664
 20
45.48052305985475
 30
0.0
 10
102.8198240717805
 20
45.48052305985392
 30
0.0
  0
LINE
  5
198
330
1F
100
AcDbEntity
  8
0
  6
Continuous
 62
     7
370
    25
100
AcDbLine
 10
93.795719023
 20
46.1876298932
 30
0.0
 11
94.045719064
 21
46.1876298932
 31
0.0
  0
LINE
  5
199
330
1F
100
AcDbEntity
  8
0
  6
Continuous
 62
     7
370
    25
100
AcDbLine
 10
94.045719064
 20
46.1876298932
 30
0.0
 11
94.045719064
 21
45.1876297293
 31
0.0
  0
LINE
  5
19A
330
1F
100
AcDbEntity
  8
0
  6
Continuous
 62
     7
370
    25
100
AcDbLine
 10
93.795719023
 20
44.9376296883
 30
0.0
 11
93.795719023
 21
46.1876298932
 31
0.0
  0
LINE
  5
19B
330
1F
100
AcDbEntity
  8
0
  6
Continuous
 62
     7
370
    25
100
AcDbLine
 10
103.1868841286
 20
46.1876298932
 30
0.0
 11
105.5457190863
 21
46.1876298932
 31
0.0
  0
LINE
  5
19C
330
1F
100
AcDbEntity
  8
0
  6
Continuous
 62
     7
370
    25
100
AcDbLine
 10
105.5457190863
 20
45.1876297293
 30
0.0
 11
105.5457190863
 21
46.1876298932
 31
0.0
  0
SPLINE
  5
19D
330
1F
100
AcDbEntity
  8
0
  6
Continuous
 62
     7
370
    25
100
AcDbSpline
210
0.0
220
0.0
230
1.0
 70
     8
 71
     3
 72
    10
 73
     6
 74
     0
 42
0.000000001
 43
0.00000001
 40
0.0
 40
0.0
 40
0.0
 40
0.0
 40
0.5
 40
0.5
 40
1.0
 40
1.0
 40
1.0
 40
1.0
 10
103.1868840667071
 20
46.18762984104048
 30
0.0
 10
103.1868840667071
 20
46.03831581528947
 30
0.0
 10
103.1463373692911
 20
45.89279971174002
 30
0.0
 10
103.0135045321588
 20
45.65285185681543
 30
0.0
 10
102.9227431268988
 20
45.55639309313919
 30
0.0
 10
102.8198240717805
 20
45.48052305985393
 30
0.0
  0
LINE
  5
19E
330
1F
100
AcDbEntity
  8
0
  6
Continuous
 62
     7
370
    25
100
AcDbLine
 10
105.7957191273
 20
46.1876298932
 30
0.0
 11
105.5457190863
 21
46.1876298932
 31
0.0
  0
LINE
  5
19F
330
1F
100
AcDbEntity
  8
0
  6
Continuous
 62
     7
370
    25
100
AcDbLine
 10
105.7957191273
 20
46.1876298932
 30
0.0
 11
105.7957191273
 21
44.9376296883
 31
0.0
  0
LINE
  5
1A0
330
1F
100
AcDbEntity
  8
0
  6
Continuous
 62
     7
370
    25
100
AcDbLine
 10
94.045719064
 20
46.1876298932
 30
0.0
 11
96.4045540217
 21
46.1876298932
 31
0.0
  0
SPLINE
  5
1A1
330
1F
100
AcDbEntity
  8
0
  6
Continuous
 62
     7
370
    25
100
AcDbSpline
210
0.0
220
0.0
230
1.0
 70
     8
 71
     3
 72
    10
 73
     6
 74
     0
 42
0.000000001
 43
0.00000001
 40
0.0
 40
0.0
 40
0.0
 40
0.0
 40
0.5
 40
0.5
 40
1.0
 40
1.0
 40
1.0
 40
1.0
 10
96.77161407850845
 20
45.48052305985393
 30
0.0
 10
96.66869502339019
 20
45.55639309313919
 30
0.0
 10
96.57793361813015
 20
45.65285185681543
 30
0.0
 10
96.44510078099788
 20
45.89279971174002
 30
0.0
 10
96.40455408358184
 20
46.03831581528948
 30
0.0
 10
96.40455408358184
 20
46.18762984104048
 30
0.0
  0
SPLINE
  5
1A2
330
1F
100
AcDbEntity
  8
0
  6
Continuous
 62
     7
370
    25
100
AcDbSpline
210
0.0
220
0.0
230
1.0
 70
    24
 71
     3
 72
    14
 73
    10
 74
     0
 42
0.000000001
 43
0.00000001
 40
0.0
 40
0.0
 40
0.0
 40
0.0
 40
0.25
 40
0.25
 40
0.5
 40
0.5
 40
0.75
 40
0.75
 40
1.0
 40
1.0
 40
1.0
 40
1.0
 10
93.79571907514448
 20
46.93762984104048
 30
0.0
 10
93.79571907514448
 20
46.93762984104048
 30
0.0
 10
93.80556398888207
 20
46.93762984104048
 30
0.0
 10
93.84505609519115
 20
46.93762984104048
 30
0.0
 10
93.8747037343664
 20
46.93762984104048
 30
0.0
 10
93.95413287157005
 20
46.93762984104048
 30
0.0
 10
94.00391529563935
 20
46.93762984104048
 30
0.0
 10
94.12414428197395
 20
46.93762984104048
 30
0.0
 10
94.1945923145811
 20
46.93762984104048
 30
0.0
 10
94.27571907514448
 20
46.93762984104048
 30
0.0
  0
SPLINE
  5
1A3
330
1F
100
AcDbEntity
  8
0
  6
Continuous
 62
     7
370
    25
100
AcDbSpline
210
0.0
220
0.0
230
1.0
 70
    24
 71
     3
 72
    14
 73
    10
 74
     0
 42
0.000000001
 43
0.00000001
 40
0.0
 40
0.0
 40
0.0
 40
0.0
 40
0.25
 40
0.25
 40
0.5
 40
0.5
 40
0.75
 40
0.75
 40
1.0
 40
1.0
 40
1.0
 40
1.0
 10
105.7957190751445
 20
46.93762984104048
 30
0.0
 10
105.7957190751445
 20
46.93762984104048
 30
0.0
 10
105.7858741614069
 20
46.93762984104048
 30
0.0
 10
105.7463820550978
 20
46.93762984104048
 30
0.0
 10
105.7167344159226
 20
46.93762984104048
 30
0.0
 10
105.6373052787189
 20
46.93762984104048
 30
0.0
 10
105.5875228546496
 20
46.93762984104048
 30
0.0
 10
105.467293868315
 20
46.93762984104048
 30
0.0
 10
105.3968458357079
 20
46.93762984104048
 30
0.0
 10
105.3157190751445
 20
46.93762984104048
 30
0.0
  0
LINE
  5
1A4
330
1F
100
AcDbEntity
  8
0
  6
Continuous
 62
     7
370
    25
100
AcDbLine
 10
103.0512374613
 20
46.9376300161
 30
0.0
 11
105.3157191976
 21
46.9376300161
 31
0.0
  0
LINE
  5
1A5
330
1F
100
AcDbEntity
  8
0
  6
Continuous
 62
     7
370
    25
100
AcDbLine
 10
103.0512374613
 20
46.1876298932
 30
0.0
 11
103.0512374613
 21
46.9376300161
 31
0.0
  0
SPLINE
  5
1A6
330
1F
100
AcDbEntity
  8
0
  6
Continuous
 62
     7
370
    25
100
AcDbSpline
210
0.0
220
0.0
230
1.0
 70
     8
 71
     3
 72
    12
 73
     8
 74
     0
 42
0.000000001
 43
0.00000001
 40
0.0
 40
0.0
 40
0.0
 40
0.0
 40
0.4999999999999991
 40
0.4999999999999991
 40
0.7499999999999996
 40
0.7499999999999996
 40
1.0
 40
1.0
 40
1.0
 40
1.0
 10
102.4726500260626
 20
45.55736360390214
 30
0.0
 10
102.613113597082
 20
45.60441175845055
 30
0.0
 10
102.7457366983311
 20
45.66944998966017
 30
0.0
 10
102.9112808198438
 20
45.82292334271217
 30
0.0
 10
102.9596399158101
 20
45.8830830624372
 30
0.0
 10
103.0302775627686
 20
46.02437058400233
 30
0.0
 10
103.0512374670446
 20
46.104810892826
 30
0.0
 10
103.0512374670446
 20
46.18762984104048
 30
0.0
  0
SPLINE
  5
1A7
330
1F
100
AcDbEntity
  8
0
  6
Continuous
 62
     7
370
    25
100
AcDbSpline
210
0.0
220
0.0
230
1.0
 70
     8
 71
     3
 72
    12
 73
     8
 74
     0
 42
0.000000001
 43
0.00000001
 40
0.0
 40
0.0
 40
0.0
 40
0.0
 40
0.2499999999999999
 40
0.2499999999999999
 40
0.4999999999999998
 40
0.4999999999999998
 40
1.0
 40
1.0
 40
1.0
 40
1.0
 10
96.54020068324434
 20
46.18762984104048
 30
0.0
 10
96.54020068324434
 20
46.104810892826
 30
0.0
 10
96.56116058752038
 20
46.02437058400233
 30
0.0
 10
96.6317982344789
 20
45.8830830624372
 30
0.0
 10
96.6801573304452
 20
45.82292334271216
 30
0.0
 10
96.84570145195782
 20
45.66944998966018
 30
0.0
 10
96.97832455320676
 20
45.60441175845022
 30
0.0
 10
97.11878812422621
 20
45.55736360390181
 30
0.0
  0
LINE
  5
1A8
330
1F
100
AcDbEntity
  8
0
  6
Continuous
 62
     7
370
    25
100
AcDbLine
 10
96.540200689
 20
46.4376299342
 30
0.0
 11
96.540200689
 21
46.1876298932
 31
0.0
  0
SPLINE
  5
1A9
330
1F
100
AcDbEntity
  8
0
  6
Continuous
 62
     7
370
    25
100
AcDbSpline
210
0.0
220
0.0
230
1.0
 70
     8
 71
     3
 72
    14
 73
    10
 74
     0
 42
0.000000001
 43
0.00000001
 40
0.0
 40
0.0
 40
0.0
 40
0.0
 40
0.25
 40
0.25
 40
0.5
 40
0.5
 40
0.75
 40
0.75
 40
1.0
 40
1.0
 40
1.0
 40
1.0
 10
96.54020068324434
 20
46.43762984104048
 30
0.0
 10
96.54020068324434
 20
46.52494787004687
 30
0.0
 10
96.50442838037112
 20
46.60657597786846
 30
0.0
 10
96.40815509999658
 20
46.7342770960019
 30
0.0
 10
96.34828626937785
 20
46.78366788882747
 30
0.0
 10
96.22422907531029
 20
46.8610265563855
 30
0.0
 10
96.15823754996052
 20
46.88959536595738
 30
0.0
 10
96.02745968084804
 20
46.92766273492448
 30
0.0
 10
95.96189967757132
 20
46.93762984104048
 30
0.0
 10
95.89618064091921
 20
46.93762984104048
 30
0.0
  0
LINE
  5
1AA
330
1F
100
AcDbEntity
  8
0
  6
Continuous
 62
     7
370
    25
100
AcDbLine
 10
94.2757189527
 20
46.9376300161
 30
0.0
 11
95.8961806513
 21
46.9376300161
 31
0.0
  0
LINE
  5
1AB
330
1F
100
AcDbEntity
  8
0
  6
Continuous
 62
     7
370
    25
100
AcDbLine
 10
103.1868841286
 20
46.1876298932
 30
0.0
 11
103.0512374613
 21
46.1876298932
 31
0.0
  0
LINE
  5
1AC
330
1F
100
AcDbEntity
  8
0
  6
Continuous
 62
     7
370
    25
100
AcDbLine
 10
96.4045540217
 20
46.1876298932
 30
0.0
 11
96.540200689
 21
46.1876298932
 31
0.0
  0
SPLINE
  5
1AD
330
1F
100
AcDbEntity
  8
0
  6
Continuous
 62
     7
370
    25
100
AcDbSpline
210
0.0
220
0.0
230
1.0
 70
     8
 71
     3
 72
    14
 73
    10
 74
     0
 42
0.000000001
 43
0.00000001
 40
0.0
 40
0.0
 40
0.0
 40
0.0
 40
0.4999999999999986
 40
0.4999999999999986
 40
0.7499999999999989
 40
0.7499999999999989
 40
0.8749999999999994
 40
0.8749999999999994
 40
1.0
 40
1.0
 40
1.0
 40
1.0
 10
95.73369987282649
 20
46.68762984104048
 30
0.0
 10
95.85637292345439
 20
46.68762984104048
 30
0.0
 10
95.97983895247927
 20
46.6727261742066
 30
0.0
 10
96.16183580996186
 20
46.62496742062498
 30
0.0
 10
96.22222945567296
 20
46.60489740017167
 30
0.0
 10
96.30724020480652
 20
46.56127829630557
 30
0.0
 10
96.33504055383976
 20
46.54433888170922
 30
0.0
 10
96.38275445809973
 20
46.50088458512138
 30
0.0
 10
96.40455408358184
 20
46.47165152879578
 30
0.0
 10
96.40455408358184
 20
46.43762984104048
 30
0.0
  0
LWPOLYLINE
  5
1AE
330
1F
100
AcDbEntity
  8
0
  6
Continuous
 62
     7
370
    25
100
AcDbPolyline
 90
        9
 70
   128
 43
0.0
 10
95.7336997866
 20
46.6876299752
 10
95.7653982818
 20
46.692433737
 10
95.795878607
 20
46.706660155
 10
95.8239691585
 20
46.7297625428
 10
95.848590999
 20
46.7608533499
 10
95.8687979049
 20
46.798737224
 10
95.8838126875
 20
46.8419589733
 10
95.8930586252
 20
46.8888571186
 10
95.8961806513
 20
46.9376300161
  0
LINE
  5
1AF
330
1F
100
AcDbEntity
  8
0
  6
Continuous
 62
     7
370
    25
100
AcDbLine
 10
96.4045540217
 20
46.4376299342
 30
0.0
 11
96.540200689
 21
46.4376299342
 31
0.0
  0
LINE
  5
1B0
330
1F
100
AcDbEntity
  8
0
  6
Continuous
 62
     7
370
    25
100
AcDbLine
 10
103.1868841286
 20
46.799654111
 30
0.0
 11
103.1868841286
 21
46.1876298932
 31
0.0
  0
SPLINE
  5
1B1
330
1F
100
AcDbEntity
  8
0
  6
Continuous
 62
     7
370
    25
100
AcDbSpline
210
0.0
220
0.0
230
1.0
 70
     8
 71
     3
 72
     8
 73
     4
 74
     0
 42
0.000000001
 43
0.00000001
 40
0.0
 40
0.0
 40
0.0
 40
0.0
 40
1.0
 40
1.0
 40
1.0
 40
1.0
 10
103.1868840667071
 20
46.79965399182689
 30
0.0
 10
103.1359727656319
 20
46.84283291272296
 30
0.0
 10
103.090058074166
 20
46.89046188645111
 30
0.0
 10
103.0512374670446
 20
46.93762984104048
 30
0.0
  0
SPLINE
  5
1B2
330
1F
100
AcDbEntity
  8
0
  6
Continuous
 62
     7
370
    25
100
AcDbSpline
210
0.0
220
0.0
230
1.0
 70
     8
 71
     3
 72
    10
 73
     6
 74
     0
 42
0.000000001
 43
0.00000001
 40
0.0
 40
0.0
 40
0.0
 40
0.0
 40
0.5
 40
0.5
 40
1.0
 40
1.0
 40
1.0
 40
1.0
 10
103.5457190751445
 20
46.68762984104048
 30
0.0
 10
103.4813690164388
 20
46.68762984104048
 30
0.0
 10
103.4184831912344
 20
46.69608176703301
 30
0.0
 10
103.2959059037467
 20
46.73142428947885
 30
0.0
 10
103.2363757179768
 20
46.75767910511117
 30
0.0
 10
103.1868840667072
 20
46.79965399182701
 30
0.0
  0
SPLINE
  5
1B3
330
1F
100
AcDbEntity
  8
0
  6
Continuous
 62
     7
370
    25
100
AcDbSpline
210
0.0
220
0.0
230
1.0
 70
     8
 71
     3
 72
    10
 73
     6
 74
     0
 42
0.000000001
 43
0.00000001
 40
0.0
 40
0.0
 40
0.0
 40
0.0
 40
0.5
 40
0.5
 40
1.0
 40
1.0
 40
1.0
 40
1.0
 10
105.3885068222501
 20
46.7608452452999
 30
0.0
 10
105.3609658754281
 20
46.78927250536718
 30
0.0
 10
105.3413527415384
 20
46.82349914353404
 30
0.0
 10
105.3190438682501
 20
46.88652118907159
 30
0.0
 10
105.3157190751445
 20
46.91510690836358
 30
0.0
 10
105.3157190751445
 20
46.93762984104048
 30
0.0
  0
SPLINE
  5
1B4
330
1F
100
AcDbEntity
  8
0
  6
Continuous
 62
     7
370
    25
100
AcDbSpline
210
0.0
220
0.0
230
1.0
 70
     8
 71
     3
 72
    12
 73
     8
 74
     0
 42
0.000000001
 43
0.00000001
 40
0.0
 40
0.0
 40
0.0
 40
0.0
 40
0.25
 40
0.25
 40
0.5
 40
0.5
 40
1.0
 40
1.0
 40
1.0
 40
1.0
 10
105.3885068222501
 20
46.7608452452999
 30
0.0
 10
105.4022772956611
 20
46.74663161526627
 30
0.0
 10
105.4183413155123
 20
46.7339300915137
 30
0.0
 10
105.4517326197077
 20
46.71286266217126
 30
0.0
 10
105.4690599040518
 20
46.70449675658141
 30
0.0
 10
105.5179509112421
 20
46.68786957545674
 30
0.0
 10
105.5457190751445
 20
46.68762984104048
 30
0.0
 10
105.5457190751445
 20
46.68762984104048
 30
0.0
  0
LINE
  5
1B5
330
1F
100
AcDbEntity
  8
0
  6
Continuous
 62
     7
370
    25
100
AcDbLine
 10
96.4045540217
 20
46.1876298932
 30
0.0
 11
96.4045540217
 21
46.4376299342
 31
0.0
  0
LINE
  5
1B6
330
1F
100
AcDbEntity
  8
0
  6
Continuous
 62
     7
370
    25
100
AcDbLine
 10
93.795719023
 20
46.4376299342
 30
0.0
 11
94.045719064
 21
46.4376299342
 31
0.0
  0
LINE
  5
1B7
330
1F
100
AcDbEntity
  8
0
  6
Continuous
 62
     7
370
    25
100
AcDbLine
 10
94.045719064
 20
46.4376299342
 30
0.0
 11
94.045719064
 21
46.1876298932
 31
0.0
  0
LINE
  5
1B8
330
1F
100
AcDbEntity
  8
0
  6
Continuous
 62
     7
370
    25
100
AcDbLine
 10
93.795719023
 20
46.1876298932
 30
0.0
 11
93.795719023
 21
46.4376299342
 31
0.0
  0
LINE
  5
1B9
330
1F
100
AcDbEntity
  8
0
  6
Continuous
 62
     7
370
    25
100
AcDbLine
 10
105.5457190863
 20
46.1876298932
 30
0.0
 11
105.5457190863
 21
46.6876299752
 31
0.0
  0
ARC
  5
1BA
330
1F
100
AcDbEntity
  8
0
  6
Continuous
 62
     7
370
    25
100
AcDbCircle
 10
105.5457190751
 20
46.437629841
 30
0.0
 40
0.25
100
AcDbArc
 50
0.0
 51
90.0
  0
LINE
  5
1BB
330
1F
100
AcDbEntity
  8
0
  6
Continuous
 62
     7
370
    25
100
AcDbLine
 10
105.7957191273
 20
46.4376299342
 30
0.0
 11
105.7957191273
 21
46.1876298932
 31
0.0
  0
LINE
  5
1BC
330
1F
100
AcDbEntity
  8
0
  6
Continuous
 62
     7
370
    25
100
AcDbLine
 10
96.4045540217
 20
46.4376299342
 30
0.0
 11
94.045719064
 21
46.4376299342
 31
0.0
  0
LINE
  5
1BD
330
1F
100
AcDbEntity
  8
0
  6
Continuous
 62
     7
370
    25
100
AcDbLine
 10
94.045719064
 20
46.6876299752
 30
0.0
 11
95.7336997866
 21
46.6876299752
 31
0.0
  0
LINE
  5
1BE
330
1F
100
AcDbEntity
  8
0
  6
Continuous
 62
     7
370
    25
100
AcDbLine
 10
94.045719064
 20
46.4376299342
 30
0.0
 11
94.045719064
 21
46.6876299752
 31
0.0
  0
LINE
  5
1BF
330
1F
100
AcDbEntity
  8
0
  6
Continuous
 62
     7
370
    25
100
AcDbLine
 10
103.5457189913
 20
46.6876299752
 30
0.0
 11
105.5457190863
 21
46.6876299752
 31
0.0
  0
ARC
  5
1C0
330
1F
100
AcDbEntity
  8
0
  6
Continuous
 62
     7
370
    25
100
AcDbCircle
 10
94.0457190751
 20
46.437629841
 30
0.0
 40
0.25
100
AcDbArc
 50
90.0
 51
180.0
  0
SPLINE
  5
1C1
330
1F
100
AcDbEntity
  8
0
  6
Continuous
 62
     7
370
    25
100
AcDbSpline
210
0.0
220
0.0
230
1.0
 70
     8
 71
     3
 72
    12
 73
     8
 74
     0
 42
0.000000001
 43
0.00000001
 40
0.0
 40
0.0
 40
0.0
 40
0.0
 40
0.25
 40
0.25
 40
0.5
 40
0.5
 40
1.0
 40
1.0
 40
1.0
 40
1.0
 10
94.20293132803886
 20
46.7608452452999
 30
0.0
 10
94.18916085462786
 20
46.74663161526627
 30
0.0
 10
94.17309683477662
 20
46.7339300915137
 30
0.0
 10
94.13970553058128
 20
46.71286266217127
 30
0.0
 10
94.12237824623716
 20
46.70449675658141
 30
0.0
 10
94.07348723904686
 20
46.68786957545674
 30
0.0
 10
94.04571907514448
 20
46.68762984104048
 30
0.0
 10
94.04571907514448
 20
46.68762984104048
 30
0.0
  0
SPLINE
  5
1C2
330
1F
100
AcDbEntity
  8
0
  6
Continuous
 62
     7
370
    25
100
AcDbSpline
210
0.0
220
0.0
230
1.0
 70
     8
 71
     3
 72
    10
 73
     6
 74
     0
 42
0.000000001
 43
0.00000001
 40
0.0
 40
0.0
 40
0.0
 40
0.0
 40
0.5
 40
0.5
 40
1.0
 40
1.0
 40
1.0
 40
1.0
 10
94.20293132803886
 20
46.7608452452999
 30
0.0
 10
94.23047227486089
 20
46.78927250536718
 30
0.0
 10
94.25008540875055
 20
46.82349914353404
 30
0.0
 10
94.27239428203887
 20
46.88652118907159
 30
0.0
 10
94.27571907514448
 20
46.91510690836358
 30
0.0
 10
94.27571907514448
 20
46.93762984104048
 30
0.0
  0
SPLINE
  5
1C3
330
1F
100
AcDbEntity
  8
0
  6
Continuous
 62
     7
370
    25
100
AcDbSpline
210
0.0
220
0.0
230
1.0
 70
     8
 71
     3
 72
    12
 73
     8
 74
     0
 42
0.000000001
 43
0.00000001
 40
0.0
 40
0.0
 40
0.0
 40
0.0
 40
0.25
 40
0.25
 40
0.5
 40
0.5
 40
1.0
 40
1.0
 40
1.0
 40
1.0
 10
105.7944258578159
 20
46.68963744133016
 30
0.0
 10
105.7944157004588
 20
46.67937398204104
 30
0.0
 10
105.7858592743473
 20
46.67179520224425
 30
0.0
 10
105.7644859181124
 20
46.65738174679519
 30
0.0
 10
105.751668987989
 20
46.6505470711429
 30
0.0
 10
105.7260754918454
 20
46.62422131814245
 30
0.0
 10
105.7223479399968
 20
46.61455436678147
 30
0.0
 10
105.7224957704419
 20
46.61440653633633
 30
0.0
  0
LINE
  5
1C4
330
1F
100
AcDbEntity
  8
0
  6
Continuous
 62
     7
370
    25
100
AcDbLine
 10
105.7960204102
 20
46.4957342183
 30
0.0
 11
105.79634777
 21
46.5588383076
 31
0.0
  0
SPLINE
  5
1C5
330
1F
100
AcDbEntity
  8
0
  6
Continuous
 62
     7
370
    25
100
AcDbSpline
210
0.0
220
0.0
230
1.0
 70
     8
 71
     3
 72
    12
 73
     8
 74
     0
 42
0.000000001
 43
0.00000001
 40
0.0
 40
0.0
 40
0.0
 40
0.0
 40
0.25
 40
0.25
 40
0.5
 40
0.5
 40
1.0
 40
1.0
 40
1.0
 40
1.0
 10
105.7944258578159
 20
46.68963744133016
 30
0.0
 10
105.7944360151731
 20
46.6999009006193
 30
0.0
 10
105.7859016027801
 20
46.71456579105006
 30
0.0
 10
105.7498561146749
 20
46.74630116923356
 30
0.0
 10
105.7223450389626
 20
46.76337165698632
 30
0.0
 10
105.608515531119
 20
46.80859561878574
 30
0.0
 10
105.5074539800756
 20
46.80177219151904
 30
0.0
 10
105.3885068222501
 20
46.7608452452999
 30
0.0
  0
SPLINE
  5
1C6
330
1F
100
AcDbEntity
  8
0
  6
Continuous
 62
     7
370
    25
100
AcDbSpline
210
0.0
220
0.0
230
1.0
 70
     8
 71
     3
 72
    12
 73
     8
 74
     0
 42
0.000000001
 43
0.00000001
 40
0.0
 40
0.0
 40
0.0
 40
0.0
 40
0.25
 40
0.25
 40
0.5
 40
0.5
 40
1.0
 40
1.0
 40
1.0
 40
1.0
 10
93.79701229247301
 20
46.68963744133016
 30
0.0
 10
93.79702244983018
 20
46.67937398204103
 30
0.0
 10
93.80557887594162
 20
46.67179520224425
 30
0.0
 10
93.82695223217655
 20
46.65738174679518
 30
0.0
 10
93.83976916230002
 20
46.65054707114289
 30
0.0
 10
93.86536265844357
 20
46.62422131814245
 30
0.0
 10
93.8690902102922
 20
46.61455436678147
 30
0.0
 10
93.86894237984706
 20
46.61440653633633
 30
0.0
  0
LINE
  5
1C7
330
1F
100
AcDbEntity
  8
0
  6
Continuous
 62
     7
370
    25
100
AcDbLine
 10
93.7954177401
 20
46.4957342183
 30
0.0
 11
93.7950903803
 21
46.5588383076
 31
0.0
  0
SPLINE
  5
1C8
330
1F
100
AcDbEntity
  8
0
  6
Continuous
 62
     7
370
    25
100
AcDbSpline
210
0.0
220
0.0
230
1.0
 70
     8
 71
     3
 72
    14
 73
    10
 74
     0
 42
0.000000001
 43
0.00000001
 40
0.0
 40
0.0
 40
0.0
 40
0.0
 40
0.25
 40
0.25
 40
0.5
 40
0.5
 40
0.75
 40
0.75
 40
1.0
 40
1.0
 40
1.0
 40
1.0
 10
93.79701229247301
 20
46.68963744133016
 30
0.0
 10
93.79700213511586
 20
46.6999009006193
 30
0.0
 10
93.80553654750888
 20
46.71456579105005
 30
0.0
 10
93.8415820356141
 20
46.74630116923355
 30
0.0
 10
93.86909311132632
 20
46.76337165698631
 30
0.0
 10
93.94497944988878
 20
46.7935209648526
 30
0.0
 10
93.98921642229021
 20
46.7993524350025
 30
0.0
 10
94.08845557190888
 20
46.79324631178093
 30
0.0
 10
94.1434577491261
 20
46.78130871840947
 30
0.0
 10
94.20293132803886
 20
46.7608452452999
 30
0.0
  0
SPLINE
  5
1C9
330
1F
100
AcDbEntity
  8
0
  6
Continuous
 62
     7
370
    25
100
AcDbSpline
210
0.0
220
0.0
230
1.0
 70
     8
 71
     3
 72
    10
 73
     6
 74
     0
 42
0.000000001
 43
0.00000001
 40
0.0
 40
0.0
 40
0.0
 40
0.0
 40
0.5
 40
0.5
 40
1.0
 40
1.0
 40
1.0
 40
1.0
 10
105.7944258578159
 20
46.68963744133016
 30
0.0
 10
105.7944664872445
 20
46.7306912784867
 30
0.0
 10
105.7949116920928
 20
46.77416810886771
 30
0.0
 10
105.7913860911415
 20
46.86322680859205
 30
0.0
 10
105.7957190751445
 20
46.89533017811571
 30
0.0
 10
105.7957190751445
 20
46.93762984104048
 30
0.0
  0
SPLINE
  5
1CA
330
1F
100
AcDbEntity
  8
0
  6
Continuous
 62
     7
370
    25
100
AcDbSpline
210
0.0
220
0.0
230
1.0
 70
     8
 71
     3
 72
     9
 73
     5
 74
     0
 42
0.000000001
 43
0.00000001
 40
0.0
 40
0.0
 40
0.0
 40
0.0
 40
0.1237681934257705
 40
1.0
 40
1.0
 40
1.0
 40
1.0
 10
93.79750576534981
 20
46.81868568785082
 30
0.0
 10
93.79759278776449
 20
46.81336212300294
 30
0.0
 10
93.79829589582698
 20
46.77034974073791
 30
0.0
 10
93.79761168855727
 20
46.7273314423088
 30
0.0
 10
93.79701216438527
 20
46.68963744096051
 30
0.0
  0
SPLINE
  5
1CB
330
1F
100
AcDbEntity
  8
0
  6
Continuous
 62
     7
370
    25
100
AcDbSpline
210
0.0
220
0.0
230
1.0
 70
     8
 71
     3
 72
    10
 73
     6
 74
     0
 42
0.000000001
 43
0.00000001
 40
0.0
 40
0.0
 40
0.0
 40
0.0
 40
0.5
 40
0.5
 40
1.0
 40
1.0
 40
1.0
 40
1.0
 10
101.5767912821504
 20
39.68762984104048
 30
0.0
 10
101.5927937329678
 20
39.93752753793067
 30
0.0
 10
101.5967655184668
 20
40.18908293667083
 30
0.0
 10
101.5803976301323
 20
40.69581538129928
 30
0.0
 10
101.5602253672382
 20
40.94430185456385
 30
0.0
 10
101.5277698827134
 20
41.18762984104048
 30
0.0
  0
LINE
  5
1CC
330
1F
100
AcDbEntity
  8
0
  6
Continuous
 62
     7
370
    25
100
AcDbLine
 10
101.5775258906
 20
39.6876298173
 30
0.0
 11
98.0035881997
 21
39.6876298173
 31
0.0
  0
SPLINE
  5
1CD
330
1F
100
AcDbEntity
  8
0
  6
Continuous
 62
     7
370
    25
100
AcDbSpline
210
0.0
220
0.0
230
1.0
 70
     8
 71
     3
 72
    10
 73
     6
 74
     0
 42
0.000000001
 43
0.00000001
 40
0.0
 40
0.0
 40
0.0
 40
0.0
 40
0.5
 40
0.5
 40
1.0
 40
1.0
 40
1.0
 40
1.0
 10
98.06366826757561
 20
41.18762984104048
 30
0.0
 10
98.03131572766567
 20
40.94507365958315
 30
0.0
 10
98.01129420059075
 20
40.69875396744814
 30
0.0
 10
97.99473837139954
 20
40.19593844631257
 30
0.0
 10
97.99854709709453
 20
39.93904731141827
 30
0.0
 10
98.01464686813857
 20
39.68762984104048
 30
0.0
  0
SPLINE
  5
1CE
330
1F
100
AcDbEntity
  8
0
  6
Continuous
 62
     7
370
    25
100
AcDbSpline
210
0.0
220
0.0
230
1.0
 70
     8
 71
     3
 72
    22
 73
    18
 74
     0
 42
0.000000001
 43
0.00000001
 40
0.0
 40
0.0
 40
0.0
 40
0.0
 40
0.25
 40
0.25
 40
0.375
 40
0.375
 40
0.4375
 40
0.4375
 40
0.5
 40
0.5
 40
0.625
 40
0.625
 40
0.75
 40
0.75
 40
0.875
 40
0.875
 40
1.0
 40
1.0
 40
1.0
 40
1.0
 10
98.01464686813857
 20
39.68762984104048
 30
0.0
 10
98.27713394150798
 20
39.51340411951294
 30
0.0
 10
98.54564649949272
 20
39.33953474177412
 30
0.0
 10
98.97929958363045
 20
39.0975643635905
 30
0.0
 10
99.13049156718365
 20
39.01917320879662
 30
0.0
 10
99.36870021277235
 20
38.92555666275748
 30
0.0
 10
99.44929934548405
 20
38.89888955074991
 30
0.0
 10
99.61449718763114
 20
38.86055767902388
 30
0.0
 10
99.70038388803856
 20
38.84907772919033
 30
0.0
 10
99.95722510433698
 20
38.8467555394489
 30
0.0
 10
100.1251171472639
 20
38.88883432918026
 30
0.0
 10
100.4435435686856
 20
39.01086409264773
 30
0.0
 10
100.5944610013373
 20
39.08822455896867
 30
0.0
 10
100.88986231615
 20
39.25205403167309
 30
0.0
 10
101.0328839483311
 20
39.33863517229991
 30
0.0
 10
101.3096984684822
 20
39.51209291601191
 30
0.0
 10
101.4443197344093
 20
39.59970188828155
 30
0.0
 10
101.5767912821504
 20
39.68762984104048
 30
0.0
  0
LINE
  5
1CF
330
1F
100
AcDbEntity
  8
0
  6
Continuous
 62
     8
370
    25
100
AcDbLine
 10
105.8196289718
 20
40.6902625973
 30
0.0
 11
105.8197370052
 21
40.6892232995
 31
0.0
  0
SPLINE
  5
1D0
330
1F
100
AcDbEntity
  8
0
  6
Continuous
 62
     8
370
    25
100
AcDbSpline
210
0.0
220
0.0
230
1.0
 70
     8
 71
     3
 72
     9
 73
     5
 74
     0
 42
0.000000001
 43
0.00000001
 40
0.0
 40
0.0
 40
0.0
 40
0.0
 40
0.6969931475903739
 40
1.0
 40
1.0
 40
1.0
 40
1.0
 10
105.8198268778037
 20
39.6869383102801
 30
0.0
 10
105.8197189016632
 20
39.68588450030236
 30
0.0
 10
105.819563984587
 20
39.68437256294491
 30
0.0
 10
105.8196167183541
 20
39.68488111580508
 30
0.0
 10
105.8196326970469
 20
39.68503521080653
 30
0.0
  0
LINE
  5
1D1
330
1F
100
AcDbEntity
  8
0
  6
Continuous
 62
     8
370
    25
100
AcDbLine
 10
99.7957190751
 20
50.6876296995
 30
0.0
 11
107.0457188665
 21
50.6876296995
 31
0.0
  0
LINE
  5
1D2
330
1F
100
AcDbEntity
  8
0
  6
Continuous
 62
     8
370
    25
100
AcDbLine
 10
92.5457192838
 20
50.6876296995
 30
0.0
 11
99.7957190751
 21
50.6876296995
 31
0.0
  0
SPLINE
  5
1D3
330
1F
100
AcDbEntity
  8
0
  6
Continuous
 62
     8
370
    25
100
AcDbSpline
210
0.0
220
0.0
230
1.0
 70
     8
 71
     3
 72
    11
 73
     7
 74
     0
 42
0.000000001
 43
0.00000001
 40
0.0
 40
0.0
 40
0.0
 40
0.0
 40
0.3343639175910649
 40
0.6656546967154401
 40
0.925018305535319
 40
1.0
 40
1.0
 40
1.0
 40
1.0
 10
94.20293143683786
 20
37.82017083629559
 30
0.0
 10
94.1396824646241
 20
38.03784720665323
 30
0.0
 10
94.01376584144349
 20
38.4711992840438
 30
0.0
 10
93.88297253716149
 20
39.08594293437358
 30
0.0
 10
93.82003607248829
 20
39.53254275244865
 30
0.0
 10
93.81314529131711
 20
39.7590256867294
 30
0.0
 10
93.81159993553275
 20
39.8098177092668
 30
0.0
  0
SPLINE
  5
1D4
330
1F
100
AcDbEntity
  8
0
  6
Continuous
 62
     8
370
    25
100
AcDbSpline
210
0.0
220
0.0
230
1.0
 70
     8
 71
     3
 72
    11
 73
     7
 74
     0
 42
0.000000001
 43
0.00000001
 40
0.0
 40
0.0
 40
0.0
 40
0.0
 40
0.35481288195188
 40
0.7063646790239707
 40
0.981590397701459
 40
1.0
 40
1.0
 40
1.0
 40
1.0
 10
105.3885067134511
 20
42.55508884578536
 30
0.0
 10
105.4518690794286
 20
42.33742237085168
 30
0.0
 10
105.5780114479349
 20
41.90408999336019
 30
0.0
 10
105.7072448818449
 20
41.28921021933073
 30
0.0
 10
105.7680979761115
 20
40.88157229947594
 30
0.0
 10
105.7748929574633
 20
40.69422501026342
 30
0.0
 10
105.7753189719629
 20
40.68247918529029
 30
0.0
  0
SPLINE
  5
1D5
330
1F
100
AcDbEntity
  8
0
  6
Continuous
 62
     8
370
    25
100
AcDbSpline
210
0.0
220
0.0
230
1.0
 70
     8
 71
     3
 72
    11
 73
     7
 74
     0
 42
0.000000001
 43
0.00000001
 40
0.0
 40
0.0
 40
0.0
 40
0.0
 40
0.3541821360541687
 40
0.7051089844135281
 40
0.9798454381803247
 40
1.0
 40
1.0
 40
1.0
 40
1.0
 10
105.3885067134511
 20
37.82017083629559
 30
0.0
 10
105.4518649856169
 20
38.03783766471206
 30
0.0
 10
105.5779992041257
 20
38.47117074592028
 30
0.0
 10
105.7072889534406
 20
39.08604565736015
 30
0.0
 10
105.7681881622203
 20
39.49481926485536
 30
0.0
 10
105.7749861408333
 20
39.68330620665626
 30
0.0
 10
105.7754507541072
 20
39.69618849712948
 30
0.0
  0
SPLINE
  5
1D6
330
1F
100
AcDbEntity
  8
0
  6
Continuous
 62
     8
370
    25
100
AcDbSpline
210
0.0
220
0.0
230
1.0
 70
     8
 71
     3
 72
    11
 73
     7
 74
     0
 42
0.000000001
 43
0.00000001
 40
0.0
 40
0.0
 40
0.0
 40
0.0
 40
0.3149086265368593
 40
0.6269229281696587
 40
0.871195212139614
 40
1.0
 40
1.0
 40
1.0
 40
1.0
 10
94.20293143683786
 20
42.55508884578536
 30
0.0
 10
94.13976427079554
 20
42.33740533314108
 30
0.0
 10
94.01401050807733
 20
41.904039036822
 30
0.0
 10
93.88209185951902
 20
41.2893936374095
 30
0.0
 10
93.81621915968263
 20
40.80108918933546
 30
0.0
 10
93.80918475403111
 20
40.53265783882683
 30
0.0
 10
93.80675612682218
 20
40.43998196628469
 30
0.0
  0
SPLINE
  5
1D7
330
1F
100
AcDbEntity
  8
0
  6
Continuous
 62
     8
370
    25
100
AcDbSpline
210
0.0
220
0.0
230
1.0
 70
     8
 71
     3
 72
    11
 73
     7
 74
     0
 42
0.000000001
 43
0.00000001
 40
0.0
 40
0.0
 40
0.0
 40
0.0
 40
0.3495773578469041
 40
0.7024084785240086
 40
0.9792315484920846
 40
1.0
 40
1.0
 40
1.0
 40
1.0
 10
105.7224957525145
 20
37.75239616423438
 30
0.0
 10
105.7232679487923
 20
37.97890887431002
 30
0.0
 10
105.7248195287229
 20
38.43404260788623
 30
0.0
 10
105.742417795806
 20
39.06787866344337
 30
0.0
 10
105.7743332089032
 20
39.48808708109458
 30
0.0
 10
105.7797124035413
 20
39.68065929278724
 30
0.0
 10
105.7800878092062
 20
39.69409860927205
 30
0.0
  0
SPLINE
  5
1D8
330
1F
100
AcDbEntity
  8
0
  6
Continuous
 62
     8
370
    25
100
AcDbSpline
210
0.0
220
0.0
230
1.0
 70
     8
 71
     3
 72
    11
 73
     7
 74
     0
 42
0.000000001
 43
0.00000001
 40
0.0
 40
0.0
 40
0.0
 40
0.0
 40
0.3237622611883575
 40
0.6505380059094147
 40
0.9069186354615666
 40
1.0
 40
1.0
 40
1.0
 40
1.0
 10
93.8689423977744
 20
37.75239616423438
 30
0.0
 10
93.86822852104481
 20
37.97891084435226
 30
0.0
 10
93.86679412303181
 20
38.43404853634957
 30
0.0
 10
93.84837447451838
 20
39.06785684553049
 30
0.0
 10
93.81455483965783
 20
39.5396460769495
 30
0.0
 10
93.8084733045411
 20
39.78383990498486
 30
0.0
 10
93.80685345003123
 20
39.84888244211267
 30
0.0
  0
SPLINE
  5
1D9
330
1F
100
AcDbEntity
  8
0
  6
Continuous
 62
     8
370
    25
100
AcDbSpline
210
0.0
220
0.0
230
1.0
 70
     8
 71
     3
 72
    11
 73
     7
 74
     0
 42
0.000000001
 43
0.00000001
 40
0.0
 40
0.0
 40
0.0
 40
0.0
 40
0.3499640393876549
 40
0.7031854407231192
 40
0.980314715795181
 40
1.0
 40
1.0
 40
1.0
 40
1.0
 10
105.7224957525145
 20
42.62286351784657
 30
0.0
 10
105.7232690257076
 20
42.3963508459064
 30
0.0
 10
105.7248227694922
 20
41.94121718895607
 30
0.0
 10
105.7424058691367
 20
41.30738059629319
 30
0.0
 10
105.7743000436043
 20
40.88788718356273
 30
0.0
 10
105.7796693109662
 20
40.69603026827856
 30
0.0
 10
105.7800254105937
 20
40.68330596690591
 30
0.0
  0
SPLINE
  5
1DA
330
1F
100
AcDbEntity
  8
0
  6
Continuous
 62
     8
370
    25
100
AcDbSpline
210
0.0
220
0.0
230
1.0
 70
     8
 71
     3
 72
    11
 73
     7
 74
     0
 42
0.000000001
 43
0.00000001
 40
0.0
 40
0.0
 40
0.0
 40
0.0
 40
0.3092837534732705
 40
0.6214462288043704
 40
0.8663616279453407
 40
1.0
 40
1.0
 40
1.0
 40
1.0
 10
93.8689423977744
 20
42.62286351784657
 30
0.0
 10
93.86825329341436
 20
42.39634799977146
 30
0.0
 10
93.86686867071437
 20
41.94120862406024
 30
0.0
 10
93.84810012436199
 20
41.30741211679697
 30
0.0
 10
93.81285140261186
 20
40.80293209750628
 30
0.0
 10
93.80631143411078
 20
40.52601464490671
 30
0.0
 10
93.80400267163033
 20
40.42825628037623
 30
0.0
  0
LINE
  5
1DB
330
1F
100
AcDbEntity
  8
0
  6
Continuous
 62
     8
370
    25
100
AcDbLine
 10
93.795719023
 20
40.187629841
 30
0.0
 11
93.7952496364
 21
40.187629841
 31
0.0
  0
LINE
  5
1DC
330
1F
100
AcDbEntity
  8
0
  6
Continuous
 62
     8
370
    25
100
AcDbLine
 10
99.7957190751
 20
49.6876295356
 30
0.0
 11
93.795719023
 21
49.6876295356
 31
0.0
  0
LINE
  5
1DD
330
1F
100
AcDbEntity
  8
0
  6
Continuous
 62
     8
370
    25
100
AcDbLine
 10
105.7957191273
 20
49.6876295356
 30
0.0
 11
99.7957190751
 21
49.6876295356
 31
0.0
  0
SPLINE
  5
1DE
330
1F
100
AcDbEntity
  8
0
  6
Continuous
 62
     8
370
    25
100
AcDbSpline
210
0.0
220
0.0
230
1.0
 70
     8
 71
     3
 72
     9
 73
     5
 74
     0
 42
0.000000001
 43
0.00000001
 40
0.0
 40
0.0
 40
0.0
 40
0.0
 40
0.1251159292884992
 40
1.0
 40
1.0
 40
1.0
 40
1.0
 10
105.7963477700364
 20
46.55883830762993
 30
0.0
 10
105.7963839374475
 20
46.56429404312769
 30
0.0
 10
105.7966730086413
 20
46.60789948592612
 30
0.0
 10
105.7954745224134
 20
46.65149575745632
 30
0.0
 10
105.7944259859037
 20
46.68963744096051
 30
0.0
  0
SPLINE
  5
1DF
330
1F
100
AcDbEntity
  8
0
  6
Continuous
 62
     8
370
    25
100
AcDbSpline
210
0.0
220
0.0
230
1.0
 70
     8
 71
     3
 72
     9
 73
     5
 74
     0
 42
0.000000001
 43
0.00000001
 40
0.0
 40
0.0
 40
0.0
 40
0.0
 40
0.1251159292884992
 40
1.0
 40
1.0
 40
1.0
 40
1.0
 10
93.79509038025255
 20
46.55883830762993
 30
0.0
 10
93.79505421284149
 20
46.56429404312769
 30
0.0
 10
93.79476514164764
 20
46.60789948592612
 30
0.0
 10
93.79596362787552
 20
46.65149575745632
 30
0.0
 10
93.79701216438527
 20
46.68963744096051
 30
0.0
  0
LINE
  5
1E0
330
1F
100
AcDbEntity
  8
0
  6
Continuous
 62
     8
370
    25
100
AcDbLine
 10
93.795719023
 20
46.9376300161
 30
0.0
 11
93.7975057653
 21
46.8186856879
 31
0.0
  0
INSERT
  5
1EC
330
1F
100
AcDbEntity
  8
0
  6
Continuous
 62
     7
370
    18
100
AcDbBlockReference
  2
SW_CENTERMARKSYMBOL_0
 10
99.7957190751
 20
40.187629841
 30
0.0
  0
ARC
  5
1ED
330
1F
100
AcDbEntity
  8
0
  6
Continuous
 62
     7
370
    18
100
AcDbCircle
 10
99.7957190751
 20
40.187629841
 30
0.0
 40
4.283000000000001
100
AcDbArc
 50
75.0
 51
345.0
  0
LINE
  5
1EE
330
1F
100
AcDbEntity
  8
0
  6
Continuous
 62
     7
370
    25
100
AcDbLine
 10
69.8397137883
 20
75.7570052738
 30
0.0
 11
70.771401907
 21
76.6886929269
 31
0.0
  0
LINE
  5
1EF
330
1F
100
AcDbEntity
  8
0
  6
Continuous
 62
     7
370
    25
100
AcDbLine
 10
70.771401907
 20
86.825317725
 30
0.0
 11
69.5397138323
 21
88.0570053341
 31
0.0
  0
LINE
  5
1F0
330
1F
100
AcDbEntity
  8
0
  6
Continuous
 62
     7
370
    25
100
AcDbLine
 10
69.0214016202
 20
75.7570052738
 30
0.0
 11
69.8397137883
 21
75.7570052738
 31
0.0
  0
LINE
  5
1F1
330
1F
100
AcDbEntity
  8
0
  6
Continuous
 62
     7
370
    25
100
AcDbLine
 10
69.2714016612
 20
87.7570053781
 30
0.0
 11
69.0214016202
 21
87.7570053781
 31
0.0
  0
LINE
  5
1F2
330
1F
100
AcDbEntity
  8
0
  6
Continuous
 62
     7
370
    25
100
AcDbLine
 10
70.771401907
 20
76.6886929269
 30
0.0
 11
79.9159949372
 21
76.9744613426
 31
0.0
  0
LINE
  5
1F3
330
1F
100
AcDbEntity
  8
0
  6
Continuous
 62
     7
370
    25
100
AcDbLine
 10
79.9159949372
 20
86.5395493093
 30
0.0
 11
70.771401907
 21
86.825317725
 31
0.0
  0
LINE
  5
1F4
330
1F
100
AcDbEntity
  8
0
  6
Continuous
 62
     7
370
    25
100
AcDbLine
 10
79.9159949372
 20
76.9744613426
 30
0.0
 11
81.2714008341
 21
77.757005136
 31
0.0
  0
LINE
  5
1F5
330
1F
100
AcDbEntity
  8
0
  6
Continuous
 62
     7
370
    25
100
AcDbLine
 10
81.2714008341
 20
85.7570055159
 30
0.0
 11
79.9159949372
 21
86.5395493093
 31
0.0
  0
SPLINE
  5
1F6
330
1F
100
AcDbEntity
  8
0
  6
Continuous
 62
     7
370
    25
100
AcDbSpline
210
0.0
220
0.0
230
1.0
 70
     8
 71
     3
 72
    13
 73
     9
 74
     0
 42
0.000000001
 43
0.00000001
 40
0.0
 40
0.0
 40
0.0
 40
0.0
 40
0.0822338563772344
 40
0.2723568715633495
 40
0.4536735978837755
 40
0.6497306811603402
 40
0.8343208449444808
 40
1.0
 40
1.0
 40
1.0
 40
1.0
 10
69.52145665016363
 20
88.0566397900325
 30
0.0
 10
69.51071789079923
 20
88.0563633176596
 30
0.0
 10
69.47515133665948
 20
88.05544764674407
 30
0.0
 10
69.4173187951195
 20
88.03799591688752
 30
0.0
 10
69.35404114616722
 20
87.9978274881173
 30
0.0
 10
69.30624774835555
 20
87.94094054500736
 30
0.0
 10
69.27610905394214
 20
87.87457936148293
 30
0.0
 10
69.27383701114258
 20
87.82860354186113
 30
0.0
 10
69.27276232343505
 20
87.8068567472142
 30
0.0
  0
LINE
  5
1F7
330
1F
100
AcDbEntity
  8
0
  6
Continuous
 62
     7
370
    25
100
AcDbLine
 10
69.2714016612
 20
87.807305179
 30
0.0
 11
69.2714016612
 21
87.7570053781
 31
0.0
  0
LINE
  5
1F8
330
1F
100
AcDbEntity
  8
0
  6
Continuous
 62
     7
370
    25
100
AcDbLine
 10
69.5397138323
 20
88.0570053341
 30
0.0
 11
69.5113676327
 21
88.0570053341
 31
0.0
  0
CIRCLE
  5
1F9
330
1F
100
AcDbEntity
  8
0
  6
Continuous
 62
     7
370
    25
100
AcDbCircle
 10
62.2714014451
 20
81.7570053259
 30
0.0
 40
7.249999999999993
  0
CIRCLE
  5
1FA
330
1F
100
AcDbEntity
  8
0
  6
Continuous
 62
     7
370
    25
100
AcDbCircle
 10
62.2714014451
 20
81.7570053259
 30
0.0
 40
6.749999999999964
  0
CIRCLE
  5
1FB
330
1F
100
AcDbEntity
  8
0
  6
Continuous
 62
     7
370
    25
100
AcDbCircle
 10
62.2714014451
 20
81.7570053259
 30
0.0
 40
4.999999999999993
  0
CIRCLE
  5
1FC
330
1F
100
AcDbEntity
  8
0
  6
Continuous
 62
     7
370
    25
100
AcDbCircle
 10
62.2714014451
 20
81.7570053259
 30
0.0
 40
4.61842363379666
  0
CIRCLE
  5
1FD
330
1F
100
AcDbEntity
  8
0
  6
Continuous
 62
     7
370
    25
100
AcDbCircle
 10
62.2714014451
 20
81.7570053259
 30
0.0
 40
4.34249709987953
  0
CIRCLE
  5
1FE
330
1F
100
AcDbEntity
  8
0
  6
Continuous
 62
     7
370
    25
100
AcDbCircle
 10
62.2714014451
 20
81.7570053259
 30
0.0
 40
3.949999999999996
  0
CIRCLE
  5
1FF
330
1F
100
AcDbEntity
  8
0
  6
Continuous
 62
     7
370
    25
100
AcDbCircle
 10
62.2714014451
 20
81.7570053259
 30
0.0
 40
2.0
  0
LINE
  5
200
330
1F
100
AcDbEntity
  8
0
  6
Continuous
 62
     7
370
    25
100
AcDbLine
 10
66.3411064732
 20
87.7570053781
 30
0.0
 11
67.0214012923
 21
87.7570053781
 31
0.0
  0
ARC
  5
201
330
1F
100
AcDbEntity
  8
0
  6
Continuous
 62
     7
370
    25
100
AcDbCircle
 10
67.0214014451
 20
87.5070053259
 30
0.0
 40
0.25
100
AcDbArc
 50
0.0
 51
90.0
  0
LINE
  5
202
330
1F
100
AcDbEntity
  8
0
  6
Continuous
 62
     7
370
    25
100
AcDbLine
 10
57.5214015978
 20
87.5070053371
 30
0.0
 11
57.5214015978
 21
87.7570053781
 31
0.0
  0
LINE
  5
203
330
1F
100
AcDbEntity
  8
0
  6
Continuous
 62
     7
370
    25
100
AcDbLine
 10
57.5214015978
 20
87.7570053781
 30
0.0
 11
58.201696417
 21
87.7570053781
 31
0.0
  0
LINE
  5
204
330
1F
100
AcDbEntity
  8
0
  6
Continuous
 62
     7
370
    25
100
AcDbLine
 10
67.2714013333
 20
87.0070052552
 30
0.0
 11
67.2714013333
 21
87.5070053371
 31
0.0
  0
LINE
  5
205
330
1F
100
AcDbEntity
  8
0
  6
Continuous
 62
     7
370
    25
100
AcDbLine
 10
67.0214012923
 20
75.7570052738
 30
0.0
 11
66.3411064732
 21
75.7570052738
 31
0.0
  0
LINE
  5
206
330
1F
100
AcDbEntity
  8
0
  6
Continuous
 62
     7
370
    25
100
AcDbLine
 10
67.0214012923
 20
75.7570052738
 30
0.0
 11
67.0214012923
 21
76.0070053148
 31
0.0
  0
LINE
  5
207
330
1F
100
AcDbEntity
  8
0
  6
Continuous
 62
     7
370
    25
100
AcDbLine
 10
58.201696417
 20
75.7570052738
 30
0.0
 11
57.5214015978
 21
75.7570052738
 31
0.0
  0
LINE
  5
208
330
1F
100
AcDbEntity
  8
0
  6
Continuous
 62
     7
370
    25
100
AcDbLine
 10
57.5214015978
 20
75.7570052738
 30
0.0
 11
57.5214015978
 21
76.0070053148
 31
0.0
  0
ARC
  5
209
330
1F
100
AcDbEntity
  8
0
  6
Continuous
 62
     7
370
    25
100
AcDbCircle
 10
57.5214014451
 20
87.5070053259
 30
0.0
 40
0.25
100
AcDbArc
 50
90.0
 51
180.0
  0
LINE
  5
20A
330
1F
100
AcDbEntity
  8
0
  6
Continuous
 62
     7
370
    25
100
AcDbLine
 10
57.2714015568
 20
87.5070053371
 30
0.0
 11
57.5214015978
 21
87.5070053371
 31
0.0
  0
LINE
  5
20B
330
1F
100
AcDbEntity
  8
0
  6
Continuous
 62
     7
370
    25
100
AcDbLine
 10
57.2714015568
 20
87.0070052552
 30
0.0
 11
57.2714015568
 21
87.5070053371
 31
0.0
  0
LINE
  5
20C
330
1F
100
AcDbEntity
  8
0
  6
Continuous
 62
     7
370
    25
100
AcDbLine
 10
57.2714015568
 20
76.0070053148
 30
0.0
 11
57.2714015568
 21
76.5070053967
 31
0.0
  0
LINE
  5
20D
330
1F
100
AcDbEntity
  8
0
  6
Continuous
 62
     7
370
    25
100
AcDbLine
 10
57.2714015568
 20
76.0070053148
 30
0.0
 11
57.5214015978
 21
76.0070053148
 31
0.0
  0
LINE
  5
20E
330
1F
100
AcDbEntity
  8
0
  6
Continuous
 62
     7
370
    25
100
AcDbLine
 10
67.2714013333
 20
76.5070053967
 30
0.0
 11
67.2714013333
 21
76.0070053148
 31
0.0
  0
LINE
  5
20F
330
1F
100
AcDbEntity
  8
0
  6
Continuous
 62
     7
370
    25
100
AcDbLine
 10
67.2714013333
 20
76.0070053148
 30
0.0
 11
67.0214012923
 21
76.0070053148
 31
0.0
  0
ARC
  5
210
330
1F
100
AcDbEntity
  8
0
  6
Continuous
 62
     7
370
    25
100
AcDbCircle
 10
57.5214014451
 20
76.0070053259
 30
0.0
 40
0.2500000000000142
100
AcDbArc
 50
180.0
 51
270.0
  0
ARC
  5
211
330
1F
100
AcDbEntity
  8
0
  6
Continuous
 62
     7
370
    25
100
AcDbCircle
 10
67.0214014451
 20
76.0070053259
 30
0.0
 40
0.2500000000000142
100
AcDbArc
 50
270.0
 51
0.0
  0
LINE
  5
212
330
1F
100
AcDbEntity
  8
0
  6
Continuous
 62
     7
370
    25
100
AcDbLine
 10
70.771401907
 20
76.6886929269
 30
0.0
 11
70.771401907
 21
86.825317725
 31
0.0
  0
SPLINE
  5
213
330
1F
100
AcDbEntity
  8
0
  6
Continuous
 62
     7
370
    25
100
AcDbSpline
210
0.0
220
0.0
230
1.0
 70
     8
 71
     3
 72
    12
 73
     8
 74
     0
 42
0.000000001
 43
0.00000001
 40
0.0
 40
0.0
 40
0.0
 40
0.0
 40
0.2499999999999999
 40
0.2499999999999999
 40
0.4999999999999999
 40
0.4999999999999999
 40
1.0
 40
1.0
 40
1.0
 40
1.0
 10
69.53971394508669
 20
88.05622083446788
 30
0.0
 10
69.53971394508663
 20
88.05539522520635
 30
0.0
 10
69.54222892486536
 20
88.05140679820178
 30
0.0
 10
69.5614045479737
 20
88.02816425963805
 30
0.0
 10
69.57785710516706
 20
88.00915060649791
 30
0.0
 10
69.64722360101631
 20
87.93226054784293
 30
0.0
 10
69.7202366713278
 20
87.85500681826416
 30
0.0
 10
69.79487064090166
 20
87.78091525701329
 30
0.0
  0
LINE
  5
214
330
1F
100
AcDbEntity
  8
0
  6
Continuous
 62
     7
370
    25
100
AcDbLine
 10
69.5397138323
 20
88.0562206949
 30
0.0
 11
69.5397138323
 21
88.0570053341
 31
0.0
  0
LINE
  5
215
330
1F
100
AcDbEntity
  8
0
  6
Continuous
 62
     7
370
    25
100
AcDbLine
 10
69.8397137883
 20
75.7570052738
 30
0.0
 11
69.8397137883
 21
87.7365614506
 31
0.0
  0
SPLINE
  5
216
330
1F
100
AcDbEntity
  8
0
  6
Continuous
 62
     7
370
    25
100
AcDbSpline
210
0.0
220
0.0
230
1.0
 70
     8
 71
     3
 72
     8
 73
     4
 74
     0
 42
0.000000001
 43
0.00000001
 40
0.0000077174294832
 40
0.0000077174294832
 40
0.0000077174294832
 40
0.0000077174294832
 40
0.0000712580293169
 40
0.0000712580293169
 40
0.0000712580293169
 40
0.0000712580293169
 10
69.79487064090044
 20
87.7809152570145
 30
0.0
 10
69.80983958341243
 20
87.76605510248538
 30
0.0
 10
69.82480082942934
 20
87.75125854287461
 30
0.0
 10
69.83970777174662
 20
87.73657087634017
 30
0.0
  0
SPLINE
  5
217
330
1F
100
AcDbEntity
  8
0
  6
Continuous
 62
     7
370
    25
100
AcDbSpline
210
0.0
220
0.0
230
1.0
 70
    24
 71
     3
 72
    14
 73
    10
 74
     0
 42
0.000000001
 43
0.00000001
 40
0.0
 40
0.0
 40
0.0
 40
0.0
 40
0.25
 40
0.25
 40
0.5
 40
0.5
 40
0.75
 40
0.75
 40
1.0
 40
1.0
 40
1.0
 40
1.0
 10
69.0214014450867
 20
87.7570053259474
 30
0.0
 10
69.0214014450867
 20
87.7570053259474
 30
0.0
 10
69.0214014450867
 20
87.74716041220981
 30
0.0
 10
69.0214014450867
 20
87.70766830590073
 30
0.0
 10
69.0214014450867
 20
87.67802066672547
 30
0.0
 10
69.0214014450867
 20
87.59859152952181
 30
0.0
 10
69.0214014450867
 20
87.54880910545253
 30
0.0
 10
69.0214014450867
 20
87.42858011911792
 30
0.0
 10
69.0214014450867
 20
87.35813208651078
 30
0.0
 10
69.0214014450867
 20
87.2770053259474
 30
0.0
  0
SPLINE
  5
218
330
1F
100
AcDbEntity
  8
0
  6
Continuous
 62
     7
370
    25
100
AcDbSpline
210
0.0
220
0.0
230
1.0
 70
    24
 71
     3
 72
    14
 73
    10
 74
     0
 42
0.000000001
 43
0.00000001
 40
0.0
 40
0.0
 40
0.0
 40
0.0
 40
0.25
 40
0.25
 40
0.5
 40
0.5
 40
0.75
 40
0.75
 40
1.0
 40
1.0
 40
1.0
 40
1.0
 10
69.0214014450867
 20
75.75700532594739
 30
0.0
 10
69.0214014450867
 20
75.75700532594739
 30
0.0
 10
69.0214014450867
 20
75.76685023968498
 30
0.0
 10
69.0214014450867
 20
75.80634234599408
 30
0.0
 10
69.0214014450867
 20
75.83598998516933
 30
0.0
 10
69.0214014450867
 20
75.91541912237298
 30
0.0
 10
69.0214014450867
 20
75.96520154644226
 30
0.0
 10
69.0214014450867
 20
76.08543053277687
 30
0.0
 10
69.0214014450867
 20
76.15587856538403
 30
0.0
 10
69.0214014450867
 20
76.23700532594741
 30
0.0
  0
LINE
  5
219
330
1F
100
AcDbEntity
  8
0
  6
Continuous
 62
     7
370
    25
100
AcDbLine
 10
69.0214016202
 20
77.8574669021
 30
0.0
 11
69.0214016202
 21
76.2370052035
 31
0.0
  0
LINE
  5
21A
330
1F
100
AcDbEntity
  8
0
  6
Continuous
 62
     7
370
    25
100
AcDbLine
 10
69.0214016202
 20
87.2770054484
 30
0.0
 11
69.0214016202
 21
85.6565437498
 31
0.0
  0
SPLINE
  5
21B
330
1F
100
AcDbEntity
  8
0
  6
Continuous
 62
     7
370
    25
100
AcDbSpline
210
0.0
220
0.0
230
1.0
 70
     8
 71
     3
 72
    16
 73
    12
 74
     0
 42
0.000000001
 43
0.00000001
 40
0.0
 40
0.0
 40
0.0
 40
0.0
 40
0.0217737189833401
 40
0.0217737189833401
 40
0.0842737189833401
 40
0.0842737189833401
 40
0.1467737189833401
 40
0.1467737189833401
 40
0.2092737189833401
 40
0.2092737189833401
 40
0.2717737189833401
 40
0.2717737189833401
 40
0.2717737189833401
 40
0.2717737189833401
 10
69.83970776160656
 20
87.73657087622469
 30
0.0
 10
69.81721623424228
 20
87.73631475829856
 30
0.0
 10
69.7944387853767
 20
87.73618212875996
 30
0.0
 10
69.70527432929752
 20
87.73618954995877
 30
0.0
 10
69.64113898595988
 20
87.73728528380416
 30
0.0
 10
69.5189804961746
 20
87.74117820659724
 30
0.0
 10
69.46470391124122
 20
87.74383171125132
 30
0.0
 10
69.3709922228495
 20
87.74935163331939
 30
0.0
 10
69.33481629689364
 20
87.75200234095729
 30
0.0
 10
69.28410707152251
 20
87.75590688519827
 30
0.0
 10
69.27140145056688
 20
87.7570053259474
 30
0.0
 10
69.2714014450867
 20
87.7570053259474
 30
0.0
  0
LINE
  5
21C
330
1F
100
AcDbEntity
  8
0
  6
Continuous
 62
     7
370
    25
100
AcDbLine
 10
68.2714014972
 20
87.7570053781
 30
0.0
 11
68.2714014972
 21
87.5070053371
 31
0.0
  0
LINE
  5
21D
330
1F
100
AcDbEntity
  8
0
  6
Continuous
 62
     7
370
    25
100
AcDbLine
 10
68.2714014972
 20
87.5070053371
 30
0.0
 11
67.2714013333
 21
87.5070053371
 31
0.0
  0
LINE
  5
21E
330
1F
100
AcDbEntity
  8
0
  6
Continuous
 62
     7
370
    25
100
AcDbLine
 10
67.0214012923
 20
87.7570053781
 30
0.0
 11
68.2714014972
 21
87.7570053781
 31
0.0
  0
LINE
  5
21F
330
1F
100
AcDbEntity
  8
0
  6
Continuous
 62
     7
370
    25
100
AcDbLine
 10
67.2714013333
 20
76.0070053148
 30
0.0
 11
68.2714014972
 21
76.0070053148
 31
0.0
  0
LINE
  5
220
330
1F
100
AcDbEntity
  8
0
  6
Continuous
 62
     7
370
    25
100
AcDbLine
 10
68.2714014972
 20
76.0070053148
 30
0.0
 11
68.2714014972
 21
75.7570052738
 31
0.0
  0
LINE
  5
221
330
1F
100
AcDbEntity
  8
0
  6
Continuous
 62
     7
370
    25
100
AcDbLine
 10
68.2714014972
 20
75.7570052738
 30
0.0
 11
67.0214012923
 21
75.7570052738
 31
0.0
  0
LWPOLYLINE
  5
222
330
1F
100
AcDbEntity
  8
0
  6
Continuous
 62
     7
370
    25
100
AcDbPolyline
 90
        9
 70
   128
 43
0.0
 10
68.7714015792
 20
85.8190246145
 10
68.776205341
 20
85.7873261193
 10
68.790431759
 20
85.7568457941
 10
68.8135341468
 20
85.7287552426
 10
68.844624954
 20
85.7041334021
 10
68.882508828
 20
85.6839264962
 10
68.9257305774
 20
85.6689117136
 10
68.9726287226
 20
85.6596657759
 10
69.0214016202
 20
85.6565437498
  0
LWPOLYLINE
  5
223
330
1F
100
AcDbEntity
  8
0
  6
Continuous
 62
     7
370
    25
100
AcDbPolyline
 90
        9
 70
   128
 43
0.0
 10
69.0214016202
 20
77.8574669021
 10
68.9726287226
 20
77.854344876
 10
68.9257305774
 20
77.8450989383
 10
68.882508828
 20
77.8300841557
 10
68.844624954
 20
77.8098772498
 10
68.8135341468
 20
77.7852554093
 10
68.790431759
 20
77.7571648578
 10
68.776205341
 20
77.7266845326
 10
68.7714015792
 20
77.6949860374
  0
LINE
  5
224
330
1F
100
AcDbEntity
  8
0
  6
Continuous
 62
     7
370
    25
100
AcDbLine
 10
79.9159949372
 20
86.5395493093
 30
0.0
 11
79.9159949372
 21
76.9744613426
 31
0.0
  0
ARC
  5
225
330
1F
100
AcDbEntity
  8
0
  6
Continuous
 62
     7
370
    25
100
AcDbCircle
 10
68.5214014451
 20
87.5070053259
 30
0.0
 40
0.25
100
AcDbArc
 50
0.0
 51
90.0
  0
LINE
  5
226
330
1F
100
AcDbEntity
  8
0
  6
Continuous
 62
     7
370
    25
100
AcDbLine
 10
68.5214015382
 20
87.5070053371
 30
0.0
 11
68.7714015792
 21
87.5070053371
 31
0.0
  0
LINE
  5
227
330
1F
100
AcDbEntity
  8
0
  6
Continuous
 62
     7
370
    25
100
AcDbLine
 10
68.5214015382
 20
87.7570053781
 30
0.0
 11
68.5214015382
 21
87.5070053371
 31
0.0
  0
LINE
  5
228
330
1F
100
AcDbEntity
  8
0
  6
Continuous
 62
     7
370
    25
100
AcDbLine
 10
68.5214015382
 20
87.5070053371
 30
0.0
 11
68.2714014972
 21
87.5070053371
 31
0.0
  0
LINE
  5
229
330
1F
100
AcDbEntity
  8
0
  6
Continuous
 62
     7
370
    25
100
AcDbLine
 10
68.2714014972
 20
87.7570053781
 30
0.0
 11
68.5214015382
 21
87.7570053781
 31
0.0
  0
LINE
  5
22A
330
1F
100
AcDbEntity
  8
0
  6
Continuous
 62
     7
370
    25
100
AcDbLine
 10
68.7714015792
 20
87.5070053371
 30
0.0
 11
68.7714015792
 21
85.8190246145
 31
0.0
  0
LINE
  5
22B
330
1F
100
AcDbEntity
  8
0
  6
Continuous
 62
     7
370
    25
100
AcDbLine
 10
68.2714014972
 20
76.0070053148
 30
0.0
 11
68.5214015382
 21
76.0070053148
 31
0.0
  0
LINE
  5
22C
330
1F
100
AcDbEntity
  8
0
  6
Continuous
 62
     7
370
    25
100
AcDbLine
 10
68.7714015792
 20
77.6949860374
 30
0.0
 11
68.7714015792
 21
76.0070053148
 31
0.0
  0
LINE
  5
22D
330
1F
100
AcDbEntity
  8
0
  6
Continuous
 62
     7
370
    25
100
AcDbLine
 10
68.7714015792
 20
76.0070053148
 30
0.0
 11
68.5214015382
 21
76.0070053148
 31
0.0
  0
ARC
  5
22E
330
1F
100
AcDbEntity
  8
0
  6
Continuous
 62
     7
370
    25
100
AcDbCircle
 10
68.5214014451
 20
76.0070053259
 30
0.0
 40
0.2500000000000142
100
AcDbArc
 50
270.0
 51
0.0
  0
LINE
  5
22F
330
1F
100
AcDbEntity
  8
0
  6
Continuous
 62
     7
370
    25
100
AcDbLine
 10
68.5214015382
 20
76.0070053148
 30
0.0
 11
68.5214015382
 21
75.7570052738
 31
0.0
  0
LINE
  5
230
330
1F
100
AcDbEntity
  8
0
  6
Continuous
 62
     7
370
    25
100
AcDbLine
 10
68.5214015382
 20
75.7570052738
 30
0.0
 11
68.2714014972
 21
75.7570052738
 31
0.0
  0
LINE
  5
231
330
1F
100
AcDbEntity
  8
0
  6
Continuous
 62
     7
370
    25
100
AcDbLine
 10
81.2714008341
 20
85.7570055159
 30
0.0
 11
81.2714008341
 21
77.757005136
 31
0.0
  0
SPLINE
  5
232
330
1F
100
AcDbEntity
  8
0
  6
Continuous
 62
     7
370
    25
100
AcDbSpline
210
0.0
220
0.0
230
1.0
 70
     8
 71
     3
 72
    12
 73
     8
 74
     0
 42
0.000000001
 43
0.00000001
 40
0.0
 40
0.0
 40
0.0
 40
0.0
 40
0.25
 40
0.25
 40
0.5
 40
0.5
 40
1.0
 40
1.0
 40
1.0
 40
1.0
 10
68.84461684934614
 20
87.34979307305302
 30
0.0
 10
68.8304032193125
 20
87.36356354646402
 30
0.0
 10
68.81770169555992
 20
87.37962756631526
 30
0.0
 10
68.79663426621748
 20
87.4130188705106
 30
0.0
 10
68.78826836062763
 20
87.43034615485472
 30
0.0
 10
68.77164117950296
 20
87.47923716204504
 30
0.0
 10
68.7714014450867
 20
87.5070053259474
 30
0.0
 10
68.7714014450867
 20
87.5070053259474
 30
0.0
  0
SPLINE
  5
233
330
1F
100
AcDbEntity
  8
0
  6
Continuous
 62
     7
370
    25
100
AcDbSpline
210
0.0
220
0.0
230
1.0
 70
     8
 71
     3
 72
    10
 73
     6
 74
     0
 42
0.000000001
 43
0.00000001
 40
0.0
 40
0.0
 40
0.0
 40
0.0
 40
0.5
 40
0.5
 40
1.0
 40
1.0
 40
1.0
 40
1.0
 10
68.84461684934614
 20
87.34979307305302
 30
0.0
 10
68.8730441094134
 20
87.322252126231
 30
0.0
 10
68.90727074758027
 20
87.30263899234133
 30
0.0
 10
68.97029279311782
 20
87.280330119053
 30
0.0
 10
68.9988785124098
 20
87.2770053259474
 30
0.0
 10
69.0214014450867
 20
87.2770053259474
 30
0.0
  0
SPLINE
  5
234
330
1F
100
AcDbEntity
  8
0
  6
Continuous
 62
     7
370
    25
100
AcDbSpline
210
0.0
220
0.0
230
1.0
 70
     8
 71
     3
 72
    10
 73
     6
 74
     0
 42
0.000000001
 43
0.00000001
 40
0.0
 40
0.0
 40
0.0
 40
0.0
 40
0.5
 40
0.5
 40
1.0
 40
1.0
 40
1.0
 40
1.0
 10
68.84461684934614
 20
76.16421757884179
 30
0.0
 10
68.8730441094134
 20
76.1917585256638
 30
0.0
 10
68.90727074758027
 20
76.21137165955346
 30
0.0
 10
68.97029279311782
 20
76.2336805328418
 30
0.0
 10
68.9988785124098
 20
76.23700532594741
 30
0.0
 10
69.0214014450867
 20
76.23700532594741
 30
0.0
  0
SPLINE
  5
235
330
1F
100
AcDbEntity
  8
0
  6
Continuous
 62
     7
370
    25
100
AcDbSpline
210
0.0
220
0.0
230
1.0
 70
     8
 71
     3
 72
    12
 73
     8
 74
     0
 42
0.000000001
 43
0.00000001
 40
0.0
 40
0.0
 40
0.0
 40
0.0
 40
0.25
 40
0.25
 40
0.5
 40
0.5
 40
1.0
 40
1.0
 40
1.0
 40
1.0
 10
68.84461684934614
 20
76.16421757884179
 30
0.0
 10
68.8304032193125
 20
76.15044710543079
 30
0.0
 10
68.81770169555992
 20
76.13438308557954
 30
0.0
 10
68.79663426621748
 20
76.1009917813842
 30
0.0
 10
68.78826836062763
 20
76.08366449704009
 30
0.0
 10
68.77164117950296
 20
76.03477348984977
 30
0.0
 10
68.7714014450867
 20
76.0070053259474
 30
0.0
 10
68.7714014450867
 20
76.0070053259474
 30
0.0
  0
SPLINE
  5
236
330
1F
100
AcDbEntity
  8
0
  6
Continuous
 62
     7
370
    25
100
AcDbSpline
210
0.0
220
0.0
230
1.0
 70
     8
 71
     3
 72
    12
 73
     8
 74
     0
 42
0.000000001
 43
0.00000001
 40
0.0
 40
0.0
 40
0.0
 40
0.0
 40
0.25
 40
0.25
 40
0.5
 40
0.5
 40
1.0
 40
1.0
 40
1.0
 40
1.0
 10
68.7734090453764
 20
87.75571210861887
 30
0.0
 10
68.76314558608726
 20
87.7557019512617
 30
0.0
 10
68.75556680629047
 20
87.74714552515026
 30
0.0
 10
68.74115335084142
 20
87.72577216891534
 30
0.0
 10
68.73431867518912
 20
87.71295523879188
 30
0.0
 10
68.70799292218868
 20
87.6873617426483
 30
0.0
 10
68.6983259708277
 20
87.68363419079968
 30
0.0
 10
68.69817814038255
 20
87.68378202124482
 30
0.0
  0
SPLINE
  5
237
330
1F
100
AcDbEntity
  8
0
  6
Continuous
 62
     7
370
    25
100
AcDbSpline
210
0.0
220
0.0
230
1.0
 70
     8
 71
     3
 72
    10
 73
     6
 74
     0
 42
0.000000001
 43
0.00000001
 40
0.0
 40
0.0
 40
0.0
 40
0.0
 40
0.5
 40
0.5
 40
1.0
 40
1.0
 40
1.0
 40
1.0
 10
68.7734090453764
 20
87.75571210861887
 30
0.0
 10
68.73235520821986
 20
87.75567147919024
 30
0.0
 10
68.68828085590683
 20
87.75603003794704
 30
0.0
 10
68.5969295863949
 20
87.76102859252984
 30
0.0
 10
68.56417980489788
 20
87.7570053259474
 30
0.0
 10
68.5214014450867
 20
87.7570053259474
 30
0.0
  0
SPLINE
  5
238
330
1F
100
AcDbEntity
  8
0
  6
Continuous
 62
     7
370
    25
100
AcDbSpline
210
0.0
220
0.0
230
1.0
 70
     8
 71
     3
 72
    14
 73
    10
 74
     0
 42
0.000000001
 43
0.00000001
 40
0.0
 40
0.0
 40
0.0
 40
0.0
 40
0.25
 40
0.25
 40
0.5
 40
0.5
 40
0.75
 40
0.75
 40
1.0
 40
1.0
 40
1.0
 40
1.0
 10
68.7734090453764
 20
87.75571210861887
 30
0.0
 10
68.78367250466552
 20
87.75572226597602
 30
0.0
 10
68.79833739509628
 20
87.747187853583
 30
0.0
 10
68.8300727732798
 20
87.71114236547778
 30
0.0
 10
68.84714326103254
 20
87.68363128976557
 30
0.0
 10
68.87729256889882
 20
87.6077449512031
 30
0.0
 10
68.88312403904872
 20
87.56350797880167
 30
0.0
 10
68.87701791582715
 20
87.464268829183
 30
0.0
 10
68.8650803224557
 20
87.40926665196578
 30
0.0
 10
68.84461684934614
 20
87.34979307305302
 30
0.0
  0
SPLINE
  5
239
330
1F
100
AcDbEntity
  8
0
  6
Continuous
 62
     7
370
    25
100
AcDbSpline
210
0.0
220
0.0
230
1.0
 70
     8
 71
     3
 72
    12
 73
     8
 74
     0
 42
0.000000001
 43
0.00000001
 40
0.0
 40
0.0
 40
0.0
 40
0.0
 40
0.25
 40
0.25
 40
0.5
 40
0.5
 40
1.0
 40
1.0
 40
1.0
 40
1.0
 10
68.7734090453764
 20
75.75829854327594
 30
0.0
 10
68.76314558608726
 20
75.75830870063311
 30
0.0
 10
68.75556680629049
 20
75.76686512674455
 30
0.0
 10
68.74115335084142
 20
75.78823848297945
 30
0.0
 10
68.73431867518912
 20
75.80105541310292
 30
0.0
 10
68.70799292218868
 20
75.8266489092465
 30
0.0
 10
68.6983259708277
 20
75.83037646109513
 30
0.0
 10
68.69817814038255
 20
75.83022863064997
 30
0.0
  0
SPLINE
  5
23A
330
1F
100
AcDbEntity
  8
0
  6
Continuous
 62
     7
370
    25
100
AcDbSpline
210
0.0
220
0.0
230
1.0
 70
     8
 71
     3
 72
    12
 73
     8
 74
     0
 42
0.000000001
 43
0.00000001
 40
0.0
 40
0.0
 40
0.0
 40
0.0
 40
0.25
 40
0.25
 40
0.5
 40
0.5
 40
1.0
 40
1.0
 40
1.0
 40
1.0
 10
68.7734090453764
 20
75.75829854327594
 30
0.0
 10
68.78367250466552
 20
75.75828838591879
 30
0.0
 10
68.79833739509628
 20
75.76682279831181
 30
0.0
 10
68.8300727732798
 20
75.80286828641702
 30
0.0
 10
68.84714326103254
 20
75.83037936212924
 30
0.0
 10
68.89236722283195
 20
75.94420886997293
 30
0.0
 10
68.88554379556525
 20
76.04527042101624
 30
0.0
 10
68.84461684934614
 20
76.16421757884179
 30
0.0
  0
SPLINE
  5
23B
330
1F
100
AcDbEntity
  8
0
  6
Continuous
 62
     7
370
    25
100
AcDbSpline
210
0.0
220
0.0
230
1.0
 70
     8
 71
     3
 72
    10
 73
     6
 74
     0
 42
0.000000001
 43
0.00000001
 40
0.0
 40
0.0
 40
0.0
 40
0.0
 40
0.5
 40
0.5
 40
1.0
 40
1.0
 40
1.0
 40
1.0
 10
68.7734090453764
 20
75.75829854327594
 30
0.0
 10
68.73235520821986
 20
75.75833917270457
 30
0.0
 10
68.68828085590683
 20
75.75798061394775
 30
0.0
 10
68.5969295863949
 20
75.75298205936497
 30
0.0
 10
68.56417980489788
 20
75.75700532594739
 30
0.0
 10
68.5214014450867
 20
75.75700532594739
 30
0.0
  0
SPLINE
  5
23C
330
1F
100
AcDbEntity
  8
0
  6
Continuous
 62
     7
370
    25
100
AcDbSpline
210
0.0
220
0.0
230
1.0
 70
     8
 71
     3
 72
    10
 73
     6
 74
     0
 42
0.000000001
 43
0.00000001
 40
0.0
 40
0.0
 40
0.0
 40
0.0
 40
0.5
 40
0.5
 40
1.0
 40
1.0
 40
1.0
 40
1.0
 10
68.7734090453764
 20
87.75571210861887
 30
0.0
 10
68.81446288253292
 20
87.75575273804748
 30
0.0
 10
68.85793971291393
 20
87.75619794289571
 30
0.0
 10
68.94699841263828
 20
87.75267234194446
 30
0.0
 10
68.97910178216193
 20
87.7570053259474
 30
0.0
 10
69.0214014450867
 20
87.7570053259474
 30
0.0
  0
SPLINE
  5
23D
330
1F
100
AcDbEntity
  8
0
  6
Continuous
 62
     7
370
    25
100
AcDbSpline
210
0.0
220
0.0
230
1.0
 70
     8
 71
     3
 72
    10
 73
     6
 74
     0
 42
0.000000001
 43
0.00000001
 40
0.0
 40
0.0
 40
0.0
 40
0.0
 40
0.5
 40
0.5
 40
1.0
 40
1.0
 40
1.0
 40
1.0
 10
68.7734090453764
 20
75.75829854327594
 30
0.0
 10
68.81446288253292
 20
75.75825791384733
 30
0.0
 10
68.85793971291393
 20
75.75781270899908
 30
0.0
 10
68.94699841263828
 20
75.76133830995035
 30
0.0
 10
68.97910178216193
 20
75.75700532594739
 30
0.0
 10
69.0214014450867
 20
75.75700532594739
 30
0.0
  0
LINE
  5
23E
330
1F
100
AcDbEntity
  8
0
  6
Continuous
 62
     7
370
    25
100
AcDbLine
 10
63.2714014926
 20
80.0249545355
 30
0.0
 11
63.2714014926
 21
83.4890561164
 31
0.0
  0
SPLINE
  5
23F
330
1F
100
AcDbEntity
  8
0
  6
Continuous
 62
     7
370
    25
100
AcDbSpline
210
0.0
220
0.0
230
1.0
 70
     8
 71
     3
 72
    22
 73
    18
 74
     0
 42
0.000000001
 43
0.00000001
 40
0.0
 40
0.0
 40
0.0
 40
0.0
 40
0.25
 40
0.25
 40
0.375
 40
0.375
 40
0.4375
 40
0.4375
 40
0.5
 40
0.5
 40
0.625
 40
0.625
 40
0.75
 40
0.75
 40
0.875
 40
0.875
 40
1.0
 40
1.0
 40
1.0
 40
1.0
 10
63.18122658951341
 20
79.9759331189415
 30
0.0
 10
63.05767300684539
 20
80.23842019231093
 30
0.0
 10
62.95666768321474
 20
80.50693275029565
 30
0.0
 10
62.88230611100738
 20
80.94058583443338
 30
0.0
 10
62.8710380511391
 20
81.09177781798657
 30
0.0
 10
62.86859824356278
 20
81.32998646357528
 30
0.0
 10
62.86990255320356
 20
81.41058559628698
 30
0.0
 10
62.87285309557394
 20
81.57578343843407
 30
0.0
 10
62.87435804814692
 20
81.66167013884149
 30
0.0
 10
62.8746331854893
 20
81.9185113551399
 30
0.0
 10
62.86823823833543
 20
82.08640339806686
 30
0.0
 10
62.87028847165047
 20
82.40482981948848
 30
0.0
 10
62.88024205173225
 20
82.55574725214021
 30
0.0
 10
62.92905285859421
 20
82.8511485669529
 30
0.0
 10
62.96714460542361
 20
82.99417019913406
 30
0.0
 10
63.06211028488437
 20
83.27098471928517
 30
0.0
 10
63.11887176908404
 20
83.40560598521225
 30
0.0
 10
63.18122658951341
 20
83.53807753295331
 30
0.0
  0
LINE
  5
240
330
1F
100
AcDbEntity
  8
0
  6
Continuous
 62
     8
370
    25
100
AcDbLine
 10
67.2714013333
 20
87.5070053371
 30
0.0
 11
66.6872818681
 21
87.5070053371
 31
0.0
  0
LINE
  5
241
330
1F
100
AcDbEntity
  8
0
  6
Continuous
 62
     8
370
    25
100
AcDbLine
 10
57.855521022
 20
87.5070053371
 30
0.0
 11
57.5214015978
 21
87.5070053371
 31
0.0
  0
LINE
  5
242
330
1F
100
AcDbEntity
  8
0
  6
Continuous
 62
     8
370
    25
100
AcDbLine
 10
57.5214015978
 20
87.5070053371
 30
0.0
 11
57.5214015978
 21
87.2342307339
 31
0.0
  0
LINE
  5
243
330
1F
100
AcDbEntity
  8
0
  6
Continuous
 62
     8
370
    25
100
AcDbLine
 10
67.0214012923
 20
76.0070053148
 30
0.0
 11
67.0214012923
 21
76.279779918
 31
0.0
  0
LINE
  5
244
330
1F
100
AcDbEntity
  8
0
  6
Continuous
 62
     8
370
    25
100
AcDbLine
 10
66.6872818681
 20
76.0070053148
 30
0.0
 11
67.0214012923
 21
76.0070053148
 31
0.0
  0
LINE
  5
245
330
1F
100
AcDbEntity
  8
0
  6
Continuous
 62
     8
370
    25
100
AcDbLine
 10
57.5214015978
 20
76.0070053148
 30
0.0
 11
57.855521022
 21
76.0070053148
 31
0.0
  0
LINE
  5
246
330
1F
100
AcDbEntity
  8
0
  6
Continuous
 62
     8
370
    25
100
AcDbLine
 10
57.5214015978
 20
76.279779918
 30
0.0
 11
57.5214015978
 21
76.0070053148
 31
0.0
  0
SPLINE
  5
247
330
1F
100
AcDbEntity
  8
0
  6
Continuous
 62
     8
370
    25
100
AcDbSpline
210
0.0
220
0.0
230
1.0
 70
     8
 71
     3
 72
    12
 73
     8
 74
     0
 42
0.000000001
 43
0.00000001
 40
0.0
 40
0.0
 40
0.0
 40
0.0
 40
0.0144154126031527
 40
0.2336896513541645
 40
0.4169411153019112
 40
0.6005022039997733
 40
1.0
 40
1.0
 40
1.0
 40
1.0
 10
68.71132615086029
 20
78.44480734640777
 30
0.0
 10
68.71482293428951
 20
78.44324588195506
 30
0.0
 10
68.7715096294908
 20
78.4179328303205
 30
0.0
 10
68.8432039171695
 20
78.33776135527468
 30
0.0
 10
68.92389217853328
 20
78.22566971609335
 30
0.0
 10
68.99910405606474
 20
78.06586978345184
 30
0.0
 10
69.01233565187718
 20
77.94220144556688
 30
0.0
 10
69.02140162017535
 20
77.85746690208137
 30
0.0
  0
SPLINE
  5
248
330
1F
100
AcDbEntity
  8
0
  6
Continuous
 62
     8
370
    25
100
AcDbSpline
210
0.0
220
0.0
230
1.0
 70
     8
 71
     3
 72
    12
 73
     8
 74
     0
 42
0.000000001
 43
0.00000001
 40
0.0
 40
0.0
 40
0.0
 40
0.0
 40
0.2368879818404057
 40
0.4737632301637463
 40
0.784638636686106
 40
0.9769965944583235
 40
1.0
 40
1.0
 40
1.0
 40
1.0
 10
69.02140162017534
 20
85.65654374981344
 30
0.0
 10
69.0180150695752
 20
85.60644449063658
 30
0.0
 10
69.01124215041325
 20
85.50624866528473
 30
0.0
 10
68.95441955385478
 20
85.33895190683783
 30
0.0
 10
68.85971713592944
 20
85.19239653458081
 30
0.0
 10
68.76622055205307
 20
85.09458088092384
 30
0.0
 10
68.71398791095774
 20
85.07075202344105
 30
0.0
 10
68.7084087828953
 20
85.0682067903322
 30
0.0
  0
LINE
  5
249
330
1F
100
AcDbEntity
  8
0
  6
Continuous
 62
     8
370
    25
100
AcDbLine
 10
68.2714014972
 20
85.826710354
 30
0.0
 11
68.2714014972
 21
87.5070053371
 31
0.0
  0
LINE
  5
24A
330
1F
100
AcDbEntity
  8
0
  6
Continuous
 62
     8
370
    25
100
AcDbLine
 10
68.2714014972
 20
76.0070053148
 30
0.0
 11
68.2714014972
 21
77.6873002979
 31
0.0
  0
SPLINE
  5
24B
330
1F
100
AcDbEntity
  8
0
  6
Continuous
 62
     8
370
    25
100
AcDbSpline
210
0.0
220
0.0
230
1.0
 70
     8
 71
     3
 72
    10
 73
     6
 74
     0
 42
0.000000001
 43
0.00000001
 40
0.0
 40
0.0
 40
0.0
 40
0.0
 40
0.5092170244178587
 40
0.830052594321622
 40
1.0
 40
1.0
 40
1.0
 40
1.0
 10
68.77140157919715
 20
85.81902461448729
 30
0.0
 10
68.76457868281778
 20
85.71480402455941
 30
0.0
 10
68.75345697523747
 20
85.5449185594176
 30
0.0
 10
68.69784379047438
 20
85.33991043816611
 30
0.0
 10
68.64422672356224
 20
85.24992661927031
 30
0.0
 10
68.62566030647945
 20
85.21876719171226
 30
0.0
  0
SPLINE
  5
24C
330
1F
100
AcDbEntity
  8
0
  6
Continuous
 62
     8
370
    25
100
AcDbSpline
210
0.0
220
0.0
230
1.0
 70
     8
 71
     3
 72
    10
 73
     6
 74
     0
 42
0.000000001
 43
0.00000001
 40
0.0
 40
0.0
 40
0.0
 40
0.0
 40
0.170749978394561
 40
0.5599181642246208
 40
1.0
 40
1.0
 40
1.0
 40
1.0
 10
68.63264615711162
 20
78.28148130649745
 30
0.0
 10
68.65055257895777
 20
78.25077690396215
 30
0.0
 10
68.70927077583369
 20
78.15009195592982
 30
0.0
 10
68.75627794187305
 20
77.9479508639532
 30
0.0
 10
68.76615816074948
 20
77.78268983575268
 30
0.0
 10
68.77140157919715
 20
77.69498603740752
 30
0.0
  0
LINE
  5
24D
330
1F
100
AcDbEntity
  8
0
  6
Continuous
 62
     8
370
    25
100
AcDbLine
 10
68.5214015382
 20
85.4312400552
 30
0.0
 11
68.5214015382
 21
87.5070053371
 31
0.0
  0
LINE
  5
24E
330
1F
100
AcDbEntity
  8
0
  6
Continuous
 62
     8
370
    25
100
AcDbLine
 10
68.5214015382
 20
76.0070053148
 30
0.0
 11
68.5214015382
 21
78.0827705967
 31
0.0
  0
SPLINE
  5
24F
330
1F
100
AcDbEntity
  8
0
  6
Continuous
 62
     8
370
    25
100
AcDbSpline
210
0.0
220
0.0
230
1.0
 70
     8
 71
     3
 72
    10
 73
     6
 74
     0
 42
0.000000001
 43
0.00000001
 40
0.0
 40
0.0
 40
0.0
 40
0.0
 40
0.5
 40
0.5
 40
1.0
 40
1.0
 40
1.0
 40
1.0
 10
69.79487064090166
 20
87.78091525701329
 30
0.0
 10
69.6603428121125
 20
87.78027623380046
 30
0.0
 10
69.523344074565
 20
87.7863345158748
 30
0.0
 10
69.32809448534476
 20
87.80041311354019
 30
0.0
 10
69.27141347078049
 20
87.80700404302642
 30
0.0
 10
69.27140144713044
 20
87.80700532572953
 30
0.0
  0
SPLINE
  5
250
330
1F
100
AcDbEntity
  8
0
  6
Continuous
 62
     8
370
    25
100
AcDbSpline
210
0.0
220
0.0
230
1.0
 70
     8
 71
     3
 72
     9
 73
     5
 74
     0
 42
0.000000001
 43
0.00000001
 40
0.0
 40
0.0
 40
0.0
 40
0.0
 40
0.2668729881384744
 40
1.0
 40
1.0
 40
1.0
 40
1.0
 10
69.52143755805085
 20
88.0570034714979
 30
0.0
 10
69.52164343964434
 20
88.05699302809705
 30
0.0
 10
69.52241489873776
 20
88.05695389562091
 30
0.0
 10
69.53239624078537
 20
88.05653084483353
 30
0.0
 10
69.5397138322551
 20
88.05622069487393
 30
0.0
  0
INSERT
  5
25C
330
1F
100
AcDbEntity
  8
0
  6
Continuous
 62
     7
370
    18
100
AcDbBlockReference
  2
SW_CENTERMARKSYMBOL_1
 10
62.2714014451
 20
81.7570053259
 30
0.0
  0
ARC
  5
25D
330
1F
100
AcDbEntity
  8
0
  6
Continuous
 62
     7
370
    18
100
AcDbCircle
 10
62.2714014451
 20
81.7570053259
 30
0.0
 40
4.929413560516981
100
AcDbArc
 50
75.0
 51
345.0
  0
LINE
  5
25E
330
1F
100
AcDbEntity
  8
0
  6
Continuous
 62
     7
370
    18
100
AcDbLine
 10
80.8311897801
 20
77.5028490027
 30
0.0
 11
72.2714014451
 21
77.2353556172
 31
0.0
  0
LINE
  5
25F
330
1F
100
AcDbEntity
  8
0
  6
Continuous
 62
     7
370
    18
100
AcDbLine
 10
80.8311897801
 20
86.0111616492
 30
0.0
 11
72.2714014451
 21
86.2786550347
 31
0.0
  0
LINE
  5
260
330
1F
100
AcDbEntity
  8
0
  6
Continuous
 62
     7
370
    18
100
AcDbLine
 10
72.2714014451
 20
86.7784428259
 30
0.0
 11
72.2714014451
 21
76.7355678259
 31
0.0
  0
ENDSEC
  0
SECTION
  2
OBJECTS
  0
DICTIONARY
  5
C
330
0
100
AcDbDictionary
281
     1
  3
ACAD_GROUP
350
D
  3
ACAD_LAYOUT
350
1A
  3
ACAD_MLINESTYLE
350
17
  3
ACAD_PLOTSETTINGS
350
19
  3
ACAD_PLOTSTYLENAME
350
E
  3
ACAD_SCALELIST
350
47
  0
DICTIONARY
  5
D
102
{ACAD_REACTORS
330
C
102
}
330
C
100
AcDbDictionary
281
     1
  0
DICTIONARY
  5
1A
102
{ACAD_REACTORS
330
C
102
}
330
C
100
AcDbDictionary
281
     1
  3
Layout1
350
1E
  3
Layout2
350
26
  3
Model
350
22
  0
DICTIONARY
  5
17
102
{ACAD_REACTORS
330
C
102
}
330
C
100
AcDbDictionary
281
     1
  3
Standard
350
18
  0
DICTIONARY
  5
19
102
{ACAD_REACTORS
330
C
102
}
330
C
100
AcDbDictionary
281
     1
  0
ACDBDICTIONARYWDFLT
  5
E
102
{ACAD_REACTORS
330
C
102
}
330
C
100
AcDbDictionary
281
     1
  3
Normal
350
F
100
AcDbDictionaryWithDefault
340
F
  0
DICTIONARY
  5
47
102
{ACAD_REACTORS
330
C
102
}
330
C
100
AcDbDictionary
281
     1
  3
A0
350
48
  3
A1
350
49
  3
A2
350
4A
  3
A3
350
4B
  3
A4
350
4C
  3
A5
350
4D
  3
A6
350
4E
  3
A7
350
4F
  3
A8
350
50
  3
A9
350
51
  3
B0
350
52
  3
B1
350
53
  3
B2
350
54
  3
B3
350
55
  3
B4
350
56
  3
B5
350
57
  3
B6
350
58
  3
B7
350
59
  3
B8
350
5A
  3
B9
350
5B
  3
C0
350
5C
  3
C1
350
5D
  3
C2
350
5E
  3
C3
350
5F
  3
C4
350
60
  3
C5
350
61
  3
C6
350
62
  3
C7
350
63
  3
C8
350
64
  3
C9
350
65
  3
D0
350
66
  3
D1
350
67
  3
D2
350
68
  0
LAYOUT
  5
1E
102
{ACAD_REACTORS
330
1A
102
}
330
1A
100
AcDbPlotSettings
  1

  2
none_device
  4

  6

 40
0.0
 41
0.0
 42
0.0
 43
0.0
 44
0.0
 45
0.0
 46
0.0
 47
0.0
 48
0.0
 49
0.0
140
0.0
141
0.0
142
1.0
143
1.0
 70
   688
 72
     1
 73
     0
 74
     5
  7

 75
    16
147
1.0
148
0.0
149
0.0
100
AcDbLayout
  1
Layout1
 70
     1
 71
     1
 10
0.0
 20
0.0
 11
420.0
 21
297.0
 12
0.0
 22
0.0
 32
0.0
 14
1.0000000000E+20
 24
1.0000000000E+20
 34
1.0000000000E+20
 15
-1.0000000000E+20
 25
-1.0000000000E+20
 35
-1.0000000000E+20
146
0.0
 13
0.0
 23
0.0
 33
0.0
 16
1.0
 26
0.0
 36
0.0
 17
0.0
 27
1.0
 37
0.0
 76
     0
330
1B
  0
LAYOUT
  5
26
102
{ACAD_REACTORS
330
1A
102
}
330
1A
100
AcDbPlotSettings
  1

  2
none_device
  4

  6

 40
0.0
 41
0.0
 42
0.0
 43
0.0
 44
0.0
 45
0.0
 46
0.0
 47
0.0
 48
0.0
 49
0.0
140
0.0
141
0.0
142
1.0
143
1.0
 70
   688
 72
     1
 73
     0
 74
     5
  7

 75
    16
147
1.0
148
0.0
149
0.0
100
AcDbLayout
  1
Layout2
 70
     1
 71
     2
 10
0.0
 20
0.0
 11
0.0
 21
0.0
 12
0.0
 22
0.0
 32
0.0
 14
0.0
 24
0.0
 34
0.0
 15
0.0
 25
0.0
 35
0.0
146
0.0
 13
0.0
 23
0.0
 33
0.0
 16
1.0
 26
0.0
 36
0.0
 17
0.0
 27
1.0
 37
0.0
 76
     0
330
23
  0
LAYOUT
  5
22
102
{ACAD_REACTORS
330
1A
102
}
330
1A
100
AcDbPlotSettings
  1

  2
none_device
  4
Letter_(8.50_x_11.00_Inches)
  6

 40
6.35
 41
6.35
 42
6.35000508
 43
6.35000508
 44
215.9
 45
279.4
 46
0.0
 47
0.0
 48
0.0
 49
0.0
140
0.0
141
0.0
142
1.0
143
1.0
 70
  1712
 72
     1
 73
     0
 74
     0
  7

 75
     0
147
1.0
148
0.0
149
0.0
100
AcDbLayout
  1
Model
 70
     1
 71
     0
 10
0.0
 20
0.0
 11
215.9
 21
139.7
 12
0.0
 22
0.0
 32
0.0
 14
0.0
 24
0.0
 34
0.0
 15
215.9
 25
139.7
 35
0.0
146
0.0
 13
0.0
 23
0.0
 33
0.0
 16
1.0
 26
0.0
 36
0.0
 17
0.0
 27
1.0
 37
0.0
 76
     0
330
1F
331
29
  0
MLINESTYLE
  5
18
102
{ACAD_REACTORS
330
17
102
}
330
17
100
AcDbMlineStyle
  2
Standard
 70
     0
  3

 62
   256
 51
90.0
 52
90.0
 71
     2
 49
0.5
 62
   256
  6
BYLAYER
 49
-0.5
 62
   256
  6
BYLAYER
  0
ACDBPLACEHOLDER
  5
F
102
{ACAD_REACTORS
330
E
102
}
330
E
  0
SCALE
  5
48
102
{ACAD_REACTORS
330
47
102
}
330
47
100
AcDbScale
 70
     0
300
1:1
140
1.0
141
1.0
290
     1
  0
SCALE
  5
49
102
{ACAD_REACTORS
330
47
102
}
330
47
100
AcDbScale
 70
     0
300
1:2
140
1.0
141
2.0
290
     0
  0
SCALE
  5
4A
102
{ACAD_REACTORS
330
47
102
}
330
47
100
AcDbScale
 70
     0
300
1:4
140
1.0
141
4.0
290
     0
  0
SCALE
  5
4B
102
{ACAD_REACTORS
330
47
102
}
330
47
100
AcDbScale
 70
     0
300
1:5
140
1.0
141
5.0
290
     0
  0
SCALE
  5
4C
102
{ACAD_REACTORS
330
47
102
}
330
47
100
AcDbScale
 70
     0
300
1:8
140
1.0
141
8.0
290
     0
  0
SCALE
  5
4D
102
{ACAD_REACTORS
330
47
102
}
330
47
100
AcDbScale
 70
     0
300
1:10
140
1.0
141
10.0
290
     0
  0
SCALE
  5
4E
102
{ACAD_REACTORS
330
47
102
}
330
47
100
AcDbScale
 70
     0
300
1:16
140
1.0
141
16.0
290
     0
  0
SCALE
  5
4F
102
{ACAD_REACTORS
330
47
102
}
330
47
100
AcDbScale
 70
     0
300
1:20
140
1.0
141
20.0
290
     0
  0
SCALE
  5
50
102
{ACAD_REACTORS
330
47
102
}
330
47
100
AcDbScale
 70
     0
300
1:30
140
1.0
141
30.0
290
     0
  0
SCALE
  5
51
102
{ACAD_REACTORS
330
47
102
}
330
47
100
AcDbScale
 70
     0
300
1:40
140
1.0
141
40.0
290
     0
  0
SCALE
  5
52
102
{ACAD_REACTORS
330
47
102
}
330
47
100
AcDbScale
 70
     0
300
1:50
140
1.0
141
50.0
290
     0
  0
SCALE
  5
53
102
{ACAD_REACTORS
330
47
102
}
330
47
100
AcDbScale
 70
     0
300
1:100
140
1.0
141
100.0
290
     0
  0
SCALE
  5
54
102
{ACAD_REACTORS
330
47
102
}
330
47
100
AcDbScale
 70
     0
300
2:1
140
2.0
141
1.0
290
     0
  0
SCALE
  5
55
102
{ACAD_REACTORS
330
47
102
}
330
47
100
AcDbScale
 70
     0
300
4:1
140
4.0
141
1.0
290
     0
  0
SCALE
  5
56
102
{ACAD_REACTORS
330
47
102
}
330
47
100
AcDbScale
 70
     0
300
8:1
140
8.0
141
1.0
290
     0
  0
SCALE
  5
57
102
{ACAD_REACTORS
330
47
102
}
330
47
100
AcDbScale
 70
     0
300
10:1
140
10.0
141
1.0
290
     0
  0
SCALE
  5
58
102
{ACAD_REACTORS
330
47
102
}
330
47
100
AcDbScale
 70
     0
300
100:1
140
100.0
141
1.0
290
     0
  0
SCALE
  5
59
102
{ACAD_REACTORS
330
47
102
}
330
47
100
AcDbScale
 70
     0
300
1/128" = 1'-0"
140
0.0078125
141
12.0
290
     0
  0
SCALE
  5
5A
102
{ACAD_REACTORS
330
47
102
}
330
47
100
AcDbScale
 70
     0
300
1/64" = 1'-0"
140
0.015625
141
12.0
290
     0
  0
SCALE
  5
5B
102
{ACAD_REACTORS
330
47
102
}
330
47
100
AcDbScale
 70
     0
300
1/32" = 1'-0"
140
0.03125
141
12.0
290
     0
  0
SCALE
  5
5C
102
{ACAD_REACTORS
330
47
102
}
330
47
100
AcDbScale
 70
     0
300
1/16" = 1'-0"
140
0.0625
141
12.0
290
     0
  0
SCALE
  5
5D
102
{ACAD_REACTORS
330
47
102
}
330
47
100
AcDbScale
 70
     0
300
3/32" = 1'-0"
140
0.09375
141
12.0
290
     0
  0
SCALE
  5
5E
102
{ACAD_REACTORS
330
47
102
}
330
47
100
AcDbScale
 70
     0
300
1/8" = 1'-0"
140
0.125
141
12.0
290
     0
  0
SCALE
  5
5F
102
{ACAD_REACTORS
330
47
102
}
330
47
100
AcDbScale
 70
     0
300
3/16" = 1'-0"
140
0.1875
141
12.0
290
     0
  0
SCALE
  5
60
102
{ACAD_REACTORS
330
47
102
}
330
47
100
AcDbScale
 70
     0
300
1/4" = 1'-0"
140
0.25
141
12.0
290
     0
  0
SCALE
  5
61
102
{ACAD_REACTORS
330
47
102
}
330
47
100
AcDbScale
 70
     0
300
3/8" = 1'-0"
140
0.375
141
12.0
290
     0
  0
SCALE
  5
62
102
{ACAD_REACTORS
330
47
102
}
330
47
100
AcDbScale
 70
     0
300
1/2" = 1'-0"
140
0.5
141
12.0
290
     0
  0
SCALE
  5
63
102
{ACAD_REACTORS
330
47
102
}
330
47
100
AcDbScale
 70
     0
300
3/4" = 1'-0"
140
0.75
141
12.0
290
     0
  0
SCALE
  5
64
102
{ACAD_REACTORS
330
47
102
}
330
47
100
AcDbScale
 70
     0
300
1" = 1'-0"
140
1.0
141
12.0
290
     0
  0
SCALE
  5
65
102
{ACAD_REACTORS
330
47
102
}
330
47
100
AcDbScale
 70
     0
300
1-1/2" = 1'-0"
140
1.5
141
12.0
290
     0
  0
SCALE
  5
66
102
{ACAD_REACTORS
330
47
102
}
330
47
100
AcDbScale
 70
     0
300
3" = 1'-0"
140
3.0
141
12.0
290
     0
  0
SCALE
  5
67
102
{ACAD_REACTORS
330
47
102
}
330
47
100
AcDbScale
 70
     0
300
6" = 1'-0"
140
6.0
141
12.0
290
     0
  0
SCALE
  5
68
102
{ACAD_REACTORS
330
47
102
}
330
47
100
AcDbScale
 70
     0
300
1'-0" = 1'-0"
140
12.0
141
12.0
290
     0
  0
ENDSEC
  0
EOF
