  0
SECTION
  2
HEADER
  9
$ACADVER
  1
AC1015
  9
$ACADMAINTVER
 70
     6
  9
$DWGCODEPAGE
  3
DOS932
  9
$INSBASE
 10
0.0
 20
0.0
 30
0.0
  9
$EXTMIN
 10
0.0
 20
0.0
 30
0.0
  9
$EXTMAX
 10
431.8
 20
279.4
 30
0.0
  9
$LIMMIN
 10
0.0
 20
0.0
  9
$LIMMAX
 10
431.8
 20
279.4
  9
$ORTHOMODE
 70
     0
  9
$REGENMODE
 70
     1
  9
$FILLMODE
 70
     1
  9
$QTEXTMODE
 70
     0
  9
$MIRRTEXT
 70
     1
  9
$LTSCALE
 40
1.0
  9
$ATTMODE
 70
     1
  9
$TEXTSIZE
 40
3.5
  9
$TRACEWID
 40
1.0
  9
$TEXTSTYLE
  7
Standard
  9
$CLAYER
  8
0
  9
$CELTYPE
  6
ByLayer
  9
$CECOLOR
 62
   256
  9
$CELTSCALE
 40
1.0
  9
$DISPSILH
 70
     0
  9
$DIMSCALE
 40
1.0
  9
$DIMASZ
 40
3.302
  9
$DIMEXO
 40
1.0
  9
$DIMDLI
 40
3.75
  9
$DIMRND
 40
0.0
  9
$DIMDLE
 40
0.0
  9
$DIMEXE
 40
1.0
  9
$DIMTP
 40
0.0
  9
$DIMTM
 40
0.0
  9
$DIMTXT
 40
3.5
  9
$DIMCEN
 40
2.5
  9
$DIMTSZ
 40
0.0
  9
$DIMTOL
 70
     0
  9
$DIMLIM
 70
     0
  9
$DIMTIH
 70
     1
  9
$DIMTOH
 70
     1
  9
$DIMSE1
 70
     0
  9
$DIMSE2
 70
     0
  9
$DIMTAD
 70
     1
  9
$DIMZIN
 70
     1
  9
$DIMBLK
  1

  9
$DIMASO
 70
     1
  9
$DIMSHO
 70
     1
  9
$DIMPOST
  1

  9
$DIMAPOST
  1

  9
$DIMALT
 70
     0
  9
$DIMALTD
 70
     3
  9
$DIMALTF
 40
0.0393700787
  9
$DIMLFAC
 40
1.0
  9
$DIMTOFL
 70
     1
  9
$DIMTVP
 40
0.0
  9
$DIMTIX
 70
     0
  9
$DIMSOXD
 70
     0
  9
$DIMSAH
 70
     0
  9
$DIMBLK1
  1

  9
$DIMBLK2
  1

  9
$DIMSTYLE
  2
ISO-25
  9
$DIMCLRD
 70
     0
  9
$DIMCLRE
 70
     0
  9
$DIMCLRT
 70
     0
  9
$DIMTFAC
 40
1.0
  9
$DIMGAP
 40
1.524
  9
$DIMJUST
 70
     0
  9
$DIMSD1
 70
     0
  9
$DIMSD2
 70
     0
  9
$DIMTOLJ
 70
     0
  9
$DIMTZIN
 70
     1
  9
$DIMALTZ
 70
     0
  9
$DIMALTTZ
 70
     0
  9
$DIMUPT
 70
     0
  9
$DIMDEC
 70
     2
  9
$DIMTDEC
 70
     2
  9
$DIMALTU
 70
     2
  9
$DIMALTTD
 70
     3
  9
$DIMTXSTY
  7
Standard
  9
$DIMAUNIT
 70
     0
  9
$DIMADEC
 70
     2
  9
$DIMALTRND
 40
0.0
  9
$DIMAZIN
 70
     0
  9
$DIMDSEP
 70
    44
  9
$DIMATFIT
 70
     3
  9
$DIMFRAC
 70
     0
  9
$DIMLDRBLK
  1

  9
$DIMLUNIT
 70
     2
  9
$DIMLWD
 70
    -2
  9
$DIMLWE
 70
    -2
  9
$DIMTMOVE
 70
     0
  9
$LUNITS
 70
     2
  9
$LUPREC
 70
     2
  9
$SKETCHINC
 40
1.0
  9
$FILLETRAD
 40
10.0
  9
$AUNITS
 70
     0
  9
$AUPREC
 70
     2
  9
$MENU
  1
.
  9
$ELEVATION
 40
0.0
  9
$PELEVATION
 40
0.0
  9
$THICKNESS
 40
0.0
  9
$LIMCHECK
 70
     0
  9
$CHAMFERA
 40
0.0
  9
$CHAMFERB
 40
0.0
  9
$CHAMFERC
 40
0.0
  9
$CHAMFERD
 40
0.0
  9
$SKPOLY
 70
     0
  9
$TDCREATE
 40
2459247.398535382
  9
$TDUCREATE
 40
2459247.023535382
  9
$TDUPDATE
 40
2459247.398536296
  9
$TDUUPDATE
 40
2459247.023536296
  9
$TDINDWG
 40
0.0000000116
  9
$TDUSRTIMER
 40
0.0000000116
  9
$USRTIMER
 70
     1
  9
$ANGBASE
 50
0.0
  9
$ANGDIR
 70
     0
  9
$PDMODE
 70
     0
  9
$PDSIZE
 40
-1.0
  9
$PLINEWID
 40
0.0
  9
$SPLFRAME
 70
     0
  9
$SPLINETYPE
 70
     6
  9
$SPLINESEGS
 70
     8
  9
$HANDSEED
  5
1F4
  9
$SURFTAB1
 70
     6
  9
$SURFTAB2
 70
     6
  9
$SURFTYPE
 70
     6
  9
$SURFU
 70
     6
  9
$SURFV
 70
     6
  9
$UCSBASE
  2

  9
$UCSNAME
  2

  9
$UCSORG
 10
0.0
 20
0.0
 30
0.0
  9
$UCSXDIR
 10
1.0
 20
0.0
 30
0.0
  9
$UCSYDIR
 10
0.0
 20
1.0
 30
0.0
  9
$UCSORTHOREF
  2

  9
$UCSORTHOVIEW
 70
     0
  9
$UCSORGTOP
 10
0.0
 20
0.0
 30
0.0
  9
$UCSORGBOTTOM
 10
0.0
 20
0.0
 30
0.0
  9
$UCSORGLEFT
 10
0.0
 20
0.0
 30
0.0
  9
$UCSORGRIGHT
 10
0.0
 20
0.0
 30
0.0
  9
$UCSORGFRONT
 10
0.0
 20
0.0
 30
0.0
  9
$UCSORGBACK
 10
0.0
 20
0.0
 30
0.0
  9
$PUCSBASE
  2

  9
$PUCSNAME
  2

  9
$PUCSORG
 10
0.0
 20
0.0
 30
0.0
  9
$PUCSXDIR
 10
1.0
 20
0.0
 30
0.0
  9
$PUCSYDIR
 10
0.0
 20
1.0
 30
0.0
  9
$PUCSORTHOREF
  2

  9
$PUCSORTHOVIEW
 70
     0
  9
$PUCSORGTOP
 10
0.0
 20
0.0
 30
0.0
  9
$PUCSORGBOTTOM
 10
0.0
 20
0.0
 30
0.0
  9
$PUCSORGLEFT
 10
0.0
 20
0.0
 30
0.0
  9
$PUCSORGRIGHT
 10
0.0
 20
0.0
 30
0.0
  9
$PUCSORGFRONT
 10
0.0
 20
0.0
 30
0.0
  9
$PUCSORGBACK
 10
0.0
 20
0.0
 30
0.0
  9
$USERI1
 70
     0
  9
$USERI2
 70
     0
  9
$USERI3
 70
     0
  9
$USERI4
 70
     0
  9
$USERI5
 70
     0
  9
$USERR1
 40
0.0
  9
$USERR2
 40
0.0
  9
$USERR3
 40
0.0
  9
$USERR4
 40
0.0
  9
$USERR5
 40
0.0
  9
$WORLDVIEW
 70
     1
  9
$SHADEDGE
 70
     3
  9
$SHADEDIF
 70
    70
  9
$TILEMODE
 70
     1
  9
$MAXACTVP
 70
    64
  9
$PINSBASE
 10
0.0
 20
0.0
 30
0.0
  9
$PLIMCHECK
 70
     0
  9
$PEXTMIN
 10
1.0000000000E+20
 20
1.0000000000E+20
 30
1.0000000000E+20
  9
$PEXTMAX
 10
-1.0000000000E+20
 20
-1.0000000000E+20
 30
-1.0000000000E+20
  9
$PLIMMIN
 10
0.0
 20
0.0
  9
$PLIMMAX
 10
420.0
 20
297.0
  9
$UNITMODE
 70
     0
  9
$VISRETAIN
 70
     1
  9
$PLINEGEN
 70
     0
  9
$PSLTSCALE
 70
     1
  9
$TREEDEPTH
 70
  3020
  9
$CMLSTYLE
  2
Standard
  9
$CMLJUST
 70
     0
  9
$CMLSCALE
 40
20.0
  9
$PROXYGRAPHICS
 70
     1
  9
$MEASUREMENT
 70
     1
  9
$CELWEIGHT
370
    -1
  9
$ENDCAPS
280
     0
  9
$JOINSTYLE
280
     0
  9
$LWDISPLAY
290
     1
  9
$INSUNITS
 70
     4
  9
$HYPERLINKBASE
  1

  9
$STYLESHEET
  1

  9
$XEDIT
290
     1
  9
$CEPSNTYPE
380
     0
  9
$PSTYLEMODE
290
     1
  9
$FINGERPRINTGUID
  2
{068B9904-77B4-4136-8FE8-1AF0FAD35C6C}
  9
$VERSIONGUID
  2
{FAEB1C32-E019-11D5-929B-00C0DF256EC4}
  9
$EXTNAMES
290
     1
  9
$PSVPSCALE
 40
0.0
  9
$OLESTARTUP
290
     0
  0
ENDSEC
  0
SECTION
  2
CLASSES
  0
CLASS
  1
ACDBDICTIONARYWDFLT
  2
AcDbDictionaryWithDefault
  3
ObjectDBX Classes
 90
        0
280
     0
281
     0
  0
CLASS
  1
VISUALSTYLE
  2
AcDbVisualStyle
  3
ObjectDBX Classes
 90
     4095
280
     0
281
     0
  0
CLASS
  1
MATERIAL
  2
AcDbMaterial
  3
ObjectDBX Classes
 90
     1153
280
     0
281
     0
  0
CLASS
  1
SCALE
  2
AcDbScale
  3
ObjectDBX Classes
 90
     1153
280
     0
281
     0
  0
CLASS
  1
TABLESTYLE
  2
AcDbTableStyle
  3
ObjectDBX Classes
 90
     4095
280
     0
281
     0
  0
CLASS
  1
MLEADERSTYLE
  2
AcDbMLeaderStyle
  3
ACDB_MLEADERSTYLE_CLASS
 90
     4095
280
     0
281
     0
  0
CLASS
  1
SUN
  2
AcDbSun
  3
SCENEOE
 90
     1153
280
     0
281
     0
  0
CLASS
  1
ACDBPLACEHOLDER
  2
AcDbPlaceHolder
  3
ObjectDBX Classes
 90
        0
280
     0
281
     0
  0
CLASS
  1
LAYOUT
  2
AcDbLayout
  3
ObjectDBX Classes
 90
        0
280
     0
281
     0
  0
ENDSEC
  0
SECTION
  2
TABLES
  0
TABLE
  2
VPORT
  5
8
330
0
100
AcDbSymbolTable
 70
     1
  0
VPORT
  5
29
330
8
100
AcDbSymbolTableRecord
100
AcDbViewportTableRecord
  2
*Active
 70
     0
 10
0.0
 20
0.0
 11
1.0
 21
1.0
 12
215.9
 22
139.7
 13
0.0
 23
0.0
 14
10.0
 24
10.0
 15
10.0
 25
10.0
 16
0.0
 26
0.0
 36
1.0
 17
0.0
 27
0.0
 37
0.0
 40
279.4
 41
1.5454545455
 42
50.0
 43
0.0
 44
0.0
 50
0.0
 51
0.0
 71
     0
 72
  2000
 73
     1
 74
     3
 75
     0
 76
     0
 77
     0
 78
     0
281
     0
 65
     1
110
0.0
120
0.0
130
0.0
111
1.0
121
0.0
131
0.0
112
0.0
122
1.0
132
0.0
 79
     0
146
0.0
  0
ENDTAB
  0
TABLE
  2
LTYPE
  5
5
330
0
100
AcDbSymbolTable
 70
     6
  0
LTYPE
  5
14
330
5
100
AcDbSymbolTableRecord
100
AcDbLinetypeTableRecord
  2
ByBlock
 70
     0
  3

 72
    65
 73
     0
 40
0.0
  0
LTYPE
  5
15
330
5
100
AcDbSymbolTableRecord
100
AcDbLinetypeTableRecord
  2
ByLayer
 70
     0
  3

 72
    65
 73
     0
 40
0.0
  0
LTYPE
  5
16
330
5
100
AcDbSymbolTableRecord
100
AcDbLinetypeTableRecord
  2
Continuous
 70
     0
  3
Solid line
 72
    65
 73
     0
 40
0.0
  0
LTYPE
  5
6E
330
5
100
AcDbSymbolTableRecord
100
AcDbLinetypeTableRecord
  2
HIDDEN
 70
     0
  3
Hidden __ __ __ __ __ __ __ __ __ __ __ __ __ __
 72
    65
 73
     2
 40
1.905
 49
1.27
 74
     0
 49
-0.635
 74
     0
  0
LTYPE
  5
6F
330
5
100
AcDbSymbolTableRecord
100
AcDbLinetypeTableRecord
  2
PHANTOM
 70
     0
  3
Phantom ______  __  __  ______  __  __  ______
 72
    65
 73
     6
 40
12.7
 49
6.35
 74
     0
 49
-1.27
 74
     0
 49
1.27
 74
     0
 49
-1.27
 74
     0
 49
1.27
 74
     0
 49
-1.27
 74
     0
  0
LTYPE
  5
70
330
5
100
AcDbSymbolTableRecord
100
AcDbLinetypeTableRecord
  2
CENTER
 70
     0
  3
Center ____ _ ____ _ ____ _ ____ _ ____ _ ____
 72
    65
 73
     4
 40
10.16
 49
6.35
 74
     0
 49
-1.27
 74
     0
 49
1.27
 74
     0
 49
-1.27
 74
     0
  0
LTYPE
  5
71
330
5
100
AcDbSymbolTableRecord
100
AcDbLinetypeTableRecord
  2
CENTERX2
 70
     0
  3
Center (2x) ________  __  ________  __  _____
 72
    65
 73
     4
 40
20.32
 49
12.7
 74
     0
 49
-2.54
 74
     0
 49
2.54
 74
     0
 49
-2.54
 74
     0
  0
LTYPE
  5
72
330
5
100
AcDbSymbolTableRecord
100
AcDbLinetypeTableRecord
  2
DOT2
 70
     0
  3
Dot (.5x) ........................................
 72
    65
 73
     2
 40
0.635
 49
0.0
 74
     0
 49
-0.635
 74
     0
  0
ENDTAB
  0
TABLE
  2
LAYER
  5
2
330
0
100
AcDbSymbolTable
 70
     1
  0
LAYER
  5
10
330
2
100
AcDbSymbolTableRecord
100
AcDbLayerTableRecord
  2
0
 70
     0
 62
     7
  6
Continuous
370
    -3
390
F
  0
ENDTAB
  0
TABLE
  2
STYLE
  5
3
330
0
100
AcDbSymbolTable
 70
     2
  0
STYLE
  5
11
330
3
100
AcDbSymbolTableRecord
100
AcDbTextStyleTableRecord
  2
Standard
 70
     0
 40
0.0
 41
1.0
 50
0.0
 71
     0
 42
3.5
  3
txt
  4
bigfont
  0
STYLE
  5
73
330
3
100
AcDbSymbolTableRecord
100
AcDbTextStyleTableRecord
  2
SLDTEXTSTYLE0
 70
     0
 40
0.0
 41
0.7
 50
0.0
 71
     0
 42
3.5
  3
TXT
  4
bigfont
  0
ENDTAB
  0
TABLE
  2
VIEW
  5
6
330
0
100
AcDbSymbolTable
 70
     0
  0
ENDTAB
  0
TABLE
  2
UCS
  5
7
330
0
100
AcDbSymbolTable
 70
     0
  0
ENDTAB
  0
TABLE
  2
APPID
  5
9
330
0
100
AcDbSymbolTable
 70
     1
  0
APPID
  5
12
330
9
100
AcDbSymbolTableRecord
100
AcDbRegAppTableRecord
  2
ACAD
 70
     0
  0
ENDTAB
  0
TABLE
  2
DIMSTYLE
  5
A
330
0
100
AcDbSymbolTable
 70
     1
100
AcDbDimStyleTable
  0
DIMSTYLE
105
27
330
A
100
AcDbSymbolTableRecord
100
AcDbDimStyleTableRecord
  2
ISO-25
 70
     0
 41
2.5
 42
0.625
 43
3.75
 44
1.25
 73
     0
 74
     0
 77
     1
 78
     8
140
2.5
141
2.5
143
0.0393700787
147
0.625
171
     3
172
     1
178
     0
271
     2
272
     2
274
     3
278
    44
283
     0
284
     8
340
11
  0
ENDTAB
  0
TABLE
  2
BLOCK_RECORD
  5
1
330
0
100
AcDbSymbolTable
 70
     3
  0
BLOCK_RECORD
  5
1F
330
1
100
AcDbSymbolTableRecord
100
AcDbBlockTableRecord
  2
*Model_Space
340
22
  0
BLOCK_RECORD
  5
1B
330
1
100
AcDbSymbolTableRecord
100
AcDbBlockTableRecord
  2
*Paper_Space
340
1E
  0
BLOCK_RECORD
  5
23
330
1
100
AcDbSymbolTableRecord
100
AcDbBlockTableRecord
  2
*Paper_Space0
340
26
  0
BLOCK_RECORD
  5
185
330
1
100
AcDbSymbolTableRecord
100
AcDbBlockTableRecord
  2
SW_CENTERMARKSYMBOL_0
340
0
102
{BLKREFS
331
190
102
}
  0
BLOCK_RECORD
  5
1E7
330
1
100
AcDbSymbolTableRecord
100
AcDbBlockTableRecord
  2
SW_CENTERMARKSYMBOL_1
340
0
102
{BLKREFS
331
1F2
102
}
  0
ENDTAB
  0
ENDSEC
  0
SECTION
  2
BLOCKS
  0
BLOCK
  5
20
330
1F
100
AcDbEntity
  8
0
100
AcDbBlockBegin
  2
*Model_Space
 70
     0
 10
0.0
 20
0.0
 30
0.0
  3
*Model_Space
  1

  0
ENDBLK
  5
21
330
1F
100
AcDbEntity
  8
0
100
AcDbBlockEnd
  0
BLOCK
  5
1C
330
1B
100
AcDbEntity
 67
     1
  8
0
100
AcDbBlockBegin
  2
*Paper_Space
 70
     0
 10
0.0
 20
0.0
 30
0.0
  3
*Paper_Space
  1

  0
ENDBLK
  5
1D
330
1B
100
AcDbEntity
 67
     1
  8
0
100
AcDbBlockEnd
  0
BLOCK
  5
24
330
23
100
AcDbEntity
  8
0
100
AcDbBlockBegin
  2
*Paper_Space0
 70
     0
 10
0.0
 20
0.0
 30
0.0
  3
*Paper_Space0
  1

  0
ENDBLK
  5
25
330
23
100
AcDbEntity
  8
0
100
AcDbBlockEnd
  0
BLOCK
  5
186
330
185
100
AcDbEntity
  8
0
100
AcDbBlockBegin
  2
SW_CENTERMARKSYMBOL_0
 70
     0
 10
0.0
 20
0.0
 30
0.0
  3
SW_CENTERMARKSYMBOL_0
  1

  0
LINE
  5
188
330
185
100
AcDbEntity
  8
0
  6
Continuous
 62
     0
370
    18
100
AcDbLine
 10
0.0
 20
0.0
 30
0.0
 11
0.0
 21
2.5
 31
0.0
  0
LINE
  5
189
330
185
100
AcDbEntity
  8
0
  6
Continuous
 62
     0
370
    18
100
AcDbLine
 10
0.0
 20
0.0
 30
0.0
 11
-2.5
 21
0.0
 31
0.0
  0
LINE
  5
18A
330
185
100
AcDbEntity
  8
0
  6
Continuous
 62
     0
370
    18
100
AcDbLine
 10
0.0
 20
0.0
 30
0.0
 11
0.0
 21
-2.5
 31
0.0
  0
LINE
  5
18B
330
185
100
AcDbEntity
  8
0
  6
Continuous
 62
     0
370
    18
100
AcDbLine
 10
0.0
 20
0.0
 30
0.0
 11
2.5
 21
0.0
 31
0.0
  0
LINE
  5
18C
330
185
100
AcDbEntity
  8
0
  6
Continuous
 62
     0
370
    18
100
AcDbLine
 10
0.0
 20
5.0
 30
0.0
 11
0.0
 21
26.5588768393
 31
0.0
  0
LINE
  5
18D
330
185
100
AcDbEntity
  8
0
  6
Continuous
 62
     0
370
    18
100
AcDbLine
 10
-5.0
 20
0.0
 30
0.0
 11
-11.5
 21
0.0
 31
0.0
  0
LINE
  5
18E
330
185
100
AcDbEntity
  8
0
  6
Continuous
 62
     0
370
    18
100
AcDbLine
 10
0.0
 20
-5.0
 30
0.0
 11
0.0
 21
-11.5
 31
0.0
  0
LINE
  5
18F
330
185
100
AcDbEntity
  8
0
  6
Continuous
 62
     0
370
    18
100
AcDbLine
 10
5.0
 20
0.0
 30
0.0
 11
11.5
 21
0.0
 31
0.0
  0
ENDBLK
  5
187
330
185
100
AcDbEntity
  8
0
100
AcDbBlockEnd
  0
BLOCK
  5
1E8
330
1E7
100
AcDbEntity
  8
0
100
AcDbBlockBegin
  2
SW_CENTERMARKSYMBOL_1
 70
     0
 10
0.0
 20
0.0
 30
0.0
  3
SW_CENTERMARKSYMBOL_1
  1

  0
LINE
  5
1EA
330
1E7
100
AcDbEntity
  8
0
  6
Continuous
 62
     0
370
    18
100
AcDbLine
 10
0.0
 20
0.0
 30
0.0
 11
0.0
 21
2.5
 31
0.0
  0
LINE
  5
1EB
330
1E7
100
AcDbEntity
  8
0
  6
Continuous
 62
     0
370
    18
100
AcDbLine
 10
0.0
 20
0.0
 30
0.0
 11
-2.5
 21
0.0
 31
0.0
  0
LINE
  5
1EC
330
1E7
100
AcDbEntity
  8
0
  6
Continuous
 62
     0
370
    18
100
AcDbLine
 10
0.0
 20
0.0
 30
0.0
 11
0.0
 21
-2.5
 31
0.0
  0
LINE
  5
1ED
330
1E7
100
AcDbEntity
  8
0
  6
Continuous
 62
     0
370
    18
100
AcDbLine
 10
0.0
 20
0.0
 30
0.0
 11
2.5
 21
0.0
 31
0.0
  0
LINE
  5
1EE
330
1E7
100
AcDbEntity
  8
0
  6
Continuous
 62
     0
370
    18
100
AcDbLine
 10
0.0
 20
5.0
 30
0.0
 11
0.0
 21
11.5
 31
0.0
  0
LINE
  5
1EF
330
1E7
100
AcDbEntity
  8
0
  6
Continuous
 62
     0
370
    18
100
AcDbLine
 10
-5.0
 20
0.0
 30
0.0
 11
-11.5
 21
0.0
 31
0.0
  0
LINE
  5
1F0
330
1E7
100
AcDbEntity
  8
0
  6
Continuous
 62
     0
370
    18
100
AcDbLine
 10
0.0
 20
-5.0
 30
0.0
 11
0.0
 21
-11.5
 31
0.0
  0
LINE
  5
1F1
330
1E7
100
AcDbEntity
  8
0
  6
Continuous
 62
     0
370
    18
100
AcDbLine
 10
5.0
 20
0.0
 30
0.0
 11
26.9721049208
 21
0.0
 31
0.0
  0
ENDBLK
  5
1E9
330
1E7
100
AcDbEntity
  8
0
100
AcDbBlockEnd
  0
ENDSEC
  0
SECTION
  2
ENTITIES
  0
MTEXT
  5
74
330
1F
100
AcDbEntity
  8
0
  6
Continuous
 62
     7
370
     0
100
AcDbMText
 10
152.6673706182
 20
112.0588842986
 30
0.0
 40
4.2333333333
 41
0.0
 71
     1
 72
     1
  1
5R-LF1012
  7
SLDTEXTSTYLE0
 73
     1
 44
1.0
  0
LINE
  5
75
330
1F
100
AcDbEntity
  8
0
  6
Continuous
 62
     7
370
    25
100
AcDbLine
 10
153.9743308447
 20
85.8049369805
 30
0.0
 11
142.4743308447
 21
85.8049369805
 31
0.0
  0
LINE
  5
76
330
1F
100
AcDbEntity
  8
0
  6
Continuous
 62
     7
370
    25
100
AcDbLine
 10
142.4743308447
 20
67.8049369805
 30
0.0
 11
153.9743308447
 21
67.8049369805
 31
0.0
  0
LINE
  5
77
330
1F
100
AcDbEntity
  8
0
  6
Continuous
 62
     7
370
    25
100
AcDbLine
 10
120.4743308447
 20
101.3049369805
 30
0.0
 11
120.4743308447
 21
89.8049369805
 31
0.0
  0
LINE
  5
78
330
1F
100
AcDbEntity
  8
0
  6
Continuous
 62
     7
370
    25
100
AcDbLine
 10
138.4743308447
 20
89.8049369805
 30
0.0
 11
138.4743308447
 21
101.3049369805
 31
0.0
  0
ARC
  5
79
330
1F
100
AcDbEntity
  8
0
  6
Continuous
 62
     7
370
    25
100
AcDbCircle
 10
121.4743308447
 20
89.8049369805
 30
0.0
 40
1.0
100
AcDbArc
 50
180.0
 51
270.0
  0
ARC
  5
7A
330
1F
100
AcDbEntity
  8
0
  6
Continuous
 62
     7
370
    25
100
AcDbCircle
 10
137.4743308447
 20
89.8049369805
 30
0.0
 40
1.0
100
AcDbArc
 50
270.0
 51
0.0
  0
LINE
  5
7B
330
1F
100
AcDbEntity
  8
0
  6
Continuous
 62
     7
370
    25
100
AcDbLine
 10
138.4743308447
 20
101.3049369805
 30
0.0
 11
137.9743308447
 21
101.8049369805
 31
0.0
  0
LINE
  5
7C
330
1F
100
AcDbEntity
  8
0
  6
Continuous
 62
     7
370
    25
100
AcDbLine
 10
120.9743308447
 20
101.8049369805
 30
0.0
 11
120.4743308447
 21
101.3049369805
 31
0.0
  0
LINE
  5
7D
330
1F
100
AcDbEntity
  8
0
  6
Continuous
 62
     7
370
    25
100
AcDbLine
 10
153.9743308447
 20
67.8049369805
 30
0.0
 11
154.4743308447
 21
68.3049369805
 31
0.0
  0
LINE
  5
7E
330
1F
100
AcDbEntity
  8
0
  6
Continuous
 62
     7
370
    25
100
AcDbLine
 10
154.4743308447
 20
85.3049369805
 30
0.0
 11
153.9743308447
 21
85.8049369805
 31
0.0
  0
ARC
  5
7F
330
1F
100
AcDbEntity
  8
0
  6
Continuous
 62
     7
370
    25
100
AcDbCircle
 10
142.4743308447
 20
84.8049369805
 30
0.0
 40
1.0
100
AcDbArc
 50
90.0
 51
180.0
  0
ARC
  5
80
330
1F
100
AcDbEntity
  8
0
  6
Continuous
 62
     7
370
    25
100
AcDbCircle
 10
142.4743308447
 20
68.8049369805
 30
0.0
 40
1.0
100
AcDbArc
 50
180.0
 51
270.0
  0
ARC
  5
81
330
1F
100
AcDbEntity
  8
0
  6
Continuous
 62
     7
370
    25
100
AcDbCircle
 10
140.4743308447
 20
84.8049369805
 30
0.0
 40
1.0
100
AcDbArc
 50
270.0
 51
0.0
  0
ARC
  5
82
330
1F
100
AcDbEntity
  8
0
  6
Continuous
 62
     7
370
    25
100
AcDbCircle
 10
140.4743308447
 20
68.8049369805
 30
0.0
 40
1.0
100
AcDbArc
 50
0.0
 51
90.0
  0
ARC
  5
83
330
1F
100
AcDbEntity
  8
0
  6
Continuous
 62
     7
370
    25
100
AcDbCircle
 10
121.4743308447
 20
87.8049369805
 30
0.0
 40
1.000000000000014
100
AcDbArc
 50
0.0
 51
90.0
  0
ARC
  5
84
330
1F
100
AcDbEntity
  8
0
  6
Continuous
 62
     7
370
    25
100
AcDbCircle
 10
137.4743308447
 20
87.8049369805
 30
0.0
 40
1.000000000000014
100
AcDbArc
 50
90.0
 51
180.0
  0
LINE
  5
85
330
1F
100
AcDbEntity
  8
0
  6
Continuous
 62
     7
370
    25
100
AcDbLine
 10
136.4743308447
 20
83.8049369805
 30
0.0
 11
136.4743308447
 21
87.8049369805
 31
0.0
  0
LINE
  5
86
330
1F
100
AcDbEntity
  8
0
  6
Continuous
 62
     7
370
    25
100
AcDbLine
 10
122.4743308447
 20
87.8049369805
 30
0.0
 11
122.4743308447
 21
71.8049369805
 31
0.0
  0
LINE
  5
87
330
1F
100
AcDbEntity
  8
0
  6
Continuous
 62
     7
370
    25
100
AcDbLine
 10
124.4743308447
 20
69.8049369805
 30
0.0
 11
140.4743308447
 21
69.8049369805
 31
0.0
  0
LINE
  5
88
330
1F
100
AcDbEntity
  8
0
  6
Continuous
 62
     7
370
    25
100
AcDbLine
 10
140.4743308447
 20
83.8049369805
 30
0.0
 11
136.4743308447
 21
83.8049369805
 31
0.0
  0
ARC
  5
89
330
1F
100
AcDbEntity
  8
0
  6
Continuous
 62
     7
370
    25
100
AcDbCircle
 10
124.4743308447
 20
71.8049369805
 30
0.0
 40
1.99999999999999
100
AcDbArc
 50
179.831736774
 51
270.2188286019
  0
LINE
  5
8A
330
1F
100
AcDbEntity
  8
0
  6
Continuous
 62
     7
370
    25
100
AcDbLine
 10
153.9743308447
 20
67.8049369805
 30
0.0
 11
153.9743308447
 21
85.8049369805
 31
0.0
  0
LINE
  5
8B
330
1F
100
AcDbEntity
  8
0
  6
Continuous
 62
     7
370
    25
100
AcDbLine
 10
138.4743308447
 20
101.3049369805
 30
0.0
 11
120.4743308447
 21
101.3049369805
 31
0.0
  0
LINE
  5
8C
330
1F
100
AcDbEntity
  8
0
  6
Continuous
 62
     7
370
    25
100
AcDbLine
 10
121.474330846
 20
88.8049369805
 30
0.0
 11
137.4743308447
 21
88.8049369805
 31
0.0
  0
LINE
  5
8D
330
1F
100
AcDbEntity
  8
0
  6
Continuous
 62
     7
370
    25
100
AcDbLine
 10
120.9743308447
 20
101.8049369805
 30
0.0
 11
137.9743308447
 21
101.8049369805
 31
0.0
  0
LINE
  5
8E
330
1F
100
AcDbEntity
  8
0
  6
Continuous
 62
     7
370
    25
100
AcDbLine
 10
154.4743308447
 20
85.3049369805
 30
0.0
 11
154.4743308447
 21
68.3049369805
 31
0.0
  0
LINE
  5
8F
330
1F
100
AcDbEntity
  8
0
  6
Continuous
 62
     7
370
    25
100
AcDbLine
 10
141.4743308447
 20
68.8049369805
 30
0.0
 11
141.4743308447
 21
84.8049369805
 31
0.0
  0
LINE
  5
90
330
1F
100
AcDbEntity
  8
0
  6
Continuous
 62
     7
370
    25
100
AcDbLine
 10
123.7243308447
 20
84.3049369805
 30
0.0
 11
126.8285795337
 21
84.3049369805
 31
0.0
  0
SPLINE
  5
91
330
1F
100
AcDbEntity
  8
0
  6
Continuous
 62
     7
370
    25
100
AcDbSpline
210
0.0
220
0.0
230
1.0
 70
     8
 71
     3
 72
    12
 73
     8
 74
     0
 42
0.000000001
 43
0.00000001
 40
0.0
 40
0.0
 40
0.0
 40
0.0
 40
0.25
 40
0.25
 40
0.5
 40
0.5
 40
1.0
 40
1.0
 40
1.0
 40
1.0
 10
126.8419454817364
 20
84.2317136758291
 30
0.0
 10
126.8436396265623
 20
84.2459909775838
 30
0.0
 10
126.8455658361184
 20
84.2577060850052
 30
0.0
 10
126.8484812974089
 20
84.27678944279538
 30
0.0
 10
126.8494705491433
 20
84.28415769316415
 30
0.0
 10
126.8489312366907
 20
84.30090845611245
 30
0.0
 10
126.8438956048479
 20
84.30493698053397
 30
0.0
 10
126.8285795336688
 20
84.30493698053397
 30
0.0
  0
SPLINE
  5
92
330
1F
100
AcDbEntity
  8
0
  6
Continuous
 62
     7
370
    25
100
AcDbSpline
210
0.0
220
0.0
230
1.0
 70
     8
 71
     3
 72
    10
 73
     6
 74
     0
 42
0.000000001
 43
0.00000001
 40
0.0
 40
0.0
 40
0.0
 40
0.0
 40
0.5
 40
0.5
 40
1.0
 40
1.0
 40
1.0
 40
1.0
 10
126.8419454817364
 20
84.2317136758291
 30
0.0
 10
126.8385571920847
 20
84.2031590723197
 30
0.0
 10
126.8352157050678
 20
84.17013753724285
 30
0.0
 10
126.8302268758599
 20
84.10719913009693
 30
0.0
 10
126.8285795336688
 20
84.07728225802784
 30
0.0
 10
126.8285795336688
 20
84.05493698053397
 30
0.0
  0
LINE
  5
93
330
1F
100
AcDbEntity
  8
0
  6
Continuous
 62
     7
370
    25
100
AcDbLine
 10
126.8285795337
 20
84.0549369805
 30
0.0
 11
123.7243308447
 21
84.0549369805
 31
0.0
  0
LINE
  5
94
330
1F
100
AcDbEntity
  8
0
  6
Continuous
 62
     7
370
    25
100
AcDbLine
 10
123.7243308447
 20
84.3049369805
 30
0.0
 11
123.7243308447
 21
84.0549369805
 31
0.0
  0
LINE
  5
95
330
1F
100
AcDbEntity
  8
0
  6
Continuous
 62
     7
370
    25
100
AcDbLine
 10
136.9743308447
 20
82.5549369805
 30
0.0
 11
136.9743308447
 21
79.4506882916
 31
0.0
  0
SPLINE
  5
96
330
1F
100
AcDbEntity
  8
0
  6
Continuous
 62
     7
370
    25
100
AcDbSpline
210
0.0
220
0.0
230
1.0
 70
     8
 71
     3
 72
    12
 73
     8
 74
     0
 42
0.000000001
 43
0.00000001
 40
0.0
 40
0.0
 40
0.0
 40
0.0
 40
0.25
 40
0.25
 40
0.5
 40
0.5
 40
1.0
 40
1.0
 40
1.0
 40
1.0
 10
136.9011075400285
 20
79.43732234353095
 30
0.0
 10
136.9153848417833
 20
79.43562819870505
 30
0.0
 10
136.9270999492047
 20
79.43370198914894
 30
0.0
 10
136.9461833069948
 20
79.43078652785844
 30
0.0
 10
136.9535515573636
 20
79.42979727612405
 30
0.0
 10
136.9703023203119
 20
79.43033658857667
 30
0.0
 10
136.9743308447334
 20
79.43537222041947
 30
0.0
 10
136.9743308447334
 20
79.45068829159855
 30
0.0
  0
SPLINE
  5
97
330
1F
100
AcDbEntity
  8
0
  6
Continuous
 62
     7
370
    25
100
AcDbSpline
210
0.0
220
0.0
230
1.0
 70
     8
 71
     3
 72
    10
 73
     6
 74
     0
 42
0.000000001
 43
0.00000001
 40
0.0
 40
0.0
 40
0.0
 40
0.0
 40
0.5
 40
0.5
 40
1.0
 40
1.0
 40
1.0
 40
1.0
 10
136.9011075400285
 20
79.43732234353095
 30
0.0
 10
136.8725529365192
 20
79.44071063318275
 30
0.0
 10
136.8395314014423
 20
79.44405212019964
 30
0.0
 10
136.7765929942964
 20
79.44904094940755
 30
0.0
 10
136.7466761222273
 20
79.45068829159855
 30
0.0
 10
136.7243308447334
 20
79.45068829159855
 30
0.0
  0
LINE
  5
98
330
1F
100
AcDbEntity
  8
0
  6
Continuous
 62
     7
370
    25
100
AcDbLine
 10
136.7243308447
 20
79.4506882916
 30
0.0
 11
136.7243308447
 21
82.5549369805
 31
0.0
  0
LINE
  5
99
330
1F
100
AcDbEntity
  8
0
  6
Continuous
 62
     7
370
    25
100
AcDbLine
 10
136.7243308447
 20
82.5549369805
 30
0.0
 11
136.9743308447
 21
82.5549369805
 31
0.0
  0
LINE
  5
9A
330
1F
100
AcDbEntity
  8
0
  6
Continuous
 62
     7
370
    25
100
AcDbLine
 10
135.2243308447
 20
84.0549369805
 30
0.0
 11
132.1200821558
 21
84.0549369805
 31
0.0
  0
LINE
  5
9B
330
1F
100
AcDbEntity
  8
0
  6
Continuous
 62
     7
370
    25
100
AcDbLine
 10
135.2243308447
 20
83.8049369805
 30
0.0
 11
135.2243308447
 21
84.0549369805
 31
0.0
  0
ARC
  5
9C
330
1F
100
AcDbEntity
  8
0
  6
Continuous
 62
     7
370
    25
100
AcDbCircle
 10
136.4743308447
 20
83.8049369805
 30
0.0
 40
1.25
100
AcDbArc
 50
180.0
 51
270.0
  0
LINE
  5
9D
330
1F
100
AcDbEntity
  8
0
  6
Continuous
 62
     7
370
    25
100
AcDbLine
 10
136.7243308447
 20
82.5549369805
 30
0.0
 11
136.4743308447
 21
82.5549369805
 31
0.0
  0
LINE
  5
9E
330
1F
100
AcDbEntity
  8
0
  6
Continuous
 62
     7
370
    25
100
AcDbLine
 10
136.7243308447
 20
79.4506882916
 30
0.0
 11
136.7243308447
 21
76.8049369805
 31
0.0
  0
LINE
  5
9F
330
1F
100
AcDbEntity
  8
0
  6
Continuous
 62
     7
370
    25
100
AcDbLine
 10
136.7243308447
 20
76.8049369805
 30
0.0
 11
136.7243308447
 21
74.1591856695
 31
0.0
  0
LINE
  5
A0
330
1F
100
AcDbEntity
  8
0
  6
Continuous
 62
     7
370
    25
100
AcDbLine
 10
136.7243308447
 20
71.0549369805
 30
0.0
 11
136.7243308447
 21
74.1591856695
 31
0.0
  0
LINE
  5
A1
330
1F
100
AcDbEntity
  8
0
  6
Continuous
 62
     7
370
    25
100
AcDbLine
 10
125.4743308447
 20
71.0549369805
 30
0.0
 11
136.7243308447
 21
71.0549369805
 31
0.0
  0
ARC
  5
A2
330
1F
100
AcDbEntity
  8
0
  6
Continuous
 62
     7
370
    25
100
AcDbCircle
 10
125.4743308447
 20
72.8049369805
 30
0.0
 40
1.750000000000014
100
AcDbArc
 50
180.0
 51
270.0
  0
LINE
  5
A3
330
1F
100
AcDbEntity
  8
0
  6
Continuous
 62
     7
370
    25
100
AcDbLine
 10
123.7243308447
 20
84.0549369805
 30
0.0
 11
123.7243308447
 21
72.8049369805
 31
0.0
  0
LINE
  5
A4
330
1F
100
AcDbEntity
  8
0
  6
Continuous
 62
     7
370
    25
100
AcDbLine
 10
126.8285795337
 20
84.0549369805
 30
0.0
 11
129.4743308447
 21
84.0549369805
 31
0.0
  0
LINE
  5
A5
330
1F
100
AcDbEntity
  8
0
  6
Continuous
 62
     7
370
    25
100
AcDbLine
 10
129.4743308447
 20
84.0549369805
 30
0.0
 11
132.1200821558
 21
84.0549369805
 31
0.0
  0
LINE
  5
A6
330
1F
100
AcDbEntity
  8
0
  6
Continuous
 62
     7
370
    25
100
AcDbLine
 10
134.3262326124
 20
76.6239824852
 30
0.0
 11
135.3015081313
 21
73.8971551056
 31
0.0
  0
SPLINE
  5
A7
330
1F
100
AcDbEntity
  8
0
  6
Continuous
 62
     7
370
    25
100
AcDbSpline
210
0.0
220
0.0
230
1.0
 70
     8
 71
     3
 72
    14
 73
    10
 74
     0
 42
0.000000001
 43
0.00000001
 40
0.0
 40
0.0
 40
0.0
 40
0.0
 40
0.25
 40
0.25
 40
0.5
 40
0.5
 40
0.75
 40
0.75
 40
1.0
 40
1.0
 40
1.0
 40
1.0
 10
132.9525850743796
 20
76.62398248517674
 30
0.0
 10
133.0129814975785
 20
76.75461986548159
 30
0.0
 10
133.1125110592359
 20
76.8646842306471
 30
0.0
 10
133.3535967499823
 20
77.01446151412028
 30
0.0
 10
133.4949137832756
 20
77.0548074512547
 30
0.0
 10
133.7825069973883
 20
77.05506588218427
 30
0.0
 10
133.9239646532772
 20
77.01524484508651
 30
0.0
 10
134.1675845903756
 20
76.86388743093144
 30
0.0
 10
134.2658415893426
 20
76.75460818503177
 30
0.0
 10
134.3262326124223
 20
76.6239824851773
 30
0.0
  0
LINE
  5
A8
330
1F
100
AcDbEntity
  8
0
  6
Continuous
 62
     7
370
    25
100
AcDbLine
 10
131.9775358572
 20
73.8977878353
 30
0.0
 11
132.9525850744
 21
76.6239824852
 31
0.0
  0
SPLINE
  5
A9
330
1F
100
AcDbEntity
  8
0
  6
Continuous
 62
     7
370
    25
100
AcDbSpline
210
0.0
220
0.0
230
1.0
 70
     8
 71
     3
 72
    10
 73
     6
 74
     0
 42
0.000000001
 43
0.00000001
 40
0.0
 40
0.0
 40
0.0
 40
0.0
 40
0.5
 40
0.5
 40
1.0
 40
1.0
 40
1.0
 40
1.0
 10
131.5769318989166
 20
73.76175411224902
 30
0.0
 10
131.6473837971736
 20
73.72298365011888
 30
0.0
 10
131.7327157922684
 20
73.71566131006531
 30
0.0
 10
131.8847017054301
 20
73.7646266251077
 30
0.0
 10
131.9504062706951
 20
73.82193470663238
 30
0.0
 10
131.9775358572442
 20
73.89778783527959
 30
0.0
  0
LINE
  5
AA
330
1F
100
AcDbEntity
  8
0
  6
Continuous
 62
     7
370
    25
100
AcDbLine
 10
130.8093223952
 20
74.1841781481
 30
0.0
 11
131.5769318989
 21
73.7617541122
 31
0.0
  0
LINE
  5
AB
330
1F
100
AcDbEntity
  8
0
  6
Continuous
 62
     7
370
    25
100
AcDbLine
 10
131.8091097455
 20
72.2782499342
 30
0.0
 11
130.8093223952
 21
74.1841781481
 31
0.0
  0
SPLINE
  5
AC
330
1F
100
AcDbEntity
  8
0
  6
Continuous
 62
     7
370
    25
100
AcDbSpline
210
0.0
220
0.0
230
1.0
 70
     8
 71
     3
 72
    10
 73
     6
 74
     0
 42
0.000000001
 43
0.00000001
 40
0.0
 40
0.0
 40
0.0
 40
0.0
 40
0.5
 40
0.5
 40
1.0
 40
1.0
 40
1.0
 40
1.0
 10
132.2994815891191
 20
72.18967589302878
 30
0.0
 10
132.227370594797
 20
72.12567012322478
 30
0.0
 10
132.1262664679572
 20
72.09808478497119
 30
0.0
 10
131.9387086099173
 20
72.13188554493495
 30
0.0
 10
131.8539053843249
 20
72.19285450310535
 30
0.0
 10
131.8091097455413
 20
72.27824993423141
 30
0.0
  0
SPLINE
  5
AD
330
1F
100
AcDbEntity
  8
0
  6
Continuous
 62
     7
370
    25
100
AcDbSpline
210
0.0
220
0.0
230
1.0
 70
     8
 71
     3
 72
    14
 73
    10
 74
     0
 42
0.000000001
 43
0.00000001
 40
0.0
 40
0.0
 40
0.0
 40
0.0
 40
0.4999999999999987
 40
0.4999999999999987
 40
0.6249999999999988
 40
0.6249999999999988
 40
0.7499999999999993
 40
0.7499999999999993
 40
1.0
 40
1.0
 40
1.0
 40
1.0
 10
134.979336097683
 20
72.18967589302868
 30
0.0
 10
134.6113156091131
 20
72.51633114020684
 30
0.0
 10
134.1272678253918
 20
72.69145398359895
 30
0.0
 10
133.5175420393202
 20
72.6914770820881
 30
0.0
 10
133.3944351806795
 20
72.68051019969816
 30
0.0
 10
133.1553670882226
 20
72.637629715768
 30
0.0
 10
133.0381801561105
 20
72.60578385904152
 30
0.0
 10
132.6939430937879
 20
72.47777749911275
 30
0.0
 10
132.4835123072208
 20
72.35302168919222
 30
0.0
 10
132.2994815891191
 20
72.18967589302878
 30
0.0
  0
SPLINE
  5
AE
330
1F
100
AcDbEntity
  8
0
  6
Continuous
 62
     7
370
    25
100
AcDbSpline
210
0.0
220
0.0
230
1.0
 70
     8
 71
     3
 72
    10
 73
     6
 74
     0
 42
0.000000001
 43
0.00000001
 40
0.0
 40
0.0
 40
0.0
 40
0.0
 40
0.5
 40
0.5
 40
1.0
 40
1.0
 40
1.0
 40
1.0
 10
135.4697079412609
 20
72.27824993423177
 30
0.0
 10
135.4249089518737
 20
72.19284811573702
 30
0.0
 10
135.3396251062161
 20
72.13165966596128
 30
0.0
 10
135.1521352466153
 20
72.0981491478882
 30
0.0
 10
135.0514561812961
 20
72.12566205556357
 30
0.0
 10
134.979336097683
 20
72.18967589302866
 30
0.0
  0
LINE
  5
AF
330
1F
100
AcDbEntity
  8
0
  6
Continuous
 62
     7
370
    25
100
AcDbLine
 10
136.4810549012
 20
74.2062146203
 30
0.0
 11
135.4697079413
 21
72.2782499342
 31
0.0
  0
LINE
  5
B0
330
1F
100
AcDbEntity
  8
0
  6
Continuous
 62
     7
370
    25
100
AcDbLine
 10
135.7060333356
 20
73.7633205399
 30
0.0
 11
136.4810549012
 21
74.2062146203
 31
0.0
  0
SPLINE
  5
B1
330
1F
100
AcDbEntity
  8
0
  6
Continuous
 62
     7
370
    25
100
AcDbSpline
210
0.0
220
0.0
230
1.0
 70
     8
 71
     3
 72
    10
 73
     6
 74
     0
 42
0.000000001
 43
0.00000001
 40
0.0
 40
0.0
 40
0.0
 40
0.0
 40
0.5
 40
0.5
 40
1.0
 40
1.0
 40
1.0
 40
1.0
 10
135.3015081312907
 20
73.89715510560372
 30
0.0
 10
135.3289503064809
 20
73.82042799288945
 30
0.0
 10
135.3960329371533
 20
73.76282080752439
 30
0.0
 10
135.5488407916134
 20
73.71486505864094
 30
0.0
 10
135.6354332767783
 20
73.72297540688768
 30
0.0
 10
135.706033335629
 20
73.76332053988453
 30
0.0
  0
SPLINE
  5
B2
330
1F
100
AcDbEntity
  8
0
  6
Continuous
 62
     7
370
    25
100
AcDbSpline
210
0.0
220
0.0
230
1.0
 70
     8
 71
     3
 72
     8
 73
     4
 74
     0
 42
0.000000001
 43
0.00000001
 40
0.0
 40
0.0
 40
0.0
 40
0.0
 40
1.0
 40
1.0
 40
1.0
 40
1.0
 10
123.4588298712154
 20
72.50815057087823
 30
0.0
 10
123.4463140135308
 20
72.60556598998959
 30
0.0
 10
123.4398480861127
 20
72.70444672751684
 30
0.0
 10
123.4398480861127
 20
72.80493698053398
 30
0.0
  0
LINE
  5
B3
330
1F
100
AcDbEntity
  8
0
  6
Continuous
 62
     7
370
    25
100
AcDbLine
 10
135.8426173334
 20
83.1732234692
 30
0.0
 11
136.4743308447
 21
83.8049369805
 31
0.0
  0
SPLINE
  5
B4
330
1F
100
AcDbEntity
  8
0
  6
Continuous
 62
     7
370
    25
100
AcDbSpline
210
0.0
220
0.0
230
1.0
 70
     8
 71
     3
 72
    12
 73
     8
 74
     0
 42
0.000000001
 43
0.00000001
 40
0.0
 40
0.0
 40
0.0
 40
0.0
 40
0.2500000000000002
 40
0.2500000000000002
 40
0.5000000000000004
 40
0.5000000000000004
 40
1.0
 40
1.0
 40
1.0
 40
1.0
 10
135.5088136033541
 20
83.80493698053397
 30
0.0
 10
135.5088136033541
 20
83.71813120341736
 30
0.0
 10
135.5239124562923
 20
83.63464600488047
 30
0.0
 10
135.5713643144788
 20
83.4906658161422
 30
0.0
 10
135.6022693263951
 20
83.43142968321897
 30
0.0
 10
135.7016030781442
 20
83.28111611506198
 30
0.0
 10
135.7739353498797
 20
83.21874734213321
 30
0.0
 10
135.8426173334307
 20
83.17322346923126
 30
0.0
  0
LINE
  5
B5
330
1F
100
AcDbEntity
  8
0
  6
Continuous
 62
     7
370
    25
100
AcDbLine
 10
135.5088136034
 20
84.0549369805
 30
0.0
 11
135.5088136034
 21
83.8049369805
 31
0.0
  0
SPLINE
  5
B6
330
1F
100
AcDbEntity
  8
0
  6
Continuous
 62
     7
370
    25
100
AcDbSpline
210
0.0
220
0.0
230
1.0
 70
     8
 71
     3
 72
    14
 73
    10
 74
     0
 42
0.000000001
 43
0.00000001
 40
0.0
 40
0.0
 40
0.0
 40
0.0
 40
0.25
 40
0.25
 40
0.5
 40
0.5
 40
0.75
 40
0.75
 40
1.0
 40
1.0
 40
1.0
 40
1.0
 10
135.5088136033541
 20
84.05493698053397
 30
0.0
 10
135.5088136033541
 20
84.1467393751469
 30
0.0
 10
135.483303409415
 20
84.23090331406233
 30
0.0
 10
135.4163370416255
 20
84.3579989946337
 30
0.0
 10
135.3745224090241
 20
84.40612146388486
 30
0.0
 10
135.2845618913425
 20
84.48143924366362
 30
0.0
 10
135.2355548992428
 20
84.50881545675693
 30
0.0
 10
135.1342410487036
 20
84.54537730737907
 30
0.0
 10
135.0813724320529
 20
84.55493698053397
 30
0.0
 10
135.0260549826644
 20
84.55493698053397
 30
0.0
  0
LINE
  5
B7
330
1F
100
AcDbEntity
  8
0
  6
Continuous
 62
     7
370
    25
100
AcDbLine
 10
132.028849352
 20
84.5549369805
 30
0.0
 11
135.0260549827
 21
84.5549369805
 31
0.0
  0
SPLINE
  5
B8
330
1F
100
AcDbEntity
  8
0
  6
Continuous
 62
     7
370
    25
100
AcDbSpline
210
0.0
220
0.0
230
1.0
 70
    24
 71
     3
 72
    14
 73
    10
 74
     0
 42
0.000000001
 43
0.00000001
 40
0.0
 40
0.0
 40
0.0
 40
0.0
 40
0.25
 40
0.25
 40
0.5
 40
0.5
 40
0.75
 40
0.75
 40
1.0
 40
1.0
 40
1.0
 40
1.0
 10
129.4743308447334
 20
84.55493698053398
 30
0.0
 10
129.689627075256
 20
84.55493698053398
 30
0.0
 10
129.9049244363993
 20
84.55493698053398
 30
0.0
 10
130.3346582009953
 20
84.55493698053397
 30
0.0
 10
130.5490968703917
 20
84.55493698053397
 30
0.0
 10
130.9761866741019
 20
84.55493698053397
 30
0.0
 10
131.1888400855364
 20
84.55493698053397
 30
0.0
 10
131.6112967880488
 20
84.55493698053397
 30
0.0
 10
131.8211023649341
 20
84.55493698053397
 30
0.0
 10
132.0288493519682
 20
84.55493698053397
 30
0.0
  0
SPLINE
  5
B9
330
1F
100
AcDbEntity
  8
0
  6
Continuous
 62
     7
370
    25
100
AcDbSpline
210
0.0
220
0.0
230
1.0
 70
    24
 71
     3
 72
    14
 73
    10
 74
     0
 42
0.000000001
 43
0.00000001
 40
0.0
 40
0.0
 40
0.0
 40
0.0
 40
0.25
 40
0.25
 40
0.5
 40
0.5
 40
0.75
 40
0.75
 40
1.0
 40
1.0
 40
1.0
 40
1.0
 10
129.4743308447334
 20
84.55493698053398
 30
0.0
 10
129.2590346142108
 20
84.55493698053398
 30
0.0
 10
129.0437372530676
 20
84.55493698053398
 30
0.0
 10
128.6140034884716
 20
84.55493698053398
 30
0.0
 10
128.3995648190751
 20
84.55493698053398
 30
0.0
 10
127.972475015365
 20
84.55493698053397
 30
0.0
 10
127.7598216039305
 20
84.55493698053397
 30
0.0
 10
127.3373649014181
 20
84.55493698053397
 30
0.0
 10
127.1275593245328
 20
84.55493698053397
 30
0.0
 10
126.9198123374987
 20
84.55493698053397
 30
0.0
  0
LINE
  5
BA
330
1F
100
AcDbEntity
  8
0
  6
Continuous
 62
     7
370
    25
100
AcDbLine
 10
123.9226067068
 20
84.5549369805
 30
0.0
 11
126.9198123375
 21
84.5549369805
 31
0.0
  0
SPLINE
  5
BB
330
1F
100
AcDbEntity
  8
0
  6
Continuous
 62
     7
370
    25
100
AcDbSpline
210
0.0
220
0.0
230
1.0
 70
     8
 71
     3
 72
    14
 73
    10
 74
     0
 42
0.000000001
 43
0.00000001
 40
0.0
 40
0.0
 40
0.0
 40
0.0
 40
0.25
 40
0.25
 40
0.5
 40
0.5
 40
0.75
 40
0.75
 40
1.0
 40
1.0
 40
1.0
 40
1.0
 10
123.9226067068024
 20
84.55493698053397
 30
0.0
 10
123.8673279301768
 20
84.55493698053397
 30
0.0
 10
123.8143492520106
 20
84.54538841629784
 30
0.0
 10
123.7126077842844
 20
84.50859829817301
 30
0.0
 10
123.663563510562
 20
84.48104725088484
 30
0.0
 10
123.5741154655938
 20
84.40604416331468
 30
0.0
 10
123.5322408972692
 20
84.3578637831227
 30
0.0
 10
123.4653692690655
 20
84.23090040534588
 30
0.0
 10
123.4398480861127
 20
84.1468779252571
 30
0.0
 10
123.4398480861127
 20
84.05493698053397
 30
0.0
  0
LINE
  5
BC
330
1F
100
AcDbEntity
  8
0
  6
Continuous
 62
     7
370
    25
100
AcDbLine
 10
123.4398480861
 20
72.8049369805
 30
0.0
 11
123.4398480861
 21
84.0549369805
 31
0.0
  0
SPLINE
  5
BD
330
1F
100
AcDbEntity
  8
0
  6
Continuous
 62
     7
370
    25
100
AcDbSpline
210
0.0
220
0.0
230
1.0
 70
     8
 71
     3
 72
    12
 73
     8
 74
     0
 42
0.000000001
 43
0.00000001
 40
0.0
 40
0.0
 40
0.0
 40
0.0
 40
0.25
 40
0.25
 40
0.5
 40
0.5
 40
1.0
 40
1.0
 40
1.0
 40
1.0
 10
132.1067162077304
 20
84.2317136758291
 30
0.0
 10
132.1050220629045
 20
84.2459909775838
 30
0.0
 10
132.1030958533484
 20
84.2577060850052
 30
0.0
 10
132.1001803920579
 20
84.27678944279538
 30
0.0
 10
132.0991911403235
 20
84.28415769316415
 30
0.0
 10
132.0997304527761
 20
84.30090845611245
 30
0.0
 10
132.1047660846189
 20
84.30493698053397
 30
0.0
 10
132.120082155798
 20
84.30493698053397
 30
0.0
  0
LINE
  5
BE
330
1F
100
AcDbEntity
  8
0
  6
Continuous
 62
     7
370
    25
100
AcDbLine
 10
132.1200821558
 20
84.3049369805
 30
0.0
 11
135.2243308447
 21
84.3049369805
 31
0.0
  0
LINE
  5
BF
330
1F
100
AcDbEntity
  8
0
  6
Continuous
 62
     7
370
    25
100
AcDbLine
 10
135.2243308447
 20
84.3049369805
 30
0.0
 11
135.2243308447
 21
84.0549369805
 31
0.0
  0
SPLINE
  5
C0
330
1F
100
AcDbEntity
  8
0
  6
Continuous
 62
     7
370
    25
100
AcDbSpline
210
0.0
220
0.0
230
1.0
 70
     8
 71
     3
 72
    10
 73
     6
 74
     0
 42
0.000000001
 43
0.00000001
 40
0.0
 40
0.0
 40
0.0
 40
0.0
 40
0.5
 40
0.5
 40
1.0
 40
1.0
 40
1.0
 40
1.0
 10
132.1067162077304
 20
84.2317136758291
 30
0.0
 10
132.1101044973822
 20
84.2031590723197
 30
0.0
 10
132.1134459843991
 20
84.17013753724285
 30
0.0
 10
132.118434813607
 20
84.10719913009693
 30
0.0
 10
132.120082155798
 20
84.07728225802784
 30
0.0
 10
132.120082155798
 20
84.05493698053397
 30
0.0
  0
SPLINE
  5
C1
330
1F
100
AcDbEntity
  8
0
  6
Continuous
 62
     7
370
    25
100
AcDbSpline
210
0.0
220
0.0
230
1.0
 70
     8
 71
     3
 72
    10
 73
     6
 74
     0
 42
0.000000001
 43
0.00000001
 40
0.0
 40
0.0
 40
0.0
 40
0.0
 40
0.5
 40
0.5
 40
1.0
 40
1.0
 40
1.0
 40
1.0
 10
136.9011075400286
 20
74.172551617537
 30
0.0
 10
136.8725529365192
 20
74.16916332788522
 30
0.0
 10
136.8395314014423
 20
74.1658218408683
 30
0.0
 10
136.7765929942964
 20
74.16083301166039
 30
0.0
 10
136.7466761222273
 20
74.15918566946938
 30
0.0
 10
136.7243308447334
 20
74.15918566946938
 30
0.0
  0
SPLINE
  5
C2
330
1F
100
AcDbEntity
  8
0
  6
Continuous
 62
     7
370
    25
100
AcDbSpline
210
0.0
220
0.0
230
1.0
 70
     8
 71
     3
 72
    12
 73
     8
 74
     0
 42
0.000000001
 43
0.00000001
 40
0.0
 40
0.0
 40
0.0
 40
0.0
 40
0.25
 40
0.25
 40
0.5
 40
0.5
 40
1.0
 40
1.0
 40
1.0
 40
1.0
 10
136.9011075400286
 20
74.172551617537
 30
0.0
 10
136.9153848417833
 20
74.1742457623629
 30
0.0
 10
136.9270999492047
 20
74.176171971919
 30
0.0
 10
136.9461833069948
 20
74.1790874332095
 30
0.0
 10
136.9535515573636
 20
74.18007668494388
 30
0.0
 10
136.9703023203119
 20
74.17953737249128
 30
0.0
 10
136.9743308447334
 20
74.17450174064848
 30
0.0
 10
136.9743308447334
 20
74.15918566946938
 30
0.0
  0
LINE
  5
C3
330
1F
100
AcDbEntity
  8
0
  6
Continuous
 62
     7
370
    25
100
AcDbLine
 10
136.9743308447
 20
74.1591856695
 30
0.0
 11
136.9743308447
 21
71.0549369805
 31
0.0
  0
LINE
  5
C4
330
1F
100
AcDbEntity
  8
0
  6
Continuous
 62
     7
370
    25
100
AcDbLine
 10
136.7243308447
 20
71.0549369805
 30
0.0
 11
136.9743308447
 21
71.0549369805
 31
0.0
  0
SPLINE
  5
C5
330
1F
100
AcDbEntity
  8
0
  6
Continuous
 62
     7
370
    25
100
AcDbSpline
210
0.0
220
0.0
230
1.0
 70
     8
 71
     3
 72
     8
 73
     4
 74
     0
 42
0.000000001
 43
0.00000001
 40
0.0
 40
0.0
 40
0.0
 40
0.0
 40
1.0
 40
1.0
 40
1.0
 40
1.0
 10
125.4743308447334
 20
70.77045422191327
 30
0.0
 10
125.3738405917163
 20
70.77045422191327
 30
0.0
 10
125.274959854189
 20
70.77692014933137
 30
0.0
 10
125.1775444350777
 20
70.78943600701594
 30
0.0
  0
LINE
  5
C6
330
1F
100
AcDbEntity
  8
0
  6
Continuous
 62
     7
370
    25
100
AcDbLine
 10
136.7243308447
 20
70.7704542219
 30
0.0
 11
125.4743308447
 21
70.7704542219
 31
0.0
  0
SPLINE
  5
C7
330
1F
100
AcDbEntity
  8
0
  6
Continuous
 62
     7
370
    25
100
AcDbSpline
210
0.0
220
0.0
230
1.0
 70
     8
 71
     3
 72
    14
 73
    10
 74
     0
 42
0.000000001
 43
0.00000001
 40
0.0
 40
0.0
 40
0.0
 40
0.0
 40
0.25
 40
0.25
 40
0.5
 40
0.5
 40
0.75
 40
0.75
 40
1.0
 40
1.0
 40
1.0
 40
1.0
 10
136.7243308447334
 20
70.77045422191327
 30
0.0
 10
136.8161332393464
 20
70.77045422191327
 30
0.0
 10
136.9002971782618
 20
70.7959644158524
 30
0.0
 10
137.0273928588332
 20
70.86293078364187
 30
0.0
 10
137.0755153280843
 20
70.90474541624333
 30
0.0
 10
137.1508331078631
 20
70.99470593392488
 30
0.0
 10
137.1782093209564
 20
71.04371292602457
 30
0.0
 10
137.2147711715785
 20
71.14502677656385
 30
0.0
 10
137.2243308447334
 20
71.19789539321445
 30
0.0
 10
137.2243308447334
 20
71.25321284260295
 30
0.0
  0
LINE
  5
C8
330
1F
100
AcDbEntity
  8
0
  6
Continuous
 62
     7
370
    25
100
AcDbLine
 10
137.2243308447
 20
74.2504184733
 30
0.0
 11
137.2243308447
 21
71.2532128426
 31
0.0
  0
SPLINE
  5
C9
330
1F
100
AcDbEntity
  8
0
  6
Continuous
 62
     7
370
    25
100
AcDbSpline
210
0.0
220
0.0
230
1.0
 70
    24
 71
     3
 72
    14
 73
    10
 74
     0
 42
0.000000001
 43
0.00000001
 40
0.0
 40
0.0
 40
0.0
 40
0.0
 40
0.25
 40
0.25
 40
0.5
 40
0.5
 40
0.75
 40
0.75
 40
1.0
 40
1.0
 40
1.0
 40
1.0
 10
137.2243308447334
 20
76.80493698053398
 30
0.0
 10
137.2243308447334
 20
76.58964075001137
 30
0.0
 10
137.2243308447334
 20
76.37434338886816
 30
0.0
 10
137.2243308447334
 20
75.94460962427213
 30
0.0
 10
137.2243308447334
 20
75.73017095487566
 30
0.0
 10
137.2243308447334
 20
75.30308115116556
 30
0.0
 10
137.2243308447334
 20
75.090427739731
 30
0.0
 10
137.2243308447334
 20
74.6679710372186
 30
0.0
 10
137.2243308447334
 20
74.45816546033335
 30
0.0
 10
137.2243308447334
 20
74.25041847329919
 30
0.0
  0
SPLINE
  5
CA
330
1F
100
AcDbEntity
  8
0
  6
Continuous
 62
     7
370
    25
100
AcDbSpline
210
0.0
220
0.0
230
1.0
 70
    24
 71
     3
 72
    14
 73
    10
 74
     0
 42
0.000000001
 43
0.00000001
 40
0.0
 40
0.0
 40
0.0
 40
0.0
 40
0.25
 40
0.25
 40
0.5
 40
0.5
 40
0.75
 40
0.75
 40
1.0
 40
1.0
 40
1.0
 40
1.0
 10
137.2243308447334
 20
76.80493698053398
 30
0.0
 10
137.2243308447334
 20
77.02023321105656
 30
0.0
 10
137.2243308447334
 20
77.23553057219978
 30
0.0
 10
137.2243308447334
 20
77.66526433679581
 30
0.0
 10
137.2243308447334
 20
77.87970300619227
 30
0.0
 10
137.2243308447334
 20
78.30679280990238
 30
0.0
 10
137.2243308447334
 20
78.51944622133695
 30
0.0
 10
137.2243308447334
 20
78.94190292384934
 30
0.0
 10
137.2243308447334
 20
79.1517085007346
 30
0.0
 10
137.2243308447334
 20
79.35945548776876
 30
0.0
  0
LINE
  5
CB
330
1F
100
AcDbEntity
  8
0
  6
Continuous
 62
     7
370
    25
100
AcDbLine
 10
137.2243308447
 20
82.3566611185
 30
0.0
 11
137.2243308447
 21
79.3594554878
 31
0.0
  0
SPLINE
  5
CC
330
1F
100
AcDbEntity
  8
0
  6
Continuous
 62
     7
370
    25
100
AcDbSpline
210
0.0
220
0.0
230
1.0
 70
     8
 71
     3
 72
    14
 73
    10
 74
     0
 42
0.000000001
 43
0.00000001
 40
0.0
 40
0.0
 40
0.0
 40
0.0
 40
0.25
 40
0.25
 40
0.5
 40
0.5
 40
0.75
 40
0.75
 40
1.0
 40
1.0
 40
1.0
 40
1.0
 10
137.2243308447334
 20
82.356661118465
 30
0.0
 10
137.2243308447334
 20
82.41193989509058
 30
0.0
 10
137.2147822804973
 20
82.46491857325682
 30
0.0
 10
137.1779921623725
 20
82.566660040983
 30
0.0
 10
137.1504411150843
 20
82.61570431470541
 30
0.0
 10
137.0754380275141
 20
82.70515235967363
 30
0.0
 10
137.0272576473222
 20
82.7470269279982
 30
0.0
 10
136.9002942695453
 20
82.8138985562019
 30
0.0
 10
136.8162717894566
 20
82.83941973915466
 30
0.0
 10
136.7243308447334
 20
82.83941973915466
 30
0.0
  0
LINE
  5
CD
330
1F
100
AcDbEntity
  8
0
  6
Continuous
 62
     7
370
    25
100
AcDbLine
 10
136.4743308447
 20
82.8394197392
 30
0.0
 11
136.7243308447
 21
82.8394197392
 31
0.0
  0
SPLINE
  5
CE
330
1F
100
AcDbEntity
  8
0
  6
Continuous
 62
     7
370
    25
100
AcDbSpline
210
0.0
220
0.0
230
1.0
 70
     8
 71
     3
 72
    12
 73
     8
 74
     0
 42
0.000000001
 43
0.00000001
 40
0.0
 40
0.0
 40
0.0
 40
0.0
 40
0.4999999999999991
 40
0.4999999999999991
 40
0.7499999999999996
 40
0.7499999999999996
 40
1.0
 40
1.0
 40
1.0
 40
1.0
 10
135.8426173334307
 20
83.17322346923126
 30
0.0
 10
135.8881412063327
 20
83.10454148568029
 30
0.0
 10
135.9505099792614
 20
83.03220921394475
 30
0.0
 10
136.1008235474184
 20
82.93287546219561
 30
0.0
 10
136.1600596803417
 20
82.90197045027936
 30
0.0
 10
136.3040398690799
 20
82.85451859209286
 30
0.0
 10
136.3875250676168
 20
82.83941973915466
 30
0.0
 10
136.4743308447334
 20
82.83941973915466
 30
0.0
  0
SPLINE
  5
CF
330
1F
100
AcDbEntity
  8
0
  6
Continuous
 62
     7
370
    25
100
AcDbSpline
210
0.0
220
0.0
230
1.0
 70
    24
 71
     3
 72
    10
 73
     6
 74
     0
 42
0.000000001
 43
0.00000001
 40
0.0
 40
0.0
 40
0.0
 40
0.0
 40
0.5
 40
0.5
 40
1.0
 40
1.0
 40
1.0
 40
1.0
 10
136.9760506023877
 20
76.80493698053398
 30
0.0
 10
136.9350822085915
 20
76.80493698053398
 30
0.0
 10
136.891117698847
 20
76.80493698053398
 30
0.0
 10
136.8000710591031
 20
76.80493698053398
 30
0.0
 10
136.7671226185223
 20
76.80493698053398
 30
0.0
 10
136.7243308447334
 20
76.80493698053398
 30
0.0
  0
SPLINE
  5
D0
330
1F
100
AcDbEntity
  8
0
  6
Continuous
 62
     7
370
    25
100
AcDbSpline
210
0.0
220
0.0
230
1.0
 70
     8
 71
     3
 72
    12
 73
     8
 74
     0
 42
0.000000001
 43
0.00000001
 40
0.0
 40
0.0
 40
0.0
 40
0.0
 40
0.25
 40
0.25
 40
0.5
 40
0.5
 40
1.0
 40
1.0
 40
1.0
 40
1.0
 10
136.9760506023877
 20
76.80493698053398
 30
0.0
 10
136.9658085039387
 20
77.02362606674032
 30
0.0
 10
136.9582692923853
 20
77.24200886815368
 30
0.0
 10
136.943939776761
 20
77.68027902018139
 30
0.0
 10
136.93714947269
 20
77.90016637079577
 30
0.0
 10
136.9109166222367
 20
78.56526092462103
 30
0.0
 10
136.9012339055484
 20
78.99844862969309
 30
0.0
 10
136.9011075400285
 20
79.43732234353095
 30
0.0
  0
SPLINE
  5
D1
330
1F
100
AcDbEntity
  8
0
  6
Continuous
 62
     7
370
    25
100
AcDbSpline
210
0.0
220
0.0
230
1.0
 70
     8
 71
     3
 72
    12
 73
     8
 74
     0
 42
0.000000001
 43
0.00000001
 40
0.0
 40
0.0
 40
0.0
 40
0.0
 40
0.25
 40
0.25
 40
0.5
 40
0.5
 40
1.0
 40
1.0
 40
1.0
 40
1.0
 10
136.9760506023877
 20
76.80493698053398
 30
0.0
 10
136.9658085039387
 20
76.58624789432763
 30
0.0
 10
136.9582692923853
 20
76.36786509291427
 30
0.0
 10
136.943939776761
 20
75.92959494088655
 30
0.0
 10
136.93714947269
 20
75.70970759027216
 30
0.0
 10
136.9109166222367
 20
75.0446130364469
 30
0.0
 10
136.9012339055484
 20
74.61142533137485
 30
0.0
 10
136.9011075400286
 20
74.172551617537
 30
0.0
  0
SPLINE
  5
D2
330
1F
100
AcDbEntity
  8
0
  6
Continuous
 62
     7
370
    25
100
AcDbSpline
210
0.0
220
0.0
230
1.0
 70
    24
 71
     3
 72
    10
 73
     6
 74
     0
 42
0.000000001
 43
0.00000001
 40
0.0
 40
0.0
 40
0.0
 40
0.0
 40
0.5
 40
0.5
 40
1.0
 40
1.0
 40
1.0
 40
1.0
 10
129.4743308447334
 20
84.30665673818828
 30
0.0
 10
129.4743308447334
 20
84.26568834439202
 30
0.0
 10
129.4743308447334
 20
84.22172383464752
 30
0.0
 10
129.4743308447334
 20
84.1306771949037
 30
0.0
 10
129.4743308447334
 20
84.09772875432283
 30
0.0
 10
129.4743308447334
 20
84.05493698053397
 30
0.0
  0
SPLINE
  5
D3
330
1F
100
AcDbEntity
  8
0
  6
Continuous
 62
     7
370
    25
100
AcDbSpline
210
0.0
220
0.0
230
1.0
 70
     8
 71
     3
 72
    12
 73
     8
 74
     0
 42
0.000000001
 43
0.00000001
 40
0.0
 40
0.0
 40
0.0
 40
0.0
 40
0.25
 40
0.25
 40
0.5
 40
0.5
 40
1.0
 40
1.0
 40
1.0
 40
1.0
 10
129.4743308447334
 20
84.30665673818828
 30
0.0
 10
129.2556417585271
 20
84.29641463973923
 30
0.0
 10
129.0372589571137
 20
84.28887542818589
 30
0.0
 10
128.598988805086
 20
84.27454591256155
 30
0.0
 10
128.3791014544716
 20
84.26775560849052
 30
0.0
 10
127.7140069006464
 20
84.24152275803726
 30
0.0
 10
127.2808191955743
 20
84.23184004134895
 30
0.0
 10
126.8419454817364
 20
84.2317136758291
 30
0.0
  0
SPLINE
  5
D4
330
1F
100
AcDbEntity
  8
0
  6
Continuous
 62
     7
370
    25
100
AcDbSpline
210
0.0
220
0.0
230
1.0
 70
     8
 71
     3
 72
    12
 73
     8
 74
     0
 42
0.000000001
 43
0.00000001
 40
0.0
 40
0.0
 40
0.0
 40
0.0
 40
0.25
 40
0.25
 40
0.5
 40
0.5
 40
1.0
 40
1.0
 40
1.0
 40
1.0
 10
129.4743308447334
 20
84.30665673818828
 30
0.0
 10
129.6930199309398
 20
84.29641463973923
 30
0.0
 10
129.9114027323531
 20
84.28887542818589
 30
0.0
 10
130.3496728843809
 20
84.27454591256154
 30
0.0
 10
130.5695602349952
 20
84.26775560849052
 30
0.0
 10
131.2346547888205
 20
84.24152275803726
 30
0.0
 10
131.6678424938926
 20
84.23184004134895
 30
0.0
 10
132.1067162077304
 20
84.2317136758291
 30
0.0
  0
SPLINE
  5
D5
330
1F
100
AcDbEntity
  8
0
  6
Continuous
 62
     7
370
    25
100
AcDbSpline
210
0.0
220
0.0
230
1.0
 70
     8
 71
     3
 72
    10
 73
     6
 74
     0
 42
0.000000001
 43
0.00000001
 40
0.0
 40
0.0
 40
0.0
 40
0.0
 40
0.5
 40
0.5
 40
1.0
 40
1.0
 40
1.0
 40
1.0
 10
134.0950118040391
 20
76.52811427778377
 30
0.0
 10
134.0950118040391
 20
76.52811427778377
 30
0.0
 10
134.1200293114729
 20
76.5386952083142
 30
0.0
 10
134.2052461859835
 20
76.57422999937843
 30
0.0
 10
134.2659357724702
 20
76.59930751757277
 30
0.0
 10
134.3262326124224
 20
76.6239824851773
 30
0.0
  0
SPLINE
  5
D6
330
1F
100
AcDbEntity
  8
0
  6
Continuous
 62
     7
370
    25
100
AcDbSpline
210
0.0
220
0.0
230
1.0
 70
     8
 71
     3
 72
    14
 73
    10
 74
     0
 42
0.000000001
 43
0.00000001
 40
0.0
 40
0.0
 40
0.0
 40
0.0
 40
0.25
 40
0.25
 40
0.5
 40
0.5
 40
0.75
 40
0.75
 40
1.0
 40
1.0
 40
1.0
 40
1.0
 10
134.0950118040391
 20
76.52811427778379
 30
0.0
 10
134.0535637847372
 20
76.61295672226484
 30
0.0
 10
133.98763772951
 20
76.68311411156091
 30
0.0
 10
133.8257953900504
 20
76.7800040513836
 30
0.0
 10
133.7331911243345
 20
76.80503345156849
 30
0.0
 10
133.54454490938
 20
76.80483995476702
 30
0.0
 10
133.4517080513024
 20
76.77926680847276
 30
0.0
 10
133.2920962425154
 20
76.68361298445731
 30
0.0
 10
133.225261082347
 20
76.61297142001594
 30
0.0
 10
133.1838058827631
 20
76.52811427778367
 30
0.0
  0
SPLINE
  5
D7
330
1F
100
AcDbEntity
  8
0
  6
Continuous
 62
     7
370
    25
100
AcDbSpline
210
0.0
220
0.0
230
1.0
 70
     8
 71
     3
 72
    10
 73
     6
 74
     0
 42
0.000000001
 43
0.00000001
 40
0.0
 40
0.0
 40
0.0
 40
0.0
 40
0.5
 40
0.5
 40
1.0
 40
1.0
 40
1.0
 40
1.0
 10
133.1838058827631
 20
76.52811427778367
 30
0.0
 10
133.1838058827631
 20
76.52811427778367
 30
0.0
 10
133.158788375329
 20
76.53869520831373
 30
0.0
 10
133.0735715008181
 20
76.57422999937808
 30
0.0
 10
133.0128819143322
 20
76.59930751757179
 30
0.0
 10
132.9525850743796
 20
76.62398248517674
 30
0.0
  0
LINE
  5
D8
330
1F
100
AcDbEntity
  8
0
  6
Continuous
 62
     7
370
    25
100
AcDbLine
 10
135.3015081313
 20
73.8971551056
 30
0.0
 11
135.0661111936
 21
73.8129631717
 31
0.0
  0
LINE
  5
D9
330
1F
100
AcDbEntity
  8
0
  6
Continuous
 62
     7
370
    25
100
AcDbLine
 10
135.0661111936
 20
73.8129631717
 30
0.0
 11
134.095011804
 21
76.5281142778
 31
0.0
  0
LINE
  5
DA
330
1F
100
AcDbEntity
  8
0
  6
Continuous
 62
     7
370
    25
100
AcDbLine
 10
133.1838058828
 20
76.5281142778
 30
0.0
 11
132.2129327949
 21
73.8135959014
 31
0.0
  0
LINE
  5
DB
330
1F
100
AcDbEntity
  8
0
  6
Continuous
 62
     7
370
    25
100
AcDbLine
 10
131.9775358572
 20
73.8977878353
 30
0.0
 11
132.2129327949
 21
73.8135959014
 31
0.0
  0
SPLINE
  5
DC
330
1F
100
AcDbEntity
  8
0
  6
Continuous
 62
     7
370
    25
100
AcDbSpline
210
0.0
220
0.0
230
1.0
 70
     8
 71
     3
 72
     8
 73
     4
 74
     0
 42
0.000000001
 43
0.00000001
 40
0.0
 40
0.0
 40
0.0
 40
0.0
 40
1.0
 40
1.0
 40
1.0
 40
1.0
 10
132.0288493519682
 20
84.55493698053397
 30
0.0
 10
132.0248441217112
 20
84.48948430009781
 30
0.0
 10
132.0306664346367
 20
84.42443473508958
 30
0.0
 10
132.0434272440673
 20
84.37815427460725
 30
0.0
  0
SPLINE
  5
DD
330
1F
100
AcDbEntity
  8
0
  6
Continuous
 62
     7
370
    25
100
AcDbSpline
210
0.0
220
0.0
230
1.0
 70
     8
 71
     3
 72
    12
 73
     8
 74
     0
 42
0.000000001
 43
0.00000001
 40
0.0
 40
0.0
 40
0.0
 40
0.0
 40
0.25
 40
0.25
 40
0.5
 40
0.5
 40
1.0
 40
1.0
 40
1.0
 40
1.0
 10
129.4743308447334
 20
84.30665673818828
 30
0.0
 10
129.6930199309398
 20
84.31689883663736
 30
0.0
 10
129.9101988359483
 20
84.33158155110075
 30
0.0
 10
130.3415478705287
 20
84.36340394175862
 30
0.0
 10
130.5557180001006
 20
84.38054361795308
 30
0.0
 10
131.1937326061005
 20
84.42601168368662
 30
0.0
 10
131.6232592294366
 20
84.41917883262248
 30
0.0
 10
132.0434272440673
 20
84.37815427460725
 30
0.0
  0
SPLINE
  5
DE
330
1F
100
AcDbEntity
  8
0
  6
Continuous
 62
     7
370
    25
100
AcDbSpline
210
0.0
220
0.0
230
1.0
 70
    24
 71
     3
 72
    10
 73
     6
 74
     0
 42
0.000000001
 43
0.00000001
 40
0.0
 40
0.0
 40
0.0
 40
0.0
 40
0.5
 40
0.5
 40
1.0
 40
1.0
 40
1.0
 40
1.0
 10
129.4743308447334
 20
84.30665673818828
 30
0.0
 10
129.4743308447334
 20
84.34762513198456
 30
0.0
 10
129.4743308447334
 20
84.39108057905648
 30
0.0
 10
129.4743308447334
 20
84.48016642427372
 30
0.0
 10
129.4743308447334
 20
84.51255365288904
 30
0.0
 10
129.4743308447334
 20
84.55493698053398
 30
0.0
  0
SPLINE
  5
DF
330
1F
100
AcDbEntity
  8
0
  6
Continuous
 62
     7
370
    25
100
AcDbSpline
210
0.0
220
0.0
230
1.0
 70
     8
 71
     3
 72
    12
 73
     8
 74
     0
 42
0.000000001
 43
0.00000001
 40
0.0
 40
0.0
 40
0.0
 40
0.0
 40
0.25
 40
0.25
 40
0.5
 40
0.5
 40
1.0
 40
1.0
 40
1.0
 40
1.0
 10
129.4743308447334
 20
84.30665673818828
 30
0.0
 10
129.2556417585271
 20
84.31689883663736
 30
0.0
 10
129.0384628535186
 20
84.33158155110077
 30
0.0
 10
128.6071138189382
 20
84.36340394175862
 30
0.0
 10
128.3929436893662
 20
84.38054361795308
 30
0.0
 10
127.7549290833664
 20
84.42601168368662
 30
0.0
 10
127.3254024600302
 20
84.41917883262248
 30
0.0
 10
126.9052344453996
 20
84.37815427460725
 30
0.0
  0
SPLINE
  5
E0
330
1F
100
AcDbEntity
  8
0
  6
Continuous
 62
     7
370
    25
100
AcDbSpline
210
0.0
220
0.0
230
1.0
 70
     8
 71
     3
 72
    10
 73
     6
 74
     0
 42
0.000000001
 43
0.00000001
 40
0.0
 40
0.0
 40
0.0
 40
0.0
 40
0.5
 40
0.5
 40
1.0
 40
1.0
 40
1.0
 40
1.0
 10
126.9052344453996
 20
84.37815427460725
 30
0.0
 10
126.9125264258572
 20
84.40670809657084
 30
0.0
 10
126.9164235884821
 20
84.44106812830327
 30
0.0
 10
126.9199597924638
 20
84.50411095283239
 30
0.0
 10
126.9198123374987
 20
84.53258986281064
 30
0.0
 10
126.9198123374987
 20
84.55493698053397
 30
0.0
  0
SPLINE
  5
E1
330
1F
100
AcDbEntity
  8
0
  6
Continuous
 62
     7
370
    25
100
AcDbSpline
210
0.0
220
0.0
230
1.0
 70
     8
 71
     3
 72
    14
 73
    10
 74
     0
 42
0.000000001
 43
0.00000001
 40
0.0
 40
0.0
 40
0.0
 40
0.0
 40
0.25
 40
0.25
 40
0.5
 40
0.5
 40
0.75
 40
0.75
 40
1.0
 40
1.0
 40
1.0
 40
1.0
 10
136.9760506023877
 20
76.80493698053398
 30
0.0
 10
136.9862927008368
 20
77.02362606674032
 30
0.0
 10
137.0009754153002
 20
77.2408049717488
 30
0.0
 10
137.0327978059581
 20
77.67215400632924
 30
0.0
 10
137.0499374821526
 20
77.88632413590118
 30
0.0
 10
137.0802495259749
 20
78.31166720656772
 30
0.0
 10
137.0861193241645
 20
78.52538463006839
 30
0.0
 10
137.0800247700842
 20
78.95152571306078
 30
0.0
 10
137.0680604178143
 20
79.16394937255247
 30
0.0
 10
137.0475481388067
 20
79.37403337986778
 30
0.0
  0
SPLINE
  5
E2
330
1F
100
AcDbEntity
  8
0
  6
Continuous
 62
     7
370
    25
100
AcDbSpline
210
0.0
220
0.0
230
1.0
 70
     8
 71
     3
 72
     8
 73
     4
 74
     0
 42
0.000000001
 43
0.00000001
 40
0.0
 40
0.0
 40
0.0
 40
0.0
 40
1.0
 40
1.0
 40
1.0
 40
1.0
 10
137.0475481388067
 20
79.37403337986778
 30
0.0
 10
137.093828599289
 20
79.36127257043725
 30
0.0
 10
137.1588781642973
 20
79.35545025751178
 30
0.0
 10
137.2243308447334
 20
79.35945548776876
 30
0.0
  0
SPLINE
  5
E3
330
1F
100
AcDbEntity
  8
0
  6
Continuous
 62
     7
370
    25
100
AcDbSpline
210
0.0
220
0.0
230
1.0
 70
    24
 71
     3
 72
    10
 73
     6
 74
     0
 42
0.000000001
 43
0.00000001
 40
0.0
 40
0.0
 40
0.0
 40
0.0
 40
0.5
 40
0.5
 40
1.0
 40
1.0
 40
1.0
 40
1.0
 10
136.9760506023877
 20
76.80493698053398
 30
0.0
 10
137.017018996184
 20
76.80493698053398
 30
0.0
 10
137.0604744432559
 20
76.80493698053398
 30
0.0
 10
137.1495602884732
 20
76.80493698053398
 30
0.0
 10
137.1819475170885
 20
76.80493698053398
 30
0.0
 10
137.2243308447334
 20
76.80493698053398
 30
0.0
  0
SPLINE
  5
E4
330
1F
100
AcDbEntity
  8
0
  6
Continuous
 62
     7
370
    25
100
AcDbSpline
210
0.0
220
0.0
230
1.0
 70
     8
 71
     3
 72
    10
 73
     6
 74
     0
 42
0.000000001
 43
0.00000001
 40
0.0
 40
0.0
 40
0.0
 40
0.0
 40
0.5
 40
0.5
 40
1.0
 40
1.0
 40
1.0
 40
1.0
 10
137.0475481388067
 20
74.23584058120015
 30
0.0
 10
137.0761019607703
 20
74.24313256165779
 30
0.0
 10
137.1104619925027
 20
74.2470297242826
 30
0.0
 10
137.1735048170319
 20
74.25056592826434
 30
0.0
 10
137.2019837270101
 20
74.25041847329919
 30
0.0
 10
137.2243308447334
 20
74.25041847329919
 30
0.0
  0
SPLINE
  5
E5
330
1F
100
AcDbEntity
  8
0
  6
Continuous
 62
     7
370
    25
100
AcDbSpline
210
0.0
220
0.0
230
1.0
 70
     8
 71
     3
 72
    14
 73
    10
 74
     0
 42
0.000000001
 43
0.00000001
 40
0.0
 40
0.0
 40
0.0
 40
0.0
 40
0.25
 40
0.25
 40
0.5
 40
0.5
 40
0.75
 40
0.75
 40
1.0
 40
1.0
 40
1.0
 40
1.0
 10
136.9760506023877
 20
76.80493698053398
 30
0.0
 10
136.9862927008368
 20
76.58624789432763
 30
0.0
 10
137.0009754153002
 20
76.36906898931913
 30
0.0
 10
137.0327978059581
 20
75.93771995473872
 30
0.0
 10
137.0499374821525
 20
75.72354982516677
 30
0.0
 10
137.0802495259749
 20
75.29820675450021
 30
0.0
 10
137.0861193241645
 20
75.08448933099953
 30
0.0
 10
137.0800247700842
 20
74.65834824800717
 30
0.0
 10
137.0680604178143
 20
74.44592458851547
 30
0.0
 10
137.0475481388067
 20
74.23584058120015
 30
0.0
  0
SPLINE
  5
E6
330
1F
100
AcDbEntity
  8
0
  6
Continuous
 62
     7
370
    25
100
AcDbSpline
210
0.0
220
0.0
230
1.0
 70
     8
 71
     3
 72
    15
 73
    11
 74
     0
 42
0.000000001
 43
0.00000001
 40
0.0
 40
0.0
 40
0.0
 40
0.0
 40
0.0425877399909041
 40
0.1028282325346875
 40
0.1864706729280299
 40
0.2956205441869006
 40
0.4311891005861807
 40
0.5936297641565581
 40
0.7831876993469636
 40
1.0
 40
1.0
 40
1.0
 40
1.0
 10
136.9743308447334
 20
79.45068829159855
 30
0.0
 10
136.9743366378356
 20
79.44786896811806
 30
0.0
 10
136.974350625299
 20
79.4410617026819
 30
0.0
 10
136.9748423261307
 20
79.43252150634103
 30
0.0
 10
136.9764696800893
 20
79.42322382381063
 30
0.0
 10
136.9802948284734
 20
79.41341608818362
 30
0.0
 10
136.9876671385142
 20
79.40309044213453
 30
0.0
 10
137.000285127491
 20
79.39262373068257
 30
0.0
 10
137.0195293296952
 20
79.3822904954419
 30
0.0
 10
137.0378000760655
 20
79.37690612440014
 30
0.0
 10
137.0475481388067
 20
79.37403337986778
 30
0.0
  0
SPLINE
  5
E7
330
1F
100
AcDbEntity
  8
0
  6
Continuous
 62
     7
370
    25
100
AcDbSpline
210
0.0
220
0.0
230
1.0
 70
     8
 71
     3
 72
    12
 73
     8
 74
     0
 42
0.000000001
 43
0.00000001
 40
0.0
 40
0.0
 40
0.0
 40
0.0
 40
0.25
 40
0.25
 40
0.5
 40
0.5
 40
1.0
 40
1.0
 40
1.0
 40
1.0
 10
126.9052344453996
 20
84.37815427460725
 30
0.0
 10
126.9015884551708
 20
84.36387736362546
 30
0.0
 10
126.8970319222383
 20
84.35111482737592
 30
0.0
 10
126.8864133082544
 20
84.32996807449705
 30
0.0
 10
126.8803512272029
 20
84.32158385786771
 30
0.0
 10
126.8603799678019
 20
84.3050230426435
 30
0.0
 10
126.8450291748327
 20
84.30493698053397
 30
0.0
 10
126.8285795336688
 20
84.30493698053397
 30
0.0
  0
SPLINE
  5
E8
330
1F
100
AcDbEntity
  8
0
  6
Continuous
 62
     7
370
    25
100
AcDbSpline
210
0.0
220
0.0
230
1.0
 70
     8
 71
     3
 72
    12
 73
     8
 74
     0
 42
0.000000001
 43
0.00000001
 40
0.0
 40
0.0
 40
0.0
 40
0.0
 40
0.25
 40
0.25
 40
0.5
 40
0.5
 40
1.0
 40
1.0
 40
1.0
 40
1.0
 10
137.0475481388067
 20
74.23584058120015
 30
0.0
 10
137.0332712278249
 20
74.23219459097133
 30
0.0
 10
137.0205086915754
 20
74.22763805803889
 30
0.0
 10
136.9993619386965
 20
74.21701944405494
 30
0.0
 10
136.9909777220672
 20
74.21095736300343
 30
0.0
 10
136.9744169068429
 20
74.19098610360246
 30
0.0
 10
136.9743308447334
 20
74.17563531063323
 30
0.0
 10
136.9743308447334
 20
74.15918566946938
 30
0.0
  0
SPLINE
  5
E9
330
1F
100
AcDbEntity
  8
0
  6
Continuous
 62
     7
370
    25
100
AcDbSpline
210
0.0
220
0.0
230
1.0
 70
     8
 71
     3
 72
    14
 73
    10
 74
     0
 42
0.000000001
 43
0.00000001
 40
0.0
 40
0.0
 40
0.0
 40
0.0
 40
0.2455893235675696
 40
0.4556181963142487
 40
0.6303106213393677
 40
0.7701164303669036
 40
0.8759901151610805
 40
0.9502659312389182
 40
1.0
 40
1.0
 40
1.0
 40
1.0
 10
132.0434272440673
 20
84.37815427460725
 30
0.0
 10
132.0467188215405
 20
84.36718923529196
 30
0.0
 10
132.0528253679066
 20
84.3468468549198
 30
0.0
 10
132.0647483581658
 20
84.32669484244333
 30
0.0
 10
132.0766774406803
 20
84.31457528297248
 30
0.0
 10
132.0881246480444
 20
84.30836945974008
 30
0.0
 10
132.0990101730912
 20
84.30574976076625
 30
0.0
 10
132.1086974348823
 20
84.30496956642119
 30
0.0
 10
132.1168232884756
 20
84.30494630821832
 30
0.0
 10
132.120082155798
 20
84.30493698053397
 30
0.0
  0
ARC
  5
EA
330
1F
100
AcDbEntity
  8
0
  6
Continuous
 62
     7
370
    25
100
AcDbCircle
 10
136.7243308447
 20
82.5549369805
 30
0.0
 40
0.25
100
AcDbArc
 50
0.0
 51
90.0
  0
LINE
  5
EB
330
1F
100
AcDbEntity
  8
0
  6
Continuous
 62
     7
370
    25
100
AcDbLine
 10
136.7243308447
 20
82.8049369805
 30
0.0
 11
136.7243308447
 21
82.5549369805
 31
0.0
  0
ARC
  5
EC
330
1F
100
AcDbEntity
  8
0
  6
Continuous
 62
     7
370
    25
100
AcDbCircle
 10
136.7243308447
 20
71.0549369805
 30
0.0
 40
0.25
100
AcDbArc
 50
270.0
 51
0.0
  0
LINE
  5
ED
330
1F
100
AcDbEntity
  8
0
  6
Continuous
 62
     7
370
    25
100
AcDbLine
 10
136.7243308447
 20
71.0549369805
 30
0.0
 11
136.7243308447
 21
70.8049369805
 31
0.0
  0
LINE
  5
EE
330
1F
100
AcDbEntity
  8
0
  6
Continuous
 62
     7
370
    25
100
AcDbLine
 10
125.4743308447
 20
71.0549369805
 30
0.0
 11
125.4743308447
 21
70.8049369805
 31
0.0
  0
ARC
  5
EF
330
1F
100
AcDbEntity
  8
0
  6
Continuous
 62
     7
370
    25
100
AcDbCircle
 10
125.4743308447
 20
72.8049369805
 30
0.0
 40
2.000000000000014
100
AcDbArc
 50
180.0
 51
270.0
  0
LINE
  5
F0
330
1F
100
AcDbEntity
  8
0
  6
Continuous
 62
     7
370
    25
100
AcDbLine
 10
123.7243308447
 20
72.8049369805
 30
0.0
 11
123.4743308447
 21
72.8049369805
 31
0.0
  0
LINE
  5
F1
330
1F
100
AcDbEntity
  8
0
  6
Continuous
 62
     7
370
    25
100
AcDbLine
 10
123.4743308447
 20
84.0549369805
 30
0.0
 11
123.7243308447
 21
84.0549369805
 31
0.0
  0
ARC
  5
F2
330
1F
100
AcDbEntity
  8
0
  6
Continuous
 62
     7
370
    25
100
AcDbCircle
 10
123.7243308447
 20
84.0549369805
 30
0.0
 40
0.25
100
AcDbArc
 50
90.0
 51
180.0
  0
SPLINE
  5
F3
330
1F
100
AcDbEntity
  8
0
  6
Continuous
 62
     7
370
    25
100
AcDbSpline
210
0.0
220
0.0
230
1.0
 70
     8
 71
     3
 72
    23
 73
    19
 74
     0
 42
0.000000001
 43
0.00000001
 40
0.0
 40
0.0
 40
0.0
 40
0.0
 40
0.0000210594021204
 40
0.0000210594021204
 40
0.0000210594021204
 40
0.0000429122282046
 40
0.0000429122282046
 40
0.0000429122282046
 40
0.0000655452306719
 40
0.0000655452306719
 40
0.0000655452306719
 40
0.000088492665435
 40
0.000088492665435
 40
0.000088492665435
 40
0.0001110534468608
 40
0.0001110534468608
 40
0.0001110534468608
 40
0.000119364715226
 40
0.000119364715226
 40
0.000119364715226
 40
0.000119364715226
 10
132.0304986469234
 20
72.39438328148708
 30
0.0
 10
132.033759578736
 20
72.38816685762147
 30
0.0
 10
132.0381635100257
 20
72.38244535368668
 30
0.0
 10
132.0433024252998
 20
72.37766318349219
 30
0.0
 10
132.0486341581907
 20
72.37270158113921
 30
0.0
 10
132.0549034168947
 20
72.36860876510458
 30
0.0
 10
132.0615697080386
 20
72.36567526277567
 30
0.0
 10
132.0684718559405
 20
72.36263797164814
 30
0.0
 10
132.075991588831
 20
72.36075592808463
 30
0.0
 10
132.0835084811941
 20
72.36015500191996
 30
0.0
 10
132.0911279820859
 20
72.35954587287748
 30
0.0
 10
132.0989576884896
 20
72.36023583361617
 30
0.0
 10
132.1063504304665
 20
72.36217882051604
 30
0.0
 10
132.1136187649587
 20
72.36408911019558
 30
0.0
 10
132.1206666030189
 20
72.36726606357546
 30
0.0
 10
132.1268853989659
 20
72.37148559790039
 30
0.0
 10
132.1292052690534
 20
72.37305966007365
 30
0.0
 10
132.1314285344824
 20
72.37478675250556
 30
0.0
 10
132.1335252179996
 20
72.37664777028536
 30
0.0
  0
LINE
  5
F4
330
1F
100
AcDbEntity
  8
0
  6
Continuous
 62
     7
370
    25
100
AcDbLine
 10
132.133525218
 20
72.3766477703
 30
0.0
 11
132.2994815891
 21
72.189675893
 31
0.0
  0
LINE
  5
F5
330
1F
100
AcDbEntity
  8
0
  6
Continuous
 62
     7
370
    25
100
AcDbLine
 10
132.0304986469
 20
72.3943832815
 30
0.0
 11
131.8091097455
 21
72.2782499342
 31
0.0
  0
SPLINE
  5
F6
330
1F
100
AcDbEntity
  8
0
  6
Continuous
 62
     7
370
    25
100
AcDbSpline
210
0.0
220
0.0
230
1.0
 70
     8
 71
     3
 72
    23
 73
    19
 74
     0
 42
0.000000001
 43
0.00000001
 40
0.0
 40
0.0
 40
0.0
 40
0.0
 40
0.0000221251499261
 40
0.0000221251499261
 40
0.0000221251499261
 40
0.0000448428854419
 40
0.0000448428854419
 40
0.0000448428854419
 40
0.000067774629955
 40
0.000067774629955
 40
0.000067774629955
 40
0.0000902663208602
 40
0.0000902663208602
 40
0.0000902663208602
 40
0.000111841557339
 40
0.000111841557339
 40
0.000111841557339
 40
0.0001193253350659
 40
0.0001193253350659
 40
0.0001193253350659
 40
0.0001193253350659
 10
135.1452924688024
 20
72.37664777028533
 30
0.0
 10
135.1508081765574
 20
72.37175202416238
 30
0.0
 10
135.1572618108527
 20
72.36776614997135
 30
0.0
 10
135.164089023111
 20
72.36497678894813
 30
0.0
 10
135.1710983920715
 20
72.36211300504398
 30
0.0
 10
135.1786980242556
 20
72.3604266884144
 30
0.0
 10
135.1862594903511
 20
72.36003078190978
 30
0.0
 10
135.1938909214387
 20
72.35963121214789
 30
0.0
 10
135.2016971246435
 20
72.36053474173079
 30
0.0
 10
135.209031457512
 20
72.36268089126295
 30
0.0
 10
135.2162253713238
 20
72.36478595181016
 30
0.0
 10
135.2231648961792
 20
72.36814750309279
 30
0.0
 10
135.229247976337
 20
72.3725269792752
 30
0.0
 10
135.2350850078202
 20
72.37672931422613
 30
0.0
 10
135.2402922844057
 20
72.38198793782838
 30
0.0
 10
135.2443898517885
 20
72.38789898656103
 30
0.0
 10
135.2458296679162
 20
72.38997602947505
 30
0.0
 10
135.2471450308518
 20
72.3921452286384
 30
0.0
 10
135.2483190398786
 20
72.39438328148708
 30
0.0
  0
LINE
  5
F7
330
1F
100
AcDbEntity
  8
0
  6
Continuous
 62
     7
370
    25
100
AcDbLine
 10
135.2483190399
 20
72.3943832815
 30
0.0
 11
135.4697079413
 21
72.2782499342
 31
0.0
  0
LINE
  5
F8
330
1F
100
AcDbEntity
  8
0
  6
Continuous
 62
     7
370
    25
100
AcDbLine
 10
135.1452924688
 20
72.3766477703
 30
0.0
 11
134.9793360977
 21
72.189675893
 31
0.0
  0
ARC
  5
F9
330
1F
100
AcDbEntity
  8
0
  6
Continuous
 62
     7
370
    25
100
AcDbCircle
 10
135.2243308447
 20
84.0549369805
 30
0.0
 40
0.25
100
AcDbArc
 50
0.0
 51
90.0
  0
LINE
  5
FA
330
1F
100
AcDbEntity
  8
0
  6
Continuous
 62
     7
370
    25
100
AcDbLine
 10
135.2243308447
 20
84.0549369805
 30
0.0
 11
135.4743308447
 21
84.0549369805
 31
0.0
  0
LINE
  5
FB
330
1F
100
AcDbEntity
  8
0
  6
Continuous
 62
     7
370
    25
100
AcDbLine
 10
135.4743308447
 20
84.0549369805
 30
0.0
 11
135.4743308447
 21
83.8049369805
 31
0.0
  0
LINE
  5
FC
330
1F
100
AcDbEntity
  8
0
  6
Continuous
 62
     7
370
    25
100
AcDbLine
 10
135.4743308447
 20
83.8049369805
 30
0.0
 11
135.2243308447
 21
83.8049369805
 31
0.0
  0
LINE
  5
FD
330
1F
100
AcDbEntity
  8
0
  6
Continuous
 62
     7
370
    25
100
AcDbLine
 10
123.4743308447
 20
72.8049369805
 30
0.0
 11
123.4743308447
 21
84.0549369805
 31
0.0
  0
LINE
  5
FE
330
1F
100
AcDbEntity
  8
0
  6
Continuous
 62
     7
370
    25
100
AcDbLine
 10
131.4166351429
 20
73.564611902
 30
0.0
 11
132.0304986469
 21
72.3943832815
 31
0.0
  0
LINE
  5
FF
330
1F
100
AcDbEntity
  8
0
  6
Continuous
 62
     7
370
    25
100
AcDbLine
 10
131.4166351429
 20
73.564611902
 30
0.0
 11
130.8093223952
 21
74.1841781481
 31
0.0
  0
LINE
  5
100
330
1F
100
AcDbEntity
  8
0
  6
Continuous
 62
     7
370
    25
100
AcDbLine
 10
133.3437317595
 20
73.8971400686
 30
0.0
 11
133.577841811
 21
74.5219486636
 31
0.0
  0
LINE
  5
101
330
1F
100
AcDbEntity
  8
0
  6
Continuous
 62
     7
370
    25
100
AcDbLine
 10
133.8735188938
 20
73.8138676773
 30
0.0
 11
133.4052987934
 21
73.8138676773
 31
0.0
  0
ELLIPSE
  5
102
330
1F
100
AcDbEntity
  8
0
  6
Continuous
 62
     7
370
    25
100
AcDbEllipse
 10
133.8735188938
 20
73.8761816211
 30
0.0
 11
0.0653756970743018
 21
1.421085471520200E-14
 31
0.0
210
0.0
220
0.0
230
1.0
 40
0.9531667975
 41
4.712388980384496
 42
6.626209245739177
  0
ELLIPSE
  5
103
330
1F
100
AcDbEntity
  8
0
  6
Continuous
 62
     7
370
    25
100
AcDbEllipse
 10
133.639408845
 20
74.5009902162
 30
0.0
 11
0.0653756970743018
 21
-1.421085471520200E-14
 31
0.0
210
0.0
220
0.0
230
1.0
 40
0.9531667975
 41
0.3430239404202867
 42
2.798568713169812
  0
LINE
  5
104
330
1F
100
AcDbEntity
  8
0
  6
Continuous
 62
     7
370
    25
100
AcDbLine
 10
133.7009758789
 20
74.5219486636
 30
0.0
 11
133.9350859278
 21
73.8971400684
 31
0.0
  0
ELLIPSE
  5
105
330
1F
100
AcDbEntity
  8
0
  6
Continuous
 62
     7
370
    25
100
AcDbEllipse
 10
133.4052987934
 20
73.8761816211
 30
0.0
 11
-0.06537569707427338
 21
0.0
 31
0.0
210
0.0
220
0.0
230
1.0
 40
0.9531667975
 41
5.940161364896178
 42
7.853981633974483
  0
ARC
  5
106
330
1F
100
AcDbEntity
  8
0
  6
Continuous
 62
     7
370
    25
100
AcDbCircle
 10
136.4743308447
 20
83.8049369805
 30
0.0
 40
1.0
100
AcDbArc
 50
180.0
 51
270.0
  0
LINE
  5
107
330
1F
100
AcDbEntity
  8
0
  6
Continuous
 62
     7
370
    25
100
AcDbLine
 10
136.4743308447
 20
82.8049369805
 30
0.0
 11
136.4743308447
 21
82.5549369805
 31
0.0
  0
SPLINE
  5
108
330
1F
100
AcDbEntity
  8
0
  6
Continuous
 62
     7
370
    25
100
AcDbSpline
210
0.0
220
0.0
230
1.0
 70
     8
 71
     3
 72
    20
 73
    16
 74
     0
 42
0.000000001
 43
0.00000001
 40
0.0
 40
0.0
 40
0.0
 40
0.0
 40
0.2500000000000003
 40
0.2500000000000003
 40
0.3750000000000002
 40
0.3750000000000002
 40
0.5000000000000002
 40
0.5000000000000002
 40
0.6250000000000002
 40
0.6250000000000002
 40
0.7500000000000001
 40
0.7500000000000001
 40
0.8750000000000001
 40
0.8750000000000001
 40
1.0
 40
1.0
 40
1.0
 40
1.0
 10
132.1335252179996
 20
72.37664777028536
 30
0.0
 10
132.3403804343775
 20
72.56025260733827
 30
0.0
 10
132.5767301610255
 20
72.70068870716281
 30
0.0
 10
132.9636124842852
 20
72.84489329117118
 30
0.0
 10
133.0953212728186
 20
72.88078247909122
 30
0.0
 10
133.3640296553433
 20
72.92911237442155
 30
0.0
 10
133.5024113563354
 20
72.94147733100458
 30
0.0
 10
133.7765710040719
 20
72.94146759381995
 30
0.0
 10
133.9123406715875
 20
72.92940866356744
 30
0.0
 10
134.181274993168
 20
72.8813234401595
 30
0.0
 10
134.3156077962463
 20
72.84471490153906
 30
0.0
 10
134.5718974061696
 20
72.74924335943055
 30
0.0
 10
134.6947189737226
 20
72.69045578024047
 30
0.0
 10
134.9295002885217
 20
72.55032991731262
 30
0.0
 10
135.0418750381533
 20
72.46844115522019
 30
0.0
 10
135.1452924688024
 20
72.37664777028533
 30
0.0
  0
SPLINE
  5
109
330
1F
100
AcDbEntity
  8
0
  6
Continuous
 62
     7
370
    25
100
AcDbSpline
210
0.0
220
0.0
230
1.0
 70
     8
 71
     3
 72
    10
 73
     6
 74
     0
 42
0.000000001
 43
0.00000001
 40
0.0
 40
0.0
 40
0.0
 40
0.0
 40
0.5
 40
0.5
 40
1.0
 40
1.0
 40
1.0
 40
1.0
 10
132.2129327949142
 20
73.81359590136913
 30
0.0
 10
132.1613158769138
 20
73.66927727290964
 30
0.0
 10
132.0407356528439
 20
73.55615801123791
 30
0.0
 10
131.7541680293687
 20
73.45631826101999
 30
0.0
 10
131.5905604045747
 20
73.46889889871967
 30
0.0
 10
131.4563998998971
 20
73.54272891458363
 30
0.0
  0
LINE
  5
10A
330
1F
100
AcDbEntity
  8
0
  6
Continuous
 62
     7
370
    25
100
AcDbLine
 10
131.5769318989
 20
73.7617541122
 30
0.0
 11
131.4563998999
 21
73.5427289146
 31
0.0
  0
LINE
  5
10B
330
1F
100
AcDbEntity
  8
0
  6
Continuous
 62
     7
370
    25
100
AcDbLine
 10
135.2483190399
 20
72.3943832815
 30
0.0
 11
135.8621825439
 21
73.564611902
 31
0.0
  0
LINE
  5
10C
330
1F
100
AcDbEntity
  8
0
  6
Continuous
 62
     7
370
    25
100
AcDbLine
 10
135.8621825439
 20
73.564611902
 30
0.0
 11
136.4810549012
 21
74.2062146203
 31
0.0
  0
LINE
  5
10D
330
1F
100
AcDbEntity
  8
0
  6
Continuous
 62
     7
370
    25
100
AcDbLine
 10
136.7243308447
 20
70.8049369805
 30
0.0
 11
125.4743308447
 21
70.8049369805
 31
0.0
  0
LINE
  5
10E
330
1F
100
AcDbEntity
  8
0
  6
Continuous
 62
     7
370
    25
100
AcDbLine
 10
135.8621825439
 20
73.564611902
 30
0.0
 11
135.8300732669
 21
73.546262724
 31
0.0
  0
LINE
  5
10F
330
1F
100
AcDbEntity
  8
0
  6
Continuous
 62
     7
370
    25
100
AcDbLine
 10
135.7060333356
 20
73.7633205399
 30
0.0
 11
135.8300732669
 21
73.546262724
 31
0.0
  0
LINE
  5
110
330
1F
100
AcDbEntity
  8
0
  6
Continuous
 62
     7
370
    25
100
AcDbLine
 10
136.4743308447
 20
82.8049369805
 30
0.0
 11
136.7243308447
 21
82.8049369805
 31
0.0
  0
LINE
  5
111
330
1F
100
AcDbEntity
  8
0
  6
Continuous
 62
     7
370
    25
100
AcDbLine
 10
131.4563998999
 20
73.5427289146
 30
0.0
 11
131.4166351429
 21
73.564611902
 31
0.0
  0
SPLINE
  5
112
330
1F
100
AcDbEntity
  8
0
  6
Continuous
 62
     7
370
    25
100
AcDbSpline
210
0.0
220
0.0
230
1.0
 70
     8
 71
     3
 72
    10
 73
     6
 74
     0
 42
0.000000001
 43
0.00000001
 40
0.0
 40
0.0
 40
0.0
 40
0.0
 40
0.5
 40
0.5
 40
1.0
 40
1.0
 40
1.0
 40
1.0
 10
135.8300732669384
 20
73.54626272399037
 30
0.0
 10
135.6956387193465
 20
73.46943871293047
 30
0.0
 10
135.529973352185
 20
73.455189222445
 30
0.0
 10
135.2411939104749
 20
73.55327527748925
 30
0.0
 10
135.1183111220342
 20
73.66701447180691
 30
0.0
 10
135.0661111936206
 20
73.81296317169338
 30
0.0
  0
ARC
  5
113
330
1F
100
AcDbEntity
  8
0
  6
Continuous
 62
     7
370
    25
100
AcDbCircle
 10
135.253566227
 20
84.531750298
 30
0.0
 40
0.2286897211610004
100
AcDbArc
 50
174.1808239121
 51
262.6552867776
  0
ARC
  5
114
330
1F
100
AcDbEntity
  8
0
  6
Continuous
 62
     7
370
    25
100
AcDbCircle
 10
137.2011441622
 20
71.0257015982
 30
0.0
 40
0.2286897211609737
100
AcDbArc
 50
84.1808239121
 51
172.6552867776
  0
ARC
  5
115
330
1F
100
AcDbEntity
  8
0
  6
Continuous
 62
     7
370
    25
100
AcDbCircle
 10
123.6950954624
 20
84.531750298
 30
0.0
 40
0.2286897211609473
100
AcDbArc
 50
277.3447132224
 51
5.8191760879
  0
ARC
  5
116
330
1F
100
AcDbEntity
  8
0
  6
Continuous
 62
     7
370
    25
100
AcDbCircle
 10
137.2011441622
 20
82.5841723628
 30
0.0
 40
0.2286897211609437
100
AcDbArc
 50
187.3447132224
 51
275.8191760879
  0
LINE
  5
117
330
1F
100
AcDbEntity
  8
0
  6
Continuous
 62
     7
370
    25
100
AcDbLine
 10
135.5088136034
 20
84.0549369805
 30
0.0
 11
135.4743308447
 21
84.0549369805
 31
0.0
  0
LINE
  5
118
330
1F
100
AcDbEntity
  8
0
  6
Continuous
 62
     7
370
    25
100
AcDbLine
 10
136.7243308447
 20
70.8049369805
 30
0.0
 11
136.7243308447
 21
70.7704542219
 31
0.0
  0
LINE
  5
119
330
1F
100
AcDbEntity
  8
0
  6
Continuous
 62
     7
370
    25
100
AcDbLine
 10
123.4398480861
 20
84.0549369805
 30
0.0
 11
123.4743308447
 21
84.0549369805
 31
0.0
  0
LINE
  5
11A
330
1F
100
AcDbEntity
  8
0
  6
Continuous
 62
     7
370
    25
100
AcDbLine
 10
136.7243308447
 20
82.8049369805
 30
0.0
 11
136.7243308447
 21
82.8394197392
 31
0.0
  0
LWPOLYLINE
  5
11B
330
1F
100
AcDbEntity
  8
0
  6
Continuous
 62
     7
370
    25
100
AcDbPolyline
 90
        9
 70
   128
 43
0.0
 10
125.2105207028
 20
70.8224122748
 10
125.2067496329
 20
70.8223154879
 10
125.2028399285
 20
70.8210428009
 10
125.1988101484
 20
70.8186002552
 10
125.1946794218
 20
70.8149994452
 10
125.1904673569
 20
70.8102574637
 10
125.186193948
 20
70.8043968205
 10
125.1818794806
 20
70.7974453356
 10
125.1775444351
 20
70.789436007
  0
SPLINE
  5
11C
330
1F
100
AcDbEntity
  8
0
  6
Continuous
 62
     7
370
    25
100
AcDbSpline
210
0.0
220
0.0
230
1.0
 70
     8
 71
     3
 72
    14
 73
    10
 74
     0
 42
0.000000001
 43
0.00000001
 40
0.0
 40
0.0
 40
0.0
 40
0.0
 40
0.25
 40
0.25
 40
0.5
 40
0.5
 40
0.75
 40
0.75
 40
1.0
 40
1.0
 40
1.0
 40
1.0
 10
125.1775444350777
 20
70.78943600701594
 30
0.0
 10
124.96168516298
 20
70.81588694393233
 30
0.0
 10
124.7538536685878
 20
70.87627278978769
 30
0.0
 10
124.3564502776771
 20
71.0685533550683
 30
0.0
 10
124.1779674697967
 20
71.19512114697879
 30
0.0
 10
123.8641516569615
 20
71.50902959145039
 30
0.0
 10
123.7372202328699
 20
71.68831190221533
 30
0.0
 10
123.5455533703591
 20
72.08494206149686
 30
0.0
 10
123.4852796204535
 20
72.29230099111679
 30
0.0
 10
123.4588298712154
 20
72.50815057087823
 30
0.0
  0
LWPOLYLINE
  5
11D
330
1F
100
AcDbEntity
  8
0
  6
Continuous
 62
     7
370
    25
100
AcDbPolyline
 90
        9
 70
   128
 43
0.0
 10
123.491806139
 20
72.5411268386
 10
123.4917093521
 20
72.5373557687
 10
123.4904366651
 20
72.5334460643
 10
123.4879941194
 20
72.5294162842
 10
123.4843933094
 20
72.5252855576
 10
123.4796513279
 20
72.5210734927
 10
123.4737906847
 20
72.5168000838
 10
123.4668391998
 20
72.5124856164
 10
123.4588298712
 20
72.5081505709
  0
LINE
  5
11E
330
1F
100
AcDbEntity
  8
0
  6
Continuous
 62
     7
370
    25
100
AcDbLine
 10
125.4743308447
 20
70.8049369805
 30
0.0
 11
125.4743308447
 21
70.7704542219
 31
0.0
  0
LINE
  5
11F
330
1F
100
AcDbEntity
  8
0
  6
Continuous
 62
     7
370
    25
100
AcDbLine
 10
123.4398480861
 20
72.8049369805
 30
0.0
 11
123.4743308447
 21
72.8049369805
 31
0.0
  0
SPLINE
  5
120
330
1F
100
AcDbEntity
  8
0
  6
Continuous
 62
     7
370
    25
100
AcDbSpline
210
0.0
220
0.0
230
1.0
 70
    24
 71
     3
 72
     9
 73
     5
 74
     0
 42
0.000000001
 43
0.00000001
 40
0.0
 40
0.0
 40
0.0
 40
0.0
 40
0.6406197644257057
 40
1.0
 40
1.0
 40
1.0
 40
1.0
 10
135.8426173334307
 20
83.17322346923126
 30
0.0
 10
135.8183889831782
 20
83.14899511897875
 30
0.0
 10
135.7805688102801
 20
83.11117494608067
 30
0.0
 10
135.7739097080455
 20
83.10451584384606
 30
0.0
 10
135.7715165583157
 20
83.10212269411626
 30
0.0
  0
LINE
  5
121
330
1F
100
AcDbEntity
  8
0
  6
Continuous
 62
     7
370
    25
100
AcDbLine
 10
135.5088136034
 20
83.8049369805
 30
0.0
 11
135.4743308447
 21
83.8049369805
 31
0.0
  0
LINE
  5
122
330
1F
100
AcDbEntity
  8
0
  6
Continuous
 62
     7
370
    25
100
AcDbLine
 10
136.4743308447
 20
82.8049369805
 30
0.0
 11
136.4743308447
 21
82.8394197392
 31
0.0
  0
LINE
  5
123
330
1F
100
AcDbEntity
  8
0
  6
Continuous
 62
     8
370
    25
100
AcDbLine
 10
142.4743308447
 20
85.8049369805
 30
0.0
 11
142.4743308447
 21
67.8049369805
 31
0.0
  0
LINE
  5
124
330
1F
100
AcDbEntity
  8
0
  6
Continuous
 62
     8
370
    25
100
AcDbLine
 10
120.4743308447
 20
89.8049369805
 30
0.0
 11
138.4743308447
 21
89.8049369805
 31
0.0
  0
LINE
  5
125
330
1F
100
AcDbEntity
  8
0
  6
Continuous
 62
     8
370
    25
100
AcDbLine
 10
140.4743308447
 20
69.8049369805
 30
0.0
 11
140.4743308447
 21
83.8049369805
 31
0.0
  0
LINE
  5
126
330
1F
100
AcDbEntity
  8
0
  6
Continuous
 62
     8
370
    25
100
AcDbLine
 10
136.4743308447
 20
87.8049369805
 30
0.0
 11
122.4743308447
 21
87.8049369805
 31
0.0
  0
LINE
  5
127
330
1F
100
AcDbEntity
  8
0
  6
Continuous
 62
     8
370
    25
100
AcDbLine
 10
122.4743308447
 20
71.8049369805
 30
0.0
 11
123.4588298712
 21
72.5081505709
 31
0.0
  0
LINE
  5
128
330
1F
100
AcDbEntity
  8
0
  6
Continuous
 62
     8
370
    25
100
AcDbLine
 10
125.1775444351
 20
70.789436007
 30
0.0
 11
124.4743308447
 21
69.8049369805
 31
0.0
  0
LINE
  5
129
330
1F
100
AcDbEntity
  8
0
  6
CENTERX2
 62
     7
370
    18
100
AcDbLine
 10
129.4743308447
 20
68.2492864936
 30
0.0
 11
129.4743308447
 21
103.3049369805
 31
0.0
  0
LINE
  5
12A
330
1F
100
AcDbEntity
  8
0
  6
CENTERX2
 62
     7
370
    18
100
AcDbLine
 10
120.579606909
 20
76.8049369805
 30
0.0
 11
155.9743308447
 21
76.8049369805
 31
0.0
  0
ARC
  5
12B
330
1F
100
AcDbEntity
  8
0
  6
Continuous
 62
     7
370
    25
100
AcDbCircle
 10
175.2097741391
 20
89.8049369805
 30
0.0
 40
1.0
100
AcDbArc
 50
180.0
 51
270.0
  0
ARC
  5
12C
330
1F
100
AcDbEntity
  8
0
  6
Continuous
 62
     7
370
    25
100
AcDbCircle
 10
191.2097741391
 20
89.8049369805
 30
0.0
 40
1.0
100
AcDbArc
 50
270.0
 51
0.0
  0
LINE
  5
12D
330
1F
100
AcDbEntity
  8
0
  6
Continuous
 62
     7
370
    25
100
AcDbLine
 10
174.2097741391
 20
101.3049369805
 30
0.0
 11
174.2097741391
 21
89.8049369805
 31
0.0
  0
LINE
  5
12E
330
1F
100
AcDbEntity
  8
0
  6
Continuous
 62
     7
370
    25
100
AcDbLine
 10
192.2097741391
 20
89.8049369805
 30
0.0
 11
192.2097741391
 21
101.3049369805
 31
0.0
  0
LINE
  5
12F
330
1F
100
AcDbEntity
  8
0
  6
Continuous
 62
     7
370
    25
100
AcDbLine
 10
192.2097741391
 20
101.3049369805
 30
0.0
 11
191.7097741391
 21
101.8049369805
 31
0.0
  0
LINE
  5
130
330
1F
100
AcDbEntity
  8
0
  6
Continuous
 62
     7
370
    25
100
AcDbLine
 10
174.7097741391
 20
101.8049369805
 30
0.0
 11
174.2097741391
 21
101.3049369805
 31
0.0
  0
ARC
  5
131
330
1F
100
AcDbEntity
  8
0
  6
Continuous
 62
     7
370
    25
100
AcDbCircle
 10
175.2097741391
 20
87.8049369805
 30
0.0
 40
1.000000000000014
100
AcDbArc
 50
0.0
 51
90.0
  0
ARC
  5
132
330
1F
100
AcDbEntity
  8
0
  6
Continuous
 62
     7
370
    25
100
AcDbCircle
 10
191.2097741391
 20
87.8049369805
 30
0.0
 40
1.000000000000014
100
AcDbArc
 50
90.0
 51
180.0
  0
LINE
  5
133
330
1F
100
AcDbEntity
  8
0
  6
Continuous
 62
     7
370
    25
100
AcDbLine
 10
190.2097741391
 20
84.5549369805
 30
0.0
 11
190.2097741391
 21
87.8049369805
 31
0.0
  0
LINE
  5
134
330
1F
100
AcDbEntity
  8
0
  6
Continuous
 62
     7
370
    25
100
AcDbLine
 10
176.2097741391
 20
87.8049369805
 30
0.0
 11
176.2097741391
 21
84.5549369805
 31
0.0
  0
SPLINE
  5
135
330
1F
100
AcDbEntity
  8
0
  6
Continuous
 62
     7
370
    25
100
AcDbSpline
210
0.0
220
0.0
230
1.0
 70
     8
 71
     3
 72
    11
 73
     7
 74
     0
 42
0.000000001
 43
0.00000001
 40
0.0
 40
0.0
 40
0.0
 40
0.0
 40
0.730571230983845
 40
0.9500135288461644
 40
0.9986319607411891
 40
1.0
 40
1.0
 40
1.0
 40
1.0
 10
176.212080891448
 20
84.42970370718346
 30
0.0
 10
176.2118576846466
 20
84.42301760213815
 30
0.0
 10
176.2115674330297
 20
84.41432318607173
 30
0.0
 10
176.2113707020903
 20
84.40554448258992
 30
0.0
 10
176.2113164984657
 20
84.40293789735516
 30
0.0
 10
176.2113084207368
 20
84.40254145902034
 30
0.0
 10
176.211308199664
 20
84.40253060922053
 30
0.0
  0
CIRCLE
  5
136
330
1F
100
AcDbEntity
  8
0
  6
Continuous
 62
     7
370
    25
100
AcDbCircle
 10
183.2097741391
 20
76.8049369805
 30
0.0
 40
5.0
  0
CIRCLE
  5
137
330
1F
100
AcDbEntity
  8
0
  6
Continuous
 62
     7
370
    25
100
AcDbCircle
 10
183.2097741391
 20
76.8049369805
 30
0.0
 40
8.5
  0
CIRCLE
  5
138
330
1F
100
AcDbEntity
  8
0
  6
Continuous
 62
     7
370
    25
100
AcDbCircle
 10
183.2097741391
 20
76.8049369805
 30
0.0
 40
4.618423633796652
  0
CIRCLE
  5
139
330
1F
100
AcDbEntity
  8
0
  6
Continuous
 62
     7
370
    25
100
AcDbCircle
 10
183.2097741391
 20
76.8049369805
 30
0.0
 40
9.0
  0
CIRCLE
  5
13A
330
1F
100
AcDbEntity
  8
0
  6
Continuous
 62
     7
370
    25
100
AcDbCircle
 10
183.2097741391
 20
76.8049369805
 30
0.0
 40
4.342497099879523
  0
CIRCLE
  5
13B
330
1F
100
AcDbEntity
  8
0
  6
Continuous
 62
     7
370
    25
100
AcDbCircle
 10
183.2097741391
 20
76.8049369805
 30
0.0
 40
4.283000000000015
  0
CIRCLE
  5
13C
330
1F
100
AcDbEntity
  8
0
  6
Continuous
 62
     7
370
    25
100
AcDbCircle
 10
183.2097741391
 20
76.8049369805
 30
0.0
 40
2.0
  0
LINE
  5
13D
330
1F
100
AcDbEntity
  8
0
  6
Continuous
 62
     7
370
    25
100
AcDbLine
 10
183.2097741391
 20
88.8049369805
 30
0.0
 11
191.2097741391
 21
88.8049369805
 31
0.0
  0
LINE
  5
13E
330
1F
100
AcDbEntity
  8
0
  6
Continuous
 62
     7
370
    25
100
AcDbLine
 10
175.2097741391
 20
88.8049369805
 30
0.0
 11
183.2097741391
 21
88.8049369805
 31
0.0
  0
LINE
  5
13F
330
1F
100
AcDbEntity
  8
0
  6
Continuous
 62
     7
370
    25
100
AcDbLine
 10
183.2097741391
 20
101.3049369805
 30
0.0
 11
174.2097741391
 21
101.3049369805
 31
0.0
  0
LINE
  5
140
330
1F
100
AcDbEntity
  8
0
  6
Continuous
 62
     7
370
    25
100
AcDbLine
 10
192.2097741391
 20
101.3049369805
 30
0.0
 11
183.2097741391
 21
101.3049369805
 31
0.0
  0
LINE
  5
141
330
1F
100
AcDbEntity
  8
0
  6
Continuous
 62
     7
370
    25
100
AcDbLine
 10
183.2097741391
 20
101.8049369805
 30
0.0
 11
191.7097741391
 21
101.8049369805
 31
0.0
  0
LINE
  5
142
330
1F
100
AcDbEntity
  8
0
  6
Continuous
 62
     7
370
    25
100
AcDbLine
 10
174.7097741391
 20
101.8049369805
 30
0.0
 11
183.2097741391
 21
101.8049369805
 31
0.0
  0
LINE
  5
143
330
1F
100
AcDbEntity
  8
0
  6
Continuous
 62
     7
370
    25
100
AcDbLine
 10
176.2097741391
 20
71.0549369805
 30
0.0
 11
176.2097741391
 21
71.148082731
 31
0.0
  0
LINE
  5
144
330
1F
100
AcDbEntity
  8
0
  6
Continuous
 62
     7
370
    25
100
AcDbLine
 10
176.2097741391
 20
82.46179123
 30
0.0
 11
176.2097741391
 21
82.5549369805
 31
0.0
  0
LINE
  5
145
330
1F
100
AcDbEntity
  8
0
  6
Continuous
 62
     7
370
    25
100
AcDbLine
 10
190.2097741391
 20
71.148082731
 30
0.0
 11
190.2097741391
 21
71.0549369805
 31
0.0
  0
LINE
  5
146
330
1F
100
AcDbEntity
  8
0
  6
Continuous
 62
     7
370
    25
100
AcDbLine
 10
190.2097741391
 20
82.5549369805
 30
0.0
 11
190.2097741391
 21
82.46179123
 31
0.0
  0
ARC
  5
147
330
1F
100
AcDbEntity
  8
0
  6
Continuous
 62
     7
370
    25
100
AcDbCircle
 10
189.9597741391
 20
82.5549369805
 30
0.0
 40
0.25
100
AcDbArc
 50
0.0
 51
90.0
  0
LINE
  5
148
330
1F
100
AcDbEntity
  8
0
  6
Continuous
 62
     7
370
    25
100
AcDbLine
 10
176.5015702066
 20
70.8049369805
 30
0.0
 11
176.4597741391
 21
70.8049369805
 31
0.0
  0
LINE
  5
149
330
1F
100
AcDbEntity
  8
0
  6
Continuous
 62
     7
370
    25
100
AcDbLine
 10
176.4597741391
 20
82.8049369805
 30
0.0
 11
176.5015702066
 21
82.8049369805
 31
0.0
  0
ARC
  5
14A
330
1F
100
AcDbEntity
  8
0
  6
Continuous
 62
     7
370
    25
100
AcDbCircle
 10
176.4597741391
 20
82.5549369805
 30
0.0
 40
0.25
100
AcDbArc
 50
90.0
 51
180.0
  0
ARC
  5
14B
330
1F
100
AcDbEntity
  8
0
  6
Continuous
 62
     7
370
    25
100
AcDbCircle
 10
189.9597741391
 20
71.0549369805
 30
0.0
 40
0.25
100
AcDbArc
 50
270.0
 51
0.0
  0
LINE
  5
14C
330
1F
100
AcDbEntity
  8
0
  6
Continuous
 62
     7
370
    25
100
AcDbLine
 10
189.9597741391
 20
70.8049369805
 30
0.0
 11
189.9179780716
 21
70.8049369805
 31
0.0
  0
LINE
  5
14D
330
1F
100
AcDbEntity
  8
0
  6
Continuous
 62
     7
370
    25
100
AcDbLine
 10
189.9179780716
 20
82.8049369805
 30
0.0
 11
189.9597741391
 21
82.8049369805
 31
0.0
  0
ARC
  5
14E
330
1F
100
AcDbEntity
  8
0
  6
Continuous
 62
     7
370
    25
100
AcDbCircle
 10
176.4597741391
 20
71.0549369805
 30
0.0
 40
0.25
100
AcDbArc
 50
180.0
 51
270.0
  0
LINE
  5
14F
330
1F
100
AcDbEntity
  8
0
  6
Continuous
 62
     7
370
    25
100
AcDbLine
 10
176.4597741391
 20
83.8049369805
 30
0.0
 11
176.4597741391
 21
82.8049369805
 31
0.0
  0
LINE
  5
150
330
1F
100
AcDbEntity
  8
0
  6
Continuous
 62
     7
370
    25
100
AcDbLine
 10
176.4597741391
 20
83.8049369805
 30
0.0
 11
176.2097741391
 21
83.8049369805
 31
0.0
  0
LINE
  5
151
330
1F
100
AcDbEntity
  8
0
  6
Continuous
 62
     7
370
    25
100
AcDbLine
 10
176.2097741391
 20
82.5549369805
 30
0.0
 11
176.2097741391
 21
83.8049369805
 31
0.0
  0
LINE
  5
152
330
1F
100
AcDbEntity
  8
0
  6
Continuous
 62
     7
370
    25
100
AcDbLine
 10
189.9597741391
 20
82.8049369805
 30
0.0
 11
189.9597741391
 21
83.8049369805
 31
0.0
  0
LINE
  5
153
330
1F
100
AcDbEntity
  8
0
  6
Continuous
 62
     7
370
    25
100
AcDbLine
 10
189.9597741391
 20
83.8049369805
 30
0.0
 11
190.2097741391
 21
83.8049369805
 31
0.0
  0
LINE
  5
154
330
1F
100
AcDbEntity
  8
0
  6
Continuous
 62
     7
370
    25
100
AcDbLine
 10
190.2097741391
 20
83.8049369805
 30
0.0
 11
190.2097741391
 21
82.5549369805
 31
0.0
  0
SPLINE
  5
155
330
1F
100
AcDbEntity
  8
0
  6
Continuous
 62
     7
370
    25
100
AcDbSpline
210
0.0
220
0.0
230
1.0
 70
    24
 71
     3
 72
    14
 73
    10
 74
     0
 42
0.000000001
 43
0.00000001
 40
0.0
 40
0.0
 40
0.0
 40
0.0
 40
0.25
 40
0.25
 40
0.5
 40
0.5
 40
0.75
 40
0.75
 40
1.0
 40
1.0
 40
1.0
 40
1.0
 10
190.2097741390808
 20
84.55493698053398
 30
0.0
 10
190.2097741390808
 20
84.55493698053398
 30
0.0
 10
190.1998494491555
 20
84.55493698053398
 30
0.0
 10
190.1600547464928
 20
84.55493698053398
 30
0.0
 10
190.1301844012711
 20
84.55493698053398
 30
0.0
 10
190.0502148613392
 20
84.55493698053398
 30
0.0
 10
190.0001149809033
 20
84.55493698053398
 30
0.0
 10
189.8792304319154
 20
84.55493698053398
 30
0.0
 10
189.8084446833268
 20
84.55493698053398
 30
0.0
 10
189.7270155183912
 20
84.55493698053398
 30
0.0
  0
SPLINE
  5
156
330
1F
100
AcDbEntity
  8
0
  6
Continuous
 62
     7
370
    25
100
AcDbSpline
210
0.0
220
0.0
230
1.0
 70
    24
 71
     3
 72
    14
 73
    10
 74
     0
 42
0.000000001
 43
0.00000001
 40
0.0
 40
0.0
 40
0.0
 40
0.0
 40
0.25
 40
0.25
 40
0.5
 40
0.5
 40
0.75
 40
0.75
 40
1.0
 40
1.0
 40
1.0
 40
1.0
 10
176.2097741390808
 20
84.55493698053398
 30
0.0
 10
176.2097741390808
 20
84.55493698053398
 30
0.0
 10
176.2196988290062
 20
84.55493698053398
 30
0.0
 10
176.2594935316689
 20
84.55493698053398
 30
0.0
 10
176.2893638768906
 20
84.55493698053398
 30
0.0
 10
176.3693334168225
 20
84.55493698053398
 30
0.0
 10
176.4194332972584
 20
84.55493698053398
 30
0.0
 10
176.5403178462463
 20
84.55493698053398
 30
0.0
 10
176.6111035948349
 20
84.55493698053398
 30
0.0
 10
176.6925327597705
 20
84.55493698053398
 30
0.0
  0
LINE
  5
157
330
1F
100
AcDbEntity
  8
0
  6
Continuous
 62
     7
370
    25
100
AcDbLine
 10
189.9597741391
 20
83.8049369805
 30
0.0
 11
189.9597741391
 21
84.0549369805
 31
0.0
  0
LINE
  5
158
330
1F
100
AcDbEntity
  8
0
  6
Continuous
 62
     7
370
    25
100
AcDbLine
 10
189.9597741391
 20
84.0549369805
 30
0.0
 11
190.2097741391
 21
84.0549369805
 31
0.0
  0
LINE
  5
159
330
1F
100
AcDbEntity
  8
0
  6
Continuous
 62
     7
370
    25
100
AcDbLine
 10
190.2097741391
 20
84.0549369805
 30
0.0
 11
190.2097741391
 21
83.8049369805
 31
0.0
  0
LINE
  5
15A
330
1F
100
AcDbEntity
  8
0
  6
Continuous
 62
     7
370
    25
100
AcDbLine
 10
176.4597741391
 20
84.3049369805
 30
0.0
 11
178.2348369535
 21
84.3049369805
 31
0.0
  0
LINE
  5
15B
330
1F
100
AcDbEntity
  8
0
  6
Continuous
 62
     7
370
    25
100
AcDbLine
 10
176.4597741391
 20
84.3049369805
 30
0.0
 11
176.4597741391
 21
84.0549369805
 31
0.0
  0
LINE
  5
15C
330
1F
100
AcDbEntity
  8
0
  6
Continuous
 62
     7
370
    25
100
AcDbLine
 10
189.9597741391
 20
84.0549369805
 30
0.0
 11
189.9597741391
 21
84.3049369805
 31
0.0
  0
ARC
  5
15D
330
1F
100
AcDbEntity
  8
0
  6
Continuous
 62
     7
370
    25
100
AcDbCircle
 10
189.9597741391
 20
84.0549369805
 30
0.0
 40
0.25
100
AcDbArc
 50
0.0
 51
90.0
  0
LINE
  5
15E
330
1F
100
AcDbEntity
  8
0
  6
Continuous
 62
     7
370
    25
100
AcDbLine
 10
176.4597741391
 20
84.0549369805
 30
0.0
 11
176.4597741391
 21
83.8049369805
 31
0.0
  0
LINE
  5
15F
330
1F
100
AcDbEntity
  8
0
  6
Continuous
 62
     7
370
    25
100
AcDbLine
 10
176.2097741391
 20
84.0549369805
 30
0.0
 11
176.4597741391
 21
84.0549369805
 31
0.0
  0
LINE
  5
160
330
1F
100
AcDbEntity
  8
0
  6
Continuous
 62
     7
370
    25
100
AcDbLine
 10
176.2097741391
 20
83.8049369805
 30
0.0
 11
176.2097741391
 21
84.0549369805
 31
0.0
  0
ARC
  5
161
330
1F
100
AcDbEntity
  8
0
  6
Continuous
 62
     7
370
    25
100
AcDbCircle
 10
176.4597741391
 20
84.0549369805
 30
0.0
 40
0.25
100
AcDbArc
 50
90.0
 51
180.0
  0
LINE
  5
162
330
1F
100
AcDbEntity
  8
0
  6
Continuous
 62
     7
370
    25
100
AcDbLine
 10
188.1847113246
 20
84.3049369805
 30
0.0
 11
189.9597741391
 21
84.3049369805
 31
0.0
  0
SPLINE
  5
163
330
1F
100
AcDbEntity
  8
0
  6
Continuous
 62
     7
370
    25
100
AcDbSpline
210
0.0
220
0.0
230
1.0
 70
     8
 71
     3
 72
     8
 73
     4
 74
     0
 42
0.000000001
 43
0.00000001
 40
0.0
 40
0.0
 40
0.0
 40
0.0
 40
1.0
 40
1.0
 40
1.0
 40
1.0
 10
176.6925327597705
 20
84.55493698053398
 30
0.0
 10
176.6909628570737
 20
84.48948430009783
 30
0.0
 10
176.6643075226698
 20
84.42443473508959
 30
0.0
 10
176.6196059590483
 20
84.37815427460727
 30
0.0
  0
SPLINE
  5
164
330
1F
100
AcDbEntity
  8
0
  6
Continuous
 62
     7
370
    25
100
AcDbSpline
210
0.0
220
0.0
230
1.0
 70
     8
 71
     3
 72
    14
 73
    10
 74
     0
 42
0.000000001
 43
0.00000001
 40
0.0
 40
0.0
 40
0.0
 40
0.0
 40
0.2455893235675696
 40
0.4556181963142487
 40
0.6303106213393677
 40
0.7701164303669036
 40
0.8759901151610805
 40
0.9502659312389182
 40
1.0
 40
1.0
 40
1.0
 40
1.0
 10
176.6196059590483
 20
84.37815427460727
 30
0.0
 10
176.6077150185091
 20
84.36718923529197
 30
0.0
 10
176.5856549028566
 20
84.34684685491982
 30
0.0
 10
176.5500912045364
 20
84.32669484244335
 30
0.0
 10
176.5192988959332
 20
84.3145752829725
 30
0.0
 10
176.4940593133603
 20
84.30836945974009
 30
0.0
 10
176.4760770204255
 20
84.30574976076626
 30
0.0
 10
176.4631548570096
 20
84.3049695664212
 30
0.0
 10
176.4607418669036
 20
84.30494630821833
 30
0.0
 10
176.4597741390808
 20
84.30493698053398
 30
0.0
  0
SPLINE
  5
165
330
1F
100
AcDbEntity
  8
0
  6
Continuous
 62
     7
370
    25
100
AcDbSpline
210
0.0
220
0.0
230
1.0
 70
     8
 71
     3
 72
    15
 73
    11
 74
     0
 42
0.000000001
 43
0.00000001
 40
0.0
 40
0.0
 40
0.0
 40
0.0
 40
0.0425877399909108
 40
0.1028282325346858
 40
0.1864706729280343
 40
0.2956205441869044
 40
0.4311891005861843
 40
0.5936297641565587
 40
0.7831876993469675
 40
1.0
 40
1.0
 40
1.0
 40
1.0
 10
189.9597741390808
 20
84.30493698053398
 30
0.0
 10
189.959058637484
 20
84.30494277363613
 30
0.0
 10
189.9573310566217
 20
84.30495676109953
 30
0.0
 10
189.9474568775268
 20
84.30544846193126
 30
0.0
 10
189.9335631977045
 20
84.30707581588986
 30
0.0
 10
189.9140659398828
 20
84.31090096427393
 30
0.0
 10
189.8898610870336
 20
84.31827327431475
 30
0.0
 10
189.8614924303695
 20
84.33089126329158
 30
0.0
 10
189.8299532596259
 20
84.35013546549573
 30
0.0
 10
189.8103834670535
 20
84.368406211866
 30
0.0
 10
189.7999423191134
 20
84.37815427460727
 30
0.0
  0
SPLINE
  5
166
330
1F
100
AcDbEntity
  8
0
  6
Continuous
 62
     7
370
    25
100
AcDbSpline
210
0.0
220
0.0
230
1.0
 70
     8
 71
     3
 72
     8
 73
     4
 74
     0
 42
0.000000001
 43
0.00000001
 40
0.0
 40
0.0
 40
0.0
 40
0.0
 40
1.0
 40
1.0
 40
1.0
 40
1.0
 10
189.7999423191134
 20
84.37815427460727
 30
0.0
 10
189.7552407554919
 20
84.42443473508959
 30
0.0
 10
189.728585421088
 20
84.48948430009783
 30
0.0
 10
189.7270155183912
 20
84.55493698053398
 30
0.0
  0
LINE
  5
167
330
1F
100
AcDbEntity
  8
0
  6
Continuous
 62
     7
370
    25
100
AcDbLine
 10
184.9418249466
 20
75.8049369805
 30
0.0
 11
181.4777233315
 21
75.8049369805
 31
0.0
  0
SPLINE
  5
168
330
1F
100
AcDbEntity
  8
0
  6
Continuous
 62
     7
370
    25
100
AcDbSpline
210
0.0
220
0.0
230
1.0
 70
     8
 71
     3
 72
    12
 73
     8
 74
     0
 42
0.000000001
 43
0.00000001
 40
0.0
 40
0.0
 40
0.0
 40
0.0
 40
0.25
 40
0.25
 40
0.5
 40
0.5
 40
1.0
 40
1.0
 40
1.0
 40
1.0
 10
176.2108836783629
 20
84.3066567381883
 30
0.0
 10
176.2108922857481
 20
84.29641463973924
 30
0.0
 10
176.2195020960783
 20
84.28887542818589
 30
0.0
 10
176.2409832063485
 20
84.27454591256155
 30
0.0
 10
176.2538545062886
 20
84.26775560849053
 30
0.0
 10
176.2794492661038
 20
84.24152275803728
 30
0.0
 10
176.2831238093026
 20
84.23184004134896
 30
0.0
 10
176.2829974437827
 20
84.23171367582911
 30
0.0
  0
LINE
  5
169
330
1F
100
AcDbEntity
  8
0
  6
Continuous
 62
     7
370
    25
100
AcDbLine
 10
176.209419076
 20
84.1130708515
 30
0.0
 11
176.2090334666
 21
84.1762060174
 31
0.0
  0
SPLINE
  5
16A
330
1F
100
AcDbEntity
  8
0
  6
Continuous
 62
     7
370
    25
100
AcDbSpline
210
0.0
220
0.0
230
1.0
 70
     8
 71
     3
 72
    14
 73
    10
 74
     0
 42
0.000000001
 43
0.00000001
 40
0.0
 40
0.0
 40
0.0
 40
0.0
 40
0.25
 40
0.25
 40
0.5
 40
0.5
 40
0.75
 40
0.75
 40
1.0
 40
1.0
 40
1.0
 40
1.0
 10
190.2086645997988
 20
84.3066567381883
 30
0.0
 10
190.208673207184
 20
84.31689883663738
 30
0.0
 10
190.2000820719992
 20
84.33158155110077
 30
0.0
 10
190.1637724724889
 20
84.36340394175863
 30
0.0
 10
190.1360540081635
 20
84.3805436179531
 30
0.0
 10
190.0595619063713
 20
84.41085566177546
 30
0.0
 10
190.0150361702655
 20
84.41672545996501
 30
0.0
 10
189.9151670500693
 20
84.41063090588473
 30
0.0
 10
189.8598236659789
 20
84.39866655361489
 30
0.0
 10
189.7999423191134
 20
84.37815427460727
 30
0.0
  0
SPLINE
  5
16B
330
1F
100
AcDbEntity
  8
0
  6
Continuous
 62
     7
370
    25
100
AcDbSpline
210
0.0
220
0.0
230
1.0
 70
     8
 71
     3
 72
    12
 73
     8
 74
     0
 42
0.000000001
 43
0.00000001
 40
0.0
 40
0.0
 40
0.0
 40
0.0
 40
0.25
 40
0.25
 40
0.5
 40
0.5
 40
1.0
 40
1.0
 40
1.0
 40
1.0
 10
190.2086645997988
 20
84.3066567381883
 30
0.0
 10
190.2086559924136
 20
84.29641463973924
 30
0.0
 10
190.2000461820834
 20
84.2888754281859
 30
0.0
 10
190.1785650718132
 20
84.27454591256156
 30
0.0
 10
190.1656937718731
 20
84.26775560849053
 30
0.0
 10
190.1400990120579
 20
84.24152275803726
 30
0.0
 10
190.1364244688591
 20
84.23184004134896
 30
0.0
 10
190.136550834379
 20
84.23171367582911
 30
0.0
  0
LINE
  5
16C
330
1F
100
AcDbEntity
  8
0
  6
Continuous
 62
     7
370
    25
100
AcDbLine
 10
190.2101292022
 20
84.1130708515
 30
0.0
 11
190.2105148116
 21
84.1762060174
 31
0.0
  0
SPLINE
  5
16D
330
1F
100
AcDbEntity
  8
0
  6
Continuous
 62
     7
370
    25
100
AcDbSpline
210
0.0
220
0.0
230
1.0
 70
     8
 71
     3
 72
    12
 73
     8
 74
     0
 42
0.000000001
 43
0.00000001
 40
0.0
 40
0.0
 40
0.0
 40
0.0
 40
0.25
 40
0.25
 40
0.5
 40
0.5
 40
1.0
 40
1.0
 40
1.0
 40
1.0
 10
176.2108836783629
 20
84.3066567381883
 30
0.0
 10
176.2108750709777
 20
84.31689883663738
 30
0.0
 10
176.2194662061625
 20
84.33158155110077
 30
0.0
 10
176.2557758056728
 20
84.36340394175863
 30
0.0
 10
176.2834942699983
 20
84.3805436179531
 30
0.0
 10
176.3982324226864
 20
84.42601168368664
 30
0.0
 10
176.4998432653174
 20
84.41917883262249
 30
0.0
 10
176.6196059590483
 20
84.37815427460727
 30
0.0
  0
SPLINE
  5
16E
330
1F
100
AcDbEntity
  8
0
  6
Continuous
 62
     7
370
    25
100
AcDbSpline
210
0.0
220
0.0
230
1.0
 70
     8
 71
     3
 72
    10
 73
     6
 74
     0
 42
0.000000001
 43
0.00000001
 40
0.0
 40
0.0
 40
0.0
 40
0.0
 40
0.5
 40
0.5
 40
1.0
 40
1.0
 40
1.0
 40
1.0
 10
176.2108836783629
 20
84.3066567381883
 30
0.0
 10
176.2108492488221
 20
84.34762513198457
 30
0.0
 10
176.2104675713879
 20
84.3910805790565
 30
0.0
 10
176.2141595855141
 20
84.48016642427373
 30
0.0
 10
176.2097741390808
 20
84.51255365288905
 30
0.0
 10
176.2097741390808
 20
84.55493698053398
 30
0.0
  0
SPLINE
  5
16F
330
1F
100
AcDbEntity
  8
0
  6
Continuous
 62
     7
370
    25
100
AcDbSpline
210
0.0
220
0.0
230
1.0
 70
     8
 71
     3
 72
     9
 73
     5
 74
     0
 42
0.000000001
 43
0.00000001
 40
0.0
 40
0.0
 40
0.0
 40
0.0
 40
0.1238836936197441
 40
1.0
 40
1.0
 40
1.0
 40
1.0
 10
190.2080396729866
 20
84.43561180074805
 30
0.0
 10
190.2079549772588
 20
84.43028704149492
 30
0.0
 10
190.2072713059435
 20
84.38730511952001
 30
0.0
 10
190.2080139538543
 20
84.34431824228994
 30
0.0
 10
190.2086645997988
 20
84.3066567381883
 30
0.0
  0
LINE
  5
170
330
1F
100
AcDbEntity
  8
0
  6
Continuous
 62
     8
370
    25
100
AcDbLine
 10
183.2097741391
 20
89.8049369805
 30
0.0
 11
192.2097741391
 21
89.8049369805
 31
0.0
  0
LINE
  5
171
330
1F
100
AcDbEntity
  8
0
  6
Continuous
 62
     8
370
    25
100
AcDbLine
 10
174.2097741391
 20
89.8049369805
 30
0.0
 11
183.2097741391
 21
89.8049369805
 31
0.0
  0
LINE
  5
172
330
1F
100
AcDbEntity
  8
0
  6
Continuous
 62
     8
370
    25
100
AcDbLine
 10
183.2097741391
 20
87.8049369805
 30
0.0
 11
176.2097741391
 21
87.8049369805
 31
0.0
  0
LINE
  5
173
330
1F
100
AcDbEntity
  8
0
  6
Continuous
 62
     8
370
    25
100
AcDbLine
 10
190.2097741391
 20
87.8049369805
 30
0.0
 11
183.2097741391
 21
87.8049369805
 31
0.0
  0
LINE
  5
174
330
1F
100
AcDbEntity
  8
0
  6
Continuous
 62
     8
370
    25
100
AcDbLine
 10
176.2097741391
 20
71.0549369805
 30
0.0
 11
176.286082927
 21
71.0549369805
 31
0.0
  0
LINE
  5
175
330
1F
100
AcDbEntity
  8
0
  6
Continuous
 62
     8
370
    25
100
AcDbLine
 10
176.2097741391
 20
82.5549369805
 30
0.0
 11
176.286082927
 21
82.5549369805
 31
0.0
  0
LINE
  5
176
330
1F
100
AcDbEntity
  8
0
  6
Continuous
 62
     8
370
    25
100
AcDbLine
 10
190.1334653511
 20
71.0549369805
 30
0.0
 11
190.2097741391
 21
71.0549369805
 31
0.0
  0
LINE
  5
177
330
1F
100
AcDbEntity
  8
0
  6
Continuous
 62
     8
370
    25
100
AcDbLine
 10
190.1334653511
 20
82.5549369805
 30
0.0
 11
190.2097741391
 21
82.5549369805
 31
0.0
  0
LINE
  5
178
330
1F
100
AcDbEntity
  8
0
  6
Continuous
 62
     8
370
    25
100
AcDbLine
 10
189.9597741391
 20
82.7578774304
 30
0.0
 11
189.9597741391
 21
82.8049369805
 31
0.0
  0
LINE
  5
179
330
1F
100
AcDbEntity
  8
0
  6
Continuous
 62
     8
370
    25
100
AcDbLine
 10
176.4597741391
 20
70.8049369805
 30
0.0
 11
176.4597741391
 21
70.8519965306
 31
0.0
  0
LINE
  5
17A
330
1F
100
AcDbEntity
  8
0
  6
Continuous
 62
     8
370
    25
100
AcDbLine
 10
176.4597741391
 20
82.8049369805
 30
0.0
 11
176.4597741391
 21
82.7578774304
 31
0.0
  0
LINE
  5
17B
330
1F
100
AcDbEntity
  8
0
  6
Continuous
 62
     8
370
    25
100
AcDbLine
 10
189.9597741391
 20
70.8519965306
 30
0.0
 11
189.9597741391
 21
70.8049369805
 31
0.0
  0
LINE
  5
17C
330
1F
100
AcDbEntity
  8
0
  6
Continuous
 62
     8
370
    25
100
AcDbLine
 10
176.4597741391
 20
83.8049369805
 30
0.0
 11
177.5529198896
 21
83.8049369805
 31
0.0
  0
LINE
  5
17D
330
1F
100
AcDbEntity
  8
0
  6
Continuous
 62
     8
370
    25
100
AcDbLine
 10
188.8666283886
 20
83.8049369805
 30
0.0
 11
189.9597741391
 21
83.8049369805
 31
0.0
  0
LINE
  5
17E
330
1F
100
AcDbEntity
  8
0
  6
Continuous
 62
     8
370
    25
100
AcDbLine
 10
187.7855254435
 20
84.5549369805
 30
0.0
 11
189.7270155184
 21
84.5549369805
 31
0.0
  0
LINE
  5
17F
330
1F
100
AcDbEntity
  8
0
  6
Continuous
 62
     8
370
    25
100
AcDbLine
 10
176.6925327598
 20
84.5549369805
 30
0.0
 11
178.6340228347
 21
84.5549369805
 31
0.0
  0
LINE
  5
180
330
1F
100
AcDbEntity
  8
0
  6
Continuous
 62
     8
370
    25
100
AcDbLine
 10
177.8770918872
 20
84.0549369805
 30
0.0
 11
176.4597741391
 21
84.0549369805
 31
0.0
  0
LINE
  5
181
330
1F
100
AcDbEntity
  8
0
  6
Continuous
 62
     8
370
    25
100
AcDbLine
 10
189.9597741391
 20
84.0549369805
 30
0.0
 11
188.542456391
 21
84.0549369805
 31
0.0
  0
SPLINE
  5
182
330
1F
100
AcDbEntity
  8
0
  6
Continuous
 62
     8
370
    25
100
AcDbSpline
210
0.0
220
0.0
230
1.0
 70
     8
 71
     3
 72
     9
 73
     5
 74
     0
 42
0.000000001
 43
0.00000001
 40
0.0
 40
0.0
 40
0.0
 40
0.0
 40
0.1250376544250829
 40
1.0
 40
1.0
 40
1.0
 40
1.0
 10
176.2090334665587
 20
84.17620601740693
 30
0.0
 10
176.2089923716727
 20
84.18164375008287
 30
0.0
 10
176.2086637115891
 20
84.22513251113612
 30
0.0
 10
176.2098477176461
 20
84.26861297208755
 30
0.0
 10
176.2108836783629
 20
84.3066567381883
 30
0.0
  0
SPLINE
  5
183
330
1F
100
AcDbEntity
  8
0
  6
Continuous
 62
     8
370
    25
100
AcDbSpline
210
0.0
220
0.0
230
1.0
 70
     8
 71
     3
 72
     9
 73
     5
 74
     0
 42
0.000000001
 43
0.00000001
 40
0.0
 40
0.0
 40
0.0
 40
0.0
 40
0.1250376543823382
 40
1.0
 40
1.0
 40
1.0
 40
1.0
 10
190.2105148116031
 20
84.17620601741329
 30
0.0
 10
190.210555906489
 20
84.18164375008712
 30
0.0
 10
190.2108845665726
 20
84.22513251113826
 30
0.0
 10
190.2097005605156
 20
84.26861297208755
 30
0.0
 10
190.2086645997988
 20
84.3066567381883
 30
0.0
  0
LINE
  5
184
330
1F
100
AcDbEntity
  8
0
  6
Continuous
 62
     8
370
    25
100
AcDbLine
 10
190.2097741391
 20
84.5549369805
 30
0.0
 11
190.208039673
 21
84.4356118007
 31
0.0
  0
INSERT
  5
190
330
1F
100
AcDbEntity
  8
0
  6
Continuous
 62
     7
370
    18
100
AcDbBlockReference
  2
SW_CENTERMARKSYMBOL_0
 10
183.2097741391
 20
76.8049369805
 30
0.0
  0
ARC
  5
191
330
1F
100
AcDbEntity
  8
0
  6
Continuous
 62
     7
370
    18
100
AcDbCircle
 10
183.2097741391
 20
76.8049369805
 30
0.0
 40
4.929554999999999
100
AcDbArc
 50
75.0
 51
345.0
  0
LINE
  5
192
330
1F
100
AcDbEntity
  8
0
  6
Continuous
 62
     7
370
    25
100
AcDbLine
 10
153.9743308447
 20
135.0336030159
 30
0.0
 11
142.4743308447
 21
135.0336030159
 31
0.0
  0
LINE
  5
193
330
1F
100
AcDbEntity
  8
0
  6
Continuous
 62
     7
370
    25
100
AcDbLine
 10
142.4743308447
 20
117.0336030159
 30
0.0
 11
153.9743308447
 21
117.0336030159
 31
0.0
  0
ARC
  5
194
330
1F
100
AcDbEntity
  8
0
  6
Continuous
 62
     7
370
    25
100
AcDbCircle
 10
142.4743308447
 20
134.0336030159
 30
0.0
 40
1.0
100
AcDbArc
 50
90.0
 51
180.0
  0
ARC
  5
195
330
1F
100
AcDbEntity
  8
0
  6
Continuous
 62
     7
370
    25
100
AcDbCircle
 10
142.4743308447
 20
118.0336030159
 30
0.0
 40
1.0
100
AcDbArc
 50
180.0
 51
270.0
  0
LINE
  5
196
330
1F
100
AcDbEntity
  8
0
  6
Continuous
 62
     7
370
    25
100
AcDbLine
 10
153.9743308447
 20
117.0336030159
 30
0.0
 11
154.4743308447
 21
117.5336030159
 31
0.0
  0
LINE
  5
197
330
1F
100
AcDbEntity
  8
0
  6
Continuous
 62
     7
370
    25
100
AcDbLine
 10
154.4743308447
 20
134.5336030159
 30
0.0
 11
153.9743308447
 21
135.0336030159
 31
0.0
  0
ARC
  5
198
330
1F
100
AcDbEntity
  8
0
  6
Continuous
 62
     7
370
    25
100
AcDbCircle
 10
140.4743308447
 20
134.0336030159
 30
0.0
 40
1.0
100
AcDbArc
 50
270.0
 51
0.0
  0
ARC
  5
199
330
1F
100
AcDbEntity
  8
0
  6
Continuous
 62
     7
370
    25
100
AcDbCircle
 10
140.4743308447
 20
118.0336030159
 30
0.0
 40
1.0
100
AcDbArc
 50
0.0
 51
90.0
  0
LINE
  5
19A
330
1F
100
AcDbEntity
  8
0
  6
Continuous
 62
     7
370
    25
100
AcDbLine
 10
137.2243308447
 20
119.0336030159
 30
0.0
 11
140.4743308447
 21
119.0336030159
 31
0.0
  0
LINE
  5
19B
330
1F
100
AcDbEntity
  8
0
  6
Continuous
 62
     7
370
    25
100
AcDbLine
 10
140.4743308447
 20
133.0336030159
 30
0.0
 11
138.7243308447
 21
133.0336030159
 31
0.0
  0
ARC
  5
19C
330
1F
100
AcDbEntity
  8
0
  6
Continuous
 62
     7
370
    25
100
AcDbCircle
 10
138.2660732752
 20
132.8336030159
 30
0.0
 40
0.5
100
AcDbArc
 50
23.5781784782
 51
90.0
  0
ARC
  5
19D
330
1F
100
AcDbEntity
  8
0
  6
Continuous
 62
     7
370
    25
100
AcDbCircle
 10
137.6825884142
 20
132.8336030159
 30
0.0
 40
0.5
100
AcDbArc
 50
90.0
 51
156.4218215218
  0
CIRCLE
  5
19E
330
1F
100
AcDbEntity
  8
0
  6
Continuous
 62
     7
370
    25
100
AcDbCircle
 10
129.4743308447
 20
126.0336030159
 30
0.0
 40
9.0
  0
CIRCLE
  5
19F
330
1F
100
AcDbEntity
  8
0
  6
Continuous
 62
     7
370
    25
100
AcDbCircle
 10
129.4743308447
 20
126.0336030159
 30
0.0
 40
8.5
  0
CIRCLE
  5
1A0
330
1F
100
AcDbEntity
  8
0
  6
Continuous
 62
     7
370
    25
100
AcDbCircle
 10
129.4743308447
 20
126.0336030159
 30
0.0
 40
6.75
  0
CIRCLE
  5
1A1
330
1F
100
AcDbEntity
  8
0
  6
Continuous
 62
     7
370
    25
100
AcDbCircle
 10
129.4743308447
 20
126.0336030159
 30
0.0
 40
6.10343238175048
  0
CIRCLE
  5
1A2
330
1F
100
AcDbEntity
  8
0
  6
Continuous
 62
     7
370
    25
100
AcDbCircle
 10
129.4743308447
 20
126.0336030159
 30
0.0
 40
5.81061697881421
  0
CIRCLE
  5
1A3
330
1F
100
AcDbEntity
  8
0
  6
Continuous
 62
     7
370
    25
100
AcDbCircle
 10
129.4743308447
 20
126.0336030159
 30
0.0
 40
5.722499999999997
  0
CIRCLE
  5
1A4
330
1F
100
AcDbEntity
  8
0
  6
Continuous
 62
     7
370
    25
100
AcDbCircle
 10
129.4743308447
 20
126.0336030159
 30
0.0
 40
3.999999999999986
  0
LINE
  5
1A5
330
1F
100
AcDbEntity
  8
0
  6
Continuous
 62
     7
370
    25
100
AcDbLine
 10
153.9743308447
 20
117.0336030159
 30
0.0
 11
153.9743308447
 21
135.0336030159
 31
0.0
  0
LINE
  5
1A6
330
1F
100
AcDbEntity
  8
0
  6
Continuous
 62
     7
370
    25
100
AcDbLine
 10
141.4743308447
 20
118.0336030172
 30
0.0
 11
141.4743308447
 21
134.0336030159
 31
0.0
  0
LINE
  5
1A7
330
1F
100
AcDbEntity
  8
0
  6
Continuous
 62
     7
370
    25
100
AcDbLine
 10
154.4743308447
 20
134.5336030159
 30
0.0
 11
154.4743308447
 21
117.5336030159
 31
0.0
  0
LINE
  5
1A8
330
1F
100
AcDbEntity
  8
0
  6
Continuous
 62
     7
370
    25
100
AcDbLine
 10
135.1311850942
 20
133.0336030159
 30
0.0
 11
135.2243308447
 21
133.0336030159
 31
0.0
  0
LINE
  5
1A9
330
1F
100
AcDbEntity
  8
0
  6
Continuous
 62
     7
370
    25
100
AcDbLine
 10
123.7243308447
 20
133.0336030159
 30
0.0
 11
123.8174765952
 21
133.0336030159
 31
0.0
  0
LINE
  5
1AA
330
1F
100
AcDbEntity
  8
0
  6
Continuous
 62
     7
370
    25
100
AcDbLine
 10
123.8174765952
 20
119.0336030159
 30
0.0
 11
123.7243308447
 21
119.0336030159
 31
0.0
  0
LINE
  5
1AB
330
1F
100
AcDbEntity
  8
0
  6
Continuous
 62
     7
370
    25
100
AcDbLine
 10
135.2243308447
 20
119.0336030159
 30
0.0
 11
135.1311850942
 21
119.0336030159
 31
0.0
  0
ARC
  5
1AC
330
1F
100
AcDbEntity
  8
0
  6
Continuous
 62
     7
370
    25
100
AcDbCircle
 10
123.7243308447
 20
132.7836030159
 30
0.0
 40
0.25
100
AcDbArc
 50
90.0
 51
180.0
  0
ARC
  5
1AD
330
1F
100
AcDbEntity
  8
0
  6
Continuous
 62
     7
370
    25
100
AcDbCircle
 10
135.2243308447
 20
132.7836030159
 30
0.0
 40
0.25
100
AcDbArc
 50
0.0
 51
90.0
  0
LINE
  5
1AE
330
1F
100
AcDbEntity
  8
0
  6
Continuous
 62
     7
370
    25
100
AcDbLine
 10
123.4743308447
 20
132.7418069484
 30
0.0
 11
123.4743308447
 21
132.7836030159
 31
0.0
  0
LINE
  5
1AF
330
1F
100
AcDbEntity
  8
0
  6
Continuous
 62
     7
370
    25
100
AcDbLine
 10
135.4743308447
 20
132.7836030159
 30
0.0
 11
135.4743308447
 21
132.7418069484
 31
0.0
  0
LINE
  5
1B0
330
1F
100
AcDbEntity
  8
0
  6
Continuous
 62
     7
370
    25
100
AcDbLine
 10
123.4743308447
 20
119.2836030159
 30
0.0
 11
123.4743308447
 21
119.3253990834
 31
0.0
  0
LINE
  5
1B1
330
1F
100
AcDbEntity
  8
0
  6
Continuous
 62
     7
370
    25
100
AcDbLine
 10
135.4743308447
 20
119.3253990834
 30
0.0
 11
135.4743308447
 21
119.2836030159
 31
0.0
  0
ARC
  5
1B2
330
1F
100
AcDbEntity
  8
0
  6
Continuous
 62
     7
370
    25
100
AcDbCircle
 10
135.2243308447
 20
119.2836030159
 30
0.0
 40
0.25
100
AcDbArc
 50
270.0
 51
0.0
  0
ARC
  5
1B3
330
1F
100
AcDbEntity
  8
0
  6
Continuous
 62
     7
370
    25
100
AcDbCircle
 10
123.7243308447
 20
119.2836030159
 30
0.0
 40
0.25
100
AcDbArc
 50
180.0
 51
270.0
  0
LINE
  5
1B4
330
1F
100
AcDbEntity
  8
0
  6
Continuous
 62
     7
370
    25
100
AcDbLine
 10
136.4743308447
 20
132.7836030159
 30
0.0
 11
135.4743308447
 21
132.7836030159
 31
0.0
  0
LINE
  5
1B5
330
1F
100
AcDbEntity
  8
0
  6
Continuous
 62
     7
370
    25
100
AcDbLine
 10
136.4743308447
 20
133.0336030159
 30
0.0
 11
136.4743308447
 21
132.7836030159
 31
0.0
  0
LINE
  5
1B6
330
1F
100
AcDbEntity
  8
0
  6
Continuous
 62
     7
370
    25
100
AcDbLine
 10
135.2243308447
 20
133.0336030159
 30
0.0
 11
136.4743308447
 21
133.0336030159
 31
0.0
  0
SPLINE
  5
1B7
330
1F
100
AcDbEntity
  8
0
  6
Continuous
 62
     7
370
    25
100
AcDbSpline
210
0.0
220
0.0
230
1.0
 70
    24
 71
     3
 72
    14
 73
    10
 74
     0
 42
0.000000001
 43
0.00000001
 40
0.0
 40
0.0
 40
0.0
 40
0.0
 40
0.25
 40
0.25
 40
0.5
 40
0.5
 40
0.75
 40
0.75
 40
1.0
 40
1.0
 40
1.0
 40
1.0
 10
137.2243308447334
 20
119.0336030159494
 30
0.0
 10
137.2243308447334
 20
119.0336030159494
 30
0.0
 10
137.2243308447334
 20
119.0435277058748
 30
0.0
 10
137.2243308447334
 20
119.0833224085375
 30
0.0
 10
137.2243308447334
 20
119.1131927537591
 30
0.0
 10
137.2243308447334
 20
119.1931622936911
 30
0.0
 10
137.2243308447334
 20
119.243262174127
 30
0.0
 10
137.2243308447334
 20
119.3641467231148
 30
0.0
 10
137.2243308447334
 20
119.4349324717034
 30
0.0
 10
137.2243308447334
 20
119.516361636639
 30
0.0
  0
SPLINE
  5
1B8
330
1F
100
AcDbEntity
  8
0
  6
Continuous
 62
     7
370
    25
100
AcDbSpline
210
0.0
220
0.0
230
1.0
 70
    24
 71
     3
 72
    14
 73
    10
 74
     0
 42
0.000000001
 43
0.00000001
 40
0.0
 40
0.0
 40
0.0
 40
0.0
 40
0.25
 40
0.25
 40
0.5
 40
0.5
 40
0.75
 40
0.75
 40
1.0
 40
1.0
 40
1.0
 40
1.0
 10
137.2243308447334
 20
133.0336030159494
 30
0.0
 10
137.2243308447334
 20
133.0336030159494
 30
0.0
 10
137.2243308447334
 20
133.023678326024
 30
0.0
 10
137.2243308447334
 20
132.9838836233613
 30
0.0
 10
137.2243308447334
 20
132.9540132781396
 30
0.0
 10
137.2243308447334
 20
132.8740437382077
 30
0.0
 10
137.2243308447334
 20
132.8239438577718
 30
0.0
 10
137.2243308447334
 20
132.703059308784
 30
0.0
 10
137.2243308447334
 20
132.6322735601953
 30
0.0
 10
137.2243308447334
 20
132.5508443952597
 30
0.0
  0
LINE
  5
1B9
330
1F
100
AcDbEntity
  8
0
  6
Continuous
 62
     7
370
    25
100
AcDbLine
 10
135.4743308447
 20
119.2836030159
 30
0.0
 11
136.4743308447
 21
119.2836030159
 31
0.0
  0
LINE
  5
1BA
330
1F
100
AcDbEntity
  8
0
  6
Continuous
 62
     7
370
    25
100
AcDbLine
 10
136.4743308447
 20
119.2836030159
 30
0.0
 11
136.4743308447
 21
119.0336030159
 31
0.0
  0
LINE
  5
1BB
330
1F
100
AcDbEntity
  8
0
  6
Continuous
 62
     7
370
    25
100
AcDbLine
 10
136.4743308447
 20
119.0336030159
 30
0.0
 11
135.2243308447
 21
119.0336030159
 31
0.0
  0
LINE
  5
1BC
330
1F
100
AcDbEntity
  8
0
  6
Continuous
 62
     7
370
    25
100
AcDbLine
 10
136.7243308447
 20
133.0336030159
 30
0.0
 11
136.7243308447
 21
132.7836030159
 31
0.0
  0
LINE
  5
1BD
330
1F
100
AcDbEntity
  8
0
  6
Continuous
 62
     7
370
    25
100
AcDbLine
 10
136.7243308447
 20
132.7836030159
 30
0.0
 11
136.4743308447
 21
132.7836030159
 31
0.0
  0
LINE
  5
1BE
330
1F
100
AcDbEntity
  8
0
  6
Continuous
 62
     7
370
    25
100
AcDbLine
 10
136.4743308447
 20
133.0336030159
 30
0.0
 11
136.7243308447
 21
133.0336030159
 31
0.0
  0
LINE
  5
1BF
330
1F
100
AcDbEntity
  8
0
  6
Continuous
 62
     7
370
    25
100
AcDbLine
 10
136.9743308447
 20
132.7836030159
 30
0.0
 11
136.7243308447
 21
132.7836030159
 31
0.0
  0
ARC
  5
1C0
330
1F
100
AcDbEntity
  8
0
  6
Continuous
 62
     7
370
    25
100
AcDbCircle
 10
136.7243308447
 20
132.7836030159
 30
0.0
 40
0.25
100
AcDbArc
 50
0.0
 51
90.0
  0
LINE
  5
1C1
330
1F
100
AcDbEntity
  8
0
  6
Continuous
 62
     7
370
    25
100
AcDbLine
 10
136.9743308447
 20
132.7836030159
 30
0.0
 11
136.9743308447
 21
131.0085402015
 31
0.0
  0
LINE
  5
1C2
330
1F
100
AcDbEntity
  8
0
  6
Continuous
 62
     7
370
    25
100
AcDbLine
 10
136.4743308447
 20
119.2836030159
 30
0.0
 11
136.7243308447
 21
119.2836030159
 31
0.0
  0
LINE
  5
1C3
330
1F
100
AcDbEntity
  8
0
  6
Continuous
 62
     7
370
    25
100
AcDbLine
 10
136.9743308447
 20
121.0586658304
 30
0.0
 11
136.9743308447
 21
119.2836030159
 31
0.0
  0
LINE
  5
1C4
330
1F
100
AcDbEntity
  8
0
  6
Continuous
 62
     7
370
    25
100
AcDbLine
 10
136.7243308447
 20
119.2836030159
 30
0.0
 11
136.9743308447
 21
119.2836030159
 31
0.0
  0
LINE
  5
1C5
330
1F
100
AcDbEntity
  8
0
  6
Continuous
 62
     7
370
    25
100
AcDbLine
 10
136.7243308447
 20
119.2836030159
 30
0.0
 11
136.7243308447
 21
119.0336030159
 31
0.0
  0
LINE
  5
1C6
330
1F
100
AcDbEntity
  8
0
  6
Continuous
 62
     7
370
    25
100
AcDbLine
 10
136.7243308447
 20
119.0336030159
 30
0.0
 11
136.4743308447
 21
119.0336030159
 31
0.0
  0
ARC
  5
1C7
330
1F
100
AcDbEntity
  8
0
  6
Continuous
 62
     7
370
    25
100
AcDbCircle
 10
136.7243308447
 20
119.2836030159
 30
0.0
 40
0.25
100
AcDbArc
 50
270.0
 51
0.0
  0
SPLINE
  5
1C8
330
1F
100
AcDbEntity
  8
0
  6
Continuous
 62
     7
370
    25
100
AcDbSpline
210
0.0
220
0.0
230
1.0
 70
     8
 71
     3
 72
     8
 73
     4
 74
     0
 42
0.000000001
 43
0.00000001
 40
0.0
 40
0.0
 40
0.0
 40
0.0
 40
1.0
 40
1.0
 40
1.0
 40
1.0
 10
137.2243308447334
 20
132.5508443952597
 30
0.0
 10
137.1588781642973
 20
132.5524142979565
 30
0.0
 10
137.093828599289
 20
132.5790696323605
 30
0.0
 10
137.0475481388067
 20
132.6237711959819
 30
0.0
  0
SPLINE
  5
1C9
330
1F
100
AcDbEntity
  8
0
  6
Continuous
 62
     7
370
    25
100
AcDbSpline
210
0.0
220
0.0
230
1.0
 70
     8
 71
     3
 72
    14
 73
    10
 74
     0
 42
0.000000001
 43
0.00000001
 40
0.0
 40
0.0
 40
0.0
 40
0.0
 40
0.245589323567575
 40
0.455618196314265
 40
0.6303106213393797
 40
0.77011643036692
 40
0.8759901151610914
 40
0.9502659312389357
 40
1.0
 40
1.0
 40
1.0
 40
1.0
 10
137.0475481388067
 20
132.6237711959819
 30
0.0
 10
137.0365830994914
 20
132.6356621365211
 30
0.0
 10
137.0162407191193
 20
132.6577222521737
 30
0.0
 10
136.9960887066428
 20
132.6932859504939
 30
0.0
 10
136.9839691471719
 20
132.7240782590971
 30
0.0
 10
136.9777633239395
 20
132.7493178416699
 30
0.0
 10
136.9751436249657
 20
132.7673001346047
 30
0.0
 10
136.9743634306207
 20
132.7802222980207
 30
0.0
 10
136.9743401724178
 20
132.7826352881266
 30
0.0
 10
136.9743308447334
 20
132.7836030159494
 30
0.0
  0
SPLINE
  5
1CA
330
1F
100
AcDbEntity
  8
0
  6
Continuous
 62
     7
370
    25
100
AcDbSpline
210
0.0
220
0.0
230
1.0
 70
     8
 71
     3
 72
    15
 73
    11
 74
     0
 42
0.000000001
 43
0.00000001
 40
0.0
 40
0.0
 40
0.0
 40
0.0
 40
0.0425877399909041
 40
0.1028282325346875
 40
0.1864706729280299
 40
0.2956205441869006
 40
0.4311891005861807
 40
0.5936297641565581
 40
0.7831876993469636
 40
1.0
 40
1.0
 40
1.0
 40
1.0
 10
136.9743308447334
 20
119.2836030159494
 30
0.0
 10
136.9743366378356
 20
119.2843185175462
 30
0.0
 10
136.974350625299
 20
119.2860460984085
 30
0.0
 10
136.9748423261307
 20
119.2959202775034
 30
0.0
 10
136.9764696800893
 20
119.3098139573257
 30
0.0
 10
136.9802948284734
 20
119.3293112151474
 30
0.0
 10
136.9876671385142
 20
119.3535160679966
 30
0.0
 10
137.000285127491
 20
119.3818847246608
 30
0.0
 10
137.0195293296952
 20
119.4134238954043
 30
0.0
 10
137.0378000760655
 20
119.4329936879767
 30
0.0
 10
137.0475481388067
 20
119.4434348359168
 30
0.0
  0
SPLINE
  5
1CB
330
1F
100
AcDbEntity
  8
0
  6
Continuous
 62
     7
370
    25
100
AcDbSpline
210
0.0
220
0.0
230
1.0
 70
     8
 71
     3
 72
     8
 73
     4
 74
     0
 42
0.000000001
 43
0.00000001
 40
0.0
 40
0.0
 40
0.0
 40
0.0
 40
1.0
 40
1.0
 40
1.0
 40
1.0
 10
137.0475481388067
 20
119.4434348359168
 30
0.0
 10
137.093828599289
 20
119.4881363995383
 30
0.0
 10
137.1588781642973
 20
119.5147917339422
 30
0.0
 10
137.2243308447334
 20
119.516361636639
 30
0.0
  0
SPLINE
  5
1CC
330
1F
100
AcDbEntity
  8
0
  6
Continuous
 62
     7
370
    25
100
AcDbSpline
210
0.0
220
0.0
230
1.0
 70
     8
 71
     3
 72
    12
 73
     8
 74
     0
 42
0.000000001
 43
0.00000001
 40
0.0
 40
0.0
 40
0.0
 40
0.0
 40
0.25
 40
0.25
 40
0.5
 40
0.5
 40
1.0
 40
1.0
 40
1.0
 40
1.0
 10
136.9760506023877
 20
133.0324934766673
 30
0.0
 10
136.9862927008368
 20
133.0325020840525
 30
0.0
 10
137.0009754153002
 20
133.0239109488677
 30
0.0
 10
137.0327978059581
 20
132.9876013493574
 30
0.0
 10
137.0499374821526
 20
132.959882885032
 30
0.0
 10
137.0954055478861
 20
132.8451447323438
 30
0.0
 10
137.088572696822
 20
132.7435338897129
 30
0.0
 10
137.0475481388067
 20
132.6237711959819
 30
0.0
  0
SPLINE
  5
1CD
330
1F
100
AcDbEntity
  8
0
  6
Continuous
 62
     7
370
    25
100
AcDbSpline
210
0.0
220
0.0
230
1.0
 70
     8
 71
     3
 72
    12
 73
     8
 74
     0
 42
0.000000001
 43
0.00000001
 40
0.0
 40
0.0
 40
0.0
 40
0.0
 40
0.25
 40
0.25
 40
0.5
 40
0.5
 40
1.0
 40
1.0
 40
1.0
 40
1.0
 10
136.9760506023877
 20
133.0324934766673
 30
0.0
 10
136.9658085039387
 20
133.0324848692821
 30
0.0
 10
136.9582692923853
 20
133.023875058952
 30
0.0
 10
136.943939776761
 20
133.0023939486817
 30
0.0
 10
136.93714947269
 20
132.9895226487416
 30
0.0
 10
136.9109166222367
 20
132.9639278889263
 30
0.0
 10
136.9012339055484
 20
132.9602533457277
 30
0.0
 10
136.9011075400285
 20
132.9603797112475
 30
0.0
  0
SPLINE
  5
1CE
330
1F
100
AcDbEntity
  8
0
  6
Continuous
 62
     7
370
    25
100
AcDbSpline
210
0.0
220
0.0
230
1.0
 70
     8
 71
     3
 72
    10
 73
     6
 74
     0
 42
0.000000001
 43
0.00000001
 40
0.0
 40
0.0
 40
0.0
 40
0.0
 40
0.5
 40
0.5
 40
1.0
 40
1.0
 40
1.0
 40
1.0
 10
136.9760506023877
 20
133.0324934766673
 30
0.0
 10
136.9350822085915
 20
133.0324590471265
 30
0.0
 10
136.891117698847
 20
133.0327672574635
 30
0.0
 10
136.8000710591031
 20
133.0377219908439
 30
0.0
 10
136.7671226185223
 20
133.0336030159494
 30
0.0
 10
136.7243308447334
 20
133.0336030159494
 30
0.0
  0
SPLINE
  5
1CF
330
1F
100
AcDbEntity
  8
0
  6
Continuous
 62
     7
370
    25
100
AcDbSpline
210
0.0
220
0.0
230
1.0
 70
     8
 71
     3
 72
    14
 73
    10
 74
     0
 42
0.000000001
 43
0.00000001
 40
0.0
 40
0.0
 40
0.0
 40
0.0
 40
0.25
 40
0.25
 40
0.5
 40
0.5
 40
0.75
 40
0.75
 40
1.0
 40
1.0
 40
1.0
 40
1.0
 10
136.9760506023877
 20
119.0347125552314
 30
0.0
 10
136.9862927008368
 20
119.0347039478462
 30
0.0
 10
137.0009754153002
 20
119.0432950830311
 30
0.0
 10
137.0327978059581
 20
119.0796046825413
 30
0.0
 10
137.0499374821526
 20
119.1073231468668
 30
0.0
 10
137.0802495259749
 20
119.1838152486589
 30
0.0
 10
137.0861193241645
 20
119.2283409847647
 30
0.0
 10
137.0800247700842
 20
119.3282101049609
 30
0.0
 10
137.0680604178143
 20
119.3835534890514
 30
0.0
 10
137.0475481388067
 20
119.4434348359168
 30
0.0
  0
SPLINE
  5
1D0
330
1F
100
AcDbEntity
  8
0
  6
Continuous
 62
     7
370
    25
100
AcDbSpline
210
0.0
220
0.0
230
1.0
 70
     8
 71
     3
 72
    12
 73
     8
 74
     0
 42
0.000000001
 43
0.00000001
 40
0.0
 40
0.0
 40
0.0
 40
0.0
 40
0.25
 40
0.25
 40
0.5
 40
0.5
 40
1.0
 40
1.0
 40
1.0
 40
1.0
 10
136.9760506023877
 20
119.0347125552314
 30
0.0
 10
136.9658085039387
 20
119.0347211626166
 30
0.0
 10
136.9582692923853
 20
119.0433309729468
 30
0.0
 10
136.943939776761
 20
119.064812083217
 30
0.0
 10
136.93714947269
 20
119.0776833831571
 30
0.0
 10
136.9109166222367
 20
119.1032781429724
 30
0.0
 10
136.9012339055484
 20
119.1069526861711
 30
0.0
 10
136.9011075400285
 20
119.1068263206512
 30
0.0
  0
SPLINE
  5
1D1
330
1F
100
AcDbEntity
  8
0
  6
Continuous
 62
     7
370
    25
100
AcDbSpline
210
0.0
220
0.0
230
1.0
 70
     8
 71
     3
 72
    10
 73
     6
 74
     0
 42
0.000000001
 43
0.00000001
 40
0.0
 40
0.0
 40
0.0
 40
0.0
 40
0.5
 40
0.5
 40
1.0
 40
1.0
 40
1.0
 40
1.0
 10
136.9760506023877
 20
119.0347125552314
 30
0.0
 10
136.9350822085915
 20
119.0347469847722
 30
0.0
 10
136.891117698847
 20
119.0344387744353
 30
0.0
 10
136.8000710591031
 20
119.0294840410548
 30
0.0
 10
136.7671226185223
 20
119.0336030159494
 30
0.0
 10
136.7243308447334
 20
119.0336030159494
 30
0.0
  0
SPLINE
  5
1D2
330
1F
100
AcDbEntity
  8
0
  6
Continuous
 62
     7
370
    25
100
AcDbSpline
210
0.0
220
0.0
230
1.0
 70
     8
 71
     3
 72
    10
 73
     6
 74
     0
 42
0.000000001
 43
0.00000001
 40
0.0
 40
0.0
 40
0.0
 40
0.0
 40
0.5
 40
0.5
 40
1.0
 40
1.0
 40
1.0
 40
1.0
 10
136.9760506023877
 20
133.0324934766673
 30
0.0
 10
137.017018996184
 20
133.0325279062081
 30
0.0
 10
137.0604744432559
 20
133.0329095836423
 30
0.0
 10
137.1495602884732
 20
133.0292175695161
 30
0.0
 10
137.1819475170885
 20
133.0336030159494
 30
0.0
 10
137.2243308447334
 20
133.0336030159494
 30
0.0
  0
SPLINE
  5
1D3
330
1F
100
AcDbEntity
  8
0
  6
Continuous
 62
     7
370
    25
100
AcDbSpline
210
0.0
220
0.0
230
1.0
 70
     8
 71
     3
 72
    10
 73
     6
 74
     0
 42
0.000000001
 43
0.00000001
 40
0.0
 40
0.0
 40
0.0
 40
0.0
 40
0.5
 40
0.5
 40
1.0
 40
1.0
 40
1.0
 40
1.0
 10
136.9760506023877
 20
119.0347125552314
 30
0.0
 10
137.017018996184
 20
119.0346781256906
 30
0.0
 10
137.0604744432559
 20
119.0342964482565
 30
0.0
 10
137.1495602884732
 20
119.0379884623826
 30
0.0
 10
137.1819475170885
 20
119.0336030159494
 30
0.0
 10
137.2243308447334
 20
119.0336030159494
 30
0.0
  0
SPLINE
  5
1D4
330
1F
100
AcDbEntity
  8
0
  6
Continuous
 62
     7
370
    25
100
AcDbSpline
210
0.0
220
0.0
230
1.0
 70
     8
 71
     3
 72
    26
 73
    22
 74
     0
 42
0.000000001
 43
0.00000001
 40
0.0
 40
0.0
 40
0.0
 40
0.0
 40
0.1249999999999999
 40
0.1249999999999999
 40
0.2499999999999999
 40
0.2499999999999999
 40
0.3124999999999999
 40
0.3124999999999999
 40
0.3750000000000001
 40
0.3750000000000001
 40
0.5000000000000001
 40
0.5000000000000001
 40
0.5625000000000002
 40
0.5625000000000002
 40
0.6250000000000001
 40
0.6250000000000001
 40
0.7500000000000001
 40
0.7500000000000001
 40
0.875
 40
0.875
 40
1.0
 40
1.0
 40
1.0
 40
1.0
 10
133.0798821201974
 20
127.7656538235182
 30
0.0
 10
132.908635930436
 20
127.7026398692021
 30
0.0
 10
132.743768326873
 20
127.6264296720883
 30
0.0
 10
132.4339255435305
 20
127.4328522366434
 30
0.0
 10
132.289586538454
 20
127.3151231469203
 30
0.0
 10
132.1097669564187
 20
127.0972500515611
 30
0.0
 10
132.0555597404736
 20
127.0168598483065
 30
0.0
 10
131.9645022599466
 20
126.8459815001752
 30
0.0
 10
131.9269450734302
 20
126.7547976229104
 30
0.0
 10
131.8373036125692
 20
126.4624777648051
 30
0.0
 10
131.8101881896233
 20
126.2495217481407
 30
0.0
 10
131.8099836997092
 20
125.9280050570512
 30
0.0
 10
131.8166996216075
 20
125.8222924659423
 30
0.0
 10
131.8447167495027
 20
125.6137957477387
 30
0.0
 10
131.8664713699861
 20
125.510363592317
 30
0.0
 10
131.9550704728335
 20
125.2192292414518
 30
0.0
 10
132.0489668352071
 20
125.0439990644859
 30
0.0
 10
132.2880831583535
 20
124.7535317006866
 30
0.0
 10
132.4327995627705
 20
124.6352785842709
 30
0.0
 10
132.7411794043264
 20
124.442175143014
 30
0.0
 10
132.9078179614354
 20
124.3648671531086
 30
0.0
 10
133.0798821201998
 20
124.3015522083795
 30
0.0
  0
LINE
  5
1D5
330
1F
100
AcDbEntity
  8
0
  6
Continuous
 62
     7
370
    25
100
AcDbLine
 10
137.6825884142
 20
133.3336030159
 30
0.0
 11
138.2660732752
 21
133.3336030159
 31
0.0
  0
LINE
  5
1D6
330
1F
100
AcDbEntity
  8
0
  6
Continuous
 62
     7
370
    25
100
AcDbLine
 10
137.2243308447
 20
133.0336030159
 30
0.0
 11
138.7243308447
 21
133.0336030159
 31
0.0
  0
LINE
  5
1D7
330
1F
100
AcDbEntity
  8
0
  6
Continuous
 62
     8
370
    25
100
AcDbLine
 10
142.4743308447
 20
135.0336030159
 30
0.0
 11
142.4743308447
 21
117.0336030159
 31
0.0
  0
LINE
  5
1D8
330
1F
100
AcDbEntity
  8
0
  6
Continuous
 62
     8
370
    25
100
AcDbLine
 10
140.4743308447
 20
119.0336030159
 30
0.0
 11
140.4743308447
 21
133.0336030159
 31
0.0
  0
LINE
  5
1D9
330
1F
100
AcDbEntity
  8
0
  6
Continuous
 62
     8
370
    25
100
AcDbLine
 10
135.2243308447
 20
133.0336030159
 30
0.0
 11
135.2243308447
 21
132.957294228
 31
0.0
  0
LINE
  5
1DA
330
1F
100
AcDbEntity
  8
0
  6
Continuous
 62
     8
370
    25
100
AcDbLine
 10
123.7243308447
 20
133.0336030159
 30
0.0
 11
123.7243308447
 21
132.957294228
 31
0.0
  0
LINE
  5
1DB
330
1F
100
AcDbEntity
  8
0
  6
Continuous
 62
     8
370
    25
100
AcDbLine
 10
123.7243308447
 20
119.1099118039
 30
0.0
 11
123.7243308447
 21
119.0336030159
 31
0.0
  0
LINE
  5
1DC
330
1F
100
AcDbEntity
  8
0
  6
Continuous
 62
     8
370
    25
100
AcDbLine
 10
135.2243308447
 20
119.1099118039
 30
0.0
 11
135.2243308447
 21
119.0336030159
 31
0.0
  0
LINE
  5
1DD
330
1F
100
AcDbEntity
  8
0
  6
Continuous
 62
     8
370
    25
100
AcDbLine
 10
123.4743308447
 20
132.7836030159
 30
0.0
 11
123.5213903948
 21
132.7836030159
 31
0.0
  0
LINE
  5
1DE
330
1F
100
AcDbEntity
  8
0
  6
Continuous
 62
     8
370
    25
100
AcDbLine
 10
135.4743308447
 20
132.7836030159
 30
0.0
 11
135.4272712946
 21
132.7836030159
 31
0.0
  0
LINE
  5
1DF
330
1F
100
AcDbEntity
  8
0
  6
Continuous
 62
     8
370
    25
100
AcDbLine
 10
123.5213903948
 20
119.2836030159
 30
0.0
 11
123.4743308447
 21
119.2836030159
 31
0.0
  0
LINE
  5
1E0
330
1F
100
AcDbEntity
  8
0
  6
Continuous
 62
     8
370
    25
100
AcDbLine
 10
135.4272712946
 20
119.2836030159
 30
0.0
 11
135.4743308447
 21
119.2836030159
 31
0.0
  0
LINE
  5
1E1
330
1F
100
AcDbEntity
  8
0
  6
Continuous
 62
     8
370
    25
100
AcDbLine
 10
136.4743308447
 20
131.6904572654
 30
0.0
 11
136.4743308447
 21
132.7836030159
 31
0.0
  0
LINE
  5
1E2
330
1F
100
AcDbEntity
  8
0
  6
Continuous
 62
     8
370
    25
100
AcDbLine
 10
137.2243308447
 20
121.4578517115
 30
0.0
 11
137.2243308447
 21
119.5163616366
 31
0.0
  0
LINE
  5
1E3
330
1F
100
AcDbEntity
  8
0
  6
Continuous
 62
     8
370
    25
100
AcDbLine
 10
137.2243308447
 20
132.5508443953
 30
0.0
 11
137.2243308447
 21
130.6093543204
 31
0.0
  0
LINE
  5
1E4
330
1F
100
AcDbEntity
  8
0
  6
Continuous
 62
     8
370
    25
100
AcDbLine
 10
136.4743308447
 20
119.2836030159
 30
0.0
 11
136.4743308447
 21
120.3767487665
 31
0.0
  0
LINE
  5
1E5
330
1F
100
AcDbEntity
  8
0
  6
Continuous
 62
     8
370
    25
100
AcDbLine
 10
136.7243308447
 20
131.3662852679
 30
0.0
 11
136.7243308447
 21
132.7836030159
 31
0.0
  0
LINE
  5
1E6
330
1F
100
AcDbEntity
  8
0
  6
Continuous
 62
     8
370
    25
100
AcDbLine
 10
136.7243308447
 20
119.2836030159
 30
0.0
 11
136.7243308447
 21
120.700920764
 31
0.0
  0
INSERT
  5
1F2
330
1F
100
AcDbEntity
  8
0
  6
Continuous
 62
     7
370
    18
100
AcDbBlockReference
  2
SW_CENTERMARKSYMBOL_1
 10
129.4743308447
 20
126.0336030159
 30
0.0
  0
ARC
  5
1F3
330
1F
100
AcDbEntity
  8
0
  6
Continuous
 62
     7
370
    18
100
AcDbCircle
 10
129.4743308447
 20
126.0336030159
 30
0.0
 40
6.562891499999986
100
AcDbArc
 50
75.0
 51
345.0
  0
ENDSEC
  0
SECTION
  2
OBJECTS
  0
DICTIONARY
  5
C
330
0
100
AcDbDictionary
281
     1
  3
ACAD_GROUP
350
D
  3
ACAD_LAYOUT
350
1A
  3
ACAD_MLINESTYLE
350
17
  3
ACAD_PLOTSETTINGS
350
19
  3
ACAD_PLOTSTYLENAME
350
E
  3
ACAD_SCALELIST
350
47
  0
DICTIONARY
  5
D
102
{ACAD_REACTORS
330
C
102
}
330
C
100
AcDbDictionary
281
     1
  0
DICTIONARY
  5
1A
102
{ACAD_REACTORS
330
C
102
}
330
C
100
AcDbDictionary
281
     1
  3
Layout1
350
1E
  3
Layout2
350
26
  3
Model
350
22
  0
DICTIONARY
  5
17
102
{ACAD_REACTORS
330
C
102
}
330
C
100
AcDbDictionary
281
     1
  3
Standard
350
18
  0
DICTIONARY
  5
19
102
{ACAD_REACTORS
330
C
102
}
330
C
100
AcDbDictionary
281
     1
  0
ACDBDICTIONARYWDFLT
  5
E
102
{ACAD_REACTORS
330
C
102
}
330
C
100
AcDbDictionary
281
     1
  3
Normal
350
F
100
AcDbDictionaryWithDefault
340
F
  0
DICTIONARY
  5
47
102
{ACAD_REACTORS
330
C
102
}
330
C
100
AcDbDictionary
281
     1
  3
A0
350
48
  3
A1
350
49
  3
A2
350
4A
  3
A3
350
4B
  3
A4
350
4C
  3
A5
350
4D
  3
A6
350
4E
  3
A7
350
4F
  3
A8
350
50
  3
A9
350
51
  3
B0
350
52
  3
B1
350
53
  3
B2
350
54
  3
B3
350
55
  3
B4
350
56
  3
B5
350
57
  3
B6
350
58
  3
B7
350
59
  3
B8
350
5A
  3
B9
350
5B
  3
C0
350
5C
  3
C1
350
5D
  3
C2
350
5E
  3
C3
350
5F
  3
C4
350
60
  3
C5
350
61
  3
C6
350
62
  3
C7
350
63
  3
C8
350
64
  3
C9
350
65
  3
D0
350
66
  3
D1
350
67
  3
D2
350
68
  0
LAYOUT
  5
1E
102
{ACAD_REACTORS
330
1A
102
}
330
1A
100
AcDbPlotSettings
  1

  2
none_device
  4

  6

 40
0.0
 41
0.0
 42
0.0
 43
0.0
 44
0.0
 45
0.0
 46
0.0
 47
0.0
 48
0.0
 49
0.0
140
0.0
141
0.0
142
1.0
143
1.0
 70
   688
 72
     1
 73
     0
 74
     5
  7

 75
    16
147
1.0
148
0.0
149
0.0
100
AcDbLayout
  1
Layout1
 70
     1
 71
     1
 10
0.0
 20
0.0
 11
420.0
 21
297.0
 12
0.0
 22
0.0
 32
0.0
 14
1.0000000000E+20
 24
1.0000000000E+20
 34
1.0000000000E+20
 15
-1.0000000000E+20
 25
-1.0000000000E+20
 35
-1.0000000000E+20
146
0.0
 13
0.0
 23
0.0
 33
0.0
 16
1.0
 26
0.0
 36
0.0
 17
0.0
 27
1.0
 37
0.0
 76
     0
330
1B
  0
LAYOUT
  5
26
102
{ACAD_REACTORS
330
1A
102
}
330
1A
100
AcDbPlotSettings
  1

  2
none_device
  4

  6

 40
0.0
 41
0.0
 42
0.0
 43
0.0
 44
0.0
 45
0.0
 46
0.0
 47
0.0
 48
0.0
 49
0.0
140
0.0
141
0.0
142
1.0
143
1.0
 70
   688
 72
     1
 73
     0
 74
     5
  7

 75
    16
147
1.0
148
0.0
149
0.0
100
AcDbLayout
  1
Layout2
 70
     1
 71
     2
 10
0.0
 20
0.0
 11
0.0
 21
0.0
 12
0.0
 22
0.0
 32
0.0
 14
0.0
 24
0.0
 34
0.0
 15
0.0
 25
0.0
 35
0.0
146
0.0
 13
0.0
 23
0.0
 33
0.0
 16
1.0
 26
0.0
 36
0.0
 17
0.0
 27
1.0
 37
0.0
 76
     0
330
23
  0
LAYOUT
  5
22
102
{ACAD_REACTORS
330
1A
102
}
330
1A
100
AcDbPlotSettings
  1

  2
none_device
  4
Letter_(8.50_x_11.00_Inches)
  6

 40
6.35
 41
6.35
 42
6.35000508
 43
6.35000508
 44
215.9
 45
279.4
 46
0.0
 47
0.0
 48
0.0
 49
0.0
140
0.0
141
0.0
142
1.0
143
1.0
 70
  1712
 72
     1
 73
     0
 74
     0
  7

 75
     0
147
1.0
148
0.0
149
0.0
100
AcDbLayout
  1
Model
 70
     1
 71
     0
 10
0.0
 20
0.0
 11
431.8
 21
279.4
 12
0.0
 22
0.0
 32
0.0
 14
0.0
 24
0.0
 34
0.0
 15
431.8
 25
279.4
 35
0.0
146
0.0
 13
0.0
 23
0.0
 33
0.0
 16
1.0
 26
0.0
 36
0.0
 17
0.0
 27
1.0
 37
0.0
 76
     0
330
1F
331
29
  0
MLINESTYLE
  5
18
102
{ACAD_REACTORS
330
17
102
}
330
17
100
AcDbMlineStyle
  2
Standard
 70
     0
  3

 62
   256
 51
90.0
 52
90.0
 71
     2
 49
0.5
 62
   256
  6
BYLAYER
 49
-0.5
 62
   256
  6
BYLAYER
  0
ACDBPLACEHOLDER
  5
F
102
{ACAD_REACTORS
330
E
102
}
330
E
  0
SCALE
  5
48
102
{ACAD_REACTORS
330
47
102
}
330
47
100
AcDbScale
 70
     0
300
1:1
140
1.0
141
1.0
290
     1
  0
SCALE
  5
49
102
{ACAD_REACTORS
330
47
102
}
330
47
100
AcDbScale
 70
     0
300
1:2
140
1.0
141
2.0
290
     0
  0
SCALE
  5
4A
102
{ACAD_REACTORS
330
47
102
}
330
47
100
AcDbScale
 70
     0
300
1:4
140
1.0
141
4.0
290
     0
  0
SCALE
  5
4B
102
{ACAD_REACTORS
330
47
102
}
330
47
100
AcDbScale
 70
     0
300
1:5
140
1.0
141
5.0
290
     0
  0
SCALE
  5
4C
102
{ACAD_REACTORS
330
47
102
}
330
47
100
AcDbScale
 70
     0
300
1:8
140
1.0
141
8.0
290
     0
  0
SCALE
  5
4D
102
{ACAD_REACTORS
330
47
102
}
330
47
100
AcDbScale
 70
     0
300
1:10
140
1.0
141
10.0
290
     0
  0
SCALE
  5
4E
102
{ACAD_REACTORS
330
47
102
}
330
47
100
AcDbScale
 70
     0
300
1:16
140
1.0
141
16.0
290
     0
  0
SCALE
  5
4F
102
{ACAD_REACTORS
330
47
102
}
330
47
100
AcDbScale
 70
     0
300
1:20
140
1.0
141
20.0
290
     0
  0
SCALE
  5
50
102
{ACAD_REACTORS
330
47
102
}
330
47
100
AcDbScale
 70
     0
300
1:30
140
1.0
141
30.0
290
     0
  0
SCALE
  5
51
102
{ACAD_REACTORS
330
47
102
}
330
47
100
AcDbScale
 70
     0
300
1:40
140
1.0
141
40.0
290
     0
  0
SCALE
  5
52
102
{ACAD_REACTORS
330
47
102
}
330
47
100
AcDbScale
 70
     0
300
1:50
140
1.0
141
50.0
290
     0
  0
SCALE
  5
53
102
{ACAD_REACTORS
330
47
102
}
330
47
100
AcDbScale
 70
     0
300
1:100
140
1.0
141
100.0
290
     0
  0
SCALE
  5
54
102
{ACAD_REACTORS
330
47
102
}
330
47
100
AcDbScale
 70
     0
300
2:1
140
2.0
141
1.0
290
     0
  0
SCALE
  5
55
102
{ACAD_REACTORS
330
47
102
}
330
47
100
AcDbScale
 70
     0
300
4:1
140
4.0
141
1.0
290
     0
  0
SCALE
  5
56
102
{ACAD_REACTORS
330
47
102
}
330
47
100
AcDbScale
 70
     0
300
8:1
140
8.0
141
1.0
290
     0
  0
SCALE
  5
57
102
{ACAD_REACTORS
330
47
102
}
330
47
100
AcDbScale
 70
     0
300
10:1
140
10.0
141
1.0
290
     0
  0
SCALE
  5
58
102
{ACAD_REACTORS
330
47
102
}
330
47
100
AcDbScale
 70
     0
300
100:1
140
100.0
141
1.0
290
     0
  0
SCALE
  5
59
102
{ACAD_REACTORS
330
47
102
}
330
47
100
AcDbScale
 70
     0
300
1/128" = 1'-0"
140
0.0078125
141
12.0
290
     0
  0
SCALE
  5
5A
102
{ACAD_REACTORS
330
47
102
}
330
47
100
AcDbScale
 70
     0
300
1/64" = 1'-0"
140
0.015625
141
12.0
290
     0
  0
SCALE
  5
5B
102
{ACAD_REACTORS
330
47
102
}
330
47
100
AcDbScale
 70
     0
300
1/32" = 1'-0"
140
0.03125
141
12.0
290
     0
  0
SCALE
  5
5C
102
{ACAD_REACTORS
330
47
102
}
330
47
100
AcDbScale
 70
     0
300
1/16" = 1'-0"
140
0.0625
141
12.0
290
     0
  0
SCALE
  5
5D
102
{ACAD_REACTORS
330
47
102
}
330
47
100
AcDbScale
 70
     0
300
3/32" = 1'-0"
140
0.09375
141
12.0
290
     0
  0
SCALE
  5
5E
102
{ACAD_REACTORS
330
47
102
}
330
47
100
AcDbScale
 70
     0
300
1/8" = 1'-0"
140
0.125
141
12.0
290
     0
  0
SCALE
  5
5F
102
{ACAD_REACTORS
330
47
102
}
330
47
100
AcDbScale
 70
     0
300
3/16" = 1'-0"
140
0.1875
141
12.0
290
     0
  0
SCALE
  5
60
102
{ACAD_REACTORS
330
47
102
}
330
47
100
AcDbScale
 70
     0
300
1/4" = 1'-0"
140
0.25
141
12.0
290
     0
  0
SCALE
  5
61
102
{ACAD_REACTORS
330
47
102
}
330
47
100
AcDbScale
 70
     0
300
3/8" = 1'-0"
140
0.375
141
12.0
290
     0
  0
SCALE
  5
62
102
{ACAD_REACTORS
330
47
102
}
330
47
100
AcDbScale
 70
     0
300
1/2" = 1'-0"
140
0.5
141
12.0
290
     0
  0
SCALE
  5
63
102
{ACAD_REACTORS
330
47
102
}
330
47
100
AcDbScale
 70
     0
300
3/4" = 1'-0"
140
0.75
141
12.0
290
     0
  0
SCALE
  5
64
102
{ACAD_REACTORS
330
47
102
}
330
47
100
AcDbScale
 70
     0
300
1" = 1'-0"
140
1.0
141
12.0
290
     0
  0
SCALE
  5
65
102
{ACAD_REACTORS
330
47
102
}
330
47
100
AcDbScale
 70
     0
300
1-1/2" = 1'-0"
140
1.5
141
12.0
290
     0
  0
SCALE
  5
66
102
{ACAD_REACTORS
330
47
102
}
330
47
100
AcDbScale
 70
     0
300
3" = 1'-0"
140
3.0
141
12.0
290
     0
  0
SCALE
  5
67
102
{ACAD_REACTORS
330
47
102
}
330
47
100
AcDbScale
 70
     0
300
6" = 1'-0"
140
6.0
141
12.0
290
     0
  0
SCALE
  5
68
102
{ACAD_REACTORS
330
47
102
}
330
47
100
AcDbScale
 70
     0
300
1'-0" = 1'-0"
140
12.0
141
12.0
290
     0
  0
ENDSEC
  0
EOF
