  0
SECTION
  2
HEADER
  9
$ACADVER
  1
AC1015
  9
$ACADMAINTVER
 70
     6
  9
$DWGCODEPAGE
  3
DOS932
  9
$INSBASE
 10
0.0
 20
0.0
 30
0.0
  9
$EXTMIN
 10
0.0
 20
0.0
 30
0.0
  9
$EXTMAX
 10
431.8
 20
279.4
 30
0.0
  9
$LIMMIN
 10
0.0
 20
0.0
  9
$LIMMAX
 10
431.8
 20
279.4
  9
$ORTHOMODE
 70
     0
  9
$REGENMODE
 70
     1
  9
$FILLMODE
 70
     1
  9
$QTEXTMODE
 70
     0
  9
$MIRRTEXT
 70
     1
  9
$LTSCALE
 40
1.0
  9
$ATTMODE
 70
     1
  9
$TEXTSIZE
 40
3.5
  9
$TRACEWID
 40
1.0
  9
$TEXTSTYLE
  7
Standard
  9
$CLAYER
  8
0
  9
$CELTYPE
  6
ByLayer
  9
$CECOLOR
 62
   256
  9
$CELTSCALE
 40
1.0
  9
$DISPSILH
 70
     0
  9
$DIMSCALE
 40
1.0
  9
$DIMASZ
 40
3.302
  9
$DIMEXO
 40
1.0
  9
$DIMDLI
 40
3.75
  9
$DIMRND
 40
0.0
  9
$DIMDLE
 40
0.0
  9
$DIMEXE
 40
1.0
  9
$DIMTP
 40
0.0
  9
$DIMTM
 40
0.0
  9
$DIMTXT
 40
3.5
  9
$DIMCEN
 40
2.5
  9
$DIMTSZ
 40
0.0
  9
$DIMTOL
 70
     0
  9
$DIMLIM
 70
     0
  9
$DIMTIH
 70
     1
  9
$DIMTOH
 70
     1
  9
$DIMSE1
 70
     0
  9
$DIMSE2
 70
     0
  9
$DIMTAD
 70
     1
  9
$DIMZIN
 70
     1
  9
$DIMBLK
  1

  9
$DIMASO
 70
     1
  9
$DIMSHO
 70
     1
  9
$DIMPOST
  1

  9
$DIMAPOST
  1

  9
$DIMALT
 70
     0
  9
$DIMALTD
 70
     3
  9
$DIMALTF
 40
0.0393700787
  9
$DIMLFAC
 40
1.0
  9
$DIMTOFL
 70
     1
  9
$DIMTVP
 40
0.0
  9
$DIMTIX
 70
     0
  9
$DIMSOXD
 70
     0
  9
$DIMSAH
 70
     0
  9
$DIMBLK1
  1

  9
$DIMBLK2
  1

  9
$DIMSTYLE
  2
ISO-25
  9
$DIMCLRD
 70
     0
  9
$DIMCLRE
 70
     0
  9
$DIMCLRT
 70
     0
  9
$DIMTFAC
 40
1.0
  9
$DIMGAP
 40
1.524
  9
$DIMJUST
 70
     0
  9
$DIMSD1
 70
     0
  9
$DIMSD2
 70
     0
  9
$DIMTOLJ
 70
     0
  9
$DIMTZIN
 70
     1
  9
$DIMALTZ
 70
     0
  9
$DIMALTTZ
 70
     0
  9
$DIMUPT
 70
     0
  9
$DIMDEC
 70
     2
  9
$DIMTDEC
 70
     2
  9
$DIMALTU
 70
     2
  9
$DIMALTTD
 70
     3
  9
$DIMTXSTY
  7
Standard
  9
$DIMAUNIT
 70
     0
  9
$DIMADEC
 70
     2
  9
$DIMALTRND
 40
0.0
  9
$DIMAZIN
 70
     0
  9
$DIMDSEP
 70
    44
  9
$DIMATFIT
 70
     3
  9
$DIMFRAC
 70
     0
  9
$DIMLDRBLK
  1

  9
$DIMLUNIT
 70
     2
  9
$DIMLWD
 70
    -2
  9
$DIMLWE
 70
    -2
  9
$DIMTMOVE
 70
     0
  9
$LUNITS
 70
     2
  9
$LUPREC
 70
     2
  9
$SKETCHINC
 40
1.0
  9
$FILLETRAD
 40
10.0
  9
$AUNITS
 70
     0
  9
$AUPREC
 70
     2
  9
$MENU
  1
.
  9
$ELEVATION
 40
0.0
  9
$PELEVATION
 40
0.0
  9
$THICKNESS
 40
0.0
  9
$LIMCHECK
 70
     0
  9
$CHAMFERA
 40
0.0
  9
$CHAMFERB
 40
0.0
  9
$CHAMFERC
 40
0.0
  9
$CHAMFERD
 40
0.0
  9
$SKPOLY
 70
     0
  9
$TDCREATE
 40
2459235.482003842
  9
$TDUCREATE
 40
2459235.107003842
  9
$TDUPDATE
 40
2459235.482004202
  9
$TDUUPDATE
 40
2459235.107004202
  9
$TDINDWG
 40
0.0000000116
  9
$TDUSRTIMER
 40
0.0000000116
  9
$USRTIMER
 70
     1
  9
$ANGBASE
 50
0.0
  9
$ANGDIR
 70
     0
  9
$PDMODE
 70
     0
  9
$PDSIZE
 40
-1.0
  9
$PLINEWID
 40
0.0
  9
$SPLFRAME
 70
     0
  9
$SPLINETYPE
 70
     6
  9
$SPLINESEGS
 70
     8
  9
$HANDSEED
  5
F9
  9
$SURFTAB1
 70
     6
  9
$SURFTAB2
 70
     6
  9
$SURFTYPE
 70
     6
  9
$SURFU
 70
     6
  9
$SURFV
 70
     6
  9
$UCSBASE
  2

  9
$UCSNAME
  2

  9
$UCSORG
 10
0.0
 20
0.0
 30
0.0
  9
$UCSXDIR
 10
1.0
 20
0.0
 30
0.0
  9
$UCSYDIR
 10
0.0
 20
1.0
 30
0.0
  9
$UCSORTHOREF
  2

  9
$UCSORTHOVIEW
 70
     0
  9
$UCSORGTOP
 10
0.0
 20
0.0
 30
0.0
  9
$UCSORGBOTTOM
 10
0.0
 20
0.0
 30
0.0
  9
$UCSORGLEFT
 10
0.0
 20
0.0
 30
0.0
  9
$UCSORGRIGHT
 10
0.0
 20
0.0
 30
0.0
  9
$UCSORGFRONT
 10
0.0
 20
0.0
 30
0.0
  9
$UCSORGBACK
 10
0.0
 20
0.0
 30
0.0
  9
$PUCSBASE
  2

  9
$PUCSNAME
  2

  9
$PUCSORG
 10
0.0
 20
0.0
 30
0.0
  9
$PUCSXDIR
 10
1.0
 20
0.0
 30
0.0
  9
$PUCSYDIR
 10
0.0
 20
1.0
 30
0.0
  9
$PUCSORTHOREF
  2

  9
$PUCSORTHOVIEW
 70
     0
  9
$PUCSORGTOP
 10
0.0
 20
0.0
 30
0.0
  9
$PUCSORGBOTTOM
 10
0.0
 20
0.0
 30
0.0
  9
$PUCSORGLEFT
 10
0.0
 20
0.0
 30
0.0
  9
$PUCSORGRIGHT
 10
0.0
 20
0.0
 30
0.0
  9
$PUCSORGFRONT
 10
0.0
 20
0.0
 30
0.0
  9
$PUCSORGBACK
 10
0.0
 20
0.0
 30
0.0
  9
$USERI1
 70
     0
  9
$USERI2
 70
     0
  9
$USERI3
 70
     0
  9
$USERI4
 70
     0
  9
$USERI5
 70
     0
  9
$USERR1
 40
0.0
  9
$USERR2
 40
0.0
  9
$USERR3
 40
0.0
  9
$USERR4
 40
0.0
  9
$USERR5
 40
0.0
  9
$WORLDVIEW
 70
     1
  9
$SHADEDGE
 70
     3
  9
$SHADEDIF
 70
    70
  9
$TILEMODE
 70
     1
  9
$MAXACTVP
 70
    64
  9
$PINSBASE
 10
0.0
 20
0.0
 30
0.0
  9
$PLIMCHECK
 70
     0
  9
$PEXTMIN
 10
1.0000000000E+20
 20
1.0000000000E+20
 30
1.0000000000E+20
  9
$PEXTMAX
 10
-1.0000000000E+20
 20
-1.0000000000E+20
 30
-1.0000000000E+20
  9
$PLIMMIN
 10
0.0
 20
0.0
  9
$PLIMMAX
 10
420.0
 20
297.0
  9
$UNITMODE
 70
     0
  9
$VISRETAIN
 70
     1
  9
$PLINEGEN
 70
     0
  9
$PSLTSCALE
 70
     1
  9
$TREEDEPTH
 70
  3020
  9
$CMLSTYLE
  2
Standard
  9
$CMLJUST
 70
     0
  9
$CMLSCALE
 40
20.0
  9
$PROXYGRAPHICS
 70
     1
  9
$MEASUREMENT
 70
     1
  9
$CELWEIGHT
370
    -1
  9
$ENDCAPS
280
     0
  9
$JOINSTYLE
280
     0
  9
$LWDISPLAY
290
     1
  9
$INSUNITS
 70
     4
  9
$HYPERLINKBASE
  1

  9
$STYLESHEET
  1

  9
$XEDIT
290
     1
  9
$CEPSNTYPE
380
     0
  9
$PSTYLEMODE
290
     1
  9
$FINGERPRINTGUID
  2
{BC183C91-EA5F-40C1-9A26-DE64A2AA581C}
  9
$VERSIONGUID
  2
{FAEB1C32-E019-11D5-929B-00C0DF256EC4}
  9
$EXTNAMES
290
     1
  9
$PSVPSCALE
 40
0.0
  9
$OLESTARTUP
290
     0
  0
ENDSEC
  0
SECTION
  2
CLASSES
  0
CLASS
  1
ACDBDICTIONARYWDFLT
  2
AcDbDictionaryWithDefault
  3
ObjectDBX Classes
 90
        0
280
     0
281
     0
  0
CLASS
  1
VISUALSTYLE
  2
AcDbVisualStyle
  3
ObjectDBX Classes
 90
     4095
280
     0
281
     0
  0
CLASS
  1
MATERIAL
  2
AcDbMaterial
  3
ObjectDBX Classes
 90
     1153
280
     0
281
     0
  0
CLASS
  1
SCALE
  2
AcDbScale
  3
ObjectDBX Classes
 90
     1153
280
     0
281
     0
  0
CLASS
  1
TABLESTYLE
  2
AcDbTableStyle
  3
ObjectDBX Classes
 90
     4095
280
     0
281
     0
  0
CLASS
  1
MLEADERSTYLE
  2
AcDbMLeaderStyle
  3
ACDB_MLEADERSTYLE_CLASS
 90
     4095
280
     0
281
     0
  0
CLASS
  1
SUN
  2
AcDbSun
  3
SCENEOE
 90
     1153
280
     0
281
     0
  0
CLASS
  1
ACDBPLACEHOLDER
  2
AcDbPlaceHolder
  3
ObjectDBX Classes
 90
        0
280
     0
281
     0
  0
CLASS
  1
LAYOUT
  2
AcDbLayout
  3
ObjectDBX Classes
 90
        0
280
     0
281
     0
  0
ENDSEC
  0
SECTION
  2
TABLES
  0
TABLE
  2
VPORT
  5
8
330
0
100
AcDbSymbolTable
 70
     1
  0
VPORT
  5
29
330
8
100
AcDbSymbolTableRecord
100
AcDbViewportTableRecord
  2
*Active
 70
     0
 10
0.0
 20
0.0
 11
1.0
 21
1.0
 12
215.9
 22
139.7
 13
0.0
 23
0.0
 14
10.0
 24
10.0
 15
10.0
 25
10.0
 16
0.0
 26
0.0
 36
1.0
 17
0.0
 27
0.0
 37
0.0
 40
279.4
 41
1.5454545455
 42
50.0
 43
0.0
 44
0.0
 50
0.0
 51
0.0
 71
     0
 72
  2000
 73
     1
 74
     3
 75
     0
 76
     0
 77
     0
 78
     0
281
     0
 65
     1
110
0.0
120
0.0
130
0.0
111
1.0
121
0.0
131
0.0
112
0.0
122
1.0
132
0.0
 79
     0
146
0.0
  0
ENDTAB
  0
TABLE
  2
LTYPE
  5
5
330
0
100
AcDbSymbolTable
 70
     6
  0
LTYPE
  5
14
330
5
100
AcDbSymbolTableRecord
100
AcDbLinetypeTableRecord
  2
ByBlock
 70
     0
  3

 72
    65
 73
     0
 40
0.0
  0
LTYPE
  5
15
330
5
100
AcDbSymbolTableRecord
100
AcDbLinetypeTableRecord
  2
ByLayer
 70
     0
  3

 72
    65
 73
     0
 40
0.0
  0
LTYPE
  5
16
330
5
100
AcDbSymbolTableRecord
100
AcDbLinetypeTableRecord
  2
Continuous
 70
     0
  3
Solid line
 72
    65
 73
     0
 40
0.0
  0
LTYPE
  5
6E
330
5
100
AcDbSymbolTableRecord
100
AcDbLinetypeTableRecord
  2
HIDDEN
 70
     0
  3
Hidden __ __ __ __ __ __ __ __ __ __ __ __ __ __
 72
    65
 73
     2
 40
1.905
 49
1.27
 74
     0
 49
-0.635
 74
     0
  0
LTYPE
  5
6F
330
5
100
AcDbSymbolTableRecord
100
AcDbLinetypeTableRecord
  2
PHANTOM
 70
     0
  3
Phantom ______  __  __  ______  __  __  ______
 72
    65
 73
     6
 40
12.7
 49
6.35
 74
     0
 49
-1.27
 74
     0
 49
1.27
 74
     0
 49
-1.27
 74
     0
 49
1.27
 74
     0
 49
-1.27
 74
     0
  0
LTYPE
  5
70
330
5
100
AcDbSymbolTableRecord
100
AcDbLinetypeTableRecord
  2
CENTER
 70
     0
  3
Center ____ _ ____ _ ____ _ ____ _ ____ _ ____
 72
    65
 73
     4
 40
10.16
 49
6.35
 74
     0
 49
-1.27
 74
     0
 49
1.27
 74
     0
 49
-1.27
 74
     0
  0
LTYPE
  5
71
330
5
100
AcDbSymbolTableRecord
100
AcDbLinetypeTableRecord
  2
CENTERX2
 70
     0
  3
Center (2x) ________  __  ________  __  _____
 72
    65
 73
     4
 40
20.32
 49
12.7
 74
     0
 49
-2.54
 74
     0
 49
2.54
 74
     0
 49
-2.54
 74
     0
  0
LTYPE
  5
72
330
5
100
AcDbSymbolTableRecord
100
AcDbLinetypeTableRecord
  2
DOT2
 70
     0
  3
Dot (.5x) ........................................
 72
    65
 73
     2
 40
0.635
 49
0.0
 74
     0
 49
-0.635
 74
     0
  0
ENDTAB
  0
TABLE
  2
LAYER
  5
2
330
0
100
AcDbSymbolTable
 70
     1
  0
LAYER
  5
10
330
2
100
AcDbSymbolTableRecord
100
AcDbLayerTableRecord
  2
0
 70
     0
 62
     7
  6
Continuous
370
    -3
390
F
  0
ENDTAB
  0
TABLE
  2
STYLE
  5
3
330
0
100
AcDbSymbolTable
 70
     2
  0
STYLE
  5
11
330
3
100
AcDbSymbolTableRecord
100
AcDbTextStyleTableRecord
  2
Standard
 70
     0
 40
0.0
 41
1.0
 50
0.0
 71
     0
 42
3.5
  3
txt
  4
bigfont
  0
STYLE
  5
73
330
3
100
AcDbSymbolTableRecord
100
AcDbTextStyleTableRecord
  2
SLDTEXTSTYLE0
 70
     0
 40
0.0
 41
0.7
 50
0.0
 71
     0
 42
3.5
  3
TXT
  4
bigfont
  0
ENDTAB
  0
TABLE
  2
VIEW
  5
6
330
0
100
AcDbSymbolTable
 70
     0
  0
ENDTAB
  0
TABLE
  2
UCS
  5
7
330
0
100
AcDbSymbolTable
 70
     0
  0
ENDTAB
  0
TABLE
  2
APPID
  5
9
330
0
100
AcDbSymbolTable
 70
     1
  0
APPID
  5
12
330
9
100
AcDbSymbolTableRecord
100
AcDbRegAppTableRecord
  2
ACAD
 70
     0
  0
ENDTAB
  0
TABLE
  2
DIMSTYLE
  5
A
330
0
100
AcDbSymbolTable
 70
     1
100
AcDbDimStyleTable
  0
DIMSTYLE
105
27
330
A
100
AcDbSymbolTableRecord
100
AcDbDimStyleTableRecord
  2
ISO-25
 70
     0
 41
2.5
 42
0.625
 43
3.75
 44
1.25
 73
     0
 74
     0
 77
     1
 78
     8
140
2.5
141
2.5
143
0.0393700787
147
0.625
171
     3
172
     1
178
     0
271
     2
272
     2
274
     3
278
    44
283
     0
284
     8
340
11
  0
ENDTAB
  0
TABLE
  2
BLOCK_RECORD
  5
1
330
0
100
AcDbSymbolTable
 70
     2
  0
BLOCK_RECORD
  5
1F
330
1
100
AcDbSymbolTableRecord
100
AcDbBlockTableRecord
  2
*Model_Space
340
22
  0
BLOCK_RECORD
  5
1B
330
1
100
AcDbSymbolTableRecord
100
AcDbBlockTableRecord
  2
*Paper_Space
340
1E
  0
BLOCK_RECORD
  5
23
330
1
100
AcDbSymbolTableRecord
100
AcDbBlockTableRecord
  2
*Paper_Space0
340
26
  0
BLOCK_RECORD
  5
BB
330
1
100
AcDbSymbolTableRecord
100
AcDbBlockTableRecord
  2
SW_CENTERMARKSYMBOL_0
340
0
102
{BLKREFS
331
C6
102
}
  0
ENDTAB
  0
ENDSEC
  0
SECTION
  2
BLOCKS
  0
BLOCK
  5
20
330
1F
100
AcDbEntity
  8
0
100
AcDbBlockBegin
  2
*Model_Space
 70
     0
 10
0.0
 20
0.0
 30
0.0
  3
*Model_Space
  1

  0
ENDBLK
  5
21
330
1F
100
AcDbEntity
  8
0
100
AcDbBlockEnd
  0
BLOCK
  5
1C
330
1B
100
AcDbEntity
 67
     1
  8
0
100
AcDbBlockBegin
  2
*Paper_Space
 70
     0
 10
0.0
 20
0.0
 30
0.0
  3
*Paper_Space
  1

  0
ENDBLK
  5
1D
330
1B
100
AcDbEntity
 67
     1
  8
0
100
AcDbBlockEnd
  0
BLOCK
  5
24
330
23
100
AcDbEntity
  8
0
100
AcDbBlockBegin
  2
*Paper_Space0
 70
     0
 10
0.0
 20
0.0
 30
0.0
  3
*Paper_Space0
  1

  0
ENDBLK
  5
25
330
23
100
AcDbEntity
  8
0
100
AcDbBlockEnd
  0
BLOCK
  5
BC
330
BB
100
AcDbEntity
  8
0
100
AcDbBlockBegin
  2
SW_CENTERMARKSYMBOL_0
 70
     0
 10
0.0
 20
0.0
 30
0.0
  3
SW_CENTERMARKSYMBOL_0
  1

  0
LINE
  5
BE
330
BB
100
AcDbEntity
  8
0
  6
Continuous
 62
     0
370
    18
100
AcDbLine
 10
0.0
 20
0.0
 30
0.0
 11
0.0
 21
2.5
 31
0.0
  0
LINE
  5
BF
330
BB
100
AcDbEntity
  8
0
  6
Continuous
 62
     0
370
    18
100
AcDbLine
 10
0.0
 20
0.0
 30
0.0
 11
-2.5
 21
0.0
 31
0.0
  0
LINE
  5
C0
330
BB
100
AcDbEntity
  8
0
  6
Continuous
 62
     0
370
    18
100
AcDbLine
 10
0.0
 20
0.0
 30
0.0
 11
0.0
 21
-2.5
 31
0.0
  0
LINE
  5
C1
330
BB
100
AcDbEntity
  8
0
  6
Continuous
 62
     0
370
    18
100
AcDbLine
 10
0.0
 20
0.0
 30
0.0
 11
2.5
 21
0.0
 31
0.0
  0
LINE
  5
C2
330
BB
100
AcDbEntity
  8
0
  6
Continuous
 62
     0
370
    18
100
AcDbLine
 10
0.0
 20
5.0
 30
0.0
 11
0.0
 21
24.2941911327
 31
0.0
  0
LINE
  5
C3
330
BB
100
AcDbEntity
  8
0
  6
Continuous
 62
     0
370
    18
100
AcDbLine
 10
-5.0
 20
0.0
 30
0.0
 11
-21.0
 21
0.0
 31
0.0
  0
LINE
  5
C4
330
BB
100
AcDbEntity
  8
0
  6
Continuous
 62
     0
370
    18
100
AcDbLine
 10
0.0
 20
-5.0
 30
0.0
 11
0.0
 21
-23.9919935716
 31
0.0
  0
LINE
  5
C5
330
BB
100
AcDbEntity
  8
0
  6
Continuous
 62
     0
370
    18
100
AcDbLine
 10
5.0
 20
0.0
 30
0.0
 11
21.0
 21
0.0
 31
0.0
  0
ENDBLK
  5
BD
330
BB
100
AcDbEntity
  8
0
100
AcDbBlockEnd
  0
ENDSEC
  0
SECTION
  2
ENTITIES
  0
MTEXT
  5
74
330
1F
100
AcDbEntity
  8
0
  6
Continuous
 62
     7
370
     0
100
AcDbMText
 10
171.1300047405
 20
95.4183403917
 30
0.0
 40
4.2333333333
 41
0.0
 71
     1
 72
     1
  1
5R-HSN1827
  7
SLDTEXTSTYLE0
 73
     1
 44
1.0
  0
LINE
  5
75
330
1F
100
AcDbEntity
  8
0
  6
Continuous
 62
     7
370
    25
100
AcDbLine
 10
161.5818121477
 20
39.5995981263
 30
0.0
 11
163.5674988343
 21
43.0389083555
 31
0.0
  0
LINE
  5
76
330
1F
100
AcDbEntity
  8
0
  6
Continuous
 62
     7
370
    25
100
AcDbLine
 10
163.5674988343
 20
80.0389083555
 30
0.0
 11
161.5818121477
 21
83.4782185847
 31
0.0
  0
LINE
  5
77
330
1F
100
AcDbEntity
  8
0
  6
Continuous
 62
     7
370
    25
100
AcDbLine
 10
149.553185521
 20
83.4782185847
 30
0.0
 11
147.5674988343
 21
80.0389083555
 31
0.0
  0
LINE
  5
78
330
1F
100
AcDbEntity
  8
0
  6
Continuous
 62
     7
370
    25
100
AcDbLine
 10
147.5674988343
 20
43.0389083555
 30
0.0
 11
149.553185521
 21
39.5995981263
 31
0.0
  0
LINE
  5
79
330
1F
100
AcDbEntity
  8
0
  6
Continuous
 62
     7
370
    25
100
AcDbLine
 10
146.0674988343
 20
80.0389083555
 30
0.0
 11
145.5674988343
 21
79.5389083555
 31
0.0
  0
LINE
  5
7A
330
1F
100
AcDbEntity
  8
0
  6
Continuous
 62
     7
370
    25
100
AcDbLine
 10
145.5674988343
 20
43.5389083555
 30
0.0
 11
146.0674988343
 21
43.0389083555
 31
0.0
  0
LINE
  5
7B
330
1F
100
AcDbEntity
  8
0
  6
Continuous
 62
     7
370
    25
100
AcDbLine
 10
165.0674988343
 20
43.0389083555
 30
0.0
 11
165.5674988343
 21
43.5389083555
 31
0.0
  0
LINE
  5
7C
330
1F
100
AcDbEntity
  8
0
  6
Continuous
 62
     7
370
    25
100
AcDbLine
 10
165.5674988343
 20
79.5389083555
 30
0.0
 11
165.0674988343
 21
80.0389083555
 31
0.0
  0
LINE
  5
7D
330
1F
100
AcDbEntity
  8
0
  6
Continuous
 62
     7
370
    25
100
AcDbLine
 10
165.0674988343
 20
80.0389083555
 30
0.0
 11
163.5674988343
 21
80.0389083555
 31
0.0
  0
LINE
  5
7E
330
1F
100
AcDbEntity
  8
0
  6
Continuous
 62
     7
370
    25
100
AcDbLine
 10
163.5674988343
 20
43.0389083555
 30
0.0
 11
165.0674988343
 21
43.0389083555
 31
0.0
  0
LINE
  5
7F
330
1F
100
AcDbEntity
  8
0
  6
Continuous
 62
     7
370
    25
100
AcDbLine
 10
146.0674988343
 20
43.0389083555
 30
0.0
 11
147.5674988343
 21
43.0389083555
 31
0.0
  0
LINE
  5
80
330
1F
100
AcDbEntity
  8
0
  6
Continuous
 62
     7
370
    25
100
AcDbLine
 10
147.5674988343
 20
80.0389083555
 30
0.0
 11
146.0674988343
 21
80.0389083555
 31
0.0
  0
LINE
  5
81
330
1F
100
AcDbEntity
  8
0
  6
Continuous
 62
     7
370
    25
100
AcDbLine
 10
155.4335242381
 20
39.5995981263
 30
0.0
 11
155.5674988343
 21
40.0995981263
 31
0.0
  0
LINE
  5
82
330
1F
100
AcDbEntity
  8
0
  6
Continuous
 62
     7
370
    25
100
AcDbLine
 10
155.5674988343
 20
40.0995981263
 30
0.0
 11
155.7014734306
 21
39.5995981263
 31
0.0
  0
LINE
  5
83
330
1F
100
AcDbEntity
  8
0
  6
Continuous
 62
     7
370
    25
100
AcDbLine
 10
155.7014734306
 20
83.4782185847
 30
0.0
 11
155.5674988343
 21
82.9782185847
 31
0.0
  0
LINE
  5
84
330
1F
100
AcDbEntity
  8
0
  6
Continuous
 62
     7
370
    25
100
AcDbLine
 10
155.5674988343
 20
82.9782185847
 30
0.0
 11
155.4335242381
 21
83.4782185847
 31
0.0
  0
SPLINE
  5
85
330
1F
100
AcDbEntity
  8
0
  6
Continuous
 62
     7
370
    25
100
AcDbSpline
210
0.0
220
0.0
230
1.0
 70
     8
 71
     3
 72
    18
 73
    14
 74
     0
 42
0.000000001
 43
0.00000001
 40
0.0
 40
0.0
 40
0.0
 40
0.0
 40
0.2499999999999992
 40
0.2499999999999992
 40
0.4999999999999984
 40
0.4999999999999984
 40
0.5624999999999984
 40
0.5624999999999984
 40
0.6249999999999984
 40
0.6249999999999984
 40
0.7499999999999988
 40
0.7499999999999988
 40
1.0
 40
1.0
 40
1.0
 40
1.0
 10
149.5531855210061
 20
39.59959812631985
 30
0.0
 10
149.0361287884095
 20
40.4951666575728
 30
0.0
 10
148.6099805342413
 20
41.39726438593137
 30
0.0
 10
148.0196269588479
 20
43.22027301683399
 30
0.0
 10
147.8573689558423
 20
44.14132377898964
 30
0.0
 10
147.8558835702565
 20
45.30709759612922
 30
0.0
 10
147.8655732083401
 20
45.54143411340583
 30
0.0
 10
147.9046145472769
 20
46.00798150102731
 30
0.0
 10
147.9339210965166
 20
46.2404447164126
 30
0.0
 10
148.0499278438468
 20
46.93550815493054
 30
0.0
 10
148.1647808075317
 20
47.39577673188889
 30
0.0
 10
148.6082810581918
 20
48.76838801942129
 30
0.0
 10
149.0354841806215
 20
49.67256821623019
 30
0.0
 10
149.5531855210062
 20
50.56925324092295
 30
0.0
  0
LINE
  5
86
330
1F
100
AcDbEntity
  8
0
  6
Continuous
 62
     7
370
    25
100
AcDbLine
 10
149.553185521
 20
50.5692532409
 30
0.0
 11
155.4335242381
 21
50.5692532409
 31
0.0
  0
SPLINE
  5
87
330
1F
100
AcDbEntity
  8
0
  6
Continuous
 62
     7
370
    25
100
AcDbSpline
210
0.0
220
0.0
230
1.0
 70
     8
 71
     3
 72
     8
 73
     4
 74
     0
 42
0.000000001
 43
0.00000001
 40
0.0
 40
0.0
 40
0.0
 40
0.0
 40
1.0
 40
1.0
 40
1.0
 40
1.0
 10
155.5674988343477
 20
50.05041055834997
 30
0.0
 10
155.5245276315197
 20
50.22349996244705
 30
0.0
 10
155.4798283169255
 20
50.39644406626838
 30
0.0
 10
155.4335242381322
 20
50.56925324092295
 30
0.0
  0
SPLINE
  5
88
330
1F
100
AcDbEntity
  8
0
  6
Continuous
 62
     7
370
    25
100
AcDbSpline
210
0.0
220
0.0
230
1.0
 70
     8
 71
     3
 72
     8
 73
     4
 74
     0
 42
0.000000001
 43
0.00000001
 40
0.0
 40
0.0
 40
0.0
 40
0.0
 40
1.0
 40
1.0
 40
1.0
 40
1.0
 10
155.5674988343477
 20
50.05041055834997
 30
0.0
 10
155.6104700371757
 20
50.22349996244705
 30
0.0
 10
155.6551693517699
 20
50.39644406626838
 30
0.0
 10
155.7014734305633
 20
50.56925324092295
 30
0.0
  0
LINE
  5
89
330
1F
100
AcDbEntity
  8
0
  6
Continuous
 62
     7
370
    25
100
AcDbLine
 10
155.7014734306
 20
50.5692532409
 30
0.0
 11
161.5818121477
 21
50.5692532409
 31
0.0
  0
SPLINE
  5
8A
330
1F
100
AcDbEntity
  8
0
  6
Continuous
 62
     7
370
    25
100
AcDbSpline
210
0.0
220
0.0
230
1.0
 70
     8
 71
     3
 72
    18
 73
    14
 74
     0
 42
0.000000001
 43
0.00000001
 40
0.0
 40
0.0
 40
0.0
 40
0.0
 40
0.2499999999999992
 40
0.2499999999999992
 40
0.4999999999999984
 40
0.4999999999999984
 40
0.5624999999999984
 40
0.5624999999999984
 40
0.6249999999999984
 40
0.6249999999999984
 40
0.7499999999999988
 40
0.7499999999999988
 40
1.0
 40
1.0
 40
1.0
 40
1.0
 10
161.5818121476893
 20
39.59959812631985
 30
0.0
 10
162.0988688802859
 20
40.4951666575728
 30
0.0
 10
162.5250171344541
 20
41.39726438593137
 30
0.0
 10
163.1153707098475
 20
43.22027301683399
 30
0.0
 10
163.2776287128531
 20
44.14132377898964
 30
0.0
 10
163.2791140984389
 20
45.30709759612922
 30
0.0
 10
163.2694244603553
 20
45.54143411340583
 30
0.0
 10
163.2303831214185
 20
46.00798150102731
 30
0.0
 10
163.2010765721788
 20
46.2404447164126
 30
0.0
 10
163.0850698248486
 20
46.93550815493054
 30
0.0
 10
162.9702168611637
 20
47.39577673188889
 30
0.0
 10
162.5267166105036
 20
48.76838801942129
 30
0.0
 10
162.0995134880739
 20
49.67256821623019
 30
0.0
 10
161.5818121476892
 20
50.56925324092295
 30
0.0
  0
LINE
  5
8B
330
1F
100
AcDbEntity
  8
0
  6
Continuous
 62
     7
370
    25
100
AcDbLine
 10
155.7014734306
 20
39.5995981263
 30
0.0
 11
161.5818121477
 21
39.5995981263
 31
0.0
  0
SPLINE
  5
8C
330
1F
100
AcDbEntity
  8
0
  6
Continuous
 62
     7
370
    25
100
AcDbSpline
210
0.0
220
0.0
230
1.0
 70
     8
 71
     3
 72
     8
 73
     4
 74
     0
 42
0.000000001
 43
0.00000001
 40
0.0
 40
0.0
 40
0.0
 40
0.0
 40
1.0
 40
1.0
 40
1.0
 40
1.0
 10
155.7014734305633
 20
39.59959812631988
 30
0.0
 10
155.6551542770699
 20
39.77246356052066
 30
0.0
 10
155.6104557074931
 20
39.94540912522401
 30
0.0
 10
155.5674988343477
 20
40.11844080889286
 30
0.0
  0
SPLINE
  5
8D
330
1F
100
AcDbEntity
  8
0
  6
Continuous
 62
     7
370
    25
100
AcDbSpline
210
0.0
220
0.0
230
1.0
 70
     8
 71
     3
 72
     8
 73
     4
 74
     0
 42
0.000000001
 43
0.00000001
 40
0.0
 40
0.0
 40
0.0
 40
0.0
 40
1.0
 40
1.0
 40
1.0
 40
1.0
 10
155.4335242381322
 20
39.59959812631987
 30
0.0
 10
155.4798433916255
 20
39.77246356052066
 30
0.0
 10
155.5245419612023
 20
39.94540912522402
 30
0.0
 10
155.5674988343477
 20
40.11844080889286
 30
0.0
  0
LINE
  5
8E
330
1F
100
AcDbEntity
  8
0
  6
Continuous
 62
     7
370
    25
100
AcDbLine
 10
149.553185521
 20
39.5995981263
 30
0.0
 11
155.4335242381
 21
39.5995981263
 31
0.0
  0
SPLINE
  5
8F
330
1F
100
AcDbEntity
  8
0
  6
Continuous
 62
     7
370
    25
100
AcDbSpline
210
0.0
220
0.0
230
1.0
 70
     8
 71
     3
 72
     8
 73
     4
 74
     0
 42
0.000000001
 43
0.00000001
 40
0.0
 40
0.0
 40
0.0
 40
0.0
 40
1.0
 40
1.0
 40
1.0
 40
1.0
 10
155.4335242381322
 20
50.56925324092294
 30
0.0
 10
155.4798456032751
 20
50.91500061730198
 30
0.0
 10
155.5245440619603
 20
51.26089216257458
 30
0.0
 10
155.5674988343477
 20
51.6069386060689
 30
0.0
  0
LINE
  5
90
330
1F
100
AcDbEntity
  8
0
  6
Continuous
 62
     7
370
    25
100
AcDbLine
 10
155.5674988343
 20
50.0504105583
 30
0.0
 11
155.5674988343
 21
51.6069386061
 31
0.0
  0
SPLINE
  5
91
330
1F
100
AcDbEntity
  8
0
  6
Continuous
 62
     7
370
    25
100
AcDbSpline
210
0.0
220
0.0
230
1.0
 70
     8
 71
     3
 72
    18
 73
    14
 74
     0
 42
0.000000001
 43
0.00000001
 40
0.0
 40
0.0
 40
0.0
 40
0.0
 40
0.125
 40
0.125
 40
0.2500000000000001
 40
0.2500000000000001
 40
0.5000000000000001
 40
0.5000000000000001
 40
0.6250000000000001
 40
0.6250000000000001
 40
0.75
 40
0.75
 40
1.0
 40
1.0
 40
1.0
 40
1.0
 10
149.5531855210063
 20
50.56925324092295
 30
0.0
 10
149.2955203464694
 20
51.46183158820087
 30
0.0
 10
149.0589072693315
 20
52.36291296380008
 30
0.0
 10
148.6393237397302
 20
54.18479112265081
 30
0.0
 10
148.4582128404383
 20
55.09797582173422
 30
0.0
 10
148.0152929191664
 20
57.84539191690747
 30
0.0
 10
147.8559777124646
 20
59.68764824956513
 30
0.0
 10
147.8562723740485
 20
62.46976662315085
 30
0.0
 10
147.8957804403566
 20
63.40022507870226
 30
0.0
 10
148.0526501084665
 20
65.26723767160033
 30
0.0
 10
148.1689947258451
 20
66.19236584111513
 30
0.0
 10
148.6150189406868
 20
68.93895346443135
 30
0.0
 10
149.0412856614499
 20
70.73529033985078
 30
0.0
 10
149.5531855210063
 20
72.50856347012878
 30
0.0
  0
LINE
  5
92
330
1F
100
AcDbEntity
  8
0
  6
Continuous
 62
     7
370
    25
100
AcDbLine
 10
149.553185521
 20
72.5085634701
 30
0.0
 11
155.4335242381
 21
72.5085634701
 31
0.0
  0
SPLINE
  5
93
330
1F
100
AcDbEntity
  8
0
  6
Continuous
 62
     7
370
    25
100
AcDbSpline
210
0.0
220
0.0
230
1.0
 70
     8
 71
     3
 72
     8
 73
     4
 74
     0
 42
0.000000001
 43
0.00000001
 40
0.0
 40
0.0
 40
0.0
 40
0.0
 40
1.0
 40
1.0
 40
1.0
 40
1.0
 10
155.5674988343477
 20
71.47087810498283
 30
0.0
 10
155.5245283688662
 20
71.81705097306563
 30
0.0
 10
155.4798290921228
 20
72.16293933466848
 30
0.0
 10
155.4335242381322
 20
72.50856347012879
 30
0.0
  0
SPLINE
  5
94
330
1F
100
AcDbEntity
  8
0
  6
Continuous
 62
     7
370
    25
100
AcDbSpline
210
0.0
220
0.0
230
1.0
 70
     8
 71
     3
 72
     8
 73
     4
 74
     0
 42
0.000000001
 43
0.00000001
 40
0.0
 40
0.0
 40
0.0
 40
0.0
 40
1.0
 40
1.0
 40
1.0
 40
1.0
 10
155.5674988343477
 20
71.47087810498283
 30
0.0
 10
155.6104692998292
 20
71.81705097306562
 30
0.0
 10
155.6551685765726
 20
72.16293933466847
 30
0.0
 10
155.7014734305633
 20
72.50856347012879
 30
0.0
  0
LINE
  5
95
330
1F
100
AcDbEntity
  8
0
  6
Continuous
 62
     7
370
    25
100
AcDbLine
 10
155.7014734306
 20
72.5085634701
 30
0.0
 11
161.5818121477
 21
72.5085634701
 31
0.0
  0
SPLINE
  5
96
330
1F
100
AcDbEntity
  8
0
  6
Continuous
 62
     7
370
    25
100
AcDbSpline
210
0.0
220
0.0
230
1.0
 70
     8
 71
     3
 72
    18
 73
    14
 74
     0
 42
0.000000001
 43
0.00000001
 40
0.0
 40
0.0
 40
0.0
 40
0.0
 40
0.125
 40
0.125
 40
0.2500000000000001
 40
0.2500000000000001
 40
0.5000000000000001
 40
0.5000000000000001
 40
0.6250000000000001
 40
0.6250000000000001
 40
0.75
 40
0.75
 40
1.0
 40
1.0
 40
1.0
 40
1.0
 10
161.5818121476891
 20
50.56925324092295
 30
0.0
 10
161.839477322226
 20
51.46183158820087
 30
0.0
 10
162.0760903993639
 20
52.36291296380008
 30
0.0
 10
162.4956739289652
 20
54.18479112265081
 30
0.0
 10
162.6767848282571
 20
55.09797582173422
 30
0.0
 10
163.119704749529
 20
57.84539191690747
 30
0.0
 10
163.2790199562308
 20
59.68764824956513
 30
0.0
 10
163.2787252946469
 20
62.46976662315085
 30
0.0
 10
163.2392172283388
 20
63.40022507870226
 30
0.0
 10
163.0823475602288
 20
65.26723767160033
 30
0.0
 10
162.9660029428503
 20
66.19236584111513
 30
0.0
 10
162.5199787280086
 20
68.93895346443135
 30
0.0
 10
162.0937120072455
 20
70.73529033985078
 30
0.0
 10
161.5818121476891
 20
72.50856347012878
 30
0.0
  0
SPLINE
  5
97
330
1F
100
AcDbEntity
  8
0
  6
Continuous
 62
     7
370
    25
100
AcDbSpline
210
0.0
220
0.0
230
1.0
 70
     8
 71
     3
 72
     8
 73
     4
 74
     0
 42
0.000000001
 43
0.00000001
 40
0.0
 40
0.0
 40
0.0
 40
0.0
 40
1.0
 40
1.0
 40
1.0
 40
1.0
 10
155.7014734305633
 20
50.56925324092295
 30
0.0
 10
155.6551520654203
 20
50.91500061730198
 30
0.0
 10
155.6104536067351
 20
51.26089216257459
 30
0.0
 10
155.5674988343477
 20
51.60693860606891
 30
0.0
  0
SPLINE
  5
98
330
1F
100
AcDbEntity
  8
0
  6
Continuous
 62
     7
370
    25
100
AcDbSpline
210
0.0
220
0.0
230
1.0
 70
     8
 71
     3
 72
     8
 73
     4
 74
     0
 42
0.000000001
 43
0.00000001
 40
0.0
 40
0.0
 40
0.0
 40
0.0
 40
1.0
 40
1.0
 40
1.0
 40
1.0
 10
155.4335242381322
 20
72.50856347012879
 30
0.0
 10
155.4798433916255
 20
72.68142890432958
 30
0.0
 10
155.5245419612023
 20
72.85437446903292
 30
0.0
 10
155.5674988343477
 20
73.02740615270177
 30
0.0
  0
LINE
  5
99
330
1F
100
AcDbEntity
  8
0
  6
Continuous
 62
     7
370
    25
100
AcDbLine
 10
155.5674988343
 20
71.470878105
 30
0.0
 11
155.5674988343
 21
73.0274061527
 31
0.0
  0
SPLINE
  5
9A
330
1F
100
AcDbEntity
  8
0
  6
Continuous
 62
     7
370
    25
100
AcDbSpline
210
0.0
220
0.0
230
1.0
 70
     8
 71
     3
 72
    18
 73
    14
 74
     0
 42
0.000000001
 43
0.00000001
 40
0.0
 40
0.0
 40
0.0
 40
0.0
 40
0.2500000000000001
 40
0.2500000000000001
 40
0.5000000000000002
 40
0.5000000000000002
 40
0.5625000000000002
 40
0.5625000000000002
 40
0.6250000000000002
 40
0.6250000000000002
 40
0.7500000000000002
 40
0.7500000000000002
 40
1.0
 40
1.0
 40
1.0
 40
1.0
 10
161.5818121476893
 20
72.50856347012876
 30
0.0
 10
162.0988688802859
 20
73.40413200138168
 30
0.0
 10
162.5250171344541
 20
74.30622972974022
 30
0.0
 10
163.1153707098475
 20
76.12923836064279
 30
0.0
 10
163.277628712853
 20
77.05028912279838
 30
0.0
 10
163.2791140984388
 20
78.21606293993793
 30
0.0
 10
163.2694244603553
 20
78.45039945721452
 30
0.0
 10
163.2303831214184
 20
78.91694684483598
 30
0.0
 10
163.2010765721787
 20
79.14941006022127
 30
0.0
 10
163.0850698248486
 20
79.84447349873919
 30
0.0
 10
162.9702168611637
 20
80.30474207569753
 30
0.0
 10
162.5267166105036
 20
81.67735336322987
 30
0.0
 10
162.0995134880739
 20
82.58153356003874
 30
0.0
 10
161.5818121476892
 20
83.47821858473148
 30
0.0
  0
LINE
  5
9B
330
1F
100
AcDbEntity
  8
0
  6
Continuous
 62
     7
370
    25
100
AcDbLine
 10
163.5674988343
 20
61.5389083555
 30
0.0
 11
163.5674988343
 21
80.0389083555
 31
0.0
  0
LINE
  5
9C
330
1F
100
AcDbEntity
  8
0
  6
Continuous
 62
     7
370
    25
100
AcDbLine
 10
163.5674988343
 20
43.0389083555
 30
0.0
 11
163.5674988343
 21
61.5389083555
 31
0.0
  0
SPLINE
  5
9D
330
1F
100
AcDbEntity
  8
0
  6
Continuous
 62
     7
370
    25
100
AcDbSpline
210
0.0
220
0.0
230
1.0
 70
     8
 71
     3
 72
    18
 73
    14
 74
     0
 42
0.000000001
 43
0.00000001
 40
0.0
 40
0.0
 40
0.0
 40
0.0
 40
0.2500000000000001
 40
0.2500000000000001
 40
0.5000000000000002
 40
0.5000000000000002
 40
0.5625000000000002
 40
0.5625000000000002
 40
0.6250000000000002
 40
0.6250000000000002
 40
0.7500000000000002
 40
0.7500000000000002
 40
1.0
 40
1.0
 40
1.0
 40
1.0
 10
149.5531855210061
 20
72.50856347012876
 30
0.0
 10
149.0361287884095
 20
73.40413200138168
 30
0.0
 10
148.6099805342413
 20
74.30622972974022
 30
0.0
 10
148.0196269588479
 20
76.12923836064279
 30
0.0
 10
147.8573689558424
 20
77.05028912279838
 30
0.0
 10
147.8558835702566
 20
78.21606293993793
 30
0.0
 10
147.8655732083401
 20
78.45039945721452
 30
0.0
 10
147.904614547277
 20
78.91694684483598
 30
0.0
 10
147.9339210965167
 20
79.14941006022127
 30
0.0
 10
148.0499278438468
 20
79.84447349873919
 30
0.0
 10
148.1647808075317
 20
80.30474207569753
 30
0.0
 10
148.6082810581918
 20
81.67735336322987
 30
0.0
 10
149.0354841806216
 20
82.58153356003874
 30
0.0
 10
149.5531855210062
 20
83.47821858473148
 30
0.0
  0
LINE
  5
9E
330
1F
100
AcDbEntity
  8
0
  6
Continuous
 62
     7
370
    25
100
AcDbLine
 10
147.5674988343
 20
61.5389083555
 30
0.0
 11
147.5674988343
 21
80.0389083555
 31
0.0
  0
LINE
  5
9F
330
1F
100
AcDbEntity
  8
0
  6
Continuous
 62
     7
370
    25
100
AcDbLine
 10
147.5674988343
 20
43.0389083555
 30
0.0
 11
147.5674988343
 21
61.5389083555
 31
0.0
  0
SPLINE
  5
A0
330
1F
100
AcDbEntity
  8
0
  6
Continuous
 62
     7
370
    25
100
AcDbSpline
210
0.0
220
0.0
230
1.0
 70
     8
 71
     3
 72
     8
 73
     4
 74
     0
 42
0.000000001
 43
0.00000001
 40
0.0
 40
0.0
 40
0.0
 40
0.0
 40
1.0
 40
1.0
 40
1.0
 40
1.0
 10
155.7014734305633
 20
72.50856347012878
 30
0.0
 10
155.6551542770699
 20
72.68142890432958
 30
0.0
 10
155.6104557074931
 20
72.85437446903292
 30
0.0
 10
155.5674988343477
 20
73.02740615270177
 30
0.0
  0
LINE
  5
A1
330
1F
100
AcDbEntity
  8
0
  6
Continuous
 62
     7
370
    25
100
AcDbLine
 10
149.553185521
 20
83.4782185847
 30
0.0
 11
155.4335242381
 21
83.4782185847
 31
0.0
  0
SPLINE
  5
A2
330
1F
100
AcDbEntity
  8
0
  6
Continuous
 62
     7
370
    25
100
AcDbSpline
210
0.0
220
0.0
230
1.0
 70
     8
 71
     3
 72
     8
 73
     4
 74
     0
 42
0.000000001
 43
0.00000001
 40
0.0
 40
0.0
 40
0.0
 40
0.0
 40
1.0
 40
1.0
 40
1.0
 40
1.0
 10
155.5674988343477
 20
82.95937590215847
 30
0.0
 10
155.5245276315197
 20
83.13246530625557
 30
0.0
 10
155.4798283169255
 20
83.30540941007689
 30
0.0
 10
155.4335242381322
 20
83.47821858473147
 30
0.0
  0
SPLINE
  5
A3
330
1F
100
AcDbEntity
  8
0
  6
Continuous
 62
     7
370
    25
100
AcDbSpline
210
0.0
220
0.0
230
1.0
 70
     8
 71
     3
 72
     8
 73
     4
 74
     0
 42
0.000000001
 43
0.00000001
 40
0.0
 40
0.0
 40
0.0
 40
0.0
 40
1.0
 40
1.0
 40
1.0
 40
1.0
 10
155.5674988343477
 20
82.95937590215848
 30
0.0
 10
155.6104700371757
 20
83.13246530625557
 30
0.0
 10
155.6551693517699
 20
83.30540941007689
 30
0.0
 10
155.7014734305633
 20
83.47821858473147
 30
0.0
  0
LINE
  5
A4
330
1F
100
AcDbEntity
  8
0
  6
Continuous
 62
     7
370
    25
100
AcDbLine
 10
155.7014734306
 20
83.4782185847
 30
0.0
 11
161.5818121477
 21
83.4782185847
 31
0.0
  0
LINE
  5
A5
330
1F
100
AcDbEntity
  8
0
  6
Continuous
 62
     7
370
    25
100
AcDbLine
 10
145.5674988343
 20
61.5389083555
 30
0.0
 11
145.5674988343
 21
79.5389083555
 31
0.0
  0
LINE
  5
A6
330
1F
100
AcDbEntity
  8
0
  6
Continuous
 62
     7
370
    25
100
AcDbLine
 10
145.5674988343
 20
43.5389083555
 30
0.0
 11
145.5674988343
 21
61.5389083555
 31
0.0
  0
LINE
  5
A7
330
1F
100
AcDbEntity
  8
0
  6
Continuous
 62
     7
370
    25
100
AcDbLine
 10
146.0674988343
 20
61.5389083555
 30
0.0
 11
146.0674988343
 21
43.0389083555
 31
0.0
  0
LINE
  5
A8
330
1F
100
AcDbEntity
  8
0
  6
Continuous
 62
     7
370
    25
100
AcDbLine
 10
146.0674988343
 20
80.0389083555
 30
0.0
 11
146.0674988343
 21
61.5389083555
 31
0.0
  0
LINE
  5
A9
330
1F
100
AcDbEntity
  8
0
  6
Continuous
 62
     7
370
    25
100
AcDbLine
 10
165.5674988343
 20
61.5389083555
 30
0.0
 11
165.5674988343
 21
79.5389083555
 31
0.0
  0
LINE
  5
AA
330
1F
100
AcDbEntity
  8
0
  6
Continuous
 62
     7
370
    25
100
AcDbLine
 10
165.5674988343
 20
43.5389083555
 30
0.0
 11
165.5674988343
 21
61.5389083555
 31
0.0
  0
LINE
  5
AB
330
1F
100
AcDbEntity
  8
0
  6
Continuous
 62
     7
370
    25
100
AcDbLine
 10
165.0674988343
 20
61.5389083555
 30
0.0
 11
165.0674988343
 21
43.0389083555
 31
0.0
  0
LINE
  5
AC
330
1F
100
AcDbEntity
  8
0
  6
Continuous
 62
     7
370
    25
100
AcDbLine
 10
165.0674988343
 20
80.0389083555
 30
0.0
 11
165.0674988343
 21
61.5389083555
 31
0.0
  0
LINE
  5
AD
330
1F
100
AcDbEntity
  8
0
  6
Continuous
 62
     7
370
    25
100
AcDbLine
 10
155.5674988343
 20
40.0995981263
 30
0.0
 11
155.5674988343
 21
40.1184408089
 31
0.0
  0
LINE
  5
AE
330
1F
100
AcDbEntity
  8
0
  6
Continuous
 62
     7
370
    25
100
AcDbLine
 10
155.5674988343
 20
82.9593759022
 30
0.0
 11
155.5674988343
 21
82.9782185847
 31
0.0
  0
LINE
  5
AF
330
1F
100
AcDbEntity
  8
0
  6
CENTERX2
 62
     7
370
    18
100
AcDbLine
 10
167.5674988343
 20
61.5389083555
 30
0.0
 11
162.5674988343
 21
61.5389083555
 31
0.0
  0
LINE
  5
B0
330
1F
100
AcDbEntity
  8
0
  6
CENTERX2
 62
     7
370
    18
100
AcDbLine
 10
162.5674988343
 20
61.5389083555
 30
0.0
 11
144.0674988343
 21
61.5389083555
 31
0.0
  0
CIRCLE
  5
B1
330
1F
100
AcDbEntity
  8
0
  6
Continuous
 62
     7
370
    25
100
AcDbCircle
 10
210.9058010685
 20
61.5389083555
 30
0.0
 40
17.99999999999997
  0
CIRCLE
  5
B2
330
1F
100
AcDbEntity
  8
0
  6
Continuous
 62
     7
370
    25
100
AcDbCircle
 10
210.9058010685
 20
61.5389083555
 30
0.0
 40
18.49999999999997
  0
CIRCLE
  5
B3
330
1F
100
AcDbEntity
  8
0
  6
Continuous
 62
     7
370
    25
100
AcDbCircle
 10
210.9058010685
 20
61.5389083555
 30
0.0
 40
14.00000000000003
  0
CIRCLE
  5
B4
330
1F
100
AcDbEntity
  8
0
  6
Continuous
 62
     7
370
    25
100
AcDbCircle
 10
210.9058010685
 20
61.5389083555
 30
0.0
 40
13.75
  0
SPLINE
  5
B5
330
1F
100
AcDbEntity
  8
0
  6
Continuous
 62
     7
370
    25
100
AcDbSpline
210
0.0
220
0.0
230
1.0
 70
    24
 71
     3
 72
    18
 73
    14
 74
     0
 42
0.000000001
 43
0.00000001
 40
0.0
 40
0.0
 40
0.0
 40
0.0
 40
0.2499999999999996
 40
0.2499999999999996
 40
0.4999999999999991
 40
0.4999999999999991
 40
0.562499999999999
 40
0.562499999999999
 40
0.624999999999999
 40
0.624999999999999
 40
0.7499999999999991
 40
0.7499999999999991
 40
1.0
 40
1.0
 40
1.0
 40
1.0
 10
210.9058010684677
 20
83.47821858473148
 30
0.0
 10
212.4569712662577
 20
82.58265005347853
 30
0.0
 10
214.0194503651672
 20
81.68055232511998
 30
0.0
 10
217.176993936527
 20
79.85754369421738
 30
0.0
 10
218.7723006529306
 20
78.93649293206175
 30
0.0
 10
220.7914801343498
 20
77.7707191149222
 30
0.0
 10
221.1973628883417
 20
77.53638259764557
 30
0.0
 10
222.0054466678405
 20
77.06983521002411
 30
0.0
 10
222.4080847677787
 20
76.83737199463881
 30
0.0
 10
223.6119699577753
 20
76.14230855612088
 30
0.0
 10
224.4091785181946
 20
75.68203997916254
 30
0.0
 10
226.7866110072432
 20
74.30942869163016
 30
0.0
 10
228.3526970473138
 20
73.40524849482128
 30
0.0
 10
229.9058010684678
 20
72.50856347012852
 30
0.0
  0
SPLINE
  5
B6
330
1F
100
AcDbEntity
  8
0
  6
Continuous
 62
     7
370
    25
100
AcDbSpline
210
0.0
220
0.0
230
1.0
 70
    24
 71
     3
 72
    18
 73
    14
 74
     0
 42
0.000000001
 43
0.00000001
 40
0.0
 40
0.0
 40
0.0
 40
0.0
 40
0.125
 40
0.125
 40
0.25
 40
0.25
 40
0.5
 40
0.5
 40
0.625
 40
0.625
 40
0.75
 40
0.75
 40
1.0
 40
1.0
 40
1.0
 40
1.0
 10
229.9058010684677
 20
50.56925324092268
 30
0.0
 10
229.9058010684677
 20
51.4618315882006
 30
0.0
 10
229.9058010684677
 20
52.36291296379982
 30
0.0
 10
229.9058010684677
 20
54.18479112265054
 30
0.0
 10
229.9058010684678
 20
55.09797582173395
 30
0.0
 10
229.9058010684678
 20
57.84539191690718
 30
0.0
 10
229.9058010684678
 20
59.68764824956483
 30
0.0
 10
229.9058010684678
 20
62.46976662315052
 30
0.0
 10
229.9058010684678
 20
63.40022507870192
 30
0.0
 10
229.9058010684678
 20
65.26723767159996
 30
0.0
 10
229.9058010684678
 20
66.19236584111482
 30
0.0
 10
229.9058010684678
 20
68.93895346443107
 30
0.0
 10
229.9058010684678
 20
70.73529033985051
 30
0.0
 10
229.9058010684678
 20
72.50856347012852
 30
0.0
  0
SPLINE
  5
B7
330
1F
100
AcDbEntity
  8
0
  6
Continuous
 62
     7
370
    25
100
AcDbSpline
210
0.0
220
0.0
230
1.0
 70
    24
 71
     3
 72
    18
 73
    14
 74
     0
 42
0.000000001
 43
0.00000001
 40
0.0
 40
0.0
 40
0.0
 40
0.0
 40
0.2499999999999999
 40
0.2499999999999999
 40
0.5
 40
0.5
 40
0.5625
 40
0.5625
 40
0.6249999999999999
 40
0.6249999999999999
 40
0.75
 40
0.75
 40
1.0
 40
1.0
 40
1.0
 40
1.0
 10
229.9058010684678
 20
50.5692532409227
 30
0.0
 10
228.3546308706779
 20
49.67368470966978
 30
0.0
 10
226.7921517717683
 20
48.77158698131122
 30
0.0
 10
223.6346082004085
 20
46.94857835040865
 30
0.0
 10
222.0393014840049
 20
46.02752758825304
 30
0.0
 10
220.0201220025856
 20
44.86175377111348
 30
0.0
 10
219.6142392485938
 20
44.62741725383687
 30
0.0
 10
218.8061554690949
 20
44.16086986621541
 30
0.0
 10
218.4035173691567
 20
43.92840665083011
 30
0.0
 10
217.1996321791601
 20
43.23334321231219
 30
0.0
 10
216.4024236187408
 20
42.77307463535385
 30
0.0
 10
214.0249911296922
 20
41.40046334782148
 30
0.0
 10
212.4589050896216
 20
40.49628315101261
 30
0.0
 10
210.9058010684676
 20
39.59959812631986
 30
0.0
  0
SPLINE
  5
B8
330
1F
100
AcDbEntity
  8
0
  6
Continuous
 62
     7
370
    25
100
AcDbSpline
210
0.0
220
0.0
230
1.0
 70
    24
 71
     3
 72
    18
 73
    14
 74
     0
 42
0.000000001
 43
0.00000001
 40
0.0
 40
0.0
 40
0.0
 40
0.0
 40
0.2499999999999992
 40
0.2499999999999992
 40
0.4999999999999984
 40
0.4999999999999984
 40
0.5624999999999984
 40
0.5624999999999984
 40
0.6249999999999984
 40
0.6249999999999984
 40
0.7499999999999988
 40
0.7499999999999988
 40
1.0
 40
1.0
 40
1.0
 40
1.0
 10
210.9058010684676
 20
39.59959812631985
 30
0.0
 10
209.3546308706777
 20
40.4951666575728
 30
0.0
 10
207.7921517717682
 20
41.39726438593137
 30
0.0
 10
204.6346082004084
 20
43.22027301683399
 30
0.0
 10
203.0393014840048
 20
44.14132377898964
 30
0.0
 10
201.0201220025856
 20
45.30709759612922
 30
0.0
 10
200.6142392485937
 20
45.54143411340583
 30
0.0
 10
199.8061554690948
 20
46.00798150102731
 30
0.0
 10
199.4035173691567
 20
46.2404447164126
 30
0.0
 10
198.1996321791601
 20
46.93550815493054
 30
0.0
 10
197.4024236187408
 20
47.39577673188889
 30
0.0
 10
195.0249911296922
 20
48.76838801942129
 30
0.0
 10
193.4589050896217
 20
49.67256821623019
 30
0.0
 10
191.9058010684676
 20
50.56925324092295
 30
0.0
  0
SPLINE
  5
B9
330
1F
100
AcDbEntity
  8
0
  6
Continuous
 62
     7
370
    25
100
AcDbSpline
210
0.0
220
0.0
230
1.0
 70
    24
 71
     3
 72
    18
 73
    14
 74
     0
 42
0.000000001
 43
0.00000001
 40
0.0
 40
0.0
 40
0.0
 40
0.0
 40
0.125
 40
0.125
 40
0.2500000000000001
 40
0.2500000000000001
 40
0.5000000000000001
 40
0.5000000000000001
 40
0.6250000000000001
 40
0.6250000000000001
 40
0.75
 40
0.75
 40
1.0
 40
1.0
 40
1.0
 40
1.0
 10
191.9058010684677
 20
50.56925324092295
 30
0.0
 10
191.9058010684677
 20
51.46183158820087
 30
0.0
 10
191.9058010684677
 20
52.36291296380008
 30
0.0
 10
191.9058010684677
 20
54.18479112265081
 30
0.0
 10
191.9058010684677
 20
55.09797582173422
 30
0.0
 10
191.9058010684677
 20
57.84539191690747
 30
0.0
 10
191.9058010684678
 20
59.68764824956513
 30
0.0
 10
191.9058010684678
 20
62.46976662315085
 30
0.0
 10
191.9058010684678
 20
63.40022507870226
 30
0.0
 10
191.9058010684678
 20
65.26723767160033
 30
0.0
 10
191.9058010684678
 20
66.19236584111513
 30
0.0
 10
191.9058010684678
 20
68.93895346443135
 30
0.0
 10
191.9058010684679
 20
70.73529033985078
 30
0.0
 10
191.9058010684679
 20
72.50856347012878
 30
0.0
  0
SPLINE
  5
BA
330
1F
100
AcDbEntity
  8
0
  6
Continuous
 62
     7
370
    25
100
AcDbSpline
210
0.0
220
0.0
230
1.0
 70
    24
 71
     3
 72
    18
 73
    14
 74
     0
 42
0.000000001
 43
0.00000001
 40
0.0
 40
0.0
 40
0.0
 40
0.0
 40
0.2500000000000001
 40
0.2500000000000001
 40
0.5000000000000002
 40
0.5000000000000002
 40
0.5625000000000002
 40
0.5625000000000002
 40
0.6250000000000002
 40
0.6250000000000002
 40
0.7500000000000002
 40
0.7500000000000002
 40
1.0
 40
1.0
 40
1.0
 40
1.0
 10
191.9058010684679
 20
72.50856347012876
 30
0.0
 10
193.4569712662577
 20
73.40413200138168
 30
0.0
 10
195.0194503651672
 20
74.30622972974022
 30
0.0
 10
198.1769939365271
 20
76.12923836064279
 30
0.0
 10
199.7723006529307
 20
77.05028912279838
 30
0.0
 10
201.7914801343499
 20
78.21606293993793
 30
0.0
 10
202.1973628883417
 20
78.45039945721452
 30
0.0
 10
203.0054466678406
 20
78.91694684483598
 30
0.0
 10
203.4080847677787
 20
79.14941006022127
 30
0.0
 10
204.6119699577753
 20
79.84447349873919
 30
0.0
 10
205.4091785181946
 20
80.30474207569753
 30
0.0
 10
207.7866110072432
 20
81.67735336322987
 30
0.0
 10
209.3526970473138
 20
82.58153356003874
 30
0.0
 10
210.9058010684678
 20
83.47821858473148
 30
0.0
  0
INSERT
  5
C6
330
1F
100
AcDbEntity
  8
0
  6
Continuous
 62
     7
370
    18
100
AcDbBlockReference
  2
SW_CENTERMARKSYMBOL_0
 10
210.9058010685
 20
61.5389083555
 30
0.0
  0
ARC
  5
C7
330
1F
100
AcDbEntity
  8
0
  6
Continuous
 62
     7
370
    18
100
AcDbCircle
 10
210.9058010685
 20
61.5389083555
 30
0.0
 40
16.62450000000002
100
AcDbArc
 50
75.0
 51
345.0
  0
LINE
  5
C8
330
1F
100
AcDbEntity
  8
0
  6
Continuous
 62
     7
370
    25
100
AcDbLine
 10
163.2788236998
 20
103.0449005305
 30
0.0
 11
163.5674988343
 21
103.5449005305
 31
0.0
  0
LINE
  5
C9
330
1F
100
AcDbEntity
  8
0
  6
Continuous
 62
     7
370
    25
100
AcDbLine
 10
163.5674988343
 20
140.5449005305
 30
0.0
 11
163.2788236998
 21
141.0449005305
 31
0.0
  0
LINE
  5
CA
330
1F
100
AcDbEntity
  8
0
  6
Continuous
 62
     7
370
    25
100
AcDbLine
 10
147.8561739689
 20
141.0449005305
 30
0.0
 11
147.5674988343
 21
140.5449005305
 31
0.0
  0
LINE
  5
CB
330
1F
100
AcDbEntity
  8
0
  6
Continuous
 62
     7
370
    25
100
AcDbLine
 10
147.5674988343
 20
103.5449005305
 30
0.0
 11
147.8561739689
 21
103.0449005305
 31
0.0
  0
LINE
  5
CC
330
1F
100
AcDbEntity
  8
0
  6
Continuous
 62
     7
370
    25
100
AcDbLine
 10
165.0674988343
 20
140.5449005305
 30
0.0
 11
163.5674988343
 21
140.5449005305
 31
0.0
  0
LINE
  5
CD
330
1F
100
AcDbEntity
  8
0
  6
Continuous
 62
     7
370
    25
100
AcDbLine
 10
163.5674988343
 20
103.5449005305
 30
0.0
 11
165.0674988343
 21
103.5449005305
 31
0.0
  0
LINE
  5
CE
330
1F
100
AcDbEntity
  8
0
  6
Continuous
 62
     7
370
    25
100
AcDbLine
 10
146.0674988343
 20
140.5449005305
 30
0.0
 11
145.5674988343
 21
140.0449005305
 31
0.0
  0
LINE
  5
CF
330
1F
100
AcDbEntity
  8
0
  6
Continuous
 62
     7
370
    25
100
AcDbLine
 10
145.5674988343
 20
104.0449005305
 30
0.0
 11
146.0674988343
 21
103.5449005305
 31
0.0
  0
LINE
  5
D0
330
1F
100
AcDbEntity
  8
0
  6
Continuous
 62
     7
370
    25
100
AcDbLine
 10
146.0674988343
 20
103.5449005305
 30
0.0
 11
147.5674988343
 21
103.5449005305
 31
0.0
  0
LINE
  5
D1
330
1F
100
AcDbEntity
  8
0
  6
Continuous
 62
     7
370
    25
100
AcDbLine
 10
147.5674988343
 20
140.5449005305
 30
0.0
 11
146.0674988343
 21
140.5449005305
 31
0.0
  0
LINE
  5
D2
330
1F
100
AcDbEntity
  8
0
  6
Continuous
 62
     7
370
    25
100
AcDbLine
 10
165.0674988343
 20
103.5449005305
 30
0.0
 11
165.5674988343
 21
104.0449005305
 31
0.0
  0
LINE
  5
D3
330
1F
100
AcDbEntity
  8
0
  6
Continuous
 62
     7
370
    25
100
AcDbLine
 10
165.5674988343
 20
140.0449005305
 30
0.0
 11
165.0674988343
 21
140.5449005305
 31
0.0
  0
SPLINE
  5
D4
330
1F
100
AcDbEntity
  8
0
  6
Continuous
 62
     7
370
    25
100
AcDbSpline
210
0.0
220
0.0
230
1.0
 70
     8
 71
     3
 72
    18
 73
    14
 74
     0
 42
0.000000001
 43
0.00000001
 40
0.0
 40
0.0
 40
0.0
 40
0.0
 40
0.2499999999999996
 40
0.2499999999999996
 40
0.4999999999999991
 40
0.4999999999999991
 40
0.562499999999999
 40
0.562499999999999
 40
0.624999999999999
 40
0.624999999999999
 40
0.7499999999999991
 40
0.7499999999999991
 40
1.0
 40
1.0
 40
1.0
 40
1.0
 10
149.5531855210061
 20
122.0449005305034
 30
0.0
 10
149.0361287884095
 20
123.5960707282934
 30
0.0
 10
148.6099805342413
 20
125.1585498272029
 30
0.0
 10
148.0196269588479
 20
128.3160933985627
 30
0.0
 10
147.8573689558423
 20
129.9114001149663
 30
0.0
 10
147.8558835702565
 20
131.9305795963855
 30
0.0
 10
147.8655732083401
 20
132.3364623503774
 30
0.0
 10
147.9046145472769
 20
133.1445461298763
 30
0.0
 10
147.9339210965166
 20
133.5471842298144
 30
0.0
 10
148.0499278438468
 20
134.751069419811
 30
0.0
 10
148.1647808075317
 20
135.5482779802303
 30
0.0
 10
148.6082810581918
 20
137.9257104692789
 30
0.0
 10
149.0354841806215
 20
139.4917965093495
 30
0.0
 10
149.5531855210062
 20
141.0449005305035
 30
0.0
  0
LINE
  5
D5
330
1F
100
AcDbEntity
  8
0
  6
Continuous
 62
     7
370
    25
100
AcDbLine
 10
149.553185521
 20
141.0449005305
 30
0.0
 11
155.4335242381
 21
141.0449005305
 31
0.0
  0
SPLINE
  5
D6
330
1F
100
AcDbEntity
  8
0
  6
Continuous
 62
     7
370
    25
100
AcDbSpline
210
0.0
220
0.0
230
1.0
 70
     8
 71
     3
 72
     8
 73
     4
 74
     0
 42
0.000000001
 43
0.00000001
 40
0.0
 40
0.0
 40
0.0
 40
0.0
 40
1.0
 40
1.0
 40
1.0
 40
1.0
 10
155.5674988343477
 20
140.1462386431518
 30
0.0
 10
155.5245276315197
 20
140.4460382852997
 30
0.0
 10
155.4798283169255
 20
140.7455862599878
 30
0.0
 10
155.4335242381322
 20
141.0449005305035
 30
0.0
  0
SPLINE
  5
D7
330
1F
100
AcDbEntity
  8
0
  6
Continuous
 62
     7
370
    25
100
AcDbSpline
210
0.0
220
0.0
230
1.0
 70
     8
 71
     3
 72
     8
 73
     4
 74
     0
 42
0.000000001
 43
0.00000001
 40
0.0
 40
0.0
 40
0.0
 40
0.0
 40
1.0
 40
1.0
 40
1.0
 40
1.0
 10
155.5674988343477
 20
140.1462386431517
 30
0.0
 10
155.6104700371757
 20
140.4460382852997
 30
0.0
 10
155.6551693517699
 20
140.7455862599878
 30
0.0
 10
155.7014734305633
 20
141.0449005305035
 30
0.0
  0
LINE
  5
D8
330
1F
100
AcDbEntity
  8
0
  6
Continuous
 62
     7
370
    25
100
AcDbLine
 10
155.7014734306
 20
141.0449005305
 30
0.0
 11
161.5818121477
 21
141.0449005305
 31
0.0
  0
SPLINE
  5
D9
330
1F
100
AcDbEntity
  8
0
  6
Continuous
 62
     7
370
    25
100
AcDbSpline
210
0.0
220
0.0
230
1.0
 70
     8
 71
     3
 72
    18
 73
    14
 74
     0
 42
0.000000001
 43
0.00000001
 40
0.0
 40
0.0
 40
0.0
 40
0.0
 40
0.2499999999999996
 40
0.2499999999999996
 40
0.4999999999999991
 40
0.4999999999999991
 40
0.562499999999999
 40
0.562499999999999
 40
0.624999999999999
 40
0.624999999999999
 40
0.7499999999999991
 40
0.7499999999999991
 40
1.0
 40
1.0
 40
1.0
 40
1.0
 10
161.5818121476893
 20
122.0449005305034
 30
0.0
 10
162.0988688802859
 20
123.5960707282934
 30
0.0
 10
162.5250171344541
 20
125.1585498272029
 30
0.0
 10
163.1153707098475
 20
128.3160933985627
 30
0.0
 10
163.2776287128531
 20
129.9114001149663
 30
0.0
 10
163.2791140984389
 20
131.9305795963855
 30
0.0
 10
163.2694244603553
 20
132.3364623503774
 30
0.0
 10
163.2303831214185
 20
133.1445461298763
 30
0.0
 10
163.2010765721788
 20
133.5471842298144
 30
0.0
 10
163.0850698248486
 20
134.751069419811
 30
0.0
 10
162.9702168611637
 20
135.5482779802303
 30
0.0
 10
162.5267166105036
 20
137.9257104692789
 30
0.0
 10
162.0995134880739
 20
139.4917965093495
 30
0.0
 10
161.5818121476892
 20
141.0449005305035
 30
0.0
  0
LINE
  5
DA
330
1F
100
AcDbEntity
  8
0
  6
Continuous
 62
     7
370
    25
100
AcDbLine
 10
155.7014734306
 20
122.0449005305
 30
0.0
 11
161.5818121477
 21
122.0449005305
 31
0.0
  0
SPLINE
  5
DB
330
1F
100
AcDbEntity
  8
0
  6
Continuous
 62
     7
370
    25
100
AcDbSpline
210
0.0
220
0.0
230
1.0
 70
     8
 71
     3
 72
     8
 73
     4
 74
     0
 42
0.000000001
 43
0.00000001
 40
0.0
 40
0.0
 40
0.0
 40
0.0
 40
1.0
 40
1.0
 40
1.0
 40
1.0
 10
155.7014734305633
 20
122.0449005305035
 30
0.0
 10
155.6551542770699
 20
122.3443122454117
 30
0.0
 10
155.6104557074931
 20
122.6438627504216
 30
0.0
 10
155.5674988343477
 20
122.9435624178552
 30
0.0
  0
SPLINE
  5
DC
330
1F
100
AcDbEntity
  8
0
  6
Continuous
 62
     7
370
    25
100
AcDbSpline
210
0.0
220
0.0
230
1.0
 70
     8
 71
     3
 72
     8
 73
     4
 74
     0
 42
0.000000001
 43
0.00000001
 40
0.0
 40
0.0
 40
0.0
 40
0.0
 40
1.0
 40
1.0
 40
1.0
 40
1.0
 10
155.4335242381322
 20
122.0449005305035
 30
0.0
 10
155.4798433916255
 20
122.3443122454117
 30
0.0
 10
155.5245419612023
 20
122.6438627504216
 30
0.0
 10
155.5674988343477
 20
122.9435624178552
 30
0.0
  0
LINE
  5
DD
330
1F
100
AcDbEntity
  8
0
  6
Continuous
 62
     7
370
    25
100
AcDbLine
 10
149.553185521
 20
122.0449005305
 30
0.0
 11
155.4335242381
 21
122.0449005305
 31
0.0
  0
SPLINE
  5
DE
330
1F
100
AcDbEntity
  8
0
  6
Continuous
 62
     7
370
    25
100
AcDbSpline
210
0.0
220
0.0
230
1.0
 70
    24
 71
     3
 72
    14
 73
    10
 74
     0
 42
0.000000001
 43
0.00000001
 40
0.0
 40
0.0
 40
0.0
 40
0.0
 40
0.184013024077773
 40
0.3683369479980691
 40
0.5538678682303614
 40
0.7399432078914376
 40
0.8645124632148982
 40
0.9890800897388513
 40
1.0
 40
1.0
 40
1.0
 40
1.0
 10
161.5818121476891
 20
141.0449005305035
 30
0.0
 10
161.7644814981736
 20
141.0449005305035
 30
0.0
 10
162.1301288287768
 20
141.0449005305035
 30
0.0
 10
162.5772001724192
 20
141.0449005305035
 30
0.0
 10
162.9313992652607
 20
141.0449005305035
 30
0.0
 10
163.1481510751465
 20
141.0449005305035
 30
0.0
 10
163.2499907701441
 20
141.0449005305035
 30
0.0
 10
163.2868370921061
 20
141.0449005305034
 30
0.0
 10
163.2772383996199
 20
141.0449005305035
 30
0.0
 10
163.2764647722956
 20
141.0449005305035
 30
0.0
  0
SPLINE
  5
DF
330
1F
100
AcDbEntity
  8
0
  6
Continuous
 62
     7
370
    25
100
AcDbSpline
210
0.0
220
0.0
230
1.0
 70
    24
 71
     3
 72
    14
 73
    10
 74
     0
 42
0.000000001
 43
0.00000001
 40
0.0
 40
0.0
 40
0.0
 40
0.0
 40
0.0026616866231632
 40
0.1313574415580789
 40
0.2600549975365961
 40
0.44381865693287
 40
0.6281495708217194
 40
0.8138972153973939
 40
1.0
 40
1.0
 40
1.0
 40
1.0
 10
163.2781960045047
 20
103.0449005305035
 30
0.0
 10
163.2784047001228
 20
103.0449005305035
 30
0.0
 10
163.288704080306
 20
103.0449005305035
 30
0.0
 10
163.2519864086407
 20
103.0449005305035
 30
0.0
 10
163.1507118611653
 20
103.0449005305035
 30
0.0
 10
162.9341148239923
 20
103.0449005305035
 30
0.0
 10
162.5830127629284
 20
103.0449005305036
 30
0.0
 10
162.1354603030316
 20
103.0449005305036
 30
0.0
 10
161.7664789994151
 20
103.0449005305036
 30
0.0
 10
161.5818121476891
 20
103.0449005305036
 30
0.0
  0
SPLINE
  5
E0
330
1F
100
AcDbEntity
  8
0
  6
Continuous
 62
     7
370
    25
100
AcDbSpline
210
0.0
220
0.0
230
1.0
 70
     8
 71
     3
 72
    18
 73
    14
 74
     0
 42
0.000000001
 43
0.00000001
 40
0.0
 40
0.0
 40
0.0
 40
0.0
 40
0.2500000000000001
 40
0.2500000000000001
 40
0.5000000000000002
 40
0.5000000000000002
 40
0.5625000000000002
 40
0.5625000000000002
 40
0.6250000000000002
 40
0.6250000000000002
 40
0.7500000000000002
 40
0.7500000000000002
 40
1.0
 40
1.0
 40
1.0
 40
1.0
 10
161.5818121476893
 20
103.0449005305036
 30
0.0
 10
162.0988688802859
 20
104.5960707282935
 30
0.0
 10
162.5250171344541
 20
106.1585498272029
 30
0.0
 10
163.1153707098475
 20
109.3160933985628
 30
0.0
 10
163.277628712853
 20
110.9114001149664
 30
0.0
 10
163.2791140984388
 20
112.9305795963856
 30
0.0
 10
163.2694244603553
 20
113.3364623503774
 30
0.0
 10
163.2303831214184
 20
114.1445461298763
 30
0.0
 10
163.2010765721787
 20
114.5471842298145
 30
0.0
 10
163.0850698248486
 20
115.751069419811
 30
0.0
 10
162.9702168611637
 20
116.5482779802303
 30
0.0
 10
162.5267166105036
 20
118.9257104692789
 30
0.0
 10
162.0995134880739
 20
120.4917965093495
 30
0.0
 10
161.5818121476892
 20
122.0449005305035
 30
0.0
  0
LINE
  5
E1
330
1F
100
AcDbEntity
  8
0
  6
Continuous
 62
     7
370
    25
100
AcDbLine
 10
163.5674988343
 20
103.5449005305
 30
0.0
 11
163.5674988343
 21
140.5449005305
 31
0.0
  0
SPLINE
  5
E2
330
1F
100
AcDbEntity
  8
0
  6
Continuous
 62
     7
370
    25
100
AcDbSpline
210
0.0
220
0.0
230
1.0
 70
    24
 71
     3
 72
    14
 73
    10
 74
     0
 42
0.000000001
 43
0.00000001
 40
0.0
 40
0.0
 40
0.0
 40
0.0
 40
0.0026616866231632
 40
0.1313574415580789
 40
0.2600549975365961
 40
0.44381865693287
 40
0.6281495708217194
 40
0.8138972153973939
 40
1.0
 40
1.0
 40
1.0
 40
1.0
 10
147.8568016641907
 20
103.0449005305035
 30
0.0
 10
147.8565929685726
 20
103.0449005305035
 30
0.0
 10
147.8462935883894
 20
103.0449005305035
 30
0.0
 10
147.8830112600547
 20
103.0449005305035
 30
0.0
 10
147.9842858075301
 20
103.0449005305035
 30
0.0
 10
148.2008828447031
 20
103.0449005305035
 30
0.0
 10
148.551984905767
 20
103.0449005305036
 30
0.0
 10
148.9995373656638
 20
103.0449005305036
 30
0.0
 10
149.3685186692803
 20
103.0449005305036
 30
0.0
 10
149.5531855210063
 20
103.0449005305036
 30
0.0
  0
SPLINE
  5
E3
330
1F
100
AcDbEntity
  8
0
  6
Continuous
 62
     7
370
    25
100
AcDbSpline
210
0.0
220
0.0
230
1.0
 70
    24
 71
     3
 72
    14
 73
    10
 74
     0
 42
0.000000001
 43
0.00000001
 40
0.0
 40
0.0
 40
0.0
 40
0.0
 40
0.184013024077773
 40
0.3683369479980691
 40
0.5538678682303614
 40
0.7399432078914376
 40
0.8645124632148982
 40
0.9890800897388513
 40
1.0
 40
1.0
 40
1.0
 40
1.0
 10
149.5531855210063
 20
141.0449005305035
 30
0.0
 10
149.3705161705218
 20
141.0449005305035
 30
0.0
 10
149.0048688399186
 20
141.0449005305035
 30
0.0
 10
148.5577974962762
 20
141.0449005305035
 30
0.0
 10
148.2035984034347
 20
141.0449005305035
 30
0.0
 10
147.9868465935489
 20
141.0449005305035
 30
0.0
 10
147.8850068985514
 20
141.0449005305035
 30
0.0
 10
147.8481605765893
 20
141.0449005305034
 30
0.0
 10
147.8577592690755
 20
141.0449005305035
 30
0.0
 10
147.8585328963999
 20
141.0449005305035
 30
0.0
  0
SPLINE
  5
E4
330
1F
100
AcDbEntity
  8
0
  6
Continuous
 62
     7
370
    25
100
AcDbSpline
210
0.0
220
0.0
230
1.0
 70
     8
 71
     3
 72
    18
 73
    14
 74
     0
 42
0.000000001
 43
0.00000001
 40
0.0
 40
0.0
 40
0.0
 40
0.0
 40
0.2500000000000001
 40
0.2500000000000001
 40
0.5000000000000002
 40
0.5000000000000002
 40
0.5625000000000002
 40
0.5625000000000002
 40
0.6250000000000002
 40
0.6250000000000002
 40
0.7500000000000002
 40
0.7500000000000002
 40
1.0
 40
1.0
 40
1.0
 40
1.0
 10
149.5531855210061
 20
103.0449005305036
 30
0.0
 10
149.0361287884095
 20
104.5960707282935
 30
0.0
 10
148.6099805342413
 20
106.1585498272029
 30
0.0
 10
148.0196269588479
 20
109.3160933985628
 30
0.0
 10
147.8573689558424
 20
110.9114001149664
 30
0.0
 10
147.8558835702566
 20
112.9305795963856
 30
0.0
 10
147.8655732083401
 20
113.3364623503774
 30
0.0
 10
147.904614547277
 20
114.1445461298763
 30
0.0
 10
147.9339210965167
 20
114.5471842298145
 30
0.0
 10
148.0499278438468
 20
115.751069419811
 30
0.0
 10
148.1647808075317
 20
116.5482779802303
 30
0.0
 10
148.6082810581918
 20
118.9257104692789
 30
0.0
 10
149.0354841806216
 20
120.4917965093495
 30
0.0
 10
149.5531855210062
 20
122.0449005305035
 30
0.0
  0
LINE
  5
E5
330
1F
100
AcDbEntity
  8
0
  6
Continuous
 62
     7
370
    25
100
AcDbLine
 10
147.5674988343
 20
103.5449005305
 30
0.0
 11
147.5674988343
 21
140.5449005305
 31
0.0
  0
SPLINE
  5
E6
330
1F
100
AcDbEntity
  8
0
  6
Continuous
 62
     7
370
    25
100
AcDbSpline
210
0.0
220
0.0
230
1.0
 70
     8
 71
     3
 72
     8
 73
     4
 74
     0
 42
0.000000001
 43
0.00000001
 40
0.0
 40
0.0
 40
0.0
 40
0.0
 40
1.0
 40
1.0
 40
1.0
 40
1.0
 10
155.5674988343477
 20
121.1462386431517
 30
0.0
 10
155.5245276315197
 20
121.4460382852997
 30
0.0
 10
155.4798283169255
 20
121.7455862599877
 30
0.0
 10
155.4335242381322
 20
122.0449005305035
 30
0.0
  0
LINE
  5
E7
330
1F
100
AcDbEntity
  8
0
  6
Continuous
 62
     7
370
    25
100
AcDbLine
 10
155.5674988343
 20
121.1462386432
 30
0.0
 11
155.5674988343
 21
122.9435624179
 31
0.0
  0
SPLINE
  5
E8
330
1F
100
AcDbEntity
  8
0
  6
Continuous
 62
     7
370
    25
100
AcDbSpline
210
0.0
220
0.0
230
1.0
 70
     8
 71
     3
 72
     8
 73
     4
 74
     0
 42
0.000000001
 43
0.00000001
 40
0.0
 40
0.0
 40
0.0
 40
0.0
 40
1.0
 40
1.0
 40
1.0
 40
1.0
 10
155.5674988343477
 20
121.1462386431517
 30
0.0
 10
155.6104700371757
 20
121.4460382852997
 30
0.0
 10
155.6551693517699
 20
121.7455862599877
 30
0.0
 10
155.7014734305633
 20
122.0449005305035
 30
0.0
  0
LINE
  5
E9
330
1F
100
AcDbEntity
  8
0
  6
Continuous
 62
     7
370
    25
100
AcDbLine
 10
155.7014734306
 20
103.0449005305
 30
0.0
 11
161.5818121477
 21
103.0449005305
 31
0.0
  0
SPLINE
  5
EA
330
1F
100
AcDbEntity
  8
0
  6
Continuous
 62
     7
370
    25
100
AcDbSpline
210
0.0
220
0.0
230
1.0
 70
     8
 71
     3
 72
     8
 73
     4
 74
     0
 42
0.000000001
 43
0.00000001
 40
0.0
 40
0.0
 40
0.0
 40
0.0
 40
1.0
 40
1.0
 40
1.0
 40
1.0
 10
155.7014734305633
 20
103.0449005305036
 30
0.0
 10
155.6551542770699
 20
103.3443122454118
 30
0.0
 10
155.6104557074931
 20
103.6438627504217
 30
0.0
 10
155.5674988343477
 20
103.9435624178553
 30
0.0
  0
SPLINE
  5
EB
330
1F
100
AcDbEntity
  8
0
  6
Continuous
 62
     7
370
    25
100
AcDbSpline
210
0.0
220
0.0
230
1.0
 70
     8
 71
     3
 72
     8
 73
     4
 74
     0
 42
0.000000001
 43
0.00000001
 40
0.0
 40
0.0
 40
0.0
 40
0.0
 40
1.0
 40
1.0
 40
1.0
 40
1.0
 10
155.4335242381322
 20
103.0449005305036
 30
0.0
 10
155.4798433916255
 20
103.3443122454118
 30
0.0
 10
155.5245419612023
 20
103.6438627504217
 30
0.0
 10
155.5674988343477
 20
103.9435624178553
 30
0.0
  0
LINE
  5
EC
330
1F
100
AcDbEntity
  8
0
  6
Continuous
 62
     7
370
    25
100
AcDbLine
 10
149.553185521
 20
103.0449005305
 30
0.0
 11
155.4335242381
 21
103.0449005305
 31
0.0
  0
LINE
  5
ED
330
1F
100
AcDbEntity
  8
0
  6
Continuous
 62
     7
370
    25
100
AcDbLine
 10
165.0674988343
 20
140.5449005305
 30
0.0
 11
165.0674988343
 21
103.5449005305
 31
0.0
  0
LINE
  5
EE
330
1F
100
AcDbEntity
  8
0
  6
Continuous
 62
     7
370
    25
100
AcDbLine
 10
145.5674988343
 20
104.0449005305
 30
0.0
 11
145.5674988343
 21
140.0449005305
 31
0.0
  0
LINE
  5
EF
330
1F
100
AcDbEntity
  8
0
  6
Continuous
 62
     7
370
    25
100
AcDbLine
 10
146.0674988343
 20
140.5449005305
 30
0.0
 11
146.0674988343
 21
103.5449005305
 31
0.0
  0
LINE
  5
F0
330
1F
100
AcDbEntity
  8
0
  6
Continuous
 62
     7
370
    25
100
AcDbLine
 10
165.5674988343
 20
104.0449005305
 30
0.0
 11
165.5674988343
 21
140.0449005305
 31
0.0
  0
SPLINE
  5
F1
330
1F
100
AcDbEntity
  8
0
  6
Continuous
 62
     7
370
    25
100
AcDbSpline
210
0.0
220
0.0
230
1.0
 70
    24
 71
     3
 72
     8
 73
     4
 74
     0
 42
0.000000001
 43
0.00000001
 40
0.0
 40
0.0
 40
0.0
 40
0.0
 40
1.0
 40
1.0
 40
1.0
 40
1.0
 10
155.5674988343477
 20
103.0449005305036
 30
0.0
 10
155.6104692998292
 20
103.0449005305036
 30
0.0
 10
155.6551685765726
 20
103.0449005305036
 30
0.0
 10
155.7014734305633
 20
103.0449005305036
 30
0.0
  0
LINE
  5
F2
330
1F
100
AcDbEntity
  8
0
  6
Continuous
 62
     7
370
    25
100
AcDbLine
 10
155.5674988343
 20
103.0449005305
 30
0.0
 11
155.5674988343
 21
103.9435624179
 31
0.0
  0
SPLINE
  5
F3
330
1F
100
AcDbEntity
  8
0
  6
Continuous
 62
     7
370
    25
100
AcDbSpline
210
0.0
220
0.0
230
1.0
 70
    24
 71
     3
 72
     8
 73
     4
 74
     0
 42
0.000000001
 43
0.00000001
 40
0.0
 40
0.0
 40
0.0
 40
0.0
 40
1.0
 40
1.0
 40
1.0
 40
1.0
 10
155.5674988343477
 20
103.0449005305036
 30
0.0
 10
155.5245283688662
 20
103.0449005305036
 30
0.0
 10
155.4798290921228
 20
103.0449005305036
 30
0.0
 10
155.4335242381322
 20
103.0449005305036
 30
0.0
  0
SPLINE
  5
F4
330
1F
100
AcDbEntity
  8
0
  6
Continuous
 62
     7
370
    25
100
AcDbSpline
210
0.0
220
0.0
230
1.0
 70
    24
 71
     3
 72
     8
 73
     4
 74
     0
 42
0.000000001
 43
0.00000001
 40
0.0
 40
0.0
 40
0.0
 40
0.0
 40
1.0
 40
1.0
 40
1.0
 40
1.0
 10
155.4335242381322
 20
141.0449005305035
 30
0.0
 10
155.4798456032751
 20
141.0449005305035
 30
0.0
 10
155.5245440619603
 20
141.0449005305035
 30
0.0
 10
155.5674988343477
 20
141.0449005305035
 30
0.0
  0
LINE
  5
F5
330
1F
100
AcDbEntity
  8
0
  6
Continuous
 62
     7
370
    25
100
AcDbLine
 10
155.5674988343
 20
140.1462386432
 30
0.0
 11
155.5674988343
 21
141.0449005305
 31
0.0
  0
SPLINE
  5
F6
330
1F
100
AcDbEntity
  8
0
  6
Continuous
 62
     7
370
    25
100
AcDbSpline
210
0.0
220
0.0
230
1.0
 70
    24
 71
     3
 72
     8
 73
     4
 74
     0
 42
0.000000001
 43
0.00000001
 40
0.0
 40
0.0
 40
0.0
 40
0.0
 40
1.0
 40
1.0
 40
1.0
 40
1.0
 10
155.7014734305633
 20
141.0449005305035
 30
0.0
 10
155.6551520654203
 20
141.0449005305035
 30
0.0
 10
155.6104536067351
 20
141.0449005305035
 30
0.0
 10
155.5674988343477
 20
141.0449005305035
 30
0.0
  0
LINE
  5
F7
330
1F
100
AcDbEntity
  8
0
  6
CENTERX2
 62
     7
370
    18
100
AcDbLine
 10
167.5674988343
 20
122.0449005305
 30
0.0
 11
162.5674988343
 21
122.0449005305
 31
0.0
  0
LINE
  5
F8
330
1F
100
AcDbEntity
  8
0
  6
CENTERX2
 62
     7
370
    18
100
AcDbLine
 10
162.5674988343
 20
122.0449005305
 30
0.0
 11
144.0674988343
 21
122.0449005305
 31
0.0
  0
ENDSEC
  0
SECTION
  2
OBJECTS
  0
DICTIONARY
  5
C
330
0
100
AcDbDictionary
281
     1
  3
ACAD_GROUP
350
D
  3
ACAD_LAYOUT
350
1A
  3
ACAD_MLINESTYLE
350
17
  3
ACAD_PLOTSETTINGS
350
19
  3
ACAD_PLOTSTYLENAME
350
E
  3
ACAD_SCALELIST
350
47
  0
DICTIONARY
  5
D
102
{ACAD_REACTORS
330
C
102
}
330
C
100
AcDbDictionary
281
     1
  0
DICTIONARY
  5
1A
102
{ACAD_REACTORS
330
C
102
}
330
C
100
AcDbDictionary
281
     1
  3
Layout1
350
1E
  3
Layout2
350
26
  3
Model
350
22
  0
DICTIONARY
  5
17
102
{ACAD_REACTORS
330
C
102
}
330
C
100
AcDbDictionary
281
     1
  3
Standard
350
18
  0
DICTIONARY
  5
19
102
{ACAD_REACTORS
330
C
102
}
330
C
100
AcDbDictionary
281
     1
  0
ACDBDICTIONARYWDFLT
  5
E
102
{ACAD_REACTORS
330
C
102
}
330
C
100
AcDbDictionary
281
     1
  3
Normal
350
F
100
AcDbDictionaryWithDefault
340
F
  0
DICTIONARY
  5
47
102
{ACAD_REACTORS
330
C
102
}
330
C
100
AcDbDictionary
281
     1
  3
A0
350
48
  3
A1
350
49
  3
A2
350
4A
  3
A3
350
4B
  3
A4
350
4C
  3
A5
350
4D
  3
A6
350
4E
  3
A7
350
4F
  3
A8
350
50
  3
A9
350
51
  3
B0
350
52
  3
B1
350
53
  3
B2
350
54
  3
B3
350
55
  3
B4
350
56
  3
B5
350
57
  3
B6
350
58
  3
B7
350
59
  3
B8
350
5A
  3
B9
350
5B
  3
C0
350
5C
  3
C1
350
5D
  3
C2
350
5E
  3
C3
350
5F
  3
C4
350
60
  3
C5
350
61
  3
C6
350
62
  3
C7
350
63
  3
C8
350
64
  3
C9
350
65
  3
D0
350
66
  3
D1
350
67
  3
D2
350
68
  0
LAYOUT
  5
1E
102
{ACAD_REACTORS
330
1A
102
}
330
1A
100
AcDbPlotSettings
  1

  2
none_device
  4

  6

 40
0.0
 41
0.0
 42
0.0
 43
0.0
 44
0.0
 45
0.0
 46
0.0
 47
0.0
 48
0.0
 49
0.0
140
0.0
141
0.0
142
1.0
143
1.0
 70
   688
 72
     1
 73
     0
 74
     5
  7

 75
    16
147
1.0
148
0.0
149
0.0
100
AcDbLayout
  1
Layout1
 70
     1
 71
     1
 10
0.0
 20
0.0
 11
420.0
 21
297.0
 12
0.0
 22
0.0
 32
0.0
 14
1.0000000000E+20
 24
1.0000000000E+20
 34
1.0000000000E+20
 15
-1.0000000000E+20
 25
-1.0000000000E+20
 35
-1.0000000000E+20
146
0.0
 13
0.0
 23
0.0
 33
0.0
 16
1.0
 26
0.0
 36
0.0
 17
0.0
 27
1.0
 37
0.0
 76
     0
330
1B
  0
LAYOUT
  5
26
102
{ACAD_REACTORS
330
1A
102
}
330
1A
100
AcDbPlotSettings
  1

  2
none_device
  4

  6

 40
0.0
 41
0.0
 42
0.0
 43
0.0
 44
0.0
 45
0.0
 46
0.0
 47
0.0
 48
0.0
 49
0.0
140
0.0
141
0.0
142
1.0
143
1.0
 70
   688
 72
     1
 73
     0
 74
     5
  7

 75
    16
147
1.0
148
0.0
149
0.0
100
AcDbLayout
  1
Layout2
 70
     1
 71
     2
 10
0.0
 20
0.0
 11
0.0
 21
0.0
 12
0.0
 22
0.0
 32
0.0
 14
0.0
 24
0.0
 34
0.0
 15
0.0
 25
0.0
 35
0.0
146
0.0
 13
0.0
 23
0.0
 33
0.0
 16
1.0
 26
0.0
 36
0.0
 17
0.0
 27
1.0
 37
0.0
 76
     0
330
23
  0
LAYOUT
  5
22
102
{ACAD_REACTORS
330
1A
102
}
330
1A
100
AcDbPlotSettings
  1

  2
none_device
  4
Letter_(8.50_x_11.00_Inches)
  6

 40
6.35
 41
6.35
 42
6.35000508
 43
6.35000508
 44
215.9
 45
279.4
 46
0.0
 47
0.0
 48
0.0
 49
0.0
140
0.0
141
0.0
142
1.0
143
1.0
 70
  1712
 72
     1
 73
     0
 74
     0
  7

 75
     0
147
1.0
148
0.0
149
0.0
100
AcDbLayout
  1
Model
 70
     1
 71
     0
 10
0.0
 20
0.0
 11
431.8
 21
279.4
 12
0.0
 22
0.0
 32
0.0
 14
0.0
 24
0.0
 34
0.0
 15
431.8
 25
279.4
 35
0.0
146
0.0
 13
0.0
 23
0.0
 33
0.0
 16
1.0
 26
0.0
 36
0.0
 17
0.0
 27
1.0
 37
0.0
 76
     0
330
1F
331
29
  0
MLINESTYLE
  5
18
102
{ACAD_REACTORS
330
17
102
}
330
17
100
AcDbMlineStyle
  2
Standard
 70
     0
  3

 62
   256
 51
90.0
 52
90.0
 71
     2
 49
0.5
 62
   256
  6
BYLAYER
 49
-0.5
 62
   256
  6
BYLAYER
  0
ACDBPLACEHOLDER
  5
F
102
{ACAD_REACTORS
330
E
102
}
330
E
  0
SCALE
  5
48
102
{ACAD_REACTORS
330
47
102
}
330
47
100
AcDbScale
 70
     0
300
1:1
140
1.0
141
1.0
290
     1
  0
SCALE
  5
49
102
{ACAD_REACTORS
330
47
102
}
330
47
100
AcDbScale
 70
     0
300
1:2
140
1.0
141
2.0
290
     0
  0
SCALE
  5
4A
102
{ACAD_REACTORS
330
47
102
}
330
47
100
AcDbScale
 70
     0
300
1:4
140
1.0
141
4.0
290
     0
  0
SCALE
  5
4B
102
{ACAD_REACTORS
330
47
102
}
330
47
100
AcDbScale
 70
     0
300
1:5
140
1.0
141
5.0
290
     0
  0
SCALE
  5
4C
102
{ACAD_REACTORS
330
47
102
}
330
47
100
AcDbScale
 70
     0
300
1:8
140
1.0
141
8.0
290
     0
  0
SCALE
  5
4D
102
{ACAD_REACTORS
330
47
102
}
330
47
100
AcDbScale
 70
     0
300
1:10
140
1.0
141
10.0
290
     0
  0
SCALE
  5
4E
102
{ACAD_REACTORS
330
47
102
}
330
47
100
AcDbScale
 70
     0
300
1:16
140
1.0
141
16.0
290
     0
  0
SCALE
  5
4F
102
{ACAD_REACTORS
330
47
102
}
330
47
100
AcDbScale
 70
     0
300
1:20
140
1.0
141
20.0
290
     0
  0
SCALE
  5
50
102
{ACAD_REACTORS
330
47
102
}
330
47
100
AcDbScale
 70
     0
300
1:30
140
1.0
141
30.0
290
     0
  0
SCALE
  5
51
102
{ACAD_REACTORS
330
47
102
}
330
47
100
AcDbScale
 70
     0
300
1:40
140
1.0
141
40.0
290
     0
  0
SCALE
  5
52
102
{ACAD_REACTORS
330
47
102
}
330
47
100
AcDbScale
 70
     0
300
1:50
140
1.0
141
50.0
290
     0
  0
SCALE
  5
53
102
{ACAD_REACTORS
330
47
102
}
330
47
100
AcDbScale
 70
     0
300
1:100
140
1.0
141
100.0
290
     0
  0
SCALE
  5
54
102
{ACAD_REACTORS
330
47
102
}
330
47
100
AcDbScale
 70
     0
300
2:1
140
2.0
141
1.0
290
     0
  0
SCALE
  5
55
102
{ACAD_REACTORS
330
47
102
}
330
47
100
AcDbScale
 70
     0
300
4:1
140
4.0
141
1.0
290
     0
  0
SCALE
  5
56
102
{ACAD_REACTORS
330
47
102
}
330
47
100
AcDbScale
 70
     0
300
8:1
140
8.0
141
1.0
290
     0
  0
SCALE
  5
57
102
{ACAD_REACTORS
330
47
102
}
330
47
100
AcDbScale
 70
     0
300
10:1
140
10.0
141
1.0
290
     0
  0
SCALE
  5
58
102
{ACAD_REACTORS
330
47
102
}
330
47
100
AcDbScale
 70
     0
300
100:1
140
100.0
141
1.0
290
     0
  0
SCALE
  5
59
102
{ACAD_REACTORS
330
47
102
}
330
47
100
AcDbScale
 70
     0
300
1/128" = 1'-0"
140
0.0078125
141
12.0
290
     0
  0
SCALE
  5
5A
102
{ACAD_REACTORS
330
47
102
}
330
47
100
AcDbScale
 70
     0
300
1/64" = 1'-0"
140
0.015625
141
12.0
290
     0
  0
SCALE
  5
5B
102
{ACAD_REACTORS
330
47
102
}
330
47
100
AcDbScale
 70
     0
300
1/32" = 1'-0"
140
0.03125
141
12.0
290
     0
  0
SCALE
  5
5C
102
{ACAD_REACTORS
330
47
102
}
330
47
100
AcDbScale
 70
     0
300
1/16" = 1'-0"
140
0.0625
141
12.0
290
     0
  0
SCALE
  5
5D
102
{ACAD_REACTORS
330
47
102
}
330
47
100
AcDbScale
 70
     0
300
3/32" = 1'-0"
140
0.09375
141
12.0
290
     0
  0
SCALE
  5
5E
102
{ACAD_REACTORS
330
47
102
}
330
47
100
AcDbScale
 70
     0
300
1/8" = 1'-0"
140
0.125
141
12.0
290
     0
  0
SCALE
  5
5F
102
{ACAD_REACTORS
330
47
102
}
330
47
100
AcDbScale
 70
     0
300
3/16" = 1'-0"
140
0.1875
141
12.0
290
     0
  0
SCALE
  5
60
102
{ACAD_REACTORS
330
47
102
}
330
47
100
AcDbScale
 70
     0
300
1/4" = 1'-0"
140
0.25
141
12.0
290
     0
  0
SCALE
  5
61
102
{ACAD_REACTORS
330
47
102
}
330
47
100
AcDbScale
 70
     0
300
3/8" = 1'-0"
140
0.375
141
12.0
290
     0
  0
SCALE
  5
62
102
{ACAD_REACTORS
330
47
102
}
330
47
100
AcDbScale
 70
     0
300
1/2" = 1'-0"
140
0.5
141
12.0
290
     0
  0
SCALE
  5
63
102
{ACAD_REACTORS
330
47
102
}
330
47
100
AcDbScale
 70
     0
300
3/4" = 1'-0"
140
0.75
141
12.0
290
     0
  0
SCALE
  5
64
102
{ACAD_REACTORS
330
47
102
}
330
47
100
AcDbScale
 70
     0
300
1" = 1'-0"
140
1.0
141
12.0
290
     0
  0
SCALE
  5
65
102
{ACAD_REACTORS
330
47
102
}
330
47
100
AcDbScale
 70
     0
300
1-1/2" = 1'-0"
140
1.5
141
12.0
290
     0
  0
SCALE
  5
66
102
{ACAD_REACTORS
330
47
102
}
330
47
100
AcDbScale
 70
     0
300
3" = 1'-0"
140
3.0
141
12.0
290
     0
  0
SCALE
  5
67
102
{ACAD_REACTORS
330
47
102
}
330
47
100
AcDbScale
 70
     0
300
6" = 1'-0"
140
6.0
141
12.0
290
     0
  0
SCALE
  5
68
102
{ACAD_REACTORS
330
47
102
}
330
47
100
AcDbScale
 70
     0
300
1'-0" = 1'-0"
140
12.0
141
12.0
290
     0
  0
ENDSEC
  0
EOF
