  0
SECTION
  2
HEADER
  9
$ACADVER
  1
AC1015
  9
$ACADMAINTVER
 70
     6
  9
$DWGCODEPAGE
  3
DOS932
  9
$INSBASE
 10
0.0
 20
0.0
 30
0.0
  9
$EXTMIN
 10
0.0
 20
0.0
 30
0.0
  9
$EXTMAX
 10
863.6
 20
558.8
 30
0.0
  9
$LIMMIN
 10
0.0
 20
0.0
  9
$LIMMAX
 10
863.6
 20
558.8
  9
$ORTHOMODE
 70
     0
  9
$REGENMODE
 70
     1
  9
$FILLMODE
 70
     1
  9
$QTEXTMODE
 70
     0
  9
$MIRRTEXT
 70
     1
  9
$LTSCALE
 40
2.0
  9
$ATTMODE
 70
     1
  9
$TEXTSIZE
 40
7.0
  9
$TRACEWID
 40
1.0
  9
$TEXTSTYLE
  7
Standard
  9
$CLAYER
  8
0
  9
$CELTYPE
  6
ByLayer
  9
$CECOLOR
 62
   256
  9
$CELTSCALE
 40
1.0
  9
$DISPSILH
 70
     0
  9
$DIMSCALE
 40
1.0
  9
$DIMASZ
 40
6.604
  9
$DIMEXO
 40
2.0
  9
$DIMDLI
 40
3.75
  9
$DIMRND
 40
0.0
  9
$DIMDLE
 40
0.0
  9
$DIMEXE
 40
2.0
  9
$DIMTP
 40
0.0
  9
$DIMTM
 40
0.0
  9
$DIMTXT
 40
7.0
  9
$DIMCEN
 40
2.5
  9
$DIMTSZ
 40
0.0
  9
$DIMTOL
 70
     0
  9
$DIMLIM
 70
     0
  9
$DIMTIH
 70
     1
  9
$DIMTOH
 70
     1
  9
$DIMSE1
 70
     0
  9
$DIMSE2
 70
     0
  9
$DIMTAD
 70
     1
  9
$DIMZIN
 70
     1
  9
$DIMBLK
  1

  9
$DIMASO
 70
     1
  9
$DIMSHO
 70
     1
  9
$DIMPOST
  1

  9
$DIMAPOST
  1

  9
$DIMALT
 70
     0
  9
$DIMALTD
 70
     3
  9
$DIMALTF
 40
0.0393700787
  9
$DIMLFAC
 40
1.0
  9
$DIMTOFL
 70
     1
  9
$DIMTVP
 40
0.0
  9
$DIMTIX
 70
     0
  9
$DIMSOXD
 70
     0
  9
$DIMSAH
 70
     0
  9
$DIMBLK1
  1

  9
$DIMBLK2
  1

  9
$DIMSTYLE
  2
ISO-25
  9
$DIMCLRD
 70
     0
  9
$DIMCLRE
 70
     0
  9
$DIMCLRT
 70
     0
  9
$DIMTFAC
 40
1.0
  9
$DIMGAP
 40
3.048
  9
$DIMJUST
 70
     0
  9
$DIMSD1
 70
     0
  9
$DIMSD2
 70
     0
  9
$DIMTOLJ
 70
     0
  9
$DIMTZIN
 70
     1
  9
$DIMALTZ
 70
     0
  9
$DIMALTTZ
 70
     0
  9
$DIMUPT
 70
     0
  9
$DIMDEC
 70
     2
  9
$DIMTDEC
 70
     2
  9
$DIMALTU
 70
     2
  9
$DIMALTTD
 70
     3
  9
$DIMTXSTY
  7
Standard
  9
$DIMAUNIT
 70
     0
  9
$DIMADEC
 70
     2
  9
$DIMALTRND
 40
0.0
  9
$DIMAZIN
 70
     0
  9
$DIMDSEP
 70
    44
  9
$DIMATFIT
 70
     3
  9
$DIMFRAC
 70
     0
  9
$DIMLDRBLK
  1

  9
$DIMLUNIT
 70
     2
  9
$DIMLWD
 70
    -2
  9
$DIMLWE
 70
    -2
  9
$DIMTMOVE
 70
     0
  9
$LUNITS
 70
     2
  9
$LUPREC
 70
     2
  9
$SKETCHINC
 40
1.0
  9
$FILLETRAD
 40
10.0
  9
$AUNITS
 70
     0
  9
$AUPREC
 70
     2
  9
$MENU
  1
.
  9
$ELEVATION
 40
0.0
  9
$PELEVATION
 40
0.0
  9
$THICKNESS
 40
0.0
  9
$LIMCHECK
 70
     0
  9
$CHAMFERA
 40
0.0
  9
$CHAMFERB
 40
0.0
  9
$CHAMFERC
 40
0.0
  9
$CHAMFERD
 40
0.0
  9
$SKPOLY
 70
     0
  9
$TDCREATE
 40
2459486.648753912
  9
$TDUCREATE
 40
2459486.273753912
  9
$TDUPDATE
 40
2459486.648754699
  9
$TDUUPDATE
 40
2459486.273754699
  9
$TDINDWG
 40
0.0000000116
  9
$TDUSRTIMER
 40
0.0000000116
  9
$USRTIMER
 70
     1
  9
$ANGBASE
 50
0.0
  9
$ANGDIR
 70
     0
  9
$PDMODE
 70
     0
  9
$PDSIZE
 40
-1.0
  9
$PLINEWID
 40
0.0
  9
$SPLFRAME
 70
     0
  9
$SPLINETYPE
 70
     6
  9
$SPLINESEGS
 70
     8
  9
$HANDSEED
  5
21B
  9
$SURFTAB1
 70
     6
  9
$SURFTAB2
 70
     6
  9
$SURFTYPE
 70
     6
  9
$SURFU
 70
     6
  9
$SURFV
 70
     6
  9
$UCSBASE
  2

  9
$UCSNAME
  2

  9
$UCSORG
 10
0.0
 20
0.0
 30
0.0
  9
$UCSXDIR
 10
1.0
 20
0.0
 30
0.0
  9
$UCSYDIR
 10
0.0
 20
1.0
 30
0.0
  9
$UCSORTHOREF
  2

  9
$UCSORTHOVIEW
 70
     0
  9
$UCSORGTOP
 10
0.0
 20
0.0
 30
0.0
  9
$UCSORGBOTTOM
 10
0.0
 20
0.0
 30
0.0
  9
$UCSORGLEFT
 10
0.0
 20
0.0
 30
0.0
  9
$UCSORGRIGHT
 10
0.0
 20
0.0
 30
0.0
  9
$UCSORGFRONT
 10
0.0
 20
0.0
 30
0.0
  9
$UCSORGBACK
 10
0.0
 20
0.0
 30
0.0
  9
$PUCSBASE
  2

  9
$PUCSNAME
  2

  9
$PUCSORG
 10
0.0
 20
0.0
 30
0.0
  9
$PUCSXDIR
 10
1.0
 20
0.0
 30
0.0
  9
$PUCSYDIR
 10
0.0
 20
1.0
 30
0.0
  9
$PUCSORTHOREF
  2

  9
$PUCSORTHOVIEW
 70
     0
  9
$PUCSORGTOP
 10
0.0
 20
0.0
 30
0.0
  9
$PUCSORGBOTTOM
 10
0.0
 20
0.0
 30
0.0
  9
$PUCSORGLEFT
 10
0.0
 20
0.0
 30
0.0
  9
$PUCSORGRIGHT
 10
0.0
 20
0.0
 30
0.0
  9
$PUCSORGFRONT
 10
0.0
 20
0.0
 30
0.0
  9
$PUCSORGBACK
 10
0.0
 20
0.0
 30
0.0
  9
$USERI1
 70
     0
  9
$USERI2
 70
     0
  9
$USERI3
 70
     0
  9
$USERI4
 70
     0
  9
$USERI5
 70
     0
  9
$USERR1
 40
0.0
  9
$USERR2
 40
0.0
  9
$USERR3
 40
0.0
  9
$USERR4
 40
0.0
  9
$USERR5
 40
0.0
  9
$WORLDVIEW
 70
     1
  9
$SHADEDGE
 70
     3
  9
$SHADEDIF
 70
    70
  9
$TILEMODE
 70
     1
  9
$MAXACTVP
 70
    64
  9
$PINSBASE
 10
0.0
 20
0.0
 30
0.0
  9
$PLIMCHECK
 70
     0
  9
$PEXTMIN
 10
1.0000000000E+20
 20
1.0000000000E+20
 30
1.0000000000E+20
  9
$PEXTMAX
 10
-1.0000000000E+20
 20
-1.0000000000E+20
 30
-1.0000000000E+20
  9
$PLIMMIN
 10
0.0
 20
0.0
  9
$PLIMMAX
 10
420.0
 20
297.0
  9
$UNITMODE
 70
     0
  9
$VISRETAIN
 70
     1
  9
$PLINEGEN
 70
     0
  9
$PSLTSCALE
 70
     1
  9
$TREEDEPTH
 70
  3020
  9
$CMLSTYLE
  2
Standard
  9
$CMLJUST
 70
     0
  9
$CMLSCALE
 40
20.0
  9
$PROXYGRAPHICS
 70
     1
  9
$MEASUREMENT
 70
     1
  9
$CELWEIGHT
370
    -1
  9
$ENDCAPS
280
     0
  9
$JOINSTYLE
280
     0
  9
$LWDISPLAY
290
     1
  9
$INSUNITS
 70
     4
  9
$HYPERLINKBASE
  1

  9
$STYLESHEET
  1

  9
$XEDIT
290
     1
  9
$CEPSNTYPE
380
     0
  9
$PSTYLEMODE
290
     1
  9
$FINGERPRINTGUID
  2
{3AAC4976-0B4C-4B74-B895-1CA32F5D03CB}
  9
$VERSIONGUID
  2
{FAEB1C32-E019-11D5-929B-00C0DF256EC4}
  9
$EXTNAMES
290
     1
  9
$PSVPSCALE
 40
0.0
  9
$OLESTARTUP
290
     0
  0
ENDSEC
  0
SECTION
  2
CLASSES
  0
CLASS
  1
ACDBDICTIONARYWDFLT
  2
AcDbDictionaryWithDefault
  3
ObjectDBX Classes
 90
        0
280
     0
281
     0
  0
CLASS
  1
VISUALSTYLE
  2
AcDbVisualStyle
  3
ObjectDBX Classes
 90
     4095
280
     0
281
     0
  0
CLASS
  1
MATERIAL
  2
AcDbMaterial
  3
ObjectDBX Classes
 90
     1153
280
     0
281
     0
  0
CLASS
  1
SCALE
  2
AcDbScale
  3
ObjectDBX Classes
 90
     1153
280
     0
281
     0
  0
CLASS
  1
TABLESTYLE
  2
AcDbTableStyle
  3
ObjectDBX Classes
 90
     4095
280
     0
281
     0
  0
CLASS
  1
MLEADERSTYLE
  2
AcDbMLeaderStyle
  3
ACDB_MLEADERSTYLE_CLASS
 90
     4095
280
     0
281
     0
  0
CLASS
  1
SUN
  2
AcDbSun
  3
SCENEOE
 90
     1153
280
     0
281
     0
  0
CLASS
  1
ACDBPLACEHOLDER
  2
AcDbPlaceHolder
  3
ObjectDBX Classes
 90
        0
280
     0
281
     0
  0
CLASS
  1
LAYOUT
  2
AcDbLayout
  3
ObjectDBX Classes
 90
        0
280
     0
281
     0
  0
ENDSEC
  0
SECTION
  2
TABLES
  0
TABLE
  2
VPORT
  5
8
330
0
100
AcDbSymbolTable
 70
     1
  0
VPORT
  5
29
330
8
100
AcDbSymbolTableRecord
100
AcDbViewportTableRecord
  2
*Active
 70
     0
 10
0.0
 20
0.0
 11
1.0
 21
1.0
 12
431.8
 22
279.4
 13
0.0
 23
0.0
 14
10.0
 24
10.0
 15
10.0
 25
10.0
 16
0.0
 26
0.0
 36
1.0
 17
0.0
 27
0.0
 37
0.0
 40
558.8
 41
1.5454545455
 42
50.0
 43
0.0
 44
0.0
 50
0.0
 51
0.0
 71
     0
 72
  2000
 73
     1
 74
     3
 75
     0
 76
     0
 77
     0
 78
     0
281
     0
 65
     1
110
0.0
120
0.0
130
0.0
111
1.0
121
0.0
131
0.0
112
0.0
122
1.0
132
0.0
 79
     0
146
0.0
  0
ENDTAB
  0
TABLE
  2
LTYPE
  5
5
330
0
100
AcDbSymbolTable
 70
     6
  0
LTYPE
  5
14
330
5
100
AcDbSymbolTableRecord
100
AcDbLinetypeTableRecord
  2
ByBlock
 70
     0
  3

 72
    65
 73
     0
 40
0.0
  0
LTYPE
  5
15
330
5
100
AcDbSymbolTableRecord
100
AcDbLinetypeTableRecord
  2
ByLayer
 70
     0
  3

 72
    65
 73
     0
 40
0.0
  0
LTYPE
  5
16
330
5
100
AcDbSymbolTableRecord
100
AcDbLinetypeTableRecord
  2
Continuous
 70
     0
  3
Solid line
 72
    65
 73
     0
 40
0.0
  0
LTYPE
  5
6E
330
5
100
AcDbSymbolTableRecord
100
AcDbLinetypeTableRecord
  2
HIDDEN
 70
     0
  3
Hidden __ __ __ __ __ __ __ __ __ __ __ __ __ __
 72
    65
 73
     2
 40
1.905
 49
1.27
 74
     0
 49
-0.635
 74
     0
  0
LTYPE
  5
6F
330
5
100
AcDbSymbolTableRecord
100
AcDbLinetypeTableRecord
  2
PHANTOM
 70
     0
  3
Phantom ______  __  __  ______  __  __  ______
 72
    65
 73
     6
 40
12.7
 49
6.35
 74
     0
 49
-1.27
 74
     0
 49
1.27
 74
     0
 49
-1.27
 74
     0
 49
1.27
 74
     0
 49
-1.27
 74
     0
  0
LTYPE
  5
70
330
5
100
AcDbSymbolTableRecord
100
AcDbLinetypeTableRecord
  2
CENTER
 70
     0
  3
Center ____ _ ____ _ ____ _ ____ _ ____ _ ____
 72
    65
 73
     4
 40
10.16
 49
6.35
 74
     0
 49
-1.27
 74
     0
 49
1.27
 74
     0
 49
-1.27
 74
     0
  0
LTYPE
  5
71
330
5
100
AcDbSymbolTableRecord
100
AcDbLinetypeTableRecord
  2
CENTERX2
 70
     0
  3
Center (2x) ________  __  ________  __  _____
 72
    65
 73
     4
 40
20.32
 49
12.7
 74
     0
 49
-2.54
 74
     0
 49
2.54
 74
     0
 49
-2.54
 74
     0
  0
LTYPE
  5
72
330
5
100
AcDbSymbolTableRecord
100
AcDbLinetypeTableRecord
  2
DOT2
 70
     0
  3
Dot (.5x) ........................................
 72
    65
 73
     2
 40
0.635
 49
0.0
 74
     0
 49
-0.635
 74
     0
  0
ENDTAB
  0
TABLE
  2
LAYER
  5
2
330
0
100
AcDbSymbolTable
 70
     1
  0
LAYER
  5
10
330
2
100
AcDbSymbolTableRecord
100
AcDbLayerTableRecord
  2
0
 70
     0
 62
     7
  6
Continuous
370
    -3
390
F
  0
ENDTAB
  0
TABLE
  2
STYLE
  5
3
330
0
100
AcDbSymbolTable
 70
     2
  0
STYLE
  5
11
330
3
100
AcDbSymbolTableRecord
100
AcDbTextStyleTableRecord
  2
Standard
 70
     0
 40
0.0
 41
1.0
 50
0.0
 71
     0
 42
7.0
  3
txt
  4
bigfont
  0
STYLE
  5
73
330
3
100
AcDbSymbolTableRecord
100
AcDbTextStyleTableRecord
  2
SLDTEXTSTYLE0
 70
     0
 40
0.0
 41
0.7
 50
0.0
 71
     0
 42
7.0
  3
TXT
  4
bigfont
  0
ENDTAB
  0
TABLE
  2
VIEW
  5
6
330
0
100
AcDbSymbolTable
 70
     0
  0
ENDTAB
  0
TABLE
  2
UCS
  5
7
330
0
100
AcDbSymbolTable
 70
     0
  0
ENDTAB
  0
TABLE
  2
APPID
  5
9
330
0
100
AcDbSymbolTable
 70
     1
  0
APPID
  5
12
330
9
100
AcDbSymbolTableRecord
100
AcDbRegAppTableRecord
  2
ACAD
 70
     0
  0
ENDTAB
  0
TABLE
  2
DIMSTYLE
  5
A
330
0
100
AcDbSymbolTable
 70
     1
100
AcDbDimStyleTable
  0
DIMSTYLE
105
27
330
A
100
AcDbSymbolTableRecord
100
AcDbDimStyleTableRecord
  2
ISO-25
 70
     0
 41
2.5
 42
0.625
 43
3.75
 44
1.25
 73
     0
 74
     0
 77
     1
 78
     8
140
2.5
141
2.5
143
0.0393700787
147
0.625
171
     3
172
     1
178
     0
271
     2
272
     2
274
     3
278
    44
283
     0
284
     8
340
11
  0
ENDTAB
  0
TABLE
  2
BLOCK_RECORD
  5
1
330
0
100
AcDbSymbolTable
 70
     2
  0
BLOCK_RECORD
  5
1F
330
1
100
AcDbSymbolTableRecord
100
AcDbBlockTableRecord
  2
*Model_Space
340
22
  0
BLOCK_RECORD
  5
1B
330
1
100
AcDbSymbolTableRecord
100
AcDbBlockTableRecord
  2
*Paper_Space
340
1E
  0
BLOCK_RECORD
  5
23
330
1
100
AcDbSymbolTableRecord
100
AcDbBlockTableRecord
  2
*Paper_Space0
340
26
  0
BLOCK_RECORD
  5
152
330
1
100
AcDbSymbolTableRecord
100
AcDbBlockTableRecord
  2
SW_CENTERMARKSYMBOL_0
340
0
102
{BLKREFS
331
15D
102
}
  0
ENDTAB
  0
ENDSEC
  0
SECTION
  2
BLOCKS
  0
BLOCK
  5
20
330
1F
100
AcDbEntity
  8
0
100
AcDbBlockBegin
  2
*Model_Space
 70
     0
 10
0.0
 20
0.0
 30
0.0
  3
*Model_Space
  1

  0
ENDBLK
  5
21
330
1F
100
AcDbEntity
  8
0
100
AcDbBlockEnd
  0
BLOCK
  5
1C
330
1B
100
AcDbEntity
 67
     1
  8
0
100
AcDbBlockBegin
  2
*Paper_Space
 70
     0
 10
0.0
 20
0.0
 30
0.0
  3
*Paper_Space
  1

  0
ENDBLK
  5
1D
330
1B
100
AcDbEntity
 67
     1
  8
0
100
AcDbBlockEnd
  0
BLOCK
  5
24
330
23
100
AcDbEntity
  8
0
100
AcDbBlockBegin
  2
*Paper_Space0
 70
     0
 10
0.0
 20
0.0
 30
0.0
  3
*Paper_Space0
  1

  0
ENDBLK
  5
25
330
23
100
AcDbEntity
  8
0
100
AcDbBlockEnd
  0
BLOCK
  5
153
330
152
100
AcDbEntity
  8
0
100
AcDbBlockBegin
  2
SW_CENTERMARKSYMBOL_0
 70
     0
 10
0.0
 20
0.0
 30
0.0
  3
SW_CENTERMARKSYMBOL_0
  1

  0
LINE
  5
155
330
152
100
AcDbEntity
  8
0
  6
Continuous
 62
     0
370
    18
100
AcDbLine
 10
0.0
 20
0.0
 30
0.0
 11
0.0
 21
2.5
 31
0.0
  0
LINE
  5
156
330
152
100
AcDbEntity
  8
0
  6
Continuous
 62
     0
370
    18
100
AcDbLine
 10
0.0
 20
0.0
 30
0.0
 11
-2.5
 21
0.0
 31
0.0
  0
LINE
  5
157
330
152
100
AcDbEntity
  8
0
  6
Continuous
 62
     0
370
    18
100
AcDbLine
 10
0.0
 20
0.0
 30
0.0
 11
0.0
 21
-2.5
 31
0.0
  0
LINE
  5
158
330
152
100
AcDbEntity
  8
0
  6
Continuous
 62
     0
370
    18
100
AcDbLine
 10
0.0
 20
0.0
 30
0.0
 11
2.5
 21
0.0
 31
0.0
  0
LINE
  5
159
330
152
100
AcDbEntity
  8
0
  6
Continuous
 62
     0
370
    18
100
AcDbLine
 10
0.0
 20
5.0
 30
0.0
 11
0.0
 21
18.8310583901
 31
0.0
  0
LINE
  5
15A
330
152
100
AcDbEntity
  8
0
  6
Continuous
 62
     0
370
    18
100
AcDbLine
 10
-5.0
 20
0.0
 30
0.0
 11
-17.25
 21
0.0
 31
0.0
  0
LINE
  5
15B
330
152
100
AcDbEntity
  8
0
  6
Continuous
 62
     0
370
    18
100
AcDbLine
 10
0.0
 20
-5.0
 30
0.0
 11
0.0
 21
-18.6006464183
 31
0.0
  0
LINE
  5
15C
330
152
100
AcDbEntity
  8
0
  6
Continuous
 62
     0
370
    18
100
AcDbLine
 10
5.0
 20
0.0
 30
0.0
 11
17.25
 21
0.0
 31
0.0
  0
ENDBLK
  5
154
330
152
100
AcDbEntity
  8
0
100
AcDbBlockEnd
  0
ENDSEC
  0
SECTION
  2
ENTITIES
  0
MTEXT
  5
74
330
1F
100
AcDbEntity
  8
0
  6
Continuous
 62
     7
370
     0
100
AcDbMText
 10
384.4196782275
 20
215.4343892409
 30
0.0
 40
8.4666666667
 41
0.0
 71
     1
 72
     1
  1
HS-2620R
  7
SLDTEXTSTYLE0
 73
     1
 44
1.0
  0
LINE
  5
75
330
1F
100
AcDbEntity
  8
0
  6
Continuous
 62
     7
370
    25
100
AcDbLine
 10
283.9965732766
 20
181.9146520231
 30
0.0
 11
278.9965732766
 21
180.9146520231
 31
0.0
  0
LINE
  5
76
330
1F
100
AcDbEntity
  8
0
  6
Continuous
 62
     7
370
    25
100
AcDbLine
 10
278.9965732766
 20
162.4146520231
 30
0.0
 11
283.9965732766
 21
161.4146520231
 31
0.0
  0
LINE
  5
77
330
1F
100
AcDbEntity
  8
0
  6
Continuous
 62
     7
370
    25
100
AcDbLine
 10
273.9965732766
 20
181.9146520231
 30
0.0
 11
268.9965732766
 21
180.9146520231
 31
0.0
  0
LINE
  5
78
330
1F
100
AcDbEntity
  8
0
  6
Continuous
 62
     7
370
    25
100
AcDbLine
 10
268.9965732766
 20
162.4146520231
 30
0.0
 11
273.9965732766
 21
161.4146520231
 31
0.0
  0
LINE
  5
79
330
1F
100
AcDbEntity
  8
0
  6
Continuous
 62
     7
370
    25
100
AcDbLine
 10
278.9965732766
 20
181.9146520231
 30
0.0
 11
273.9965732766
 21
180.9146520231
 31
0.0
  0
LINE
  5
7A
330
1F
100
AcDbEntity
  8
0
  6
Continuous
 62
     7
370
    25
100
AcDbLine
 10
273.9965732766
 20
162.4146520231
 30
0.0
 11
278.9965732766
 21
161.4146520231
 31
0.0
  0
LINE
  5
7B
330
1F
100
AcDbEntity
  8
0
  6
Continuous
 62
     7
370
    25
100
AcDbLine
 10
268.9965732766
 20
181.9146520231
 30
0.0
 11
261.9888511533
 21
181.0386867577
 31
0.0
  0
LINE
  5
7C
330
1F
100
AcDbEntity
  8
0
  6
Continuous
 62
     7
370
    25
100
AcDbLine
 10
261.9888511533
 20
162.2906172885
 30
0.0
 11
268.9965732766
 21
161.4146520231
 31
0.0
  0
LINE
  5
7D
330
1F
100
AcDbEntity
  8
0
  6
Continuous
 62
     7
370
    25
100
AcDbLine
 10
288.9965732766
 20
181.9146520231
 30
0.0
 11
283.9965732766
 21
180.9146520231
 31
0.0
  0
LINE
  5
7E
330
1F
100
AcDbEntity
  8
0
  6
Continuous
 62
     7
370
    25
100
AcDbLine
 10
283.9965732766
 20
162.4146520231
 30
0.0
 11
288.9965732766
 21
161.4146520231
 31
0.0
  0
LINE
  5
7F
330
1F
100
AcDbEntity
  8
0
  6
Continuous
 62
     7
370
    25
100
AcDbLine
 10
288.9965732766
 20
161.4146520231
 30
0.0
 11
295.4965732766
 21
161.4146520231
 31
0.0
  0
LINE
  5
80
330
1F
100
AcDbEntity
  8
0
  6
Continuous
 62
     7
370
    25
100
AcDbLine
 10
295.4965732766
 20
181.9146520231
 30
0.0
 11
288.9965732766
 21
181.9146520231
 31
0.0
  0
LINE
  5
81
330
1F
100
AcDbEntity
  8
0
  6
Continuous
 62
     7
370
    25
100
AcDbLine
 10
261.9888511533
 20
181.0386867577
 30
0.0
 11
260.9965732766
 21
179.7629009162
 31
0.0
  0
LINE
  5
82
330
1F
100
AcDbEntity
  8
0
  6
Continuous
 62
     7
370
    25
100
AcDbLine
 10
260.9965732766
 20
163.56640313
 30
0.0
 11
261.9888511533
 21
162.2906172885
 31
0.0
  0
LINE
  5
83
330
1F
100
AcDbEntity
  8
0
  6
Continuous
 62
     7
370
    25
100
AcDbLine
 10
368.2023446425
 20
161.4146520231
 30
0.0
 11
373.2023446425
 21
162.4146520231
 31
0.0
  0
LINE
  5
84
330
1F
100
AcDbEntity
  8
0
  6
Continuous
 62
     7
370
    25
100
AcDbLine
 10
373.2023446425
 20
180.9146520231
 30
0.0
 11
368.2023446425
 21
181.9146520231
 31
0.0
  0
LINE
  5
85
330
1F
100
AcDbEntity
  8
0
  6
Continuous
 62
     7
370
    25
100
AcDbLine
 10
363.2023446425
 20
161.4146520231
 30
0.0
 11
368.2023446425
 21
162.4146520231
 31
0.0
  0
LINE
  5
86
330
1F
100
AcDbEntity
  8
0
  6
Continuous
 62
     7
370
    25
100
AcDbLine
 10
368.2023446425
 20
180.9146520231
 30
0.0
 11
363.2023446425
 21
181.9146520231
 31
0.0
  0
LINE
  5
87
330
1F
100
AcDbEntity
  8
0
  6
Continuous
 62
     7
370
    25
100
AcDbLine
 10
358.2023446425
 20
161.4146520231
 30
0.0
 11
363.2023446425
 21
162.4146520231
 31
0.0
  0
LINE
  5
88
330
1F
100
AcDbEntity
  8
0
  6
Continuous
 62
     7
370
    25
100
AcDbLine
 10
363.2023446425
 20
180.9146520231
 30
0.0
 11
358.2023446425
 21
181.9146520231
 31
0.0
  0
LINE
  5
89
330
1F
100
AcDbEntity
  8
0
  6
Continuous
 62
     7
370
    25
100
AcDbLine
 10
373.2023446425
 20
161.4146520231
 30
0.0
 11
380.2100667658
 21
162.2906172885
 31
0.0
  0
LINE
  5
8A
330
1F
100
AcDbEntity
  8
0
  6
Continuous
 62
     7
370
    25
100
AcDbLine
 10
380.2100667658
 20
181.0386867577
 30
0.0
 11
373.2023446425
 21
181.9146520231
 31
0.0
  0
LINE
  5
8B
330
1F
100
AcDbEntity
  8
0
  6
Continuous
 62
     7
370
    25
100
AcDbLine
 10
353.2023446425
 20
181.9146520231
 30
0.0
 11
346.7023446425
 21
181.9146520231
 31
0.0
  0
LINE
  5
8C
330
1F
100
AcDbEntity
  8
0
  6
Continuous
 62
     7
370
    25
100
AcDbLine
 10
346.7023446425
 20
161.4146520231
 30
0.0
 11
353.2023446425
 21
161.4146520231
 31
0.0
  0
LINE
  5
8D
330
1F
100
AcDbEntity
  8
0
  6
Continuous
 62
     7
370
    25
100
AcDbLine
 10
353.2023446425
 20
161.4146520231
 30
0.0
 11
358.2023446425
 21
162.4146520231
 31
0.0
  0
LINE
  5
8E
330
1F
100
AcDbEntity
  8
0
  6
Continuous
 62
     7
370
    25
100
AcDbLine
 10
358.2023446425
 20
180.9146520231
 30
0.0
 11
353.2023446425
 21
181.9146520231
 31
0.0
  0
LINE
  5
8F
330
1F
100
AcDbEntity
  8
0
  6
Continuous
 62
     7
370
    25
100
AcDbLine
 10
380.2100667658
 20
162.2906172885
 30
0.0
 11
381.2023446425
 21
163.56640313
 31
0.0
  0
LINE
  5
90
330
1F
100
AcDbEntity
  8
0
  6
Continuous
 62
     7
370
    25
100
AcDbLine
 10
381.2023446425
 20
179.7629009162
 30
0.0
 11
380.2100667658
 21
181.0386867577
 31
0.0
  0
LINE
  5
91
330
1F
100
AcDbEntity
  8
0
  6
Continuous
 62
     7
370
    25
100
AcDbLine
 10
332.686428172
 20
188.9851600988
 30
0.0
 11
331.2023446425
 21
186.4146520231
 31
0.0
  0
LINE
  5
92
330
1F
100
AcDbEntity
  8
0
  6
Continuous
 62
     7
370
    25
100
AcDbLine
 10
331.2023446425
 20
156.9146520231
 30
0.0
 11
332.686428172
 21
154.3441439474
 31
0.0
  0
LINE
  5
93
330
1F
100
AcDbEntity
  8
0
  6
Continuous
 62
     7
370
    25
100
AcDbLine
 10
343.2182611131
 20
154.3441439474
 30
0.0
 11
344.7023446425
 21
156.9146520231
 31
0.0
  0
LINE
  5
94
330
1F
100
AcDbEntity
  8
0
  6
Continuous
 62
     7
370
    25
100
AcDbLine
 10
344.7023446425
 20
186.4146520231
 30
0.0
 11
343.2182611131
 21
188.9851600988
 31
0.0
  0
LINE
  5
95
330
1F
100
AcDbEntity
  8
0
  6
Continuous
 62
     7
370
    25
100
AcDbLine
 10
331.2023446425
 20
186.4146520231
 30
0.0
 11
329.7023446425
 21
186.4146520231
 31
0.0
  0
LINE
  5
96
330
1F
100
AcDbEntity
  8
0
  6
Continuous
 62
     7
370
    25
100
AcDbLine
 10
329.7023446425
 20
156.9146520231
 30
0.0
 11
331.2023446425
 21
156.9146520231
 31
0.0
  0
LINE
  5
97
330
1F
100
AcDbEntity
  8
0
  6
Continuous
 62
     7
370
    25
100
AcDbLine
 10
344.7023446425
 20
156.9146520231
 30
0.0
 11
346.2023446425
 21
156.9146520231
 31
0.0
  0
LINE
  5
98
330
1F
100
AcDbEntity
  8
0
  6
Continuous
 62
     7
370
    25
100
AcDbLine
 10
346.2023446425
 20
186.4146520231
 30
0.0
 11
344.7023446425
 21
186.4146520231
 31
0.0
  0
LINE
  5
99
330
1F
100
AcDbEntity
  8
0
  6
Continuous
 62
     7
370
    25
100
AcDbLine
 10
346.2023446425
 20
156.9146520231
 30
0.0
 11
346.7023446425
 21
157.4146520231
 31
0.0
  0
LINE
  5
9A
330
1F
100
AcDbEntity
  8
0
  6
Continuous
 62
     7
370
    25
100
AcDbLine
 10
346.7023446425
 20
185.9146520231
 30
0.0
 11
346.2023446425
 21
186.4146520231
 31
0.0
  0
LINE
  5
9B
330
1F
100
AcDbEntity
  8
0
  6
Continuous
 62
     7
370
    25
100
AcDbLine
 10
329.7023446425
 20
186.4146520231
 30
0.0
 11
329.2023446425
 21
185.9146520231
 31
0.0
  0
LINE
  5
9C
330
1F
100
AcDbEntity
  8
0
  6
Continuous
 62
     7
370
    25
100
AcDbLine
 10
329.2023446425
 20
157.4146520231
 30
0.0
 11
329.7023446425
 21
156.9146520231
 31
0.0
  0
LINE
  5
9D
330
1F
100
AcDbEntity
  8
0
  6
Continuous
 62
     7
370
    25
100
AcDbLine
 10
338.0863192387
 20
188.9851600988
 30
0.0
 11
337.9523446425
 21
188.4851600988
 31
0.0
  0
LINE
  5
9E
330
1F
100
AcDbEntity
  8
0
  6
Continuous
 62
     7
370
    25
100
AcDbLine
 10
337.9523446425
 20
188.4851600988
 30
0.0
 11
337.8183700463
 21
188.9851600988
 31
0.0
  0
LINE
  5
9F
330
1F
100
AcDbEntity
  8
0
  6
Continuous
 62
     7
370
    25
100
AcDbLine
 10
337.9523446425
 20
154.8441439474
 30
0.0
 11
338.0863192387
 21
154.3441439474
 31
0.0
  0
LINE
  5
A0
330
1F
100
AcDbEntity
  8
0
  6
Continuous
 62
     7
370
    25
100
AcDbLine
 10
337.8183700463
 20
154.3441439474
 30
0.0
 11
337.9523446425
 21
154.8441439474
 31
0.0
  0
LINE
  5
A1
330
1F
100
AcDbEntity
  8
0
  6
Continuous
 62
     7
370
    25
100
AcDbLine
 10
309.5124897471
 20
154.3441439474
 30
0.0
 11
310.9965732766
 21
156.9146520231
 31
0.0
  0
LINE
  5
A2
330
1F
100
AcDbEntity
  8
0
  6
Continuous
 62
     7
370
    25
100
AcDbLine
 10
310.9965732766
 20
186.4146520231
 30
0.0
 11
309.5124897471
 21
188.9851600988
 31
0.0
  0
LINE
  5
A3
330
1F
100
AcDbEntity
  8
0
  6
Continuous
 62
     7
370
    25
100
AcDbLine
 10
298.980656806
 20
188.9851600988
 30
0.0
 11
297.4965732766
 21
186.4146520231
 31
0.0
  0
LINE
  5
A4
330
1F
100
AcDbEntity
  8
0
  6
Continuous
 62
     7
370
    25
100
AcDbLine
 10
297.4965732766
 20
156.9146520231
 30
0.0
 11
298.980656806
 21
154.3441439474
 31
0.0
  0
LINE
  5
A5
330
1F
100
AcDbEntity
  8
0
  6
Continuous
 62
     7
370
    25
100
AcDbLine
 10
310.9965732766
 20
156.9146520231
 30
0.0
 11
312.4965732766
 21
156.9146520231
 31
0.0
  0
LINE
  5
A6
330
1F
100
AcDbEntity
  8
0
  6
Continuous
 62
     7
370
    25
100
AcDbLine
 10
312.4965732766
 20
186.4146520231
 30
0.0
 11
310.9965732766
 21
186.4146520231
 31
0.0
  0
LINE
  5
A7
330
1F
100
AcDbEntity
  8
0
  6
Continuous
 62
     7
370
    25
100
AcDbLine
 10
297.4965732766
 20
186.4146520231
 30
0.0
 11
295.9965732766
 21
186.4146520231
 31
0.0
  0
LINE
  5
A8
330
1F
100
AcDbEntity
  8
0
  6
Continuous
 62
     7
370
    25
100
AcDbLine
 10
295.9965732766
 20
156.9146520231
 30
0.0
 11
297.4965732766
 21
156.9146520231
 31
0.0
  0
LINE
  5
A9
330
1F
100
AcDbEntity
  8
0
  6
Continuous
 62
     7
370
    25
100
AcDbLine
 10
312.4965732766
 20
156.9146520231
 30
0.0
 11
312.9965732766
 21
157.4146520231
 31
0.0
  0
LINE
  5
AA
330
1F
100
AcDbEntity
  8
0
  6
Continuous
 62
     7
370
    25
100
AcDbLine
 10
312.9965732766
 20
185.9146520231
 30
0.0
 11
312.4965732766
 21
186.4146520231
 31
0.0
  0
LINE
  5
AB
330
1F
100
AcDbEntity
  8
0
  6
Continuous
 62
     7
370
    25
100
AcDbLine
 10
295.9965732766
 20
186.4146520231
 30
0.0
 11
295.4965732766
 21
185.9146520231
 31
0.0
  0
LINE
  5
AC
330
1F
100
AcDbEntity
  8
0
  6
Continuous
 62
     7
370
    25
100
AcDbLine
 10
295.4965732766
 20
157.4146520231
 30
0.0
 11
295.9965732766
 21
156.9146520231
 31
0.0
  0
LINE
  5
AD
330
1F
100
AcDbEntity
  8
0
  6
Continuous
 62
     7
370
    25
100
AcDbLine
 10
304.3805478728
 20
188.9851600988
 30
0.0
 11
304.2465732766
 21
188.4851600988
 31
0.0
  0
LINE
  5
AE
330
1F
100
AcDbEntity
  8
0
  6
Continuous
 62
     7
370
    25
100
AcDbLine
 10
304.2465732766
 20
188.4851600988
 30
0.0
 11
304.1125986804
 21
188.9851600988
 31
0.0
  0
LINE
  5
AF
330
1F
100
AcDbEntity
  8
0
  6
Continuous
 62
     7
370
    25
100
AcDbLine
 10
304.1125986804
 20
154.3441439474
 30
0.0
 11
304.2465732766
 21
154.8441439474
 31
0.0
  0
LINE
  5
B0
330
1F
100
AcDbEntity
  8
0
  6
Continuous
 62
     7
370
    25
100
AcDbLine
 10
304.2465732766
 20
154.8441439474
 30
0.0
 11
304.3805478728
 21
154.3441439474
 31
0.0
  0
LINE
  5
B1
330
1F
100
AcDbEntity
  8
0
  6
Continuous
 62
     7
370
    25
100
AcDbLine
 10
323.7493500263
 20
156.076194755
 30
0.0
 11
325.0994589595
 21
158.4146520231
 31
0.0
  0
LINE
  5
B2
330
1F
100
AcDbEntity
  8
0
  6
Continuous
 62
     7
370
    25
100
AcDbLine
 10
325.0994589595
 20
184.9146520231
 30
0.0
 11
323.7493500263
 21
187.2531092912
 31
0.0
  0
LINE
  5
B3
330
1F
100
AcDbEntity
  8
0
  6
Continuous
 62
     7
370
    25
100
AcDbLine
 10
318.4495678928
 20
187.2531092912
 30
0.0
 11
317.0994589595
 21
184.9146520231
 31
0.0
  0
LINE
  5
B4
330
1F
100
AcDbEntity
  8
0
  6
Continuous
 62
     7
370
    25
100
AcDbLine
 10
317.0994589595
 20
158.4146520231
 30
0.0
 11
318.4495678928
 21
156.076194755
 31
0.0
  0
LINE
  5
B5
330
1F
100
AcDbEntity
  8
0
  6
Continuous
 62
     7
370
    25
100
AcDbLine
 10
312.9965732766
 20
158.7412663402
 30
0.0
 11
314.0994589595
 21
159.8441520231
 31
0.0
  0
LINE
  5
B6
330
1F
100
AcDbEntity
  8
0
  6
Continuous
 62
     7
370
    25
100
AcDbLine
 10
314.0994589595
 20
183.4851520231
 30
0.0
 11
312.9965732766
 21
184.5880377061
 31
0.0
  0
LINE
  5
B7
330
1F
100
AcDbEntity
  8
0
  6
Continuous
 62
     7
370
    25
100
AcDbLine
 10
329.2023446425
 20
184.5880377061
 30
0.0
 11
328.0994589595
 21
183.4851520231
 31
0.0
  0
LINE
  5
B8
330
1F
100
AcDbEntity
  8
0
  6
Continuous
 62
     7
370
    25
100
AcDbLine
 10
328.0994589595
 20
159.8441520231
 30
0.0
 11
329.2023446425
 21
158.7412663402
 31
0.0
  0
LINE
  5
B9
330
1F
100
AcDbEntity
  8
0
  6
Continuous
 62
     7
370
    25
100
AcDbLine
 10
325.0994589595
 20
159.8646520231
 30
0.0
 11
328.0994589595
 21
159.8646520231
 31
0.0
  0
LINE
  5
BA
330
1F
100
AcDbEntity
  8
0
  6
Continuous
 62
     7
370
    25
100
AcDbLine
 10
328.0994589595
 20
183.4646520231
 30
0.0
 11
325.0994589595
 21
183.4646520231
 31
0.0
  0
LINE
  5
BB
330
1F
100
AcDbEntity
  8
0
  6
Continuous
 62
     7
370
    25
100
AcDbLine
 10
317.0994589595
 20
183.4646520231
 30
0.0
 11
314.0994589595
 21
183.4646520231
 31
0.0
  0
LINE
  5
BC
330
1F
100
AcDbEntity
  8
0
  6
Continuous
 62
     7
370
    25
100
AcDbLine
 10
314.0994589595
 20
159.8646520231
 30
0.0
 11
317.0994589595
 21
159.8646520231
 31
0.0
  0
LINE
  5
BD
330
1F
100
AcDbEntity
  8
0
  6
Continuous
 62
     7
370
    25
100
AcDbLine
 10
321.0994589595
 20
186.9531092912
 30
0.0
 11
321.0190742018
 21
187.2531092912
 31
0.0
  0
LINE
  5
BE
330
1F
100
AcDbEntity
  8
0
  6
Continuous
 62
     7
370
    25
100
AcDbLine
 10
321.1798437173
 20
187.2531092912
 30
0.0
 11
321.0994589595
 21
186.9531092912
 31
0.0
  0
LINE
  5
BF
330
1F
100
AcDbEntity
  8
0
  6
Continuous
 62
     7
370
    25
100
AcDbLine
 10
321.0190742018
 20
156.076194755
 30
0.0
 11
321.0994589595
 21
156.376194755
 31
0.0
  0
LINE
  5
C0
330
1F
100
AcDbEntity
  8
0
  6
Continuous
 62
     7
370
    25
100
AcDbLine
 10
321.0994589595
 20
156.376194755
 30
0.0
 11
321.1798437173
 21
156.076194755
 31
0.0
  0
LINE
  5
C1
330
1F
100
AcDbEntity
  8
0
  6
Continuous
 62
     7
370
    25
100
AcDbLine
 10
283.9965732766
 20
161.4146520231
 30
0.0
 11
283.9965732766
 21
181.9146520231
 31
0.0
  0
LINE
  5
C2
330
1F
100
AcDbEntity
  8
0
  6
Continuous
 62
     7
370
    25
100
AcDbLine
 10
273.9965732766
 20
161.4146520231
 30
0.0
 11
273.9965732766
 21
181.9146520231
 31
0.0
  0
LINE
  5
C3
330
1F
100
AcDbEntity
  8
0
  6
Continuous
 62
     7
370
    25
100
AcDbLine
 10
278.9965732766
 20
161.4146520231
 30
0.0
 11
278.9965732766
 21
181.9146520231
 31
0.0
  0
LINE
  5
C4
330
1F
100
AcDbEntity
  8
0
  6
Continuous
 62
     7
370
    25
100
AcDbLine
 10
268.9965732766
 20
161.4146520231
 30
0.0
 11
268.9965732766
 21
181.9146520231
 31
0.0
  0
LINE
  5
C5
330
1F
100
AcDbEntity
  8
0
  6
Continuous
 62
     7
370
    25
100
AcDbLine
 10
261.9888511533
 20
181.0386867577
 30
0.0
 11
261.9888511533
 21
162.2906172885
 31
0.0
  0
LINE
  5
C6
330
1F
100
AcDbEntity
  8
0
  6
Continuous
 62
     7
370
    25
100
AcDbLine
 10
288.9965732766
 20
161.4146520231
 30
0.0
 11
288.9965732766
 21
181.9146520231
 31
0.0
  0
LINE
  5
C7
330
1F
100
AcDbEntity
  8
0
  6
Continuous
 62
     7
370
    25
100
AcDbLine
 10
260.9965732766
 20
163.56640313
 30
0.0
 11
260.9965732766
 21
179.7629009162
 31
0.0
  0
LINE
  5
C8
330
1F
100
AcDbEntity
  8
0
  6
Continuous
 62
     7
370
    25
100
AcDbLine
 10
368.2023446425
 20
181.9146520231
 30
0.0
 11
368.2023446425
 21
161.4146520231
 31
0.0
  0
LINE
  5
C9
330
1F
100
AcDbEntity
  8
0
  6
Continuous
 62
     7
370
    25
100
AcDbLine
 10
363.2023446425
 20
181.9146520231
 30
0.0
 11
363.2023446425
 21
161.4146520231
 31
0.0
  0
LINE
  5
CA
330
1F
100
AcDbEntity
  8
0
  6
Continuous
 62
     7
370
    25
100
AcDbLine
 10
358.2023446425
 20
181.9146520231
 30
0.0
 11
358.2023446425
 21
161.4146520231
 31
0.0
  0
LINE
  5
CB
330
1F
100
AcDbEntity
  8
0
  6
Continuous
 62
     7
370
    25
100
AcDbLine
 10
373.2023446425
 20
181.9146520231
 30
0.0
 11
373.2023446425
 21
161.4146520231
 31
0.0
  0
LINE
  5
CC
330
1F
100
AcDbEntity
  8
0
  6
Continuous
 62
     7
370
    25
100
AcDbLine
 10
380.2100667658
 20
162.2906172885
 30
0.0
 11
380.2100667658
 21
181.0386867577
 31
0.0
  0
LINE
  5
CD
330
1F
100
AcDbEntity
  8
0
  6
Continuous
 62
     7
370
    25
100
AcDbLine
 10
353.2023446425
 20
181.9146520231
 30
0.0
 11
353.2023446425
 21
161.4146520231
 31
0.0
  0
LINE
  5
CE
330
1F
100
AcDbEntity
  8
0
  6
Continuous
 62
     7
370
    25
100
AcDbLine
 10
381.2023446425
 20
179.7629009162
 30
0.0
 11
381.2023446425
 21
163.56640313
 31
0.0
  0
LINE
  5
CF
330
1F
100
AcDbEntity
  8
0
  6
Continuous
 62
     7
370
    25
100
AcDbLine
 10
338.0863192387
 20
180.324906061
 30
0.0
 11
343.2182611131
 21
180.324906061
 31
0.0
  0
SPLINE
  5
D0
330
1F
100
AcDbEntity
  8
0
  6
Continuous
 62
     7
370
    25
100
AcDbSpline
210
0.0
220
0.0
230
1.0
 70
     8
 71
     3
 72
    15
 73
    11
 74
     0
 42
0.000000001
 43
0.00000001
 40
0.0
 40
0.0
 40
0.0
 40
0.0
 40
0.1889662141881923
 40
0.2843710361048411
 40
0.3797654307392766
 40
0.50539701708763
 40
0.6310296657198599
 40
0.7600107750214578
 40
0.8890278321204425
 40
1.0
 40
1.0
 40
1.0
 40
1.0
 10
343.2182611130546
 20
180.3249060609657
 30
0.0
 10
343.5041099810806
 20
179.2540946470698
 30
0.0
 10
343.9342775595507
 20
177.6426544615814
 30
0.0
 10
344.3019962933232
 20
175.4457935397426
 30
0.0
 10
344.5104282035982
 20
173.6022109579363
 30
0.0
 10
344.5877186468306
 20
171.5694789518175
 30
0.0
 10
344.4866166294857
 20
169.3406311066631
 30
0.0
 10
344.1936744264132
 20
167.1092904537352
 30
0.0
 10
343.7640327423802
 20
164.987909061431
 30
0.0
 10
343.3908312649456
 20
163.6315738758824
 30
0.0
 10
343.2182611130546
 20
163.0043979852769
 30
0.0
  0
LINE
  5
D1
330
1F
100
AcDbEntity
  8
0
  6
Continuous
 62
     7
370
    25
100
AcDbLine
 10
338.0863192387
 20
163.0043979853
 30
0.0
 11
343.2182611131
 21
163.0043979853
 31
0.0
  0
LINE
  5
D2
330
1F
100
AcDbEntity
  8
0
  6
Continuous
 62
     7
370
    25
100
AcDbLine
 10
338.0863192387
 20
163.0043979853
 30
0.0
 11
337.9523446425
 21
164.0535094069
 31
0.0
  0
LINE
  5
D3
330
1F
100
AcDbEntity
  8
0
  6
Continuous
 62
     7
370
    25
100
AcDbLine
 10
337.9523446425
 20
164.0535094069
 30
0.0
 11
337.8183700463
 21
163.0043979853
 31
0.0
  0
LINE
  5
D4
330
1F
100
AcDbEntity
  8
0
  6
Continuous
 62
     7
370
    25
100
AcDbLine
 10
332.686428172
 20
163.0043979853
 30
0.0
 11
337.8183700463
 21
163.0043979853
 31
0.0
  0
SPLINE
  5
D5
330
1F
100
AcDbEntity
  8
0
  6
Continuous
 62
     7
370
    25
100
AcDbSpline
210
0.0
220
0.0
230
1.0
 70
     8
 71
     3
 72
    15
 73
    11
 74
     0
 42
0.000000001
 43
0.00000001
 40
0.0
 40
0.0
 40
0.0
 40
0.0
 40
0.1889662141881923
 40
0.2843710361048411
 40
0.3797654307392766
 40
0.50539701708763
 40
0.6310296657198599
 40
0.7600107750214578
 40
0.8890278321204425
 40
1.0
 40
1.0
 40
1.0
 40
1.0
 10
332.6864281719606
 20
180.3249060609657
 30
0.0
 10
332.4005793039345
 20
179.2540946470698
 30
0.0
 10
331.9704117254645
 20
177.6426544615814
 30
0.0
 10
331.6026929916919
 20
175.4457935397426
 30
0.0
 10
331.3942610814169
 20
173.6022109579363
 30
0.0
 10
331.3169706381845
 20
171.5694789518175
 30
0.0
 10
331.4180726555294
 20
169.3406311066631
 30
0.0
 10
331.7110148586019
 20
167.1092904537352
 30
0.0
 10
332.1406565426349
 20
164.987909061431
 30
0.0
 10
332.5138580200695
 20
163.6315738758824
 30
0.0
 10
332.6864281719606
 20
163.0043979852769
 30
0.0
  0
LINE
  5
D6
330
1F
100
AcDbEntity
  8
0
  6
Continuous
 62
     7
370
    25
100
AcDbLine
 10
332.686428172
 20
180.324906061
 30
0.0
 11
337.8183700463
 21
180.324906061
 31
0.0
  0
LINE
  5
D7
330
1F
100
AcDbEntity
  8
0
  6
Continuous
 62
     7
370
    25
100
AcDbLine
 10
337.8183700463
 20
180.324906061
 30
0.0
 11
337.9523446425
 21
179.2757946393
 31
0.0
  0
LINE
  5
D8
330
1F
100
AcDbEntity
  8
0
  6
Continuous
 62
     7
370
    25
100
AcDbLine
 10
337.9523446425
 20
179.2757946393
 30
0.0
 11
338.0863192387
 21
180.324906061
 31
0.0
  0
LINE
  5
D9
330
1F
100
AcDbEntity
  8
0
  6
Continuous
 62
     7
370
    25
100
AcDbLine
 10
337.9523446425
 20
179.2757946393
 30
0.0
 11
337.9523446425
 21
180.8494617718
 31
0.0
  0
LINE
  5
DA
330
1F
100
AcDbEntity
  8
0
  6
Continuous
 62
     7
370
    25
100
AcDbLine
 10
338.0863192387
 20
180.324906061
 30
0.0
 11
337.9523446425
 21
180.8494617718
 31
0.0
  0
LINE
  5
DB
330
1F
100
AcDbEntity
  8
0
  6
Continuous
 62
     7
370
    25
100
AcDbLine
 10
338.0863192387
 20
188.9851600988
 30
0.0
 11
343.2182611131
 21
188.9851600988
 31
0.0
  0
SPLINE
  5
DC
330
1F
100
AcDbEntity
  8
0
  6
Continuous
 62
     7
370
    25
100
AcDbSpline
210
0.0
220
0.0
230
1.0
 70
     8
 71
     3
 72
    15
 73
    11
 74
     0
 42
0.000000001
 43
0.00000001
 40
0.0
 40
0.0
 40
0.0
 40
0.0
 40
0.1323071196312175
 40
0.2645768296618952
 40
0.3998055717948222
 40
0.5350099115775102
 40
0.6501988847939827
 40
0.7654058260328535
 40
0.8826915738763782
 40
1.0
 40
1.0
 40
1.0
 40
1.0
 10
343.2182611130546
 20
188.9851600988101
 30
0.0
 10
343.4222108607533
 20
188.6109973225113
 30
0.0
 10
343.8300526897258
 20
187.8627775637667
 30
0.0
 10
344.2688720253954
 20
186.7105847659889
 30
0.0
 10
344.5327169580622
 20
185.5366725709169
 30
0.0
 10
344.5849602882381
 20
184.4052943142331
 30
0.0
 10
344.4493840297972
 20
183.3350502323802
 30
0.0
 10
344.1716011739707
 20
182.3250152529598
 30
0.0
 10
343.7641301897729
 20
181.3195471019802
 30
0.0
 10
343.4002291980953
 20
180.6564744411063
 30
0.0
 10
343.2182611130546
 20
180.3249060609657
 30
0.0
  0
LINE
  5
DD
330
1F
100
AcDbEntity
  8
0
  6
Continuous
 62
     7
370
    25
100
AcDbLine
 10
337.9523446425
 20
180.8494617718
 30
0.0
 11
337.8183700463
 21
180.324906061
 31
0.0
  0
SPLINE
  5
DE
330
1F
100
AcDbEntity
  8
0
  6
Continuous
 62
     7
370
    25
100
AcDbSpline
210
0.0
220
0.0
230
1.0
 70
     8
 71
     3
 72
    15
 73
    11
 74
     0
 42
0.000000001
 43
0.00000001
 40
0.0
 40
0.0
 40
0.0
 40
0.0
 40
0.1323071196312175
 40
0.2645768296618952
 40
0.3998055717948222
 40
0.5350099115775102
 40
0.6501988847939827
 40
0.7654058260328535
 40
0.8826915738763782
 40
1.0
 40
1.0
 40
1.0
 40
1.0
 10
332.6864281719606
 20
188.9851600988101
 30
0.0
 10
332.4824784242618
 20
188.6109973225113
 30
0.0
 10
332.0746365952893
 20
187.8627775637667
 30
0.0
 10
331.6358172596197
 20
186.7105847659889
 30
0.0
 10
331.371972326953
 20
185.5366725709169
 30
0.0
 10
331.319728996777
 20
184.4052943142331
 30
0.0
 10
331.4553052552179
 20
183.3350502323802
 30
0.0
 10
331.7330881110444
 20
182.3250152529598
 30
0.0
 10
332.1405590952422
 20
181.3195471019802
 30
0.0
 10
332.5044600869198
 20
180.6564744411063
 30
0.0
 10
332.6864281719606
 20
180.3249060609657
 30
0.0
  0
LINE
  5
DF
330
1F
100
AcDbEntity
  8
0
  6
Continuous
 62
     7
370
    25
100
AcDbLine
 10
332.686428172
 20
188.9851600988
 30
0.0
 11
337.8183700463
 21
188.9851600988
 31
0.0
  0
LINE
  5
E0
330
1F
100
AcDbEntity
  8
0
  6
Continuous
 62
     7
370
    25
100
AcDbLine
 10
337.8183700463
 20
188.9851600988
 30
0.0
 11
337.9523446425
 21
188.460604388
 31
0.0
  0
LINE
  5
E1
330
1F
100
AcDbEntity
  8
0
  6
Continuous
 62
     7
370
    25
100
AcDbLine
 10
337.9523446425
 20
188.460604388
 30
0.0
 11
338.0863192387
 21
188.9851600988
 31
0.0
  0
LINE
  5
E2
330
1F
100
AcDbEntity
  8
0
  6
Continuous
 62
     7
370
    25
100
AcDbLine
 10
331.2023446425
 20
171.6646520231
 30
0.0
 11
331.2023446425
 21
186.4146520231
 31
0.0
  0
LINE
  5
E3
330
1F
100
AcDbEntity
  8
0
  6
Continuous
 62
     7
370
    25
100
AcDbLine
 10
331.2023446425
 20
156.9146520231
 30
0.0
 11
331.2023446425
 21
171.6646520231
 31
0.0
  0
SPLINE
  5
E4
330
1F
100
AcDbEntity
  8
0
  6
Continuous
 62
     7
370
    25
100
AcDbSpline
210
0.0
220
0.0
230
1.0
 70
     8
 71
     3
 72
    15
 73
    11
 74
     0
 42
0.000000001
 43
0.00000001
 40
0.0
 40
0.0
 40
0.0
 40
0.0
 40
0.1323071196312175
 40
0.2645768296618954
 40
0.3998055717948223
 40
0.5350099115775103
 40
0.6501988847939828
 40
0.7654058260328537
 40
0.8826915738763783
 40
1.0
 40
1.0
 40
1.0
 40
1.0
 10
332.6864281719606
 20
163.0043979852769
 30
0.0
 10
332.4824784242618
 20
162.630235208978
 30
0.0
 10
332.0746365952893
 20
161.8820154502334
 30
0.0
 10
331.6358172596197
 20
160.7298226524557
 30
0.0
 10
331.371972326953
 20
159.5559104573837
 30
0.0
 10
331.319728996777
 20
158.4245322006999
 30
0.0
 10
331.4553052552179
 20
157.3542881188471
 30
0.0
 10
331.7330881110444
 20
156.3442531394266
 30
0.0
 10
332.1405590952422
 20
155.338784988447
 30
0.0
 10
332.5044600869198
 20
154.6757123275732
 30
0.0
 10
332.6864281719606
 20
154.3441439474326
 30
0.0
  0
LINE
  5
E5
330
1F
100
AcDbEntity
  8
0
  6
Continuous
 62
     7
370
    25
100
AcDbLine
 10
344.7023446425
 20
171.6646520231
 30
0.0
 11
344.7023446425
 21
186.4146520231
 31
0.0
  0
LINE
  5
E6
330
1F
100
AcDbEntity
  8
0
  6
Continuous
 62
     7
370
    25
100
AcDbLine
 10
344.7023446425
 20
156.9146520231
 30
0.0
 11
344.7023446425
 21
171.6646520231
 31
0.0
  0
SPLINE
  5
E7
330
1F
100
AcDbEntity
  8
0
  6
Continuous
 62
     7
370
    25
100
AcDbSpline
210
0.0
220
0.0
230
1.0
 70
     8
 71
     3
 72
    15
 73
    11
 74
     0
 42
0.000000001
 43
0.00000001
 40
0.0
 40
0.0
 40
0.0
 40
0.0
 40
0.1323071196312175
 40
0.2645768296618954
 40
0.3998055717948223
 40
0.5350099115775103
 40
0.6501988847939828
 40
0.7654058260328537
 40
0.8826915738763783
 40
1.0
 40
1.0
 40
1.0
 40
1.0
 10
343.2182611130546
 20
163.0043979852769
 30
0.0
 10
343.4222108607533
 20
162.630235208978
 30
0.0
 10
343.8300526897258
 20
161.8820154502334
 30
0.0
 10
344.2688720253954
 20
160.7298226524557
 30
0.0
 10
344.5327169580622
 20
159.5559104573837
 30
0.0
 10
344.5849602882381
 20
158.4245322006999
 30
0.0
 10
344.4493840297972
 20
157.3542881188471
 30
0.0
 10
344.1716011739707
 20
156.3442531394266
 30
0.0
 10
343.7641301897729
 20
155.338784988447
 30
0.0
 10
343.4002291980953
 20
154.6757123275732
 30
0.0
 10
343.2182611130546
 20
154.3441439474326
 30
0.0
  0
LINE
  5
E8
330
1F
100
AcDbEntity
  8
0
  6
Continuous
 62
     7
370
    25
100
AcDbLine
 10
337.9523446425
 20
162.4798422745
 30
0.0
 11
337.9523446425
 21
164.0535094069
 31
0.0
  0
LINE
  5
E9
330
1F
100
AcDbEntity
  8
0
  6
Continuous
 62
     7
370
    25
100
AcDbLine
 10
337.9523446425
 20
162.4798422745
 30
0.0
 11
338.0863192387
 21
163.0043979853
 31
0.0
  0
LINE
  5
EA
330
1F
100
AcDbEntity
  8
0
  6
Continuous
 62
     7
370
    25
100
AcDbLine
 10
337.8183700463
 20
163.0043979853
 30
0.0
 11
337.9523446425
 21
162.4798422745
 31
0.0
  0
LINE
  5
EB
330
1F
100
AcDbEntity
  8
0
  6
Continuous
 62
     7
370
    25
100
AcDbLine
 10
338.0863192387
 20
154.3441439474
 30
0.0
 11
343.2182611131
 21
154.3441439474
 31
0.0
  0
LINE
  5
EC
330
1F
100
AcDbEntity
  8
0
  6
Continuous
 62
     7
370
    25
100
AcDbLine
 10
338.0863192387
 20
154.3441439474
 30
0.0
 11
337.9523446425
 21
154.8686996582
 31
0.0
  0
LINE
  5
ED
330
1F
100
AcDbEntity
  8
0
  6
Continuous
 62
     7
370
    25
100
AcDbLine
 10
337.9523446425
 20
154.8686996582
 30
0.0
 11
337.8183700463
 21
154.3441439474
 31
0.0
  0
LINE
  5
EE
330
1F
100
AcDbEntity
  8
0
  6
Continuous
 62
     7
370
    25
100
AcDbLine
 10
332.686428172
 20
154.3441439474
 30
0.0
 11
337.8183700463
 21
154.3441439474
 31
0.0
  0
LINE
  5
EF
330
1F
100
AcDbEntity
  8
0
  6
Continuous
 62
     7
370
    25
100
AcDbLine
 10
329.7023446425
 20
171.6646520231
 30
0.0
 11
329.7023446425
 21
156.9146520231
 31
0.0
  0
LINE
  5
F0
330
1F
100
AcDbEntity
  8
0
  6
Continuous
 62
     7
370
    25
100
AcDbLine
 10
329.7023446425
 20
186.4146520231
 30
0.0
 11
329.7023446425
 21
171.6646520231
 31
0.0
  0
LINE
  5
F1
330
1F
100
AcDbEntity
  8
0
  6
Continuous
 62
     7
370
    25
100
AcDbLine
 10
346.2023446425
 20
156.9146520231
 30
0.0
 11
346.2023446425
 21
186.4146520231
 31
0.0
  0
LINE
  5
F2
330
1F
100
AcDbEntity
  8
0
  6
Continuous
 62
     7
370
    25
100
AcDbLine
 10
346.7023446425
 20
185.9146520231
 30
0.0
 11
346.7023446425
 21
157.4146520231
 31
0.0
  0
LINE
  5
F3
330
1F
100
AcDbEntity
  8
0
  6
Continuous
 62
     7
370
    25
100
AcDbLine
 10
329.2023446425
 20
171.6646520231
 30
0.0
 11
329.2023446425
 21
185.9146520231
 31
0.0
  0
LINE
  5
F4
330
1F
100
AcDbEntity
  8
0
  6
Continuous
 62
     7
370
    25
100
AcDbLine
 10
329.2023446425
 20
157.4146520231
 30
0.0
 11
329.2023446425
 21
171.6646520231
 31
0.0
  0
LINE
  5
F5
330
1F
100
AcDbEntity
  8
0
  6
Continuous
 62
     7
370
    25
100
AcDbLine
 10
337.9523446425
 20
188.460604388
 30
0.0
 11
337.9523446425
 21
188.4851600988
 31
0.0
  0
LINE
  5
F6
330
1F
100
AcDbEntity
  8
0
  6
Continuous
 62
     7
370
    25
100
AcDbLine
 10
337.9523446425
 20
154.8441439474
 30
0.0
 11
337.9523446425
 21
154.8686996582
 31
0.0
  0
LINE
  5
F7
330
1F
100
AcDbEntity
  8
0
  6
Continuous
 62
     7
370
    25
100
AcDbLine
 10
310.9965732766
 20
186.4146520231
 30
0.0
 11
310.9965732766
 21
156.9146520231
 31
0.0
  0
SPLINE
  5
F8
330
1F
100
AcDbEntity
  8
0
  6
Continuous
 62
     7
370
    25
100
AcDbSpline
210
0.0
220
0.0
230
1.0
 70
     8
 71
     3
 72
    15
 73
    11
 74
     0
 42
0.000000001
 43
0.00000001
 40
0.0
 40
0.0
 40
0.0
 40
0.0
 40
0.1323071196312191
 40
0.2645768296618985
 40
0.3998055717948272
 40
0.535009911577517
 40
0.6501988847939878
 40
0.765405826032857
 40
0.88269157387638
 40
1.0
 40
1.0
 40
1.0
 40
1.0
 10
309.5124897471144
 20
180.3249060609657
 30
0.0
 10
309.7164394948131
 20
180.6990688372647
 30
0.0
 10
310.1242813237856
 20
181.4472885960093
 30
0.0
 10
310.5631006594552
 20
182.599481393787
 30
0.0
 10
310.8269455921219
 20
183.773393588859
 30
0.0
 10
310.8791889222979
 20
184.9047718455428
 30
0.0
 10
310.743612663857
 20
185.9750159273956
 30
0.0
 10
310.4658298080305
 20
186.985050906816
 30
0.0
 10
310.0583588238327
 20
187.9905190577957
 30
0.0
 10
309.6944578321551
 20
188.6535917186695
 30
0.0
 10
309.5124897471143
 20
188.9851600988101
 30
0.0
  0
SPLINE
  5
F9
330
1F
100
AcDbEntity
  8
0
  6
Continuous
 62
     7
370
    25
100
AcDbSpline
210
0.0
220
0.0
230
1.0
 70
     8
 71
     3
 72
    15
 73
    11
 74
     0
 42
0.000000001
 43
0.00000001
 40
0.0
 40
0.0
 40
0.0
 40
0.0
 40
0.1323071196312175
 40
0.2645768296618953
 40
0.3998055717948225
 40
0.5350099115775104
 40
0.6501988847939828
 40
0.7654058260328535
 40
0.8826915738763783
 40
1.0
 40
1.0
 40
1.0
 40
1.0
 10
309.5124897471146
 20
154.3441439474325
 30
0.0
 10
309.7164394948133
 20
154.7183067237314
 30
0.0
 10
310.1242813237858
 20
155.466526482476
 30
0.0
 10
310.5631006594554
 20
156.6187192802538
 30
0.0
 10
310.8269455921222
 20
157.7926314753258
 30
0.0
 10
310.8791889222981
 20
158.9240097320096
 30
0.0
 10
310.7436126638572
 20
159.9942538138624
 30
0.0
 10
310.4658298080307
 20
161.0042887932829
 30
0.0
 10
310.0583588238329
 20
162.0097569442625
 30
0.0
 10
309.6944578321553
 20
162.6728296051363
 30
0.0
 10
309.5124897471146
 20
163.0043979852769
 30
0.0
  0
SPLINE
  5
FA
330
1F
100
AcDbEntity
  8
0
  6
Continuous
 62
     7
370
    25
100
AcDbSpline
210
0.0
220
0.0
230
1.0
 70
     8
 71
     3
 72
    15
 73
    11
 74
     0
 42
0.000000001
 43
0.00000001
 40
0.0
 40
0.0
 40
0.0
 40
0.0
 40
0.1109724655664
 40
0.2367674893123252
 40
0.3625299104229378
 40
0.4913833114594061
 40
0.6202348426317638
 40
0.7146677664431634
 40
0.8091106913941687
 40
1.0
 40
1.0
 40
1.0
 40
1.0
 10
309.5124897471146
 20
163.0043979852769
 30
0.0
 10
309.6850713496962
 20
163.6315718227363
 30
0.0
 10
310.0532862265685
 20
164.9696909147085
 30
0.0
 10
310.4771268389107
 20
167.0535978323846
 30
0.0
 10
310.7739479291363
 20
169.2652108120392
 30
0.0
 10
310.8831716831803
 20
171.5127344127919
 30
0.0
 10
310.8070026031259
 20
173.5778206525305
 30
0.0
 10
310.5983004136074
 20
175.4289905310318
 30
0.0
 10
310.2323954763545
 20
177.6261330489677
 30
0.0
 10
309.8010577658814
 20
179.2431261145886
 30
0.0
 10
309.5124897471144
 20
180.3249060609657
 30
0.0
  0
LINE
  5
FB
330
1F
100
AcDbEntity
  8
0
  6
Continuous
 62
     7
370
    25
100
AcDbLine
 10
297.4965732766
 20
186.4146520231
 30
0.0
 11
297.4965732766
 21
156.9146520231
 31
0.0
  0
SPLINE
  5
FC
330
1F
100
AcDbEntity
  8
0
  6
Continuous
 62
     7
370
    25
100
AcDbSpline
210
0.0
220
0.0
230
1.0
 70
     8
 71
     3
 72
    15
 73
    11
 74
     0
 42
0.000000001
 43
0.00000001
 40
0.0
 40
0.0
 40
0.0
 40
0.0
 40
0.1109724655663997
 40
0.2367674893123248
 40
0.3625299104229375
 40
0.4913833114594059
 40
0.6202348426317636
 40
0.7146677664431633
 40
0.8091106913941687
 40
1.0
 40
1.0
 40
1.0
 40
1.0
 10
298.9806568060205
 20
163.0043979852769
 30
0.0
 10
298.8080752034389
 20
163.6315718227362
 30
0.0
 10
298.4398603265665
 20
164.9696909147084
 30
0.0
 10
298.0160197142243
 20
167.0535978323845
 30
0.0
 10
297.7191986239986
 20
169.2652108120391
 30
0.0
 10
297.6099748699547
 20
171.5127344127918
 30
0.0
 10
297.6861439500091
 20
173.5778206525304
 30
0.0
 10
297.8948461395275
 20
175.4289905310317
 30
0.0
 10
298.2607510767803
 20
177.6261330489677
 30
0.0
 10
298.6920887872535
 20
179.2431261145885
 30
0.0
 10
298.9806568060204
 20
180.3249060609657
 30
0.0
  0
SPLINE
  5
FD
330
1F
100
AcDbEntity
  8
0
  6
Continuous
 62
     7
370
    25
100
AcDbSpline
210
0.0
220
0.0
230
1.0
 70
     8
 71
     3
 72
    15
 73
    11
 74
     0
 42
0.000000001
 43
0.00000001
 40
0.0
 40
0.0
 40
0.0
 40
0.0
 40
0.1323071196312175
 40
0.2645768296618953
 40
0.3998055717948224
 40
0.5350099115775103
 40
0.6501988847939827
 40
0.7654058260328533
 40
0.8826915738763783
 40
1.0
 40
1.0
 40
1.0
 40
1.0
 10
298.9806568060206
 20
154.3441439474324
 30
0.0
 10
298.7767070583219
 20
154.7183067237314
 30
0.0
 10
298.3688652293494
 20
155.4665264824759
 30
0.0
 10
297.9300458936797
 20
156.6187192802537
 30
0.0
 10
297.666200961013
 20
157.7926314753257
 30
0.0
 10
297.613957630837
 20
158.9240097320095
 30
0.0
 10
297.7495338892779
 20
159.9942538138623
 30
0.0
 10
298.0273167451044
 20
161.0042887932828
 30
0.0
 10
298.4347877293022
 20
162.0097569442624
 30
0.0
 10
298.7986887209798
 20
162.6728296051362
 30
0.0
 10
298.9806568060205
 20
163.0043979852769
 30
0.0
  0
SPLINE
  5
FE
330
1F
100
AcDbEntity
  8
0
  6
Continuous
 62
     7
370
    25
100
AcDbSpline
210
0.0
220
0.0
230
1.0
 70
     8
 71
     3
 72
    15
 73
    11
 74
     0
 42
0.000000001
 43
0.00000001
 40
0.0
 40
0.0
 40
0.0
 40
0.0
 40
0.1323071196312191
 40
0.2645768296618986
 40
0.3998055717948273
 40
0.535009911577517
 40
0.6501988847939879
 40
0.7654058260328572
 40
0.88269157387638
 40
1.0
 40
1.0
 40
1.0
 40
1.0
 10
298.9806568060204
 20
180.3249060609657
 30
0.0
 10
298.7767070583217
 20
180.6990688372646
 30
0.0
 10
298.3688652293492
 20
181.4472885960092
 30
0.0
 10
297.9300458936796
 20
182.599481393787
 30
0.0
 10
297.6662009610128
 20
183.7733935888589
 30
0.0
 10
297.6139576308369
 20
184.9047718455427
 30
0.0
 10
297.7495338892778
 20
185.9750159273955
 30
0.0
 10
298.0273167451043
 20
186.985050906816
 30
0.0
 10
298.434787729302
 20
187.9905190577956
 30
0.0
 10
298.7986887209796
 20
188.6535917186694
 30
0.0
 10
298.9806568060204
 20
188.98516009881
 30
0.0
  0
LINE
  5
FF
330
1F
100
AcDbEntity
  8
0
  6
Continuous
 62
     7
370
    25
100
AcDbLine
 10
304.2465732766
 20
180.8494617718
 30
0.0
 11
304.2465732766
 21
179.2757946393
 31
0.0
  0
LINE
  5
100
330
1F
100
AcDbEntity
  8
0
  6
Continuous
 62
     7
370
    25
100
AcDbLine
 10
304.1125986804
 20
180.324906061
 30
0.0
 11
304.2465732766
 21
179.2757946393
 31
0.0
  0
LINE
  5
101
330
1F
100
AcDbEntity
  8
0
  6
Continuous
 62
     7
370
    25
100
AcDbLine
 10
304.2465732766
 20
180.8494617718
 30
0.0
 11
304.1125986804
 21
180.324906061
 31
0.0
  0
LINE
  5
102
330
1F
100
AcDbEntity
  8
0
  6
Continuous
 62
     7
370
    25
100
AcDbLine
 10
304.2465732766
 20
179.2757946393
 30
0.0
 11
304.3805478728
 21
180.324906061
 31
0.0
  0
LINE
  5
103
330
1F
100
AcDbEntity
  8
0
  6
Continuous
 62
     7
370
    25
100
AcDbLine
 10
304.3805478728
 20
180.324906061
 30
0.0
 11
304.2465732766
 21
180.8494617718
 31
0.0
  0
LINE
  5
104
330
1F
100
AcDbEntity
  8
0
  6
Continuous
 62
     7
370
    25
100
AcDbLine
 10
304.1125986804
 20
163.0043979853
 30
0.0
 11
298.980656806
 21
163.0043979853
 31
0.0
  0
LINE
  5
105
330
1F
100
AcDbEntity
  8
0
  6
Continuous
 62
     7
370
    25
100
AcDbLine
 10
304.1125986804
 20
180.324906061
 30
0.0
 11
298.980656806
 21
180.324906061
 31
0.0
  0
LINE
  5
106
330
1F
100
AcDbEntity
  8
0
  6
Continuous
 62
     7
370
    25
100
AcDbLine
 10
309.5124897471
 20
180.324906061
 30
0.0
 11
304.3805478728
 21
180.324906061
 31
0.0
  0
LINE
  5
107
330
1F
100
AcDbEntity
  8
0
  6
Continuous
 62
     7
370
    25
100
AcDbLine
 10
309.5124897471
 20
163.0043979853
 30
0.0
 11
304.3805478728
 21
163.0043979853
 31
0.0
  0
LINE
  5
108
330
1F
100
AcDbEntity
  8
0
  6
Continuous
 62
     7
370
    25
100
AcDbLine
 10
304.3805478728
 20
163.0043979853
 30
0.0
 11
304.2465732766
 21
164.0535094069
 31
0.0
  0
LINE
  5
109
330
1F
100
AcDbEntity
  8
0
  6
Continuous
 62
     7
370
    25
100
AcDbLine
 10
304.2465732766
 20
164.0535094069
 30
0.0
 11
304.1125986804
 21
163.0043979853
 31
0.0
  0
LINE
  5
10A
330
1F
100
AcDbEntity
  8
0
  6
Continuous
 62
     7
370
    25
100
AcDbLine
 10
304.2465732766
 20
164.0535094069
 30
0.0
 11
304.2465732766
 21
162.4798422745
 31
0.0
  0
LINE
  5
10B
330
1F
100
AcDbEntity
  8
0
  6
Continuous
 62
     7
370
    25
100
AcDbLine
 10
304.1125986804
 20
163.0043979853
 30
0.0
 11
304.2465732766
 21
162.4798422745
 31
0.0
  0
LINE
  5
10C
330
1F
100
AcDbEntity
  8
0
  6
Continuous
 62
     7
370
    25
100
AcDbLine
 10
304.2465732766
 20
162.4798422745
 30
0.0
 11
304.3805478728
 21
163.0043979853
 31
0.0
  0
LINE
  5
10D
330
1F
100
AcDbEntity
  8
0
  6
Continuous
 62
     7
370
    25
100
AcDbLine
 10
304.1125986804
 20
188.9851600988
 30
0.0
 11
298.980656806
 21
188.9851600988
 31
0.0
  0
LINE
  5
10E
330
1F
100
AcDbEntity
  8
0
  6
Continuous
 62
     7
370
    25
100
AcDbLine
 10
304.1125986804
 20
188.9851600988
 30
0.0
 11
304.2465732766
 21
188.460604388
 31
0.0
  0
LINE
  5
10F
330
1F
100
AcDbEntity
  8
0
  6
Continuous
 62
     7
370
    25
100
AcDbLine
 10
304.2465732766
 20
188.460604388
 30
0.0
 11
304.3805478728
 21
188.9851600988
 31
0.0
  0
LINE
  5
110
330
1F
100
AcDbEntity
  8
0
  6
Continuous
 62
     7
370
    25
100
AcDbLine
 10
309.5124897471
 20
188.9851600988
 30
0.0
 11
304.3805478728
 21
188.9851600988
 31
0.0
  0
LINE
  5
111
330
1F
100
AcDbEntity
  8
0
  6
Continuous
 62
     7
370
    25
100
AcDbLine
 10
304.1125986804
 20
154.3441439474
 30
0.0
 11
298.980656806
 21
154.3441439474
 31
0.0
  0
LINE
  5
112
330
1F
100
AcDbEntity
  8
0
  6
Continuous
 62
     7
370
    25
100
AcDbLine
 10
309.5124897471
 20
154.3441439474
 30
0.0
 11
304.3805478728
 21
154.3441439474
 31
0.0
  0
LINE
  5
113
330
1F
100
AcDbEntity
  8
0
  6
Continuous
 62
     7
370
    25
100
AcDbLine
 10
304.3805478728
 20
154.3441439474
 30
0.0
 11
304.2465732766
 21
154.8686996582
 31
0.0
  0
LINE
  5
114
330
1F
100
AcDbEntity
  8
0
  6
Continuous
 62
     7
370
    25
100
AcDbLine
 10
304.2465732766
 20
154.8686996582
 30
0.0
 11
304.1125986804
 21
154.3441439474
 31
0.0
  0
LINE
  5
115
330
1F
100
AcDbEntity
  8
0
  6
Continuous
 62
     7
370
    25
100
AcDbLine
 10
312.4965732766
 20
156.9146520231
 30
0.0
 11
312.4965732766
 21
186.4146520231
 31
0.0
  0
LINE
  5
116
330
1F
100
AcDbEntity
  8
0
  6
Continuous
 62
     7
370
    25
100
AcDbLine
 10
295.9965732766
 20
171.6646520231
 30
0.0
 11
295.9965732766
 21
156.9146520231
 31
0.0
  0
LINE
  5
117
330
1F
100
AcDbEntity
  8
0
  6
Continuous
 62
     7
370
    25
100
AcDbLine
 10
295.9965732766
 20
186.4146520231
 30
0.0
 11
295.9965732766
 21
171.6646520231
 31
0.0
  0
LINE
  5
118
330
1F
100
AcDbEntity
  8
0
  6
Continuous
 62
     7
370
    25
100
AcDbLine
 10
312.9965732766
 20
185.9146520231
 30
0.0
 11
312.9965732766
 21
157.4146520231
 31
0.0
  0
LINE
  5
119
330
1F
100
AcDbEntity
  8
0
  6
Continuous
 62
     7
370
    25
100
AcDbLine
 10
295.4965732766
 20
171.6646520231
 30
0.0
 11
295.4965732766
 21
185.9146520231
 31
0.0
  0
LINE
  5
11A
330
1F
100
AcDbEntity
  8
0
  6
Continuous
 62
     7
370
    25
100
AcDbLine
 10
295.4965732766
 20
157.4146520231
 30
0.0
 11
295.4965732766
 21
171.6646520231
 31
0.0
  0
LINE
  5
11B
330
1F
100
AcDbEntity
  8
0
  6
Continuous
 62
     7
370
    25
100
AcDbLine
 10
304.2465732766
 20
188.4851600988
 30
0.0
 11
304.2465732766
 21
188.460604388
 31
0.0
  0
LINE
  5
11C
330
1F
100
AcDbEntity
  8
0
  6
Continuous
 62
     7
370
    25
100
AcDbLine
 10
304.2465732766
 20
154.8686996582
 30
0.0
 11
304.2465732766
 21
154.8441439474
 31
0.0
  0
SPLINE
  5
11D
330
1F
100
AcDbEntity
  8
0
  6
Continuous
 62
     7
370
    25
100
AcDbSpline
210
0.0
220
0.0
230
1.0
 70
     8
 71
     3
 72
    16
 73
    12
 74
     0
 42
0.000000001
 43
0.00000001
 40
0.0
 40
0.0
 40
0.0
 40
0.0
 40
0.25
 40
0.25
 40
0.5
 40
0.5
 40
0.625
 40
0.625
 40
0.75
 40
0.75
 40
1.0
 40
1.0
 40
1.0
 40
1.0
 10
323.7493500263004
 20
179.4588806571813
 30
0.0
 10
324.1167323889863
 20
180.0952055751582
 30
0.0
 10
324.4195219493805
 20
180.7361697261108
 30
0.0
 10
324.8389837576858
 20
182.0314654860424
 30
0.0
 10
324.9542723831404
 20
182.6858964705973
 30
0.0
 10
324.9555387800043
 20
183.6798725112674
 30
0.0
 10
324.9273552229153
 20
184.012757237872
 30
0.0
 10
324.8174540538733
 20
184.6712382714323
 30
0.0
 10
324.7358479918004
 20
184.998271147711
 30
0.0
 10
324.4207293969096
 20
185.9735474074246
 30
0.0
 10
324.1171903805734
 20
186.6159911085659
 30
0.0
 10
323.7493500263002
 20
187.2531092912413
 30
0.0
  0
SPLINE
  5
11E
330
1F
100
AcDbEntity
  8
0
  6
Continuous
 62
     7
370
    25
100
AcDbSpline
210
0.0
220
0.0
230
1.0
 70
     8
 71
     3
 72
    16
 73
    12
 74
     0
 42
0.000000001
 43
0.00000001
 40
0.0
 40
0.0
 40
0.0
 40
0.0
 40
0.2499999999999999
 40
0.2499999999999999
 40
0.4999999999999999
 40
0.4999999999999999
 40
0.6249999999999998
 40
0.6249999999999998
 40
0.7499999999999998
 40
0.7499999999999998
 40
1.0
 40
1.0
 40
1.0
 40
1.0
 10
323.7493500263004
 20
156.0761947550014
 30
0.0
 10
324.1167323889863
 20
156.7125196729783
 30
0.0
 10
324.4195219493805
 20
157.353483823931
 30
0.0
 10
324.8389837576858
 20
158.6487795838626
 30
0.0
 10
324.9542723831404
 20
159.3032105684174
 30
0.0
 10
324.9555387800043
 20
160.2971866090876
 30
0.0
 10
324.9273552229153
 20
160.6300713356922
 30
0.0
 10
324.8174540538733
 20
161.2885523692524
 30
0.0
 10
324.7358479918004
 20
161.6155852455312
 30
0.0
 10
324.4207293969096
 20
162.5908615052448
 30
0.0
 10
324.1171903805734
 20
163.2333052063861
 30
0.0
 10
323.7493500263002
 20
163.8704233890614
 30
0.0
  0
SPLINE
  5
11F
330
1F
100
AcDbEntity
  8
0
  6
Continuous
 62
     7
370
    25
100
AcDbSpline
210
0.0
220
0.0
230
1.0
 70
     8
 71
     3
 72
    16
 73
    12
 74
     0
 42
0.000000001
 43
0.00000001
 40
0.0
 40
0.0
 40
0.0
 40
0.0
 40
0.25
 40
0.25
 40
0.4999999999999999
 40
0.4999999999999999
 40
0.625
 40
0.625
 40
0.75
 40
0.75
 40
1.0
 40
1.0
 40
1.0
 40
1.0
 10
323.7493500263001
 20
163.8704233890614
 30
0.0
 10
324.1156168782582
 20
165.1392089825008
 30
0.0
 10
324.4224961894632
 20
166.4377551130227
 30
0.0
 10
324.8420192049141
 20
169.0400360502252
 30
0.0
 10
324.9552691234878
 20
170.3490374160874
 30
0.0
 10
324.9550473059288
 20
172.3263938906436
 30
0.0
 10
324.9269528511114
 20
172.9878173567134
 30
0.0
 10
324.815378213744
 20
174.3150859438443
 30
0.0
 10
324.7327792098499
 20
174.9715696587078
 30
0.0
 10
324.4159210118034
 20
176.9226024366615
 30
0.0
 10
324.1130859206664
 20
178.1988625580233
 30
0.0
 10
323.7493500263001
 20
179.4588806571813
 30
0.0
  0
LINE
  5
120
330
1F
100
AcDbEntity
  8
0
  6
Continuous
 62
     7
370
    25
100
AcDbLine
 10
325.0994589595
 20
171.6646520231
 30
0.0
 11
325.0994589595
 21
184.9146520231
 31
0.0
  0
LINE
  5
121
330
1F
100
AcDbEntity
  8
0
  6
Continuous
 62
     7
370
    25
100
AcDbLine
 10
325.0994589595
 20
158.4146520231
 30
0.0
 11
325.0994589595
 21
171.6646520231
 31
0.0
  0
LINE
  5
122
330
1F
100
AcDbEntity
  8
0
  6
Continuous
 62
     7
370
    25
100
AcDbLine
 10
318.4495678928
 20
163.8704233891
 30
0.0
 11
321.0190742018
 21
163.8704233891
 31
0.0
  0
SPLINE
  5
123
330
1F
100
AcDbEntity
  8
0
  6
Continuous
 62
     7
370
    25
100
AcDbSpline
210
0.0
220
0.0
230
1.0
 70
     8
 71
     3
 72
    16
 73
    12
 74
     0
 42
0.000000001
 43
0.00000001
 40
0.0
 40
0.0
 40
0.0
 40
0.0
 40
0.25
 40
0.25
 40
0.4999999999999999
 40
0.4999999999999999
 40
0.625
 40
0.625
 40
0.75
 40
0.75
 40
1.0
 40
1.0
 40
1.0
 40
1.0
 10
318.4495678927749
 20
163.8704233890614
 30
0.0
 10
318.0833010408168
 20
165.1392089825008
 30
0.0
 10
317.7764217296119
 20
166.4377551130227
 30
0.0
 10
317.3568987141609
 20
169.0400360502252
 30
0.0
 10
317.2436487955872
 20
170.3490374160874
 30
0.0
 10
317.2438706131462
 20
172.3263938906436
 30
0.0
 10
317.2719650679637
 20
172.9878173567134
 30
0.0
 10
317.383539705331
 20
174.3150859438443
 30
0.0
 10
317.4661387092251
 20
174.9715696587078
 30
0.0
 10
317.7829969072716
 20
176.9226024366615
 30
0.0
 10
318.0858319984086
 20
178.1988625580233
 30
0.0
 10
318.449567892775
 20
179.4588806571813
 30
0.0
  0
LINE
  5
124
330
1F
100
AcDbEntity
  8
0
  6
Continuous
 62
     7
370
    25
100
AcDbLine
 10
318.4495678928
 20
179.4588806572
 30
0.0
 11
321.0190742018
 21
179.4588806572
 31
0.0
  0
SPLINE
  5
125
330
1F
100
AcDbEntity
  8
0
  6
Continuous
 62
     7
370
    25
100
AcDbSpline
210
0.0
220
0.0
230
1.0
 70
     8
 71
     3
 72
     8
 73
     4
 74
     0
 42
0.000000001
 43
0.00000001
 40
0.0
 40
0.0
 40
0.0
 40
0.0
 40
1.0
 40
1.0
 40
1.0
 40
1.0
 10
321.0994589595375
 20
178.8400910786167
 30
0.0
 10
321.0735022668071
 20
179.0464922164913
 30
0.0
 10
321.0466901283051
 20
179.2527525756121
 30
0.0
 10
321.0190742018082
 20
179.4588806571813
 30
0.0
  0
SPLINE
  5
126
330
1F
100
AcDbEntity
  8
0
  6
Continuous
 62
     7
370
    25
100
AcDbSpline
210
0.0
220
0.0
230
1.0
 70
     8
 71
     3
 72
     8
 73
     4
 74
     0
 42
0.000000001
 43
0.00000001
 40
0.0
 40
0.0
 40
0.0
 40
0.0
 40
1.0
 40
1.0
 40
1.0
 40
1.0
 10
321.1798437172668
 20
179.4588806571813
 30
0.0
 10
321.1522195584645
 20
179.2526911288474
 30
0.0
 10
321.1254077570513
 20
179.0464294357002
 30
0.0
 10
321.0994589595375
 20
178.8400910786167
 30
0.0
  0
LINE
  5
127
330
1F
100
AcDbEntity
  8
0
  6
Continuous
 62
     7
370
    25
100
AcDbLine
 10
321.1798437173
 20
179.4588806572
 30
0.0
 11
323.7493500263
 21
179.4588806572
 31
0.0
  0
LINE
  5
128
330
1F
100
AcDbEntity
  8
0
  6
Continuous
 62
     7
370
    25
100
AcDbLine
 10
321.1798437173
 20
163.8704233891
 30
0.0
 11
323.7493500263
 21
163.8704233891
 31
0.0
  0
SPLINE
  5
129
330
1F
100
AcDbEntity
  8
0
  6
Continuous
 62
     7
370
    25
100
AcDbSpline
210
0.0
220
0.0
230
1.0
 70
     8
 71
     3
 72
     8
 73
     4
 74
     0
 42
0.000000001
 43
0.00000001
 40
0.0
 40
0.0
 40
0.0
 40
0.0
 40
1.0
 40
1.0
 40
1.0
 40
1.0
 10
321.0994589595375
 20
164.489212967626
 30
0.0
 10
321.125415652268
 20
164.2828118297514
 30
0.0
 10
321.1522277907699
 20
164.0765514706306
 30
0.0
 10
321.1798437172668
 20
163.8704233890614
 30
0.0
  0
SPLINE
  5
12A
330
1F
100
AcDbEntity
  8
0
  6
Continuous
 62
     7
370
    25
100
AcDbSpline
210
0.0
220
0.0
230
1.0
 70
     8
 71
     3
 72
     8
 73
     4
 74
     0
 42
0.000000001
 43
0.00000001
 40
0.0
 40
0.0
 40
0.0
 40
0.0
 40
1.0
 40
1.0
 40
1.0
 40
1.0
 10
321.0190742018082
 20
163.8704233890614
 30
0.0
 10
321.0466983606105
 20
164.0766129173953
 30
0.0
 10
321.0735101620237
 20
164.2828746105425
 30
0.0
 10
321.0994589595375
 20
164.489212967626
 30
0.0
  0
SPLINE
  5
12B
330
1F
100
AcDbEntity
  8
0
  6
Continuous
 62
     7
370
    25
100
AcDbSpline
210
0.0
220
0.0
230
1.0
 70
     8
 71
     3
 72
     8
 73
     4
 74
     0
 42
0.000000001
 43
0.00000001
 40
0.0
 40
0.0
 40
0.0
 40
0.0
 40
1.0
 40
1.0
 40
1.0
 40
1.0
 10
321.0994589595375
 20
179.7682754464636
 30
0.0
 10
321.125416023182
 20
179.6650734028187
 30
0.0
 10
321.1522281772764
 20
179.5619432555042
 30
0.0
 10
321.1798437172668
 20
179.4588806571813
 30
0.0
  0
LINE
  5
12C
330
1F
100
AcDbEntity
  8
0
  6
Continuous
 62
     7
370
    25
100
AcDbLine
 10
321.0994589595
 20
178.8400910786
 30
0.0
 11
321.0994589595
 21
179.7682754465
 31
0.0
  0
SPLINE
  5
12D
330
1F
100
AcDbEntity
  8
0
  6
Continuous
 62
     7
370
    25
100
AcDbSpline
210
0.0
220
0.0
230
1.0
 70
     8
 71
     3
 72
    16
 73
    12
 74
     0
 42
0.000000001
 43
0.00000001
 40
0.0
 40
0.0
 40
0.0
 40
0.0
 40
0.2500000000000003
 40
0.2500000000000003
 40
0.5000000000000006
 40
0.5000000000000006
 40
0.6250000000000006
 40
0.6250000000000006
 40
0.7500000000000006
 40
0.7500000000000006
 40
1.0
 40
1.0
 40
1.0
 40
1.0
 10
318.4495678927747
 20
156.0761947550014
 30
0.0
 10
318.0821855300887
 20
156.7125196729783
 30
0.0
 10
317.7793959696945
 20
157.353483823931
 30
0.0
 10
317.3599341613892
 20
158.6487795838626
 30
0.0
 10
317.2446455359346
 20
159.3032105684174
 30
0.0
 10
317.2433791390707
 20
160.2971866090876
 30
0.0
 10
317.2715626961597
 20
160.6300713356922
 30
0.0
 10
317.3814638652017
 20
161.2885523692524
 30
0.0
 10
317.4630699272747
 20
161.6155852455312
 30
0.0
 10
317.7781885221655
 20
162.5908615052448
 30
0.0
 10
318.0817275385016
 20
163.2333052063861
 30
0.0
 10
318.4495678927748
 20
163.8704233890614
 30
0.0
  0
SPLINE
  5
12E
330
1F
100
AcDbEntity
  8
0
  6
Continuous
 62
     7
370
    25
100
AcDbSpline
210
0.0
220
0.0
230
1.0
 70
     8
 71
     3
 72
    16
 73
    12
 74
     0
 42
0.000000001
 43
0.00000001
 40
0.0
 40
0.0
 40
0.0
 40
0.0
 40
0.25
 40
0.25
 40
0.5
 40
0.5
 40
0.625
 40
0.625
 40
0.75
 40
0.75
 40
1.0
 40
1.0
 40
1.0
 40
1.0
 10
318.4495678927747
 20
179.4588806571813
 30
0.0
 10
318.0821855300887
 20
180.0952055751582
 30
0.0
 10
317.7793959696945
 20
180.7361697261108
 30
0.0
 10
317.3599341613892
 20
182.0314654860424
 30
0.0
 10
317.2446455359346
 20
182.6858964705973
 30
0.0
 10
317.2433791390707
 20
183.6798725112674
 30
0.0
 10
317.2715626961597
 20
184.012757237872
 30
0.0
 10
317.3814638652017
 20
184.6712382714323
 30
0.0
 10
317.4630699272747
 20
184.998271147711
 30
0.0
 10
317.7781885221655
 20
185.9735474074246
 30
0.0
 10
318.0817275385016
 20
186.6159911085659
 30
0.0
 10
318.4495678927748
 20
187.2531092912413
 30
0.0
  0
LINE
  5
12F
330
1F
100
AcDbEntity
  8
0
  6
Continuous
 62
     7
370
    25
100
AcDbLine
 10
317.0994589595
 20
171.6646520231
 30
0.0
 11
317.0994589595
 21
184.9146520231
 31
0.0
  0
LINE
  5
130
330
1F
100
AcDbEntity
  8
0
  6
Continuous
 62
     7
370
    25
100
AcDbLine
 10
317.0994589595
 20
158.4146520231
 30
0.0
 11
317.0994589595
 21
171.6646520231
 31
0.0
  0
SPLINE
  5
131
330
1F
100
AcDbEntity
  8
0
  6
Continuous
 62
     7
370
    25
100
AcDbSpline
210
0.0
220
0.0
230
1.0
 70
     8
 71
     3
 72
     8
 73
     4
 74
     0
 42
0.000000001
 43
0.00000001
 40
0.0
 40
0.0
 40
0.0
 40
0.0
 40
1.0
 40
1.0
 40
1.0
 40
1.0
 10
321.0190742018082
 20
179.4588806571813
 30
0.0
 10
321.046697257902
 20
179.5619713059838
 30
0.0
 10
321.0735091050193
 20
179.6651020654043
 30
0.0
 10
321.0994589595375
 20
179.7682754464636
 30
0.0
  0
SPLINE
  5
132
330
1F
100
AcDbEntity
  8
0
  6
Continuous
 62
     7
370
    25
100
AcDbSpline
210
0.0
220
0.0
230
1.0
 70
     8
 71
     3
 72
     8
 73
     4
 74
     0
 42
0.000000001
 43
0.00000001
 40
0.0
 40
0.0
 40
0.0
 40
0.0
 40
1.0
 40
1.0
 40
1.0
 40
1.0
 10
321.1798437172668
 20
163.8704233890614
 30
0.0
 10
321.152220661173
 20
163.767332740259
 30
0.0
 10
321.1254088140557
 20
163.6642019808384
 30
0.0
 10
321.0994589595375
 20
163.5610285997791
 30
0.0
  0
LINE
  5
133
330
1F
100
AcDbEntity
  8
0
  6
Continuous
 62
     7
370
    25
100
AcDbLine
 10
321.0994589595
 20
163.5610285998
 30
0.0
 11
321.0994589595
 21
164.4892129676
 31
0.0
  0
LINE
  5
134
330
1F
100
AcDbEntity
  8
0
  6
Continuous
 62
     7
370
    25
100
AcDbLine
 10
318.4495678928
 20
156.076194755
 30
0.0
 11
321.0190742018
 21
156.076194755
 31
0.0
  0
SPLINE
  5
135
330
1F
100
AcDbEntity
  8
0
  6
Continuous
 62
     7
370
    25
100
AcDbSpline
210
0.0
220
0.0
230
1.0
 70
     8
 71
     3
 72
     8
 73
     4
 74
     0
 42
0.000000001
 43
0.00000001
 40
0.0
 40
0.0
 40
0.0
 40
0.0
 40
1.0
 40
1.0
 40
1.0
 40
1.0
 10
321.0994589595375
 20
163.5610285997791
 30
0.0
 10
321.0735018958931
 20
163.664230643424
 30
0.0
 10
321.0466897417986
 20
163.7673607907386
 30
0.0
 10
321.0190742018082
 20
163.8704233890614
 30
0.0
  0
LINE
  5
136
330
1F
100
AcDbEntity
  8
0
  6
Continuous
 62
     7
370
    25
100
AcDbLine
 10
321.1798437173
 20
156.076194755
 30
0.0
 11
323.7493500263
 21
156.076194755
 31
0.0
  0
SPLINE
  5
137
330
1F
100
AcDbEntity
  8
0
  6
Continuous
 62
     7
370
    25
100
AcDbSpline
210
0.0
220
0.0
230
1.0
 70
     8
 71
     3
 72
     8
 73
     4
 74
     0
 42
0.000000001
 43
0.00000001
 40
0.0
 40
0.0
 40
0.0
 40
0.0
 40
1.0
 40
1.0
 40
1.0
 40
1.0
 10
321.0994589595375
 20
156.3855895442838
 30
0.0
 10
321.125416023182
 20
156.2823875006389
 30
0.0
 10
321.1522281772764
 20
156.1792573533243
 30
0.0
 10
321.1798437172668
 20
156.0761947550015
 30
0.0
  0
SPLINE
  5
138
330
1F
100
AcDbEntity
  8
0
  6
Continuous
 62
     7
370
    25
100
AcDbSpline
210
0.0
220
0.0
230
1.0
 70
     8
 71
     3
 72
     8
 73
     4
 74
     0
 42
0.000000001
 43
0.00000001
 40
0.0
 40
0.0
 40
0.0
 40
0.0
 40
1.0
 40
1.0
 40
1.0
 40
1.0
 10
321.0190742018082
 20
156.0761947550015
 30
0.0
 10
321.046697257902
 20
156.1792854038039
 30
0.0
 10
321.0735091050193
 20
156.2824161632245
 30
0.0
 10
321.0994589595375
 20
156.3855895442838
 30
0.0
  0
LINE
  5
139
330
1F
100
AcDbEntity
  8
0
  6
Continuous
 62
     7
370
    25
100
AcDbLine
 10
318.4495678928
 20
187.2531092912
 30
0.0
 11
321.0190742018
 21
187.2531092912
 31
0.0
  0
SPLINE
  5
13A
330
1F
100
AcDbEntity
  8
0
  6
Continuous
 62
     7
370
    25
100
AcDbSpline
210
0.0
220
0.0
230
1.0
 70
     8
 71
     3
 72
     8
 73
     4
 74
     0
 42
0.000000001
 43
0.00000001
 40
0.0
 40
0.0
 40
0.0
 40
0.0
 40
1.0
 40
1.0
 40
1.0
 40
1.0
 10
321.0994589595375
 20
186.943714501959
 30
0.0
 10
321.0735018958931
 20
187.0469165456038
 30
0.0
 10
321.0466897417986
 20
187.1500466929184
 30
0.0
 10
321.0190742018082
 20
187.2531092912413
 30
0.0
  0
SPLINE
  5
13B
330
1F
100
AcDbEntity
  8
0
  6
Continuous
 62
     7
370
    25
100
AcDbSpline
210
0.0
220
0.0
230
1.0
 70
     8
 71
     3
 72
     8
 73
     4
 74
     0
 42
0.000000001
 43
0.00000001
 40
0.0
 40
0.0
 40
0.0
 40
0.0
 40
1.0
 40
1.0
 40
1.0
 40
1.0
 10
321.1798437172668
 20
187.2531092912413
 30
0.0
 10
321.152220661173
 20
187.1500186424388
 30
0.0
 10
321.1254088140557
 20
187.0468878830183
 30
0.0
 10
321.0994589595375
 20
186.943714501959
 30
0.0
  0
LINE
  5
13C
330
1F
100
AcDbEntity
  8
0
  6
Continuous
 62
     7
370
    25
100
AcDbLine
 10
321.1798437173
 20
187.2531092912
 30
0.0
 11
323.7493500263
 21
187.2531092912
 31
0.0
  0
LINE
  5
13D
330
1F
100
AcDbEntity
  8
0
  6
Continuous
 62
     7
370
    25
100
AcDbLine
 10
314.0994589595
 20
171.6646520231
 30
0.0
 11
314.0994589595
 21
159.8441520231
 31
0.0
  0
LINE
  5
13E
330
1F
100
AcDbEntity
  8
0
  6
Continuous
 62
     7
370
    25
100
AcDbLine
 10
314.0994589595
 20
183.4851520231
 30
0.0
 11
314.0994589595
 21
171.6646520231
 31
0.0
  0
LINE
  5
13F
330
1F
100
AcDbEntity
  8
0
  6
Continuous
 62
     7
370
    25
100
AcDbLine
 10
328.0994589595
 20
159.8441520231
 30
0.0
 11
328.0994589595
 21
183.4851520231
 31
0.0
  0
LINE
  5
140
330
1F
100
AcDbEntity
  8
0
  6
Continuous
 62
     7
370
    25
100
AcDbLine
 10
321.0994589595
 20
186.943714502
 30
0.0
 11
321.0994589595
 21
186.9531092912
 31
0.0
  0
LINE
  5
141
330
1F
100
AcDbEntity
  8
0
  6
Continuous
 62
     7
370
    25
100
AcDbLine
 10
321.0994589595
 20
156.376194755
 30
0.0
 11
321.0994589595
 21
156.3855895443
 31
0.0
  0
LINE
  5
142
330
1F
100
AcDbEntity
  8
0
  6
CENTERX2
 62
     7
370
    18
100
AcDbLine
 10
385.2023446425
 20
171.6646520231
 30
0.0
 11
258.0388245325
 21
171.6646520231
 31
0.0
  0
CIRCLE
  5
143
330
1F
100
AcDbEntity
  8
0
  6
Continuous
 62
     7
370
    25
100
AcDbCircle
 10
435.4547728458
 20
171.6646520231
 30
0.0
 40
8.09824889310022
  0
CIRCLE
  5
144
330
1F
100
AcDbEntity
  8
0
  6
Continuous
 62
     7
370
    25
100
AcDbCircle
 10
435.4547728458
 20
171.6646520231
 30
0.0
 40
9.374034734589202
  0
CIRCLE
  5
145
330
1F
100
AcDbEntity
  8
0
  6
Continuous
 62
     7
370
    25
100
AcDbCircle
 10
435.4547728458
 20
171.6646520231
 30
0.0
 40
8.0
  0
CIRCLE
  5
146
330
1F
100
AcDbEntity
  8
0
  6
Continuous
 62
     7
370
    25
100
AcDbCircle
 10
435.4547728458
 20
171.6646520231
 30
0.0
 40
7.500000000000057
  0
CIRCLE
  5
147
330
1F
100
AcDbEntity
  8
0
  6
Continuous
 62
     7
370
    25
100
AcDbCircle
 10
435.4547728458
 20
171.6646520231
 30
0.0
 40
10.25000000000003
  0
CIRCLE
  5
148
330
1F
100
AcDbEntity
  8
0
  6
Continuous
 62
     7
370
    25
100
AcDbCircle
 10
435.4547728458
 20
171.6646520231
 30
0.0
 40
14.75
  0
CIRCLE
  5
149
330
1F
100
AcDbEntity
  8
0
  6
Continuous
 62
     7
370
    25
100
AcDbCircle
 10
435.4547728458
 20
171.6646520231
 30
0.0
 40
14.25
  0
CIRCLE
  5
14A
330
1F
100
AcDbEntity
  8
0
  6
Continuous
 62
     7
370
    25
100
AcDbCircle
 10
435.4547728458
 20
171.6646520231
 30
0.0
 40
10.95000000000005
  0
CIRCLE
  5
14B
330
1F
100
AcDbEntity
  8
0
  6
Continuous
 62
     7
370
    25
100
AcDbCircle
 10
435.4547728458
 20
171.6646520231
 30
0.0
 40
10.69999999999999
  0
SPLINE
  5
14C
330
1F
100
AcDbEntity
  8
0
  6
Continuous
 62
     7
370
    25
100
AcDbSpline
210
0.0
220
0.0
230
1.0
 70
    24
 71
     3
 72
    15
 73
    11
 74
     0
 42
0.000000001
 43
0.00000001
 40
0.0
 40
0.0
 40
0.0
 40
0.0
 40
0.1109724655663997
 40
0.2367674893123249
 40
0.3625299104229376
 40
0.491383311459406
 40
0.6202348426317638
 40
0.7146677664431634
 40
0.8091106913941687
 40
1.0
 40
1.0
 40
1.0
 40
1.0
 10
450.4547728458126
 20
163.004397985277
 30
0.0
 10
450.4547728458126
 20
163.6315718227364
 30
0.0
 10
450.4547728458126
 20
164.9696909147085
 30
0.0
 10
450.4547728458126
 20
167.0535978323847
 30
0.0
 10
450.4547728458125
 20
169.2652108120392
 30
0.0
 10
450.4547728458125
 20
171.512734412792
 30
0.0
 10
450.4547728458124
 20
173.5778206525306
 30
0.0
 10
450.4547728458124
 20
175.4289905310319
 30
0.0
 10
450.4547728458124
 20
177.6261330489678
 30
0.0
 10
450.4547728458124
 20
179.2431261145887
 30
0.0
 10
450.4547728458124
 20
180.3249060609658
 30
0.0
  0
SPLINE
  5
14D
330
1F
100
AcDbEntity
  8
0
  6
Continuous
 62
     7
370
    25
100
AcDbSpline
210
0.0
220
0.0
230
1.0
 70
    24
 71
     3
 72
    15
 73
    11
 74
     0
 42
0.000000001
 43
0.00000001
 40
0.0
 40
0.0
 40
0.0
 40
0.0
 40
0.1323071196312175
 40
0.2645768296618953
 40
0.3998055717948223
 40
0.5350099115775103
 40
0.6501988847939827
 40
0.7654058260328533
 40
0.8826915738763783
 40
1.0
 40
1.0
 40
1.0
 40
1.0
 10
435.4547728458126
 20
154.3441439474325
 30
0.0
 10
436.1028417846633
 20
154.7183067237314
 30
0.0
 10
437.3987964220359
 20
155.466526482476
 30
0.0
 10
439.3944528879019
 20
156.6187192802538
 30
0.0
 10
441.4277284533913
 20
157.7926314753258
 30
0.0
 10
443.3873330765463
 20
158.9240097320096
 30
0.0
 10
445.2410502028153
 20
159.9942538138624
 30
0.0
 10
446.9904821045933
 20
161.0042887932829
 30
0.0
 10
448.7320040274824
 20
162.0097569442625
 30
0.0
 10
449.8804795652257
 20
162.6728296051364
 30
0.0
 10
450.4547728458126
 20
163.004397985277
 30
0.0
  0
SPLINE
  5
14E
330
1F
100
AcDbEntity
  8
0
  6
Continuous
 62
     7
370
    25
100
AcDbSpline
210
0.0
220
0.0
230
1.0
 70
    24
 71
     3
 72
    15
 73
    11
 74
     0
 42
0.000000001
 43
0.00000001
 40
0.0
 40
0.0
 40
0.0
 40
0.0
 40
0.1323071196312175
 40
0.2645768296618954
 40
0.3998055717948223
 40
0.5350099115775103
 40
0.6501988847939828
 40
0.7654058260328537
 40
0.8826915738763783
 40
1.0
 40
1.0
 40
1.0
 40
1.0
 10
420.4547728458125
 20
163.0043979852768
 30
0.0
 10
421.1028417846632
 20
162.6302352089779
 30
0.0
 10
422.3987964220358
 20
161.8820154502333
 30
0.0
 10
424.3944528879018
 20
160.7298226524555
 30
0.0
 10
426.4277284533912
 20
159.5559104573836
 30
0.0
 10
428.3873330765463
 20
158.4245322006998
 30
0.0
 10
430.2410502028153
 20
157.354288118847
 30
0.0
 10
431.9904821045934
 20
156.3442531394265
 30
0.0
 10
433.7320040274823
 20
155.3387849884469
 30
0.0
 10
434.8804795652258
 20
154.6757123275731
 30
0.0
 10
435.4547728458126
 20
154.3441439474325
 30
0.0
  0
SPLINE
  5
14F
330
1F
100
AcDbEntity
  8
0
  6
Continuous
 62
     7
370
    25
100
AcDbSpline
210
0.0
220
0.0
230
1.0
 70
    24
 71
     3
 72
    15
 73
    11
 74
     0
 42
0.000000001
 43
0.00000001
 40
0.0
 40
0.0
 40
0.0
 40
0.0
 40
0.1889662141881924
 40
0.2843710361048411
 40
0.3797654307392766
 40
0.50539701708763
 40
0.6310296657198599
 40
0.7600107750214578
 40
0.8890278321204425
 40
1.0
 40
1.0
 40
1.0
 40
1.0
 10
420.4547728458124
 20
180.3249060609656
 30
0.0
 10
420.4547728458124
 20
179.2540946470697
 30
0.0
 10
420.4547728458124
 20
177.6426544615813
 30
0.0
 10
420.4547728458124
 20
175.4457935397425
 30
0.0
 10
420.4547728458124
 20
173.6022109579363
 30
0.0
 10
420.4547728458124
 20
171.5694789518174
 30
0.0
 10
420.4547728458124
 20
169.340631106663
 30
0.0
 10
420.4547728458124
 20
167.1092904537351
 30
0.0
 10
420.4547728458125
 20
164.9879090614309
 30
0.0
 10
420.4547728458125
 20
163.6315738758823
 30
0.0
 10
420.4547728458125
 20
163.0043979852768
 30
0.0
  0
SPLINE
  5
150
330
1F
100
AcDbEntity
  8
0
  6
Continuous
 62
     7
370
    25
100
AcDbSpline
210
0.0
220
0.0
230
1.0
 70
    24
 71
     3
 72
    15
 73
    11
 74
     0
 42
0.000000001
 43
0.00000001
 40
0.0
 40
0.0
 40
0.0
 40
0.0
 40
0.1323071196312176
 40
0.2645768296618953
 40
0.3998055717948224
 40
0.5350099115775103
 40
0.6501988847939828
 40
0.7654058260328537
 40
0.8826915738763784
 40
1.0
 40
1.0
 40
1.0
 40
1.0
 10
435.4547728458124
 20
188.98516009881
 30
0.0
 10
434.8067039069617
 20
188.6109973225111
 30
0.0
 10
433.5107492695892
 20
187.8627775637665
 30
0.0
 10
431.5150928037231
 20
186.7105847659888
 30
0.0
 10
429.4818172382338
 20
185.5366725709168
 30
0.0
 10
427.5222126150787
 20
184.405294314233
 30
0.0
 10
425.6684954888097
 20
183.3350502323802
 30
0.0
 10
423.9190635870317
 20
182.3250152529597
 30
0.0
 10
422.1775416641427
 20
181.31954710198
 30
0.0
 10
421.0290661263993
 20
180.6564744411062
 30
0.0
 10
420.4547728458124
 20
180.3249060609656
 30
0.0
  0
SPLINE
  5
151
330
1F
100
AcDbEntity
  8
0
  6
Continuous
 62
     7
370
    25
100
AcDbSpline
210
0.0
220
0.0
230
1.0
 70
    24
 71
     3
 72
    15
 73
    11
 74
     0
 42
0.000000001
 43
0.00000001
 40
0.0
 40
0.0
 40
0.0
 40
0.0
 40
0.1323071196312191
 40
0.2645768296618986
 40
0.3998055717948273
 40
0.535009911577517
 40
0.6501988847939878
 40
0.7654058260328572
 40
0.88269157387638
 40
1.0
 40
1.0
 40
1.0
 40
1.0
 10
450.4547728458124
 20
180.3249060609658
 30
0.0
 10
449.8067039069617
 20
180.6990688372647
 30
0.0
 10
448.510749269589
 20
181.4472885960093
 30
0.0
 10
446.515092803723
 20
182.5994813937871
 30
0.0
 10
444.4818172382336
 20
183.7733935888591
 30
0.0
 10
442.5222126150786
 20
184.9047718455429
 30
0.0
 10
440.6684954888096
 20
185.9750159273956
 30
0.0
 10
438.9190635870316
 20
186.985050906816
 30
0.0
 10
437.1775416641426
 20
187.9905190577956
 30
0.0
 10
436.0290661263993
 20
188.6535917186694
 30
0.0
 10
435.4547728458124
 20
188.9851600988101
 30
0.0
  0
INSERT
  5
15D
330
1F
100
AcDbEntity
  8
0
  6
Continuous
 62
     7
370
    18
100
AcDbBlockReference
  2
SW_CENTERMARKSYMBOL_0
 10
435.4547728458
 20
171.6646520231
 30
0.0
  0
LINE
  5
15E
330
1F
100
AcDbEntity
  8
0
  6
Continuous
 62
     7
370
    25
100
AcDbLine
 10
288.9965732766
 20
230.6226029171
 30
0.0
 11
295.4965732766
 21
230.6226029171
 31
0.0
  0
LINE
  5
15F
330
1F
100
AcDbEntity
  8
0
  6
Continuous
 62
     7
370
    25
100
AcDbLine
 10
295.4965732766
 20
251.1226029171
 30
0.0
 11
288.9965732766
 21
251.1226029171
 31
0.0
  0
LINE
  5
160
330
1F
100
AcDbEntity
  8
0
  6
Continuous
 62
     7
370
    25
100
AcDbLine
 10
288.9965732766
 20
251.1226029171
 30
0.0
 11
283.9965732766
 21
250.1226029171
 31
0.0
  0
LINE
  5
161
330
1F
100
AcDbEntity
  8
0
  6
Continuous
 62
     7
370
    25
100
AcDbLine
 10
283.9965732766
 20
231.6226029171
 30
0.0
 11
288.9965732766
 21
230.6226029171
 31
0.0
  0
LINE
  5
162
330
1F
100
AcDbEntity
  8
0
  6
Continuous
 62
     7
370
    25
100
AcDbLine
 10
283.9965732766
 20
251.1226029171
 30
0.0
 11
278.9965732766
 21
250.1226029171
 31
0.0
  0
LINE
  5
163
330
1F
100
AcDbEntity
  8
0
  6
Continuous
 62
     7
370
    25
100
AcDbLine
 10
278.9965732766
 20
231.6226029171
 30
0.0
 11
283.9965732766
 21
230.6226029171
 31
0.0
  0
LINE
  5
164
330
1F
100
AcDbEntity
  8
0
  6
Continuous
 62
     7
370
    25
100
AcDbLine
 10
278.9965732766
 20
251.1226029171
 30
0.0
 11
273.9965732766
 21
250.1226029171
 31
0.0
  0
LINE
  5
165
330
1F
100
AcDbEntity
  8
0
  6
Continuous
 62
     7
370
    25
100
AcDbLine
 10
273.9965732766
 20
231.6226029171
 30
0.0
 11
278.9965732766
 21
230.6226029171
 31
0.0
  0
LINE
  5
166
330
1F
100
AcDbEntity
  8
0
  6
Continuous
 62
     7
370
    25
100
AcDbLine
 10
273.9965732766
 20
251.1226029171
 30
0.0
 11
268.9965732766
 21
250.1226029171
 31
0.0
  0
LINE
  5
167
330
1F
100
AcDbEntity
  8
0
  6
Continuous
 62
     7
370
    25
100
AcDbLine
 10
268.9965732766
 20
231.6226029171
 30
0.0
 11
273.9965732766
 21
230.6226029171
 31
0.0
  0
LINE
  5
168
330
1F
100
AcDbEntity
  8
0
  6
Continuous
 62
     7
370
    25
100
AcDbLine
 10
268.9965732766
 20
251.1226029171
 30
0.0
 11
261.9888511533
 21
250.2466376516
 31
0.0
  0
LINE
  5
169
330
1F
100
AcDbEntity
  8
0
  6
Continuous
 62
     7
370
    25
100
AcDbLine
 10
261.9888511533
 20
231.4985681825
 30
0.0
 11
268.9965732766
 21
230.6226029171
 31
0.0
  0
LINE
  5
16A
330
1F
100
AcDbEntity
  8
0
  6
Continuous
 62
     7
370
    25
100
AcDbLine
 10
261.9888511533
 20
250.2466376516
 30
0.0
 11
260.9965732766
 21
248.9708518102
 31
0.0
  0
LINE
  5
16B
330
1F
100
AcDbEntity
  8
0
  6
Continuous
 62
     7
370
    25
100
AcDbLine
 10
260.9965732766
 20
232.774354024
 30
0.0
 11
261.9888511533
 21
231.4985681825
 31
0.0
  0
LINE
  5
16C
330
1F
100
AcDbEntity
  8
0
  6
Continuous
 62
     7
370
    25
100
AcDbLine
 10
358.2023446425
 20
230.6226029171
 30
0.0
 11
363.2023446425
 21
231.6226029171
 31
0.0
  0
LINE
  5
16D
330
1F
100
AcDbEntity
  8
0
  6
Continuous
 62
     7
370
    25
100
AcDbLine
 10
363.2023446425
 20
250.1226029171
 30
0.0
 11
358.2023446425
 21
251.1226029171
 31
0.0
  0
LINE
  5
16E
330
1F
100
AcDbEntity
  8
0
  6
Continuous
 62
     7
370
    25
100
AcDbLine
 10
368.2023446425
 20
230.6226029171
 30
0.0
 11
373.2023446425
 21
231.6226029171
 31
0.0
  0
LINE
  5
16F
330
1F
100
AcDbEntity
  8
0
  6
Continuous
 62
     7
370
    25
100
AcDbLine
 10
373.2023446425
 20
250.1226029171
 30
0.0
 11
368.2023446425
 21
251.1226029171
 31
0.0
  0
LINE
  5
170
330
1F
100
AcDbEntity
  8
0
  6
Continuous
 62
     7
370
    25
100
AcDbLine
 10
363.2023446425
 20
230.6226029171
 30
0.0
 11
368.2023446425
 21
231.6226029171
 31
0.0
  0
LINE
  5
171
330
1F
100
AcDbEntity
  8
0
  6
Continuous
 62
     7
370
    25
100
AcDbLine
 10
368.2023446425
 20
250.1226029171
 30
0.0
 11
363.2023446425
 21
251.1226029171
 31
0.0
  0
LINE
  5
172
330
1F
100
AcDbEntity
  8
0
  6
Continuous
 62
     7
370
    25
100
AcDbLine
 10
373.2023446425
 20
230.6226029171
 30
0.0
 11
380.2100667658
 21
231.4985681825
 31
0.0
  0
LINE
  5
173
330
1F
100
AcDbEntity
  8
0
  6
Continuous
 62
     7
370
    25
100
AcDbLine
 10
380.2100667658
 20
250.2466376516
 30
0.0
 11
373.2023446425
 21
251.1226029171
 31
0.0
  0
LINE
  5
174
330
1F
100
AcDbEntity
  8
0
  6
Continuous
 62
     7
370
    25
100
AcDbLine
 10
353.2023446425
 20
251.1226029171
 30
0.0
 11
346.7023446425
 21
251.1226029171
 31
0.0
  0
LINE
  5
175
330
1F
100
AcDbEntity
  8
0
  6
Continuous
 62
     7
370
    25
100
AcDbLine
 10
346.7023446425
 20
230.6226029171
 30
0.0
 11
353.2023446425
 21
230.6226029171
 31
0.0
  0
LINE
  5
176
330
1F
100
AcDbEntity
  8
0
  6
Continuous
 62
     7
370
    25
100
AcDbLine
 10
353.2023446425
 20
230.6226029171
 30
0.0
 11
358.2023446425
 21
231.6226029171
 31
0.0
  0
LINE
  5
177
330
1F
100
AcDbEntity
  8
0
  6
Continuous
 62
     7
370
    25
100
AcDbLine
 10
358.2023446425
 20
250.1226029171
 30
0.0
 11
353.2023446425
 21
251.1226029171
 31
0.0
  0
LINE
  5
178
330
1F
100
AcDbEntity
  8
0
  6
Continuous
 62
     7
370
    25
100
AcDbLine
 10
380.2100667658
 20
231.4985681825
 30
0.0
 11
381.2023446425
 21
232.774354024
 31
0.0
  0
LINE
  5
179
330
1F
100
AcDbEntity
  8
0
  6
Continuous
 62
     7
370
    25
100
AcDbLine
 10
381.2023446425
 20
248.9708518102
 30
0.0
 11
380.2100667658
 21
250.2466376516
 31
0.0
  0
LINE
  5
17A
330
1F
100
AcDbEntity
  8
0
  6
Continuous
 62
     7
370
    25
100
AcDbLine
 10
344.5580070752
 20
225.8726029171
 30
0.0
 11
344.7023446425
 21
226.1226029171
 31
0.0
  0
LINE
  5
17B
330
1F
100
AcDbEntity
  8
0
  6
Continuous
 62
     7
370
    25
100
AcDbLine
 10
344.7023446425
 20
255.6226029171
 30
0.0
 11
344.5580070752
 21
255.8726029171
 31
0.0
  0
LINE
  5
17C
330
1F
100
AcDbEntity
  8
0
  6
Continuous
 62
     7
370
    25
100
AcDbLine
 10
331.3466822098
 20
255.8726029171
 30
0.0
 11
331.2023446425
 21
255.6226029171
 31
0.0
  0
LINE
  5
17D
330
1F
100
AcDbEntity
  8
0
  6
Continuous
 62
     7
370
    25
100
AcDbLine
 10
331.2023446425
 20
226.1226029171
 30
0.0
 11
331.3466822098
 21
225.8726029171
 31
0.0
  0
LINE
  5
17E
330
1F
100
AcDbEntity
  8
0
  6
Continuous
 62
     7
370
    25
100
AcDbLine
 10
331.2023446425
 20
255.6226029171
 30
0.0
 11
329.7023446425
 21
255.6226029171
 31
0.0
  0
LINE
  5
17F
330
1F
100
AcDbEntity
  8
0
  6
Continuous
 62
     7
370
    25
100
AcDbLine
 10
329.7023446425
 20
226.1226029171
 30
0.0
 11
331.2023446425
 21
226.1226029171
 31
0.0
  0
LINE
  5
180
330
1F
100
AcDbEntity
  8
0
  6
Continuous
 62
     7
370
    25
100
AcDbLine
 10
344.7023446425
 20
226.1226029171
 30
0.0
 11
346.2023446425
 21
226.1226029171
 31
0.0
  0
LINE
  5
181
330
1F
100
AcDbEntity
  8
0
  6
Continuous
 62
     7
370
    25
100
AcDbLine
 10
346.2023446425
 20
255.6226029171
 30
0.0
 11
344.7023446425
 21
255.6226029171
 31
0.0
  0
LINE
  5
182
330
1F
100
AcDbEntity
  8
0
  6
Continuous
 62
     7
370
    25
100
AcDbLine
 10
329.7023446425
 20
255.6226029171
 30
0.0
 11
329.2023446425
 21
255.1226029171
 31
0.0
  0
LINE
  5
183
330
1F
100
AcDbEntity
  8
0
  6
Continuous
 62
     7
370
    25
100
AcDbLine
 10
329.2023446425
 20
226.6226029171
 30
0.0
 11
329.7023446425
 21
226.1226029171
 31
0.0
  0
LINE
  5
184
330
1F
100
AcDbEntity
  8
0
  6
Continuous
 62
     7
370
    25
100
AcDbLine
 10
346.2023446425
 20
226.1226029171
 30
0.0
 11
346.7023446425
 21
226.6226029171
 31
0.0
  0
LINE
  5
185
330
1F
100
AcDbEntity
  8
0
  6
Continuous
 62
     7
370
    25
100
AcDbLine
 10
346.7023446425
 20
255.1226029171
 30
0.0
 11
346.2023446425
 21
255.6226029171
 31
0.0
  0
LINE
  5
186
330
1F
100
AcDbEntity
  8
0
  6
Continuous
 62
     7
370
    25
100
AcDbLine
 10
310.8522357093
 20
225.8726029171
 30
0.0
 11
310.9965732766
 21
226.1226029171
 31
0.0
  0
LINE
  5
187
330
1F
100
AcDbEntity
  8
0
  6
Continuous
 62
     7
370
    25
100
AcDbLine
 10
310.9965732766
 20
255.6226029171
 30
0.0
 11
310.8522357093
 21
255.8726029171
 31
0.0
  0
LINE
  5
188
330
1F
100
AcDbEntity
  8
0
  6
Continuous
 62
     7
370
    25
100
AcDbLine
 10
297.6409108439
 20
255.8726029171
 30
0.0
 11
297.4965732766
 21
255.6226029171
 31
0.0
  0
LINE
  5
189
330
1F
100
AcDbEntity
  8
0
  6
Continuous
 62
     7
370
    25
100
AcDbLine
 10
297.4965732766
 20
226.1226029171
 30
0.0
 11
297.6409108439
 21
225.8726029171
 31
0.0
  0
LINE
  5
18A
330
1F
100
AcDbEntity
  8
0
  6
Continuous
 62
     7
370
    25
100
AcDbLine
 10
312.4965732766
 20
226.1226029171
 30
0.0
 11
312.9965732766
 21
226.6226029171
 31
0.0
  0
LINE
  5
18B
330
1F
100
AcDbEntity
  8
0
  6
Continuous
 62
     7
370
    25
100
AcDbLine
 10
312.9965732766
 20
255.1226029171
 30
0.0
 11
312.4965732766
 21
255.6226029171
 31
0.0
  0
LINE
  5
18C
330
1F
100
AcDbEntity
  8
0
  6
Continuous
 62
     7
370
    25
100
AcDbLine
 10
310.9965732766
 20
226.1226029171
 30
0.0
 11
312.4965732766
 21
226.1226029171
 31
0.0
  0
LINE
  5
18D
330
1F
100
AcDbEntity
  8
0
  6
Continuous
 62
     7
370
    25
100
AcDbLine
 10
312.4965732766
 20
255.6226029171
 30
0.0
 11
310.9965732766
 21
255.6226029171
 31
0.0
  0
LINE
  5
18E
330
1F
100
AcDbEntity
  8
0
  6
Continuous
 62
     7
370
    25
100
AcDbLine
 10
297.4965732766
 20
255.6226029171
 30
0.0
 11
295.9965732766
 21
255.6226029171
 31
0.0
  0
LINE
  5
18F
330
1F
100
AcDbEntity
  8
0
  6
Continuous
 62
     7
370
    25
100
AcDbLine
 10
295.9965732766
 20
226.1226029171
 30
0.0
 11
297.4965732766
 21
226.1226029171
 31
0.0
  0
LINE
  5
190
330
1F
100
AcDbEntity
  8
0
  6
Continuous
 62
     7
370
    25
100
AcDbLine
 10
295.9965732766
 20
255.6226029171
 30
0.0
 11
295.4965732766
 21
255.1226029171
 31
0.0
  0
LINE
  5
191
330
1F
100
AcDbEntity
  8
0
  6
Continuous
 62
     7
370
    25
100
AcDbLine
 10
295.4965732766
 20
226.6226029171
 30
0.0
 11
295.9965732766
 21
226.1226029171
 31
0.0
  0
LINE
  5
192
330
1F
100
AcDbEntity
  8
0
  6
Continuous
 62
     7
370
    25
100
AcDbLine
 10
324.9551213922
 20
227.3726029171
 30
0.0
 11
325.0994589595
 21
227.6226029171
 31
0.0
  0
LINE
  5
193
330
1F
100
AcDbEntity
  8
0
  6
Continuous
 62
     7
370
    25
100
AcDbLine
 10
325.0994589595
 20
254.1226029171
 30
0.0
 11
324.9551213922
 21
254.3726029171
 31
0.0
  0
LINE
  5
194
330
1F
100
AcDbEntity
  8
0
  6
Continuous
 62
     7
370
    25
100
AcDbLine
 10
317.2437965268
 20
254.3726029171
 30
0.0
 11
317.0994589595
 21
254.1226029171
 31
0.0
  0
LINE
  5
195
330
1F
100
AcDbEntity
  8
0
  6
Continuous
 62
     7
370
    25
100
AcDbLine
 10
317.0994589595
 20
227.6226029171
 30
0.0
 11
317.2437965268
 21
227.3726029171
 31
0.0
  0
LINE
  5
196
330
1F
100
AcDbEntity
  8
0
  6
Continuous
 62
     7
370
    25
100
AcDbLine
 10
329.2023446425
 20
253.7959886
 30
0.0
 11
328.0994589595
 21
252.6931029171
 31
0.0
  0
LINE
  5
197
330
1F
100
AcDbEntity
  8
0
  6
Continuous
 62
     7
370
    25
100
AcDbLine
 10
328.0994589595
 20
229.0521029171
 30
0.0
 11
329.2023446425
 21
227.9492172341
 31
0.0
  0
LINE
  5
198
330
1F
100
AcDbEntity
  8
0
  6
Continuous
 62
     7
370
    25
100
AcDbLine
 10
312.9965732766
 20
227.9492172341
 30
0.0
 11
314.0994589595
 21
229.0521029171
 31
0.0
  0
LINE
  5
199
330
1F
100
AcDbEntity
  8
0
  6
Continuous
 62
     7
370
    25
100
AcDbLine
 10
314.0994589595
 20
252.6931029171
 30
0.0
 11
312.9965732766
 21
253.7959886
 31
0.0
  0
LINE
  5
19A
330
1F
100
AcDbEntity
  8
0
  6
Continuous
 62
     7
370
    25
100
AcDbLine
 10
317.0994589595
 20
252.6726029171
 30
0.0
 11
314.0994589595
 21
252.6726029171
 31
0.0
  0
LINE
  5
19B
330
1F
100
AcDbEntity
  8
0
  6
Continuous
 62
     7
370
    25
100
AcDbLine
 10
314.0994589595
 20
229.0726029171
 30
0.0
 11
317.0994589595
 21
229.0726029171
 31
0.0
  0
LINE
  5
19C
330
1F
100
AcDbEntity
  8
0
  6
Continuous
 62
     7
370
    25
100
AcDbLine
 10
325.0994589595
 20
229.0726029171
 30
0.0
 11
328.0994589595
 21
229.0726029171
 31
0.0
  0
LINE
  5
19D
330
1F
100
AcDbEntity
  8
0
  6
Continuous
 62
     7
370
    25
100
AcDbLine
 10
328.0994589595
 20
252.6726029171
 30
0.0
 11
325.0994589595
 21
252.6726029171
 31
0.0
  0
LINE
  5
19E
330
1F
100
AcDbEntity
  8
0
  6
Continuous
 62
     7
370
    25
100
AcDbLine
 10
288.9965732766
 20
230.6226029171
 30
0.0
 11
288.9965732766
 21
251.1226029171
 31
0.0
  0
LINE
  5
19F
330
1F
100
AcDbEntity
  8
0
  6
Continuous
 62
     7
370
    25
100
AcDbLine
 10
283.9965732766
 20
230.6226029171
 30
0.0
 11
283.9965732766
 21
251.1226029171
 31
0.0
  0
LINE
  5
1A0
330
1F
100
AcDbEntity
  8
0
  6
Continuous
 62
     7
370
    25
100
AcDbLine
 10
278.9965732766
 20
230.6226029171
 30
0.0
 11
278.9965732766
 21
251.1226029171
 31
0.0
  0
LINE
  5
1A1
330
1F
100
AcDbEntity
  8
0
  6
Continuous
 62
     7
370
    25
100
AcDbLine
 10
273.9965732766
 20
230.6226029171
 30
0.0
 11
273.9965732766
 21
251.1226029171
 31
0.0
  0
LINE
  5
1A2
330
1F
100
AcDbEntity
  8
0
  6
Continuous
 62
     7
370
    25
100
AcDbLine
 10
268.9965732766
 20
230.6226029171
 30
0.0
 11
268.9965732766
 21
251.1226029171
 31
0.0
  0
LINE
  5
1A3
330
1F
100
AcDbEntity
  8
0
  6
Continuous
 62
     7
370
    25
100
AcDbLine
 10
261.9888511533
 20
250.2466376516
 30
0.0
 11
261.9888511533
 21
231.4985681825
 31
0.0
  0
LINE
  5
1A4
330
1F
100
AcDbEntity
  8
0
  6
Continuous
 62
     7
370
    25
100
AcDbLine
 10
260.9965732766
 20
232.774354024
 30
0.0
 11
260.9965732766
 21
248.9708518102
 31
0.0
  0
LINE
  5
1A5
330
1F
100
AcDbEntity
  8
0
  6
Continuous
 62
     7
370
    25
100
AcDbLine
 10
358.2023446425
 20
240.8726029171
 30
0.0
 11
358.2023446425
 21
230.6226029171
 31
0.0
  0
LINE
  5
1A6
330
1F
100
AcDbEntity
  8
0
  6
Continuous
 62
     7
370
    25
100
AcDbLine
 10
358.2023446425
 20
251.1226029171
 30
0.0
 11
358.2023446425
 21
240.8726029171
 31
0.0
  0
LINE
  5
1A7
330
1F
100
AcDbEntity
  8
0
  6
Continuous
 62
     7
370
    25
100
AcDbLine
 10
368.2023446425
 20
240.8726029171
 30
0.0
 11
368.2023446425
 21
230.6226029171
 31
0.0
  0
LINE
  5
1A8
330
1F
100
AcDbEntity
  8
0
  6
Continuous
 62
     7
370
    25
100
AcDbLine
 10
368.2023446425
 20
251.1226029171
 30
0.0
 11
368.2023446425
 21
240.8726029171
 31
0.0
  0
LINE
  5
1A9
330
1F
100
AcDbEntity
  8
0
  6
Continuous
 62
     7
370
    25
100
AcDbLine
 10
363.2023446425
 20
240.8726029171
 30
0.0
 11
363.2023446425
 21
230.6226029171
 31
0.0
  0
LINE
  5
1AA
330
1F
100
AcDbEntity
  8
0
  6
Continuous
 62
     7
370
    25
100
AcDbLine
 10
363.2023446425
 20
251.1226029171
 30
0.0
 11
363.2023446425
 21
240.8726029171
 31
0.0
  0
LINE
  5
1AB
330
1F
100
AcDbEntity
  8
0
  6
Continuous
 62
     7
370
    25
100
AcDbLine
 10
380.2100667658
 20
240.8726029171
 30
0.0
 11
380.2100667658
 21
250.2466376516
 31
0.0
  0
LINE
  5
1AC
330
1F
100
AcDbEntity
  8
0
  6
Continuous
 62
     7
370
    25
100
AcDbLine
 10
380.2100667658
 20
231.4985681825
 30
0.0
 11
380.2100667658
 21
240.8726029171
 31
0.0
  0
LINE
  5
1AD
330
1F
100
AcDbEntity
  8
0
  6
Continuous
 62
     7
370
    25
100
AcDbLine
 10
373.2023446425
 20
240.8726029171
 30
0.0
 11
373.2023446425
 21
230.6226029171
 31
0.0
  0
LINE
  5
1AE
330
1F
100
AcDbEntity
  8
0
  6
Continuous
 62
     7
370
    25
100
AcDbLine
 10
373.2023446425
 20
251.1226029171
 30
0.0
 11
373.2023446425
 21
240.8726029171
 31
0.0
  0
LINE
  5
1AF
330
1F
100
AcDbEntity
  8
0
  6
Continuous
 62
     7
370
    25
100
AcDbLine
 10
353.2023446425
 20
240.8726029171
 30
0.0
 11
353.2023446425
 21
230.6226029171
 31
0.0
  0
LINE
  5
1B0
330
1F
100
AcDbEntity
  8
0
  6
Continuous
 62
     7
370
    25
100
AcDbLine
 10
353.2023446425
 20
251.1226029171
 30
0.0
 11
353.2023446425
 21
240.8726029171
 31
0.0
  0
LINE
  5
1B1
330
1F
100
AcDbEntity
  8
0
  6
Continuous
 62
     7
370
    25
100
AcDbLine
 10
381.2023446425
 20
240.8726029171
 30
0.0
 11
381.2023446425
 21
232.774354024
 31
0.0
  0
LINE
  5
1B2
330
1F
100
AcDbEntity
  8
0
  6
Continuous
 62
     7
370
    25
100
AcDbLine
 10
381.2023446425
 20
248.9708518102
 30
0.0
 11
381.2023446425
 21
240.8726029171
 31
0.0
  0
LINE
  5
1B3
330
1F
100
AcDbEntity
  8
0
  6
Continuous
 62
     7
370
    25
100
AcDbLine
 10
344.7023446425
 20
226.1226029171
 30
0.0
 11
344.7023446425
 21
255.6226029171
 31
0.0
  0
SPLINE
  5
1B4
330
1F
100
AcDbEntity
  8
0
  6
Continuous
 62
     7
370
    25
100
AcDbSpline
210
0.0
220
0.0
230
1.0
 70
    24
 71
     3
 72
    11
 73
     7
 74
     0
 42
0.000000001
 43
0.00000001
 40
0.0
 40
0.0
 40
0.0
 40
0.0
 40
0.2404987745224473
 40
0.4290564030866271
 40
0.6182364668283148
 40
1.0
 40
1.0
 40
1.0
 40
1.0
 10
344.5515505605812
 20
255.8726029170588
 30
0.0
 10
344.5380474091962
 20
255.8726029170588
 30
0.0
 10
344.5139574171575
 20
255.8726029170587
 30
0.0
 10
344.3028172162675
 20
255.8726029170587
 30
0.0
 10
343.9391664044337
 20
255.8726029170587
 30
0.0
 10
343.5071382951687
 20
255.8726029170587
 30
0.0
 10
343.2182611130545
 20
255.8726029170587
 30
0.0
  0
SPLINE
  5
1B5
330
1F
100
AcDbEntity
  8
0
  6
Continuous
 62
     7
370
    25
100
AcDbSpline
210
0.0
220
0.0
230
1.0
 70
    24
 71
     3
 72
    11
 73
     7
 74
     0
 42
0.000000001
 43
0.00000001
 40
0.0
 40
0.0
 40
0.0
 40
0.0
 40
0.3779159068858458
 40
0.5684079893186381
 40
0.7594985847407777
 40
1.0
 40
1.0
 40
1.0
 40
1.0
 10
343.2182611130545
 20
225.8726029170587
 30
0.0
 10
343.5043881092831
 20
225.8726029170587
 30
0.0
 10
343.9347401205447
 20
225.8726029170587
 30
0.0
 10
344.3006085675198
 20
225.8726029170587
 30
0.0
 10
344.5131559585249
 20
225.8726029170587
 30
0.0
 10
344.5397056853802
 20
225.8726029170587
 30
0.0
 10
344.5545003218087
 20
225.8726029170588
 30
0.0
  0
SPLINE
  5
1B6
330
1F
100
AcDbEntity
  8
0
  6
Continuous
 62
     7
370
    25
100
AcDbSpline
210
0.0
220
0.0
230
1.0
 70
     8
 71
     3
 72
    15
 73
    11
 74
     0
 42
0.000000001
 43
0.00000001
 40
0.0
 40
0.0
 40
0.0
 40
0.0
 40
0.1323071196312176
 40
0.2645768296618953
 40
0.3998055717948225
 40
0.5350099115775104
 40
0.6501988847939828
 40
0.7654058260328536
 40
0.8826915738763783
 40
1.0
 40
1.0
 40
1.0
 40
1.0
 10
343.2182611130545
 20
240.8726029170587
 30
0.0
 10
343.4222108607532
 20
240.224533978208
 30
0.0
 10
343.8300526897257
 20
238.9285793408355
 30
0.0
 10
344.2688720253954
 20
236.9329228749694
 30
0.0
 10
344.5327169580621
 20
234.89964730948
 30
0.0
 10
344.5849602882381
 20
232.9400426863249
 30
0.0
 10
344.4493840297972
 20
231.086325560056
 30
0.0
 10
344.1716011739707
 20
229.336893658278
 30
0.0
 10
343.7641301897729
 20
227.5953717353889
 30
0.0
 10
343.4002291980952
 20
226.4468961976456
 30
0.0
 10
343.2182611130545
 20
225.8726029170587
 30
0.0
  0
SPLINE
  5
1B7
330
1F
100
AcDbEntity
  8
0
  6
Continuous
 62
     7
370
    25
100
AcDbSpline
210
0.0
220
0.0
230
1.0
 70
     8
 71
     3
 72
    15
 73
    11
 74
     0
 42
0.000000001
 43
0.00000001
 40
0.0
 40
0.0
 40
0.0
 40
0.0
 40
0.1323071196312191
 40
0.2645768296618987
 40
0.3998055717948273
 40
0.535009911577517
 40
0.6501988847939878
 40
0.7654058260328572
 40
0.8826915738763801
 40
1.0
 40
1.0
 40
1.0
 40
1.0
 10
343.2182611130545
 20
255.8726029170587
 30
0.0
 10
343.4222108607532
 20
255.2245339782079
 30
0.0
 10
343.8300526897257
 20
253.9285793408353
 30
0.0
 10
344.2688720253953
 20
251.9329228749693
 30
0.0
 10
344.5327169580621
 20
249.8996473094799
 30
0.0
 10
344.584960288238
 20
247.9400426863249
 30
0.0
 10
344.4493840297972
 20
246.0863255600559
 30
0.0
 10
344.1716011739706
 20
244.3368936582779
 30
0.0
 10
343.7641301897729
 20
242.5953717353889
 30
0.0
 10
343.4002291980952
 20
241.4468961976456
 30
0.0
 10
343.2182611130545
 20
240.8726029170587
 30
0.0
  0
LINE
  5
1B8
330
1F
100
AcDbEntity
  8
0
  6
Continuous
 62
     7
370
    25
100
AcDbLine
 10
331.2023446425
 20
226.1226029171
 30
0.0
 11
331.2023446425
 21
255.6226029171
 31
0.0
  0
SPLINE
  5
1B9
330
1F
100
AcDbEntity
  8
0
  6
Continuous
 62
     7
370
    25
100
AcDbSpline
210
0.0
220
0.0
230
1.0
 70
     8
 71
     3
 72
    15
 73
    11
 74
     0
 42
0.000000001
 43
0.00000001
 40
0.0
 40
0.0
 40
0.0
 40
0.0
 40
0.1323071196312191
 40
0.2645768296618985
 40
0.3998055717948272
 40
0.5350099115775169
 40
0.6501988847939878
 40
0.765405826032857
 40
0.8826915738763799
 40
1.0
 40
1.0
 40
1.0
 40
1.0
 10
332.6864281719605
 20
255.8726029170587
 30
0.0
 10
332.4824784242618
 20
255.2245339782079
 30
0.0
 10
332.0746365952893
 20
253.9285793408353
 30
0.0
 10
331.6358172596197
 20
251.9329228749693
 30
0.0
 10
331.3719723269529
 20
249.8996473094799
 30
0.0
 10
331.319728996777
 20
247.9400426863249
 30
0.0
 10
331.4553052552179
 20
246.0863255600559
 30
0.0
 10
331.7330881110444
 20
244.3368936582779
 30
0.0
 10
332.1405590952422
 20
242.5953717353889
 30
0.0
 10
332.5044600869198
 20
241.4468961976456
 30
0.0
 10
332.6864281719605
 20
240.8726029170587
 30
0.0
  0
SPLINE
  5
1BA
330
1F
100
AcDbEntity
  8
0
  6
Continuous
 62
     7
370
    25
100
AcDbSpline
210
0.0
220
0.0
230
1.0
 70
     8
 71
     3
 72
    15
 73
    11
 74
     0
 42
0.000000001
 43
0.00000001
 40
0.0
 40
0.0
 40
0.0
 40
0.0
 40
0.1323071196312175
 40
0.2645768296618953
 40
0.3998055717948223
 40
0.5350099115775103
 40
0.6501988847939828
 40
0.7654058260328536
 40
0.8826915738763783
 40
1.0
 40
1.0
 40
1.0
 40
1.0
 10
332.6864281719605
 20
240.8726029170587
 30
0.0
 10
332.4824784242618
 20
240.224533978208
 30
0.0
 10
332.0746365952892
 20
238.9285793408355
 30
0.0
 10
331.6358172596197
 20
236.9329228749694
 30
0.0
 10
331.3719723269529
 20
234.89964730948
 30
0.0
 10
331.319728996777
 20
232.9400426863249
 30
0.0
 10
331.4553052552178
 20
231.086325560056
 30
0.0
 10
331.7330881110444
 20
229.336893658278
 30
0.0
 10
332.1405590952421
 20
227.5953717353889
 30
0.0
 10
332.5044600869198
 20
226.4468961976456
 30
0.0
 10
332.6864281719605
 20
225.8726029170587
 30
0.0
  0
SPLINE
  5
1BB
330
1F
100
AcDbEntity
  8
0
  6
Continuous
 62
     7
370
    25
100
AcDbSpline
210
0.0
220
0.0
230
1.0
 70
    24
 71
     3
 72
    11
 73
     7
 74
     0
 42
0.000000001
 43
0.00000001
 40
0.0
 40
0.0
 40
0.0
 40
0.0
 40
0.3779159068858456
 40
0.568407989318638
 40
0.7594985847407777
 40
1.0
 40
1.0
 40
1.0
 40
1.0
 10
332.6864281719605
 20
225.8726029170587
 30
0.0
 10
332.4003011757319
 20
225.8726029170587
 30
0.0
 10
331.9699491644702
 20
225.8726029170587
 30
0.0
 10
331.6040807174952
 20
225.8726029170587
 30
0.0
 10
331.3915333264901
 20
225.8726029170587
 30
0.0
 10
331.3649835996348
 20
225.8726029170587
 30
0.0
 10
331.3501889632063
 20
225.8726029170588
 30
0.0
  0
SPLINE
  5
1BC
330
1F
100
AcDbEntity
  8
0
  6
Continuous
 62
     7
370
    25
100
AcDbSpline
210
0.0
220
0.0
230
1.0
 70
    24
 71
     3
 72
    11
 73
     7
 74
     0
 42
0.000000001
 43
0.00000001
 40
0.0
 40
0.0
 40
0.0
 40
0.0
 40
0.2404987745224477
 40
0.4290564030866275
 40
0.6182364668283151
 40
1.0
 40
1.0
 40
1.0
 40
1.0
 10
331.3531387244338
 20
255.8726029170588
 30
0.0
 10
331.3666418758187
 20
255.8726029170588
 30
0.0
 10
331.3907318678574
 20
255.8726029170587
 30
0.0
 10
331.6018720687475
 20
255.8726029170587
 30
0.0
 10
331.9655228805813
 20
255.8726029170587
 30
0.0
 10
332.3975509898463
 20
255.8726029170587
 30
0.0
 10
332.6864281719605
 20
255.8726029170587
 30
0.0
  0
LINE
  5
1BD
330
1F
100
AcDbEntity
  8
0
  6
Continuous
 62
     7
370
    25
100
AcDbLine
 10
338.0863192387
 20
255.8726029171
 30
0.0
 11
343.2182611131
 21
255.8726029171
 31
0.0
  0
LINE
  5
1BE
330
1F
100
AcDbEntity
  8
0
  6
Continuous
 62
     7
370
    25
100
AcDbLine
 10
338.0863192387
 20
240.8726029171
 30
0.0
 11
343.2182611131
 21
240.8726029171
 31
0.0
  0
LINE
  5
1BF
330
1F
100
AcDbEntity
  8
0
  6
Continuous
 62
     7
370
    25
100
AcDbLine
 10
338.0863192387
 20
240.8726029171
 30
0.0
 11
337.9523446425
 21
241.7811600596
 31
0.0
  0
LINE
  5
1C0
330
1F
100
AcDbEntity
  8
0
  6
Continuous
 62
     7
370
    25
100
AcDbLine
 10
337.9523446425
 20
241.7811600596
 30
0.0
 11
337.8183700463
 21
240.8726029171
 31
0.0
  0
LINE
  5
1C1
330
1F
100
AcDbEntity
  8
0
  6
Continuous
 62
     7
370
    25
100
AcDbLine
 10
332.686428172
 20
240.8726029171
 30
0.0
 11
337.8183700463
 21
240.8726029171
 31
0.0
  0
LINE
  5
1C2
330
1F
100
AcDbEntity
  8
0
  6
Continuous
 62
     7
370
    25
100
AcDbLine
 10
332.686428172
 20
255.8726029171
 30
0.0
 11
337.8183700463
 21
255.8726029171
 31
0.0
  0
LINE
  5
1C3
330
1F
100
AcDbEntity
  8
0
  6
Continuous
 62
     7
370
    25
100
AcDbLine
 10
337.8183700463
 20
255.8726029171
 30
0.0
 11
337.9523446425
 21
254.9640457745
 31
0.0
  0
LINE
  5
1C4
330
1F
100
AcDbEntity
  8
0
  6
Continuous
 62
     7
370
    25
100
AcDbLine
 10
337.9523446425
 20
254.9640457745
 30
0.0
 11
338.0863192387
 21
255.8726029171
 31
0.0
  0
LINE
  5
1C5
330
1F
100
AcDbEntity
  8
0
  6
Continuous
 62
     7
370
    25
100
AcDbLine
 10
337.9523446425
 20
239.9640457745
 30
0.0
 11
337.9523446425
 21
241.7811600596
 31
0.0
  0
LINE
  5
1C6
330
1F
100
AcDbEntity
  8
0
  6
Continuous
 62
     7
370
    25
100
AcDbLine
 10
337.8183700463
 20
240.8726029171
 30
0.0
 11
337.9523446425
 21
239.9640457745
 31
0.0
  0
LINE
  5
1C7
330
1F
100
AcDbEntity
  8
0
  6
Continuous
 62
     7
370
    25
100
AcDbLine
 10
337.9523446425
 20
239.9640457745
 30
0.0
 11
338.0863192387
 21
240.8726029171
 31
0.0
  0
LINE
  5
1C8
330
1F
100
AcDbEntity
  8
0
  6
Continuous
 62
     7
370
    25
100
AcDbLine
 10
338.0863192387
 20
225.8726029171
 30
0.0
 11
343.2182611131
 21
225.8726029171
 31
0.0
  0
LINE
  5
1C9
330
1F
100
AcDbEntity
  8
0
  6
Continuous
 62
     7
370
    25
100
AcDbLine
 10
338.0863192387
 20
225.8726029171
 30
0.0
 11
337.9523446425
 21
226.7811600596
 31
0.0
  0
LINE
  5
1CA
330
1F
100
AcDbEntity
  8
0
  6
Continuous
 62
     7
370
    25
100
AcDbLine
 10
337.9523446425
 20
226.7811600596
 30
0.0
 11
337.8183700463
 21
225.8726029171
 31
0.0
  0
LINE
  5
1CB
330
1F
100
AcDbEntity
  8
0
  6
Continuous
 62
     7
370
    25
100
AcDbLine
 10
332.686428172
 20
225.8726029171
 30
0.0
 11
337.8183700463
 21
225.8726029171
 31
0.0
  0
LINE
  5
1CC
330
1F
100
AcDbEntity
  8
0
  6
Continuous
 62
     7
370
    25
100
AcDbLine
 10
329.7023446425
 20
255.6226029171
 30
0.0
 11
329.7023446425
 21
226.1226029171
 31
0.0
  0
LINE
  5
1CD
330
1F
100
AcDbEntity
  8
0
  6
Continuous
 62
     7
370
    25
100
AcDbLine
 10
346.2023446425
 20
226.1226029171
 30
0.0
 11
346.2023446425
 21
255.6226029171
 31
0.0
  0
LINE
  5
1CE
330
1F
100
AcDbEntity
  8
0
  6
Continuous
 62
     7
370
    25
100
AcDbLine
 10
329.2023446425
 20
226.6226029171
 30
0.0
 11
329.2023446425
 21
255.1226029171
 31
0.0
  0
LINE
  5
1CF
330
1F
100
AcDbEntity
  8
0
  6
Continuous
 62
     7
370
    25
100
AcDbLine
 10
346.7023446425
 20
255.1226029171
 30
0.0
 11
346.7023446425
 21
226.6226029171
 31
0.0
  0
LINE
  5
1D0
330
1F
100
AcDbEntity
  8
0
  6
Continuous
 62
     7
370
    25
100
AcDbLine
 10
337.9523446425
 20
254.9640457745
 30
0.0
 11
337.9523446425
 21
255.8726029171
 31
0.0
  0
LINE
  5
1D1
330
1F
100
AcDbEntity
  8
0
  6
Continuous
 62
     7
370
    25
100
AcDbLine
 10
338.0863192387
 20
255.8726029171
 30
0.0
 11
337.9523446425
 21
255.8726029171
 31
0.0
  0
LINE
  5
1D2
330
1F
100
AcDbEntity
  8
0
  6
Continuous
 62
     7
370
    25
100
AcDbLine
 10
337.9523446425
 20
255.8726029171
 30
0.0
 11
337.8183700463
 21
255.8726029171
 31
0.0
  0
LINE
  5
1D3
330
1F
100
AcDbEntity
  8
0
  6
Continuous
 62
     7
370
    25
100
AcDbLine
 10
337.9523446425
 20
225.8726029171
 30
0.0
 11
337.9523446425
 21
226.7811600596
 31
0.0
  0
LINE
  5
1D4
330
1F
100
AcDbEntity
  8
0
  6
Continuous
 62
     7
370
    25
100
AcDbLine
 10
337.9523446425
 20
225.8726029171
 30
0.0
 11
338.0863192387
 21
225.8726029171
 31
0.0
  0
LINE
  5
1D5
330
1F
100
AcDbEntity
  8
0
  6
Continuous
 62
     7
370
    25
100
AcDbLine
 10
337.8183700463
 20
225.8726029171
 30
0.0
 11
337.9523446425
 21
225.8726029171
 31
0.0
  0
LINE
  5
1D6
330
1F
100
AcDbEntity
  8
0
  6
Continuous
 62
     7
370
    25
100
AcDbLine
 10
310.9965732766
 20
255.6226029171
 30
0.0
 11
310.9965732766
 21
226.1226029171
 31
0.0
  0
SPLINE
  5
1D7
330
1F
100
AcDbEntity
  8
0
  6
Continuous
 62
     7
370
    25
100
AcDbSpline
210
0.0
220
0.0
230
1.0
 70
     8
 71
     3
 72
    15
 73
    11
 74
     0
 42
0.000000001
 43
0.00000001
 40
0.0
 40
0.0
 40
0.0
 40
0.0
 40
0.1323071196312191
 40
0.2645768296618985
 40
0.3998055717948272
 40
0.535009911577517
 40
0.6501988847939878
 40
0.765405826032857
 40
0.88269157387638
 40
1.0
 40
1.0
 40
1.0
 40
1.0
 10
309.5124897471143
 20
225.8726029170588
 30
0.0
 10
309.7164394948131
 20
226.5206718559095
 30
0.0
 10
310.1242813237856
 20
227.8166264932821
 30
0.0
 10
310.5631006594552
 20
229.8122829591481
 30
0.0
 10
310.8269455921219
 20
231.8455585246375
 30
0.0
 10
310.8791889222978
 20
233.8051631477926
 30
0.0
 10
310.7436126638569
 20
235.6588802740615
 30
0.0
 10
310.4658298080304
 20
237.4083121758395
 30
0.0
 10
310.0583588238326
 20
239.1498340987285
 30
0.0
 10
309.694457832155
 20
240.2983096364718
 30
0.0
 10
309.5124897471143
 20
240.8726029170586
 30
0.0
  0
SPLINE
  5
1D8
330
1F
100
AcDbEntity
  8
0
  6
Continuous
 62
     7
370
    25
100
AcDbSpline
210
0.0
220
0.0
230
1.0
 70
     8
 71
     3
 72
    15
 73
    11
 74
     0
 42
0.000000001
 43
0.00000001
 40
0.0
 40
0.0
 40
0.0
 40
0.0
 40
0.1323071196312175
 40
0.2645768296618953
 40
0.3998055717948223
 40
0.5350099115775103
 40
0.6501988847939828
 40
0.7654058260328536
 40
0.8826915738763783
 40
1.0
 40
1.0
 40
1.0
 40
1.0
 10
309.5124897471143
 20
240.8726029170586
 30
0.0
 10
309.716439494813
 20
241.5206718559094
 30
0.0
 10
310.1242813237855
 20
242.8166264932819
 30
0.0
 10
310.5631006594551
 20
244.812282959148
 30
0.0
 10
310.8269455921219
 20
246.8455585246373
 30
0.0
 10
310.8791889222979
 20
248.8051631477924
 30
0.0
 10
310.743612663857
 20
250.6588802740614
 30
0.0
 10
310.4658298080305
 20
252.4083121758395
 30
0.0
 10
310.0583588238327
 20
254.1498340987285
 30
0.0
 10
309.6944578321551
 20
255.2983096364719
 30
0.0
 10
309.5124897471143
 20
255.8726029170587
 30
0.0
  0
SPLINE
  5
1D9
330
1F
100
AcDbEntity
  8
0
  6
Continuous
 62
     7
370
    25
100
AcDbSpline
210
0.0
220
0.0
230
1.0
 70
    24
 71
     3
 72
    11
 73
     7
 74
     0
 42
0.000000001
 43
0.00000001
 40
0.0
 40
0.0
 40
0.0
 40
0.0
 40
0.3779159068858287
 40
0.5684079893186127
 40
0.7594985847407439
 40
1.0
 40
1.0
 40
1.0
 40
1.0
 10
309.5124897471143
 20
255.8726029170587
 30
0.0
 10
309.798616743343
 20
255.8726029170587
 30
0.0
 10
310.2289687546046
 20
255.8726029170587
 30
0.0
 10
310.5948372015797
 20
255.8726029170587
 30
0.0
 10
310.8073845925848
 20
255.8726029170588
 30
0.0
 10
310.8339343194401
 20
255.8726029170588
 30
0.0
 10
310.8487289558686
 20
255.8726029170588
 30
0.0
  0
SPLINE
  5
1DA
330
1F
100
AcDbEntity
  8
0
  6
Continuous
 62
     7
370
    25
100
AcDbSpline
210
0.0
220
0.0
230
1.0
 70
    24
 71
     3
 72
    11
 73
     7
 74
     0
 42
0.000000001
 43
0.00000001
 40
0.0
 40
0.0
 40
0.0
 40
0.0
 40
0.2404987745224453
 40
0.4290564030866256
 40
0.6182364668283139
 40
1.0
 40
1.0
 40
1.0
 40
1.0
 10
310.8457791946411
 20
225.8726029170587
 30
0.0
 10
310.8322760432562
 20
225.8726029170587
 30
0.0
 10
310.8081860512174
 20
225.8726029170588
 30
0.0
 10
310.5970458503274
 20
225.8726029170588
 30
0.0
 10
310.2333950384935
 20
225.8726029170588
 30
0.0
 10
309.8013669292285
 20
225.8726029170588
 30
0.0
 10
309.5124897471143
 20
225.8726029170588
 30
0.0
  0
LINE
  5
1DB
330
1F
100
AcDbEntity
  8
0
  6
Continuous
 62
     7
370
    25
100
AcDbLine
 10
304.1125986804
 20
240.8726029171
 30
0.0
 11
298.980656806
 21
240.8726029171
 31
0.0
  0
SPLINE
  5
1DC
330
1F
100
AcDbEntity
  8
0
  6
Continuous
 62
     7
370
    25
100
AcDbSpline
210
0.0
220
0.0
230
1.0
 70
     8
 71
     3
 72
    15
 73
    11
 74
     0
 42
0.000000001
 43
0.00000001
 40
0.0
 40
0.0
 40
0.0
 40
0.0
 40
0.1323071196312175
 40
0.2645768296618952
 40
0.3998055717948223
 40
0.5350099115775103
 40
0.6501988847939827
 40
0.7654058260328535
 40
0.8826915738763782
 40
1.0
 40
1.0
 40
1.0
 40
1.0
 10
298.9806568060203
 20
240.8726029170586
 30
0.0
 10
298.7767070583216
 20
241.5206718559094
 30
0.0
 10
298.3688652293491
 20
242.8166264932819
 30
0.0
 10
297.9300458936794
 20
244.812282959148
 30
0.0
 10
297.6662009610127
 20
246.8455585246373
 30
0.0
 10
297.6139576308368
 20
248.8051631477924
 30
0.0
 10
297.7495338892776
 20
250.6588802740614
 30
0.0
 10
298.0273167451042
 20
252.4083121758395
 30
0.0
 10
298.434787729302
 20
254.1498340987285
 30
0.0
 10
298.7986887209796
 20
255.2983096364719
 30
0.0
 10
298.9806568060204
 20
255.8726029170587
 30
0.0
  0
LINE
  5
1DD
330
1F
100
AcDbEntity
  8
0
  6
Continuous
 62
     7
370
    25
100
AcDbLine
 10
304.1125986804
 20
255.8726029171
 30
0.0
 11
298.980656806
 21
255.8726029171
 31
0.0
  0
LINE
  5
1DE
330
1F
100
AcDbEntity
  8
0
  6
Continuous
 62
     7
370
    25
100
AcDbLine
 10
304.1125986804
 20
255.8726029171
 30
0.0
 11
304.2465732766
 21
254.9640457745
 31
0.0
  0
LINE
  5
1DF
330
1F
100
AcDbEntity
  8
0
  6
Continuous
 62
     7
370
    25
100
AcDbLine
 10
304.2465732766
 20
254.9640457745
 30
0.0
 11
304.3805478728
 21
255.8726029171
 31
0.0
  0
LINE
  5
1E0
330
1F
100
AcDbEntity
  8
0
  6
Continuous
 62
     7
370
    25
100
AcDbLine
 10
309.5124897471
 20
255.8726029171
 30
0.0
 11
304.3805478728
 21
255.8726029171
 31
0.0
  0
LINE
  5
1E1
330
1F
100
AcDbEntity
  8
0
  6
Continuous
 62
     7
370
    25
100
AcDbLine
 10
309.5124897471
 20
240.8726029171
 30
0.0
 11
304.3805478728
 21
240.8726029171
 31
0.0
  0
LINE
  5
1E2
330
1F
100
AcDbEntity
  8
0
  6
Continuous
 62
     7
370
    25
100
AcDbLine
 10
304.3805478728
 20
240.8726029171
 30
0.0
 11
304.2465732766
 21
241.7811600596
 31
0.0
  0
LINE
  5
1E3
330
1F
100
AcDbEntity
  8
0
  6
Continuous
 62
     7
370
    25
100
AcDbLine
 10
304.2465732766
 20
241.7811600596
 30
0.0
 11
304.1125986804
 21
240.8726029171
 31
0.0
  0
LINE
  5
1E4
330
1F
100
AcDbEntity
  8
0
  6
Continuous
 62
     7
370
    25
100
AcDbLine
 10
297.4965732766
 20
255.6226029171
 30
0.0
 11
297.4965732766
 21
226.1226029171
 31
0.0
  0
SPLINE
  5
1E5
330
1F
100
AcDbEntity
  8
0
  6
Continuous
 62
     7
370
    25
100
AcDbSpline
210
0.0
220
0.0
230
1.0
 70
    24
 71
     3
 72
    11
 73
     7
 74
     0
 42
0.000000001
 43
0.00000001
 40
0.0
 40
0.0
 40
0.0
 40
0.0
 40
0.2404987745224135
 40
0.4290564030866017
 40
0.6182364668282978
 40
1.0
 40
1.0
 40
1.0
 40
1.0
 10
297.6473673584937
 20
225.8726029170587
 30
0.0
 10
297.6608705098786
 20
225.8726029170587
 30
0.0
 10
297.6849605019173
 20
225.8726029170587
 30
0.0
 10
297.8961007028074
 20
225.8726029170588
 30
0.0
 10
298.2597515146412
 20
225.8726029170588
 30
0.0
 10
298.6917796239061
 20
225.8726029170588
 30
0.0
 10
298.9806568060204
 20
225.8726029170588
 30
0.0
  0
SPLINE
  5
1E6
330
1F
100
AcDbEntity
  8
0
  6
Continuous
 62
     7
370
    25
100
AcDbSpline
210
0.0
220
0.0
230
1.0
 70
    24
 71
     3
 72
    11
 73
     7
 74
     0
 42
0.000000001
 43
0.00000001
 40
0.0
 40
0.0
 40
0.0
 40
0.0
 40
0.3779159068858445
 40
0.5684079893186362
 40
0.7594985847407753
 40
0.9999999999999999
 40
0.9999999999999999
 40
0.9999999999999999
 40
0.9999999999999999
 10
298.9806568060204
 20
255.8726029170587
 30
0.0
 10
298.6945298097917
 20
255.8726029170587
 30
0.0
 10
298.2641777985301
 20
255.8726029170588
 30
0.0
 10
297.898309351555
 20
255.8726029170587
 30
0.0
 10
297.68576196055
 20
255.8726029170588
 30
0.0
 10
297.6592122336947
 20
255.8726029170588
 30
0.0
 10
297.6444175972662
 20
255.8726029170588
 30
0.0
  0
SPLINE
  5
1E7
330
1F
100
AcDbEntity
  8
0
  6
Continuous
 62
     7
370
    25
100
AcDbSpline
210
0.0
220
0.0
230
1.0
 70
     8
 71
     3
 72
    15
 73
    11
 74
     0
 42
0.000000001
 43
0.00000001
 40
0.0
 40
0.0
 40
0.0
 40
0.0
 40
0.1323071196312191
 40
0.2645768296618987
 40
0.3998055717948273
 40
0.5350099115775169
 40
0.6501988847939878
 40
0.7654058260328571
 40
0.8826915738763801
 40
1.0
 40
1.0
 40
1.0
 40
1.0
 10
298.9806568060204
 20
225.8726029170588
 30
0.0
 10
298.7767070583216
 20
226.5206718559095
 30
0.0
 10
298.3688652293491
 20
227.8166264932821
 30
0.0
 10
297.9300458936795
 20
229.8122829591481
 30
0.0
 10
297.6662009610127
 20
231.8455585246375
 30
0.0
 10
297.6139576308368
 20
233.8051631477926
 30
0.0
 10
297.7495338892777
 20
235.6588802740615
 30
0.0
 10
298.0273167451042
 20
237.4083121758395
 30
0.0
 10
298.4347877293019
 20
239.1498340987285
 30
0.0
 10
298.7986887209796
 20
240.2983096364718
 30
0.0
 10
298.9806568060203
 20
240.8726029170586
 30
0.0
  0
LINE
  5
1E8
330
1F
100
AcDbEntity
  8
0
  6
Continuous
 62
     7
370
    25
100
AcDbLine
 10
304.1125986804
 20
225.8726029171
 30
0.0
 11
298.980656806
 21
225.8726029171
 31
0.0
  0
LINE
  5
1E9
330
1F
100
AcDbEntity
  8
0
  6
Continuous
 62
     7
370
    25
100
AcDbLine
 10
304.1125986804
 20
240.8726029171
 30
0.0
 11
304.2465732766
 21
239.9640457745
 31
0.0
  0
LINE
  5
1EA
330
1F
100
AcDbEntity
  8
0
  6
Continuous
 62
     7
370
    25
100
AcDbLine
 10
304.2465732766
 20
239.9640457745
 30
0.0
 11
304.3805478728
 21
240.8726029171
 31
0.0
  0
LINE
  5
1EB
330
1F
100
AcDbEntity
  8
0
  6
Continuous
 62
     7
370
    25
100
AcDbLine
 10
309.5124897471
 20
225.8726029171
 30
0.0
 11
304.3805478728
 21
225.8726029171
 31
0.0
  0
LINE
  5
1EC
330
1F
100
AcDbEntity
  8
0
  6
Continuous
 62
     7
370
    25
100
AcDbLine
 10
304.3805478728
 20
225.8726029171
 30
0.0
 11
304.2465732766
 21
226.7811600596
 31
0.0
  0
LINE
  5
1ED
330
1F
100
AcDbEntity
  8
0
  6
Continuous
 62
     7
370
    25
100
AcDbLine
 10
304.2465732766
 20
226.7811600596
 30
0.0
 11
304.1125986804
 21
225.8726029171
 31
0.0
  0
LINE
  5
1EE
330
1F
100
AcDbEntity
  8
0
  6
Continuous
 62
     7
370
    25
100
AcDbLine
 10
304.2465732766
 20
241.7811600596
 30
0.0
 11
304.2465732766
 21
239.9640457745
 31
0.0
  0
LINE
  5
1EF
330
1F
100
AcDbEntity
  8
0
  6
Continuous
 62
     7
370
    25
100
AcDbLine
 10
312.9965732766
 20
255.1226029171
 30
0.0
 11
312.9965732766
 21
226.6226029171
 31
0.0
  0
LINE
  5
1F0
330
1F
100
AcDbEntity
  8
0
  6
Continuous
 62
     7
370
    25
100
AcDbLine
 10
312.4965732766
 20
226.1226029171
 30
0.0
 11
312.4965732766
 21
255.6226029171
 31
0.0
  0
LINE
  5
1F1
330
1F
100
AcDbEntity
  8
0
  6
Continuous
 62
     7
370
    25
100
AcDbLine
 10
295.9965732766
 20
255.6226029171
 30
0.0
 11
295.9965732766
 21
226.1226029171
 31
0.0
  0
LINE
  5
1F2
330
1F
100
AcDbEntity
  8
0
  6
Continuous
 62
     7
370
    25
100
AcDbLine
 10
295.4965732766
 20
226.6226029171
 30
0.0
 11
295.4965732766
 21
255.1226029171
 31
0.0
  0
LINE
  5
1F3
330
1F
100
AcDbEntity
  8
0
  6
Continuous
 62
     7
370
    25
100
AcDbLine
 10
304.2465732766
 20
255.8726029171
 30
0.0
 11
304.2465732766
 21
254.9640457745
 31
0.0
  0
LINE
  5
1F4
330
1F
100
AcDbEntity
  8
0
  6
Continuous
 62
     7
370
    25
100
AcDbLine
 10
304.3805478728
 20
255.8726029171
 30
0.0
 11
304.2465732766
 21
255.8726029171
 31
0.0
  0
LINE
  5
1F5
330
1F
100
AcDbEntity
  8
0
  6
Continuous
 62
     7
370
    25
100
AcDbLine
 10
304.2465732766
 20
255.8726029171
 30
0.0
 11
304.1125986804
 21
255.8726029171
 31
0.0
  0
LINE
  5
1F6
330
1F
100
AcDbEntity
  8
0
  6
Continuous
 62
     7
370
    25
100
AcDbLine
 10
304.2465732766
 20
225.8726029171
 30
0.0
 11
304.3805478728
 21
225.8726029171
 31
0.0
  0
LINE
  5
1F7
330
1F
100
AcDbEntity
  8
0
  6
Continuous
 62
     7
370
    25
100
AcDbLine
 10
304.2465732766
 20
226.7811600596
 30
0.0
 11
304.2465732766
 21
225.8726029171
 31
0.0
  0
LINE
  5
1F8
330
1F
100
AcDbEntity
  8
0
  6
Continuous
 62
     7
370
    25
100
AcDbLine
 10
304.1125986804
 20
225.8726029171
 30
0.0
 11
304.2465732766
 21
225.8726029171
 31
0.0
  0
LINE
  5
1F9
330
1F
100
AcDbEntity
  8
0
  6
Continuous
 62
     7
370
    25
100
AcDbLine
 10
318.4495678928
 20
240.8726029171
 30
0.0
 11
321.0190742018
 21
240.8726029171
 31
0.0
  0
SPLINE
  5
1FA
330
1F
100
AcDbEntity
  8
0
  6
Continuous
 62
     7
370
    25
100
AcDbSpline
210
0.0
220
0.0
230
1.0
 70
     8
 71
     3
 72
    16
 73
    12
 74
     0
 42
0.000000001
 43
0.00000001
 40
0.0
 40
0.0
 40
0.0
 40
0.0
 40
0.2499999999999999
 40
0.2499999999999999
 40
0.4999999999999998
 40
0.4999999999999998
 40
0.6249999999999998
 40
0.6249999999999998
 40
0.7499999999999999
 40
0.7499999999999999
 40
1.0
 40
1.0
 40
1.0
 40
1.0
 10
318.4495678927746
 20
240.8726029170587
 30
0.0
 10
318.0821855300887
 20
241.9747500051167
 30
0.0
 10
317.7793959696945
 20
243.084932480397
 30
0.0
 10
317.3599341613892
 20
245.3284505474271
 30
0.0
 10
317.2446455359346
 20
246.4619582627234
 30
0.0
 10
317.2433791390706
 20
248.1835752666702
 30
0.0
 10
317.2715626961597
 20
248.7601485262131
 30
0.0
 10
317.3814638652017
 20
249.9006711321599
 30
0.0
 10
317.4630699272746
 20
250.4671086896201
 30
0.0
 10
317.7781885221654
 20
252.1563367228598
 30
0.0
 10
318.0817275385016
 20
253.2690818542391
 30
0.0
 10
318.4495678927748
 20
254.3726029170588
 30
0.0
  0
LINE
  5
1FB
330
1F
100
AcDbEntity
  8
0
  6
Continuous
 62
     7
370
    25
100
AcDbLine
 10
318.4495678928
 20
254.3726029171
 30
0.0
 11
321.0190742018
 21
254.3726029171
 31
0.0
  0
SPLINE
  5
1FC
330
1F
100
AcDbEntity
  8
0
  6
Continuous
 62
     7
370
    25
100
AcDbSpline
210
0.0
220
0.0
230
1.0
 70
     8
 71
     3
 72
     8
 73
     4
 74
     0
 42
0.000000001
 43
0.00000001
 40
0.0
 40
0.0
 40
0.0
 40
0.0
 40
1.0
 40
1.0
 40
1.0
 40
1.0
 10
321.0994589595375
 20
253.8367154224248
 30
0.0
 10
321.073501895893
 20
254.0154666054626
 30
0.0
 10
321.0466897417986
 20
254.1940932604035
 30
0.0
 10
321.0190742018082
 20
254.3726029170588
 30
0.0
  0
SPLINE
  5
1FD
330
1F
100
AcDbEntity
  8
0
  6
Continuous
 62
     7
370
    25
100
AcDbSpline
210
0.0
220
0.0
230
1.0
 70
     8
 71
     3
 72
     8
 73
     4
 74
     0
 42
0.000000001
 43
0.00000001
 40
0.0
 40
0.0
 40
0.0
 40
0.0
 40
1.0
 40
1.0
 40
1.0
 40
1.0
 10
321.1798437172667
 20
254.3726029170588
 30
0.0
 10
321.152220661173
 20
254.1940446755476
 30
0.0
 10
321.1254088140557
 20
254.0154169604081
 30
0.0
 10
321.0994589595375
 20
253.8367154224248
 30
0.0
  0
LINE
  5
1FE
330
1F
100
AcDbEntity
  8
0
  6
Continuous
 62
     7
370
    25
100
AcDbLine
 10
321.1798437173
 20
254.3726029171
 30
0.0
 11
323.7493500263
 21
254.3726029171
 31
0.0
  0
SPLINE
  5
1FF
330
1F
100
AcDbEntity
  8
0
  6
Continuous
 62
     7
370
    25
100
AcDbSpline
210
0.0
220
0.0
230
1.0
 70
     8
 71
     3
 72
    16
 73
    12
 74
     0
 42
0.000000001
 43
0.00000001
 40
0.0
 40
0.0
 40
0.0
 40
0.0
 40
0.2499999999999999
 40
0.2499999999999999
 40
0.4999999999999998
 40
0.4999999999999998
 40
0.6249999999999998
 40
0.6249999999999998
 40
0.7499999999999999
 40
0.7499999999999999
 40
1.0
 40
1.0
 40
1.0
 40
1.0
 10
323.7493500263003
 20
240.8726029170587
 30
0.0
 10
324.1167323889862
 20
241.9747500051167
 30
0.0
 10
324.4195219493805
 20
243.084932480397
 30
0.0
 10
324.8389837576858
 20
245.3284505474271
 30
0.0
 10
324.9542723831403
 20
246.4619582627234
 30
0.0
 10
324.9555387800042
 20
248.1835752666702
 30
0.0
 10
324.9273552229153
 20
248.7601485262131
 30
0.0
 10
324.8174540538732
 20
249.9006711321599
 30
0.0
 10
324.7358479918003
 20
250.4671086896201
 30
0.0
 10
324.4207293969095
 20
252.1563367228598
 30
0.0
 10
324.1171903805733
 20
253.2690818542391
 30
0.0
 10
323.7493500263001
 20
254.3726029170588
 30
0.0
  0
LINE
  5
200
330
1F
100
AcDbEntity
  8
0
  6
Continuous
 62
     7
370
    25
100
AcDbLine
 10
321.1798437173
 20
240.8726029171
 30
0.0
 11
323.7493500263
 21
240.8726029171
 31
0.0
  0
SPLINE
  5
201
330
1F
100
AcDbEntity
  8
0
  6
Continuous
 62
     7
370
    25
100
AcDbSpline
210
0.0
220
0.0
230
1.0
 70
     8
 71
     3
 72
     8
 73
     4
 74
     0
 42
0.000000001
 43
0.00000001
 40
0.0
 40
0.0
 40
0.0
 40
0.0
 40
1.0
 40
1.0
 40
1.0
 40
1.0
 10
321.0994589595375
 20
241.4084904116928
 30
0.0
 10
321.1254160231819
 20
241.2297392286549
 30
0.0
 10
321.1522281772764
 20
241.0511125737139
 30
0.0
 10
321.1798437172667
 20
240.8726029170587
 30
0.0
  0
SPLINE
  5
202
330
1F
100
AcDbEntity
  8
0
  6
Continuous
 62
     7
370
    25
100
AcDbSpline
210
0.0
220
0.0
230
1.0
 70
     8
 71
     3
 72
     8
 73
     4
 74
     0
 42
0.000000001
 43
0.00000001
 40
0.0
 40
0.0
 40
0.0
 40
0.0
 40
1.0
 40
1.0
 40
1.0
 40
1.0
 10
321.0190742018082
 20
240.8726029170587
 30
0.0
 10
321.0466972579019
 20
241.0511611585699
 30
0.0
 10
321.0735091050192
 20
241.2297888737094
 30
0.0
 10
321.0994589595375
 20
241.4084904116928
 30
0.0
  0
SPLINE
  5
203
330
1F
100
AcDbEntity
  8
0
  6
Continuous
 62
     7
370
    25
100
AcDbSpline
210
0.0
220
0.0
230
1.0
 70
     8
 71
     3
 72
    16
 73
    12
 74
     0
 42
0.000000001
 43
0.00000001
 40
0.0
 40
0.0
 40
0.0
 40
0.0
 40
0.25
 40
0.25
 40
0.5
 40
0.5
 40
0.625
 40
0.625
 40
0.75
 40
0.75
 40
1.0
 40
1.0
 40
1.0
 40
1.0
 10
323.7493500263003
 20
227.3726029170587
 30
0.0
 10
324.1167323889862
 20
228.4747500051167
 30
0.0
 10
324.4195219493805
 20
229.584932480397
 30
0.0
 10
324.8389837576858
 20
231.8284505474271
 30
0.0
 10
324.9542723831403
 20
232.9619582627234
 30
0.0
 10
324.9555387800042
 20
234.6835752666703
 30
0.0
 10
324.9273552229153
 20
235.2601485262131
 30
0.0
 10
324.8174540538733
 20
236.4006711321599
 30
0.0
 10
324.7358479918003
 20
236.9671086896201
 30
0.0
 10
324.4207293969095
 20
238.6563367228598
 30
0.0
 10
324.1171903805733
 20
239.7690818542391
 30
0.0
 10
323.7493500263001
 20
240.8726029170588
 30
0.0
  0
SPLINE
  5
204
330
1F
100
AcDbEntity
  8
0
  6
Continuous
 62
     7
370
    25
100
AcDbSpline
210
0.0
220
0.0
230
1.0
 70
    24
 71
     3
 72
    12
 73
     8
 74
     0
 42
0.000000001
 43
0.00000001
 40
0.0
 40
0.0
 40
0.0
 40
0.0
 40
0.3727542165867795
 40
0.5605939682206532
 40
0.7490026300333699
 40
0.9987082560837436
 40
1.0
 40
1.0
 40
1.0
 40
1.0
 10
323.7493500263
 20
254.3726029170588
 30
0.0
 10
324.0027962301247
 20
254.3726029170588
 30
0.0
 10
324.3839600287092
 20
254.3726029170588
 30
0.0
 10
324.7178125007478
 20
254.3726029170587
 30
0.0
 10
324.8958417828614
 20
254.3726029170589
 30
0.0
 10
324.9826272333486
 20
254.3726029170585
 30
0.0
 10
324.9548349369012
 20
254.3726029170588
 30
0.0
 10
324.9546919054031
 20
254.3726029170588
 30
0.0
  0
SPLINE
  5
205
330
1F
100
AcDbEntity
  8
0
  6
Continuous
 62
     7
370
    25
100
AcDbSpline
210
0.0
220
0.0
230
1.0
 70
    24
 71
     3
 72
    11
 73
     7
 74
     0
 42
0.000000001
 43
0.00000001
 40
0.0
 40
0.0
 40
0.0
 40
0.0
 40
0.2510825079022748
 40
0.4370578824888011
 40
0.623625460316123
 40
1.0
 40
1.0
 40
1.0
 40
1.0
 10
324.9528299369286
 20
227.3726029170587
 30
0.0
 10
324.9378913197865
 20
227.3726029170588
 30
0.0
 10
324.9118877545443
 20
227.3726029170588
 30
0.0
 10
324.7163407740027
 20
227.3726029170587
 30
0.0
 10
324.3896348132419
 20
227.3726029170588
 30
0.0
 10
324.005905566017
 20
227.3726029170588
 30
0.0
 10
323.7493500263
 20
227.3726029170588
 30
0.0
  0
LINE
  5
206
330
1F
100
AcDbEntity
  8
0
  6
Continuous
 62
     7
370
    25
100
AcDbLine
 10
325.0994589595
 20
227.6226029171
 30
0.0
 11
325.0994589595
 21
254.1226029171
 31
0.0
  0
SPLINE
  5
207
330
1F
100
AcDbEntity
  8
0
  6
Continuous
 62
     7
370
    25
100
AcDbSpline
210
0.0
220
0.0
230
1.0
 70
    24
 71
     3
 72
    11
 73
     7
 74
     0
 42
0.000000001
 43
0.00000001
 40
0.0
 40
0.0
 40
0.0
 40
0.0
 40
0.2510825079022748
 40
0.4370578824888011
 40
0.623625460316123
 40
1.0
 40
1.0
 40
1.0
 40
1.0
 10
317.2460879821463
 20
227.3726029170587
 30
0.0
 10
317.2610265992884
 20
227.3726029170588
 30
0.0
 10
317.2870301645306
 20
227.3726029170588
 30
0.0
 10
317.4825771450722
 20
227.3726029170587
 30
0.0
 10
317.8092831058331
 20
227.3726029170588
 30
0.0
 10
318.1930123530579
 20
227.3726029170588
 30
0.0
 10
318.4495678927749
 20
227.3726029170588
 30
0.0
  0
SPLINE
  5
208
330
1F
100
AcDbEntity
  8
0
  6
Continuous
 62
     7
370
    25
100
AcDbSpline
210
0.0
220
0.0
230
1.0
 70
    24
 71
     3
 72
    12
 73
     8
 74
     0
 42
0.000000001
 43
0.00000001
 40
0.0
 40
0.0
 40
0.0
 40
0.0
 40
0.3727542165867795
 40
0.5605939682206532
 40
0.7490026300333699
 40
0.9987082560837436
 40
1.0
 40
1.0
 40
1.0
 40
1.0
 10
318.4495678927749
 20
254.3726029170588
 30
0.0
 10
318.1961216889502
 20
254.3726029170588
 30
0.0
 10
317.8149578903657
 20
254.3726029170588
 30
0.0
 10
317.4811054183271
 20
254.3726029170587
 30
0.0
 10
317.3030761362135
 20
254.3726029170589
 30
0.0
 10
317.2162906857263
 20
254.3726029170585
 30
0.0
 10
317.2440829821737
 20
254.3726029170588
 30
0.0
 10
317.2442260136717
 20
254.3726029170588
 30
0.0
  0
SPLINE
  5
209
330
1F
100
AcDbEntity
  8
0
  6
Continuous
 62
     7
370
    25
100
AcDbSpline
210
0.0
220
0.0
230
1.0
 70
     8
 71
     3
 72
    16
 73
    12
 74
     0
 42
0.000000001
 43
0.00000001
 40
0.0
 40
0.0
 40
0.0
 40
0.0
 40
0.25
 40
0.25
 40
0.5
 40
0.5
 40
0.625
 40
0.625
 40
0.75
 40
0.75
 40
1.0
 40
1.0
 40
1.0
 40
1.0
 10
318.4495678927746
 20
227.3726029170587
 30
0.0
 10
318.0821855300887
 20
228.4747500051167
 30
0.0
 10
317.7793959696945
 20
229.584932480397
 30
0.0
 10
317.3599341613892
 20
231.8284505474271
 30
0.0
 10
317.2446455359346
 20
232.9619582627234
 30
0.0
 10
317.2433791390706
 20
234.6835752666703
 30
0.0
 10
317.2715626961597
 20
235.2601485262131
 30
0.0
 10
317.3814638652016
 20
236.4006711321599
 30
0.0
 10
317.4630699272746
 20
236.9671086896201
 30
0.0
 10
317.7781885221654
 20
238.6563367228598
 30
0.0
 10
318.0817275385016
 20
239.7690818542391
 30
0.0
 10
318.4495678927748
 20
240.8726029170588
 30
0.0
  0
LINE
  5
20A
330
1F
100
AcDbEntity
  8
0
  6
Continuous
 62
     7
370
    25
100
AcDbLine
 10
317.0994589595
 20
227.6226029171
 30
0.0
 11
317.0994589595
 21
254.1226029171
 31
0.0
  0
SPLINE
  5
20B
330
1F
100
AcDbEntity
  8
0
  6
Continuous
 62
     7
370
    25
100
AcDbSpline
210
0.0
220
0.0
230
1.0
 70
     8
 71
     3
 72
     8
 73
     4
 74
     0
 42
0.000000001
 43
0.00000001
 40
0.0
 40
0.0
 40
0.0
 40
0.0
 40
1.0
 40
1.0
 40
1.0
 40
1.0
 10
321.1798437172667
 20
240.8726029170587
 30
0.0
 10
321.152220661173
 20
240.6940446755476
 30
0.0
 10
321.1254088140557
 20
240.5154169604081
 30
0.0
 10
321.0994589595375
 20
240.3367154224247
 30
0.0
  0
LINE
  5
20C
330
1F
100
AcDbEntity
  8
0
  6
Continuous
 62
     7
370
    25
100
AcDbLine
 10
321.0994589595
 20
240.3367154224
 30
0.0
 11
321.0994589595
 21
241.4084904117
 31
0.0
  0
SPLINE
  5
20D
330
1F
100
AcDbEntity
  8
0
  6
Continuous
 62
     7
370
    25
100
AcDbSpline
210
0.0
220
0.0
230
1.0
 70
     8
 71
     3
 72
     8
 73
     4
 74
     0
 42
0.000000001
 43
0.00000001
 40
0.0
 40
0.0
 40
0.0
 40
0.0
 40
1.0
 40
1.0
 40
1.0
 40
1.0
 10
321.0994589595375
 20
240.3367154224247
 30
0.0
 10
321.073501895893
 20
240.5154666054626
 30
0.0
 10
321.0466897417986
 20
240.6940932604035
 30
0.0
 10
321.0190742018082
 20
240.8726029170587
 30
0.0
  0
LINE
  5
20E
330
1F
100
AcDbEntity
  8
0
  6
Continuous
 62
     7
370
    25
100
AcDbLine
 10
318.4495678928
 20
227.3726029171
 30
0.0
 11
321.0190742018
 21
227.3726029171
 31
0.0
  0
LINE
  5
20F
330
1F
100
AcDbEntity
  8
0
  6
Continuous
 62
     7
370
    25
100
AcDbLine
 10
321.1798437173
 20
227.3726029171
 30
0.0
 11
323.7493500263
 21
227.3726029171
 31
0.0
  0
SPLINE
  5
210
330
1F
100
AcDbEntity
  8
0
  6
Continuous
 62
     7
370
    25
100
AcDbSpline
210
0.0
220
0.0
230
1.0
 70
     8
 71
     3
 72
     8
 73
     4
 74
     0
 42
0.000000001
 43
0.00000001
 40
0.0
 40
0.0
 40
0.0
 40
0.0
 40
1.0
 40
1.0
 40
1.0
 40
1.0
 10
321.0994589595375
 20
227.9084904116928
 30
0.0
 10
321.1254160231819
 20
227.7297392286549
 30
0.0
 10
321.1522281772764
 20
227.551112573714
 30
0.0
 10
321.1798437172667
 20
227.3726029170588
 30
0.0
  0
SPLINE
  5
211
330
1F
100
AcDbEntity
  8
0
  6
Continuous
 62
     7
370
    25
100
AcDbSpline
210
0.0
220
0.0
230
1.0
 70
     8
 71
     3
 72
     8
 73
     4
 74
     0
 42
0.000000001
 43
0.00000001
 40
0.0
 40
0.0
 40
0.0
 40
0.0
 40
1.0
 40
1.0
 40
1.0
 40
1.0
 10
321.0190742018082
 20
227.3726029170588
 30
0.0
 10
321.0466972579019
 20
227.5511611585698
 30
0.0
 10
321.0735091050192
 20
227.7297888737094
 30
0.0
 10
321.0994589595375
 20
227.9084904116928
 30
0.0
  0
LINE
  5
212
330
1F
100
AcDbEntity
  8
0
  6
Continuous
 62
     7
370
    25
100
AcDbLine
 10
328.0994589595
 20
229.0521029171
 30
0.0
 11
328.0994589595
 21
252.6931029171
 31
0.0
  0
LINE
  5
213
330
1F
100
AcDbEntity
  8
0
  6
Continuous
 62
     7
370
    25
100
AcDbLine
 10
314.0994589595
 20
252.6931029171
 30
0.0
 11
314.0994589595
 21
229.0521029171
 31
0.0
  0
LINE
  5
214
330
1F
100
AcDbEntity
  8
0
  6
Continuous
 62
     7
370
    25
100
AcDbLine
 10
321.0994589595
 20
253.8367154224
 30
0.0
 11
321.0994589595
 21
254.3726029171
 31
0.0
  0
SPLINE
  5
215
330
1F
100
AcDbEntity
  8
0
  6
Continuous
 62
     7
370
    25
100
AcDbSpline
210
0.0
220
0.0
230
1.0
 70
    24
 71
     3
 72
     8
 73
     4
 74
     0
 42
0.000000001
 43
0.00000001
 40
0.0
 40
0.0
 40
0.0
 40
0.0
 40
1.0
 40
1.0
 40
1.0
 40
1.0
 10
321.0994589595375
 20
254.3726029170588
 30
0.0
 10
321.1254156522679
 20
254.3726029170588
 30
0.0
 10
321.1522277907699
 20
254.3726029170588
 30
0.0
 10
321.1798437172667
 20
254.3726029170588
 30
0.0
  0
SPLINE
  5
216
330
1F
100
AcDbEntity
  8
0
  6
Continuous
 62
     7
370
    25
100
AcDbSpline
210
0.0
220
0.0
230
1.0
 70
    24
 71
     3
 72
     8
 73
     4
 74
     0
 42
0.000000001
 43
0.00000001
 40
0.0
 40
0.0
 40
0.0
 40
0.0
 40
1.0
 40
1.0
 40
1.0
 40
1.0
 10
321.0190742018082
 20
254.3726029170588
 30
0.0
 10
321.0466983606105
 20
254.3726029170588
 30
0.0
 10
321.0735101620236
 20
254.3726029170588
 30
0.0
 10
321.0994589595375
 20
254.3726029170588
 30
0.0
  0
SPLINE
  5
217
330
1F
100
AcDbEntity
  8
0
  6
Continuous
 62
     7
370
    25
100
AcDbSpline
210
0.0
220
0.0
230
1.0
 70
    24
 71
     3
 72
     8
 73
     4
 74
     0
 42
0.000000001
 43
0.00000001
 40
0.0
 40
0.0
 40
0.0
 40
0.0
 40
1.0
 40
1.0
 40
1.0
 40
1.0
 10
321.1798437172667
 20
227.3726029170588
 30
0.0
 10
321.1522195584644
 20
227.3726029170588
 30
0.0
 10
321.1254077570513
 20
227.3726029170588
 30
0.0
 10
321.0994589595375
 20
227.3726029170588
 30
0.0
  0
LINE
  5
218
330
1F
100
AcDbEntity
  8
0
  6
Continuous
 62
     7
370
    25
100
AcDbLine
 10
321.0994589595
 20
227.3726029171
 30
0.0
 11
321.0994589595
 21
227.9084904117
 31
0.0
  0
SPLINE
  5
219
330
1F
100
AcDbEntity
  8
0
  6
Continuous
 62
     7
370
    25
100
AcDbSpline
210
0.0
220
0.0
230
1.0
 70
    24
 71
     3
 72
     8
 73
     4
 74
     0
 42
0.000000001
 43
0.00000001
 40
0.0
 40
0.0
 40
0.0
 40
0.0
 40
1.0
 40
1.0
 40
1.0
 40
1.0
 10
321.0994589595375
 20
227.3726029170588
 30
0.0
 10
321.073502266807
 20
227.3726029170588
 30
0.0
 10
321.046690128305
 20
227.3726029170588
 30
0.0
 10
321.0190742018082
 20
227.3726029170588
 30
0.0
  0
LINE
  5
21A
330
1F
100
AcDbEntity
  8
0
  6
CENTERX2
 62
     7
370
    18
100
AcDbLine
 10
385.2023446425
 20
240.8726029171
 30
0.0
 11
257.3338944809
 21
240.8726029171
 31
0.0
  0
ENDSEC
  0
SECTION
  2
OBJECTS
  0
DICTIONARY
  5
C
330
0
100
AcDbDictionary
281
     1
  3
ACAD_GROUP
350
D
  3
ACAD_LAYOUT
350
1A
  3
ACAD_MLINESTYLE
350
17
  3
ACAD_PLOTSETTINGS
350
19
  3
ACAD_PLOTSTYLENAME
350
E
  3
ACAD_SCALELIST
350
47
  0
DICTIONARY
  5
D
102
{ACAD_REACTORS
330
C
102
}
330
C
100
AcDbDictionary
281
     1
  0
DICTIONARY
  5
1A
102
{ACAD_REACTORS
330
C
102
}
330
C
100
AcDbDictionary
281
     1
  3
Layout1
350
1E
  3
Layout2
350
26
  3
Model
350
22
  0
DICTIONARY
  5
17
102
{ACAD_REACTORS
330
C
102
}
330
C
100
AcDbDictionary
281
     1
  3
Standard
350
18
  0
DICTIONARY
  5
19
102
{ACAD_REACTORS
330
C
102
}
330
C
100
AcDbDictionary
281
     1
  0
ACDBDICTIONARYWDFLT
  5
E
102
{ACAD_REACTORS
330
C
102
}
330
C
100
AcDbDictionary
281
     1
  3
Normal
350
F
100
AcDbDictionaryWithDefault
340
F
  0
DICTIONARY
  5
47
102
{ACAD_REACTORS
330
C
102
}
330
C
100
AcDbDictionary
281
     1
  3
A0
350
48
  3
A1
350
49
  3
A2
350
4A
  3
A3
350
4B
  3
A4
350
4C
  3
A5
350
4D
  3
A6
350
4E
  3
A7
350
4F
  3
A8
350
50
  3
A9
350
51
  3
B0
350
52
  3
B1
350
53
  3
B2
350
54
  3
B3
350
55
  3
B4
350
56
  3
B5
350
57
  3
B6
350
58
  3
B7
350
59
  3
B8
350
5A
  3
B9
350
5B
  3
C0
350
5C
  3
C1
350
5D
  3
C2
350
5E
  3
C3
350
5F
  3
C4
350
60
  3
C5
350
61
  3
C6
350
62
  3
C7
350
63
  3
C8
350
64
  3
C9
350
65
  3
D0
350
66
  3
D1
350
67
  3
D2
350
68
  0
LAYOUT
  5
1E
102
{ACAD_REACTORS
330
1A
102
}
330
1A
100
AcDbPlotSettings
  1

  2
none_device
  4

  6

 40
0.0
 41
0.0
 42
0.0
 43
0.0
 44
0.0
 45
0.0
 46
0.0
 47
0.0
 48
0.0
 49
0.0
140
0.0
141
0.0
142
1.0
143
1.0
 70
   688
 72
     1
 73
     0
 74
     5
  7

 75
    16
147
1.0
148
0.0
149
0.0
100
AcDbLayout
  1
Layout1
 70
     1
 71
     1
 10
0.0
 20
0.0
 11
420.0
 21
297.0
 12
0.0
 22
0.0
 32
0.0
 14
1.0000000000E+20
 24
1.0000000000E+20
 34
1.0000000000E+20
 15
-1.0000000000E+20
 25
-1.0000000000E+20
 35
-1.0000000000E+20
146
0.0
 13
0.0
 23
0.0
 33
0.0
 16
1.0
 26
0.0
 36
0.0
 17
0.0
 27
1.0
 37
0.0
 76
     0
330
1B
  0
LAYOUT
  5
26
102
{ACAD_REACTORS
330
1A
102
}
330
1A
100
AcDbPlotSettings
  1

  2
none_device
  4

  6

 40
0.0
 41
0.0
 42
0.0
 43
0.0
 44
0.0
 45
0.0
 46
0.0
 47
0.0
 48
0.0
 49
0.0
140
0.0
141
0.0
142
1.0
143
1.0
 70
   688
 72
     1
 73
     0
 74
     5
  7

 75
    16
147
1.0
148
0.0
149
0.0
100
AcDbLayout
  1
Layout2
 70
     1
 71
     2
 10
0.0
 20
0.0
 11
0.0
 21
0.0
 12
0.0
 22
0.0
 32
0.0
 14
0.0
 24
0.0
 34
0.0
 15
0.0
 25
0.0
 35
0.0
146
0.0
 13
0.0
 23
0.0
 33
0.0
 16
1.0
 26
0.0
 36
0.0
 17
0.0
 27
1.0
 37
0.0
 76
     0
330
23
  0
LAYOUT
  5
22
102
{ACAD_REACTORS
330
1A
102
}
330
1A
100
AcDbPlotSettings
  1

  2
none_device
  4
Letter_(8.50_x_11.00_Inches)
  6

 40
6.35
 41
6.35
 42
6.35000508
 43
6.35000508
 44
215.9
 45
279.4
 46
0.0
 47
0.0
 48
0.0
 49
0.0
140
0.0
141
0.0
142
1.0
143
1.0
 70
  1712
 72
     1
 73
     0
 74
     0
  7

 75
     0
147
1.0
148
0.0
149
0.0
100
AcDbLayout
  1
Model
 70
     1
 71
     0
 10
0.0
 20
0.0
 11
863.6
 21
558.8
 12
0.0
 22
0.0
 32
0.0
 14
0.0
 24
0.0
 34
0.0
 15
863.6
 25
558.8
 35
0.0
146
0.0
 13
0.0
 23
0.0
 33
0.0
 16
1.0
 26
0.0
 36
0.0
 17
0.0
 27
1.0
 37
0.0
 76
     0
330
1F
331
29
  0
MLINESTYLE
  5
18
102
{ACAD_REACTORS
330
17
102
}
330
17
100
AcDbMlineStyle
  2
Standard
 70
     0
  3

 62
   256
 51
90.0
 52
90.0
 71
     2
 49
0.5
 62
   256
  6
BYLAYER
 49
-0.5
 62
   256
  6
BYLAYER
  0
ACDBPLACEHOLDER
  5
F
102
{ACAD_REACTORS
330
E
102
}
330
E
  0
SCALE
  5
48
102
{ACAD_REACTORS
330
47
102
}
330
47
100
AcDbScale
 70
     0
300
1:1
140
1.0
141
1.0
290
     1
  0
SCALE
  5
49
102
{ACAD_REACTORS
330
47
102
}
330
47
100
AcDbScale
 70
     0
300
1:2
140
1.0
141
2.0
290
     0
  0
SCALE
  5
4A
102
{ACAD_REACTORS
330
47
102
}
330
47
100
AcDbScale
 70
     0
300
1:4
140
1.0
141
4.0
290
     0
  0
SCALE
  5
4B
102
{ACAD_REACTORS
330
47
102
}
330
47
100
AcDbScale
 70
     0
300
1:5
140
1.0
141
5.0
290
     0
  0
SCALE
  5
4C
102
{ACAD_REACTORS
330
47
102
}
330
47
100
AcDbScale
 70
     0
300
1:8
140
1.0
141
8.0
290
     0
  0
SCALE
  5
4D
102
{ACAD_REACTORS
330
47
102
}
330
47
100
AcDbScale
 70
     0
300
1:10
140
1.0
141
10.0
290
     0
  0
SCALE
  5
4E
102
{ACAD_REACTORS
330
47
102
}
330
47
100
AcDbScale
 70
     0
300
1:16
140
1.0
141
16.0
290
     0
  0
SCALE
  5
4F
102
{ACAD_REACTORS
330
47
102
}
330
47
100
AcDbScale
 70
     0
300
1:20
140
1.0
141
20.0
290
     0
  0
SCALE
  5
50
102
{ACAD_REACTORS
330
47
102
}
330
47
100
AcDbScale
 70
     0
300
1:30
140
1.0
141
30.0
290
     0
  0
SCALE
  5
51
102
{ACAD_REACTORS
330
47
102
}
330
47
100
AcDbScale
 70
     0
300
1:40
140
1.0
141
40.0
290
     0
  0
SCALE
  5
52
102
{ACAD_REACTORS
330
47
102
}
330
47
100
AcDbScale
 70
     0
300
1:50
140
1.0
141
50.0
290
     0
  0
SCALE
  5
53
102
{ACAD_REACTORS
330
47
102
}
330
47
100
AcDbScale
 70
     0
300
1:100
140
1.0
141
100.0
290
     0
  0
SCALE
  5
54
102
{ACAD_REACTORS
330
47
102
}
330
47
100
AcDbScale
 70
     0
300
2:1
140
2.0
141
1.0
290
     0
  0
SCALE
  5
55
102
{ACAD_REACTORS
330
47
102
}
330
47
100
AcDbScale
 70
     0
300
4:1
140
4.0
141
1.0
290
     0
  0
SCALE
  5
56
102
{ACAD_REACTORS
330
47
102
}
330
47
100
AcDbScale
 70
     0
300
8:1
140
8.0
141
1.0
290
     0
  0
SCALE
  5
57
102
{ACAD_REACTORS
330
47
102
}
330
47
100
AcDbScale
 70
     0
300
10:1
140
10.0
141
1.0
290
     0
  0
SCALE
  5
58
102
{ACAD_REACTORS
330
47
102
}
330
47
100
AcDbScale
 70
     0
300
100:1
140
100.0
141
1.0
290
     0
  0
SCALE
  5
59
102
{ACAD_REACTORS
330
47
102
}
330
47
100
AcDbScale
 70
     0
300
1/128" = 1'-0"
140
0.0078125
141
12.0
290
     0
  0
SCALE
  5
5A
102
{ACAD_REACTORS
330
47
102
}
330
47
100
AcDbScale
 70
     0
300
1/64" = 1'-0"
140
0.015625
141
12.0
290
     0
  0
SCALE
  5
5B
102
{ACAD_REACTORS
330
47
102
}
330
47
100
AcDbScale
 70
     0
300
1/32" = 1'-0"
140
0.03125
141
12.0
290
     0
  0
SCALE
  5
5C
102
{ACAD_REACTORS
330
47
102
}
330
47
100
AcDbScale
 70
     0
300
1/16" = 1'-0"
140
0.0625
141
12.0
290
     0
  0
SCALE
  5
5D
102
{ACAD_REACTORS
330
47
102
}
330
47
100
AcDbScale
 70
     0
300
3/32" = 1'-0"
140
0.09375
141
12.0
290
     0
  0
SCALE
  5
5E
102
{ACAD_REACTORS
330
47
102
}
330
47
100
AcDbScale
 70
     0
300
1/8" = 1'-0"
140
0.125
141
12.0
290
     0
  0
SCALE
  5
5F
102
{ACAD_REACTORS
330
47
102
}
330
47
100
AcDbScale
 70
     0
300
3/16" = 1'-0"
140
0.1875
141
12.0
290
     0
  0
SCALE
  5
60
102
{ACAD_REACTORS
330
47
102
}
330
47
100
AcDbScale
 70
     0
300
1/4" = 1'-0"
140
0.25
141
12.0
290
     0
  0
SCALE
  5
61
102
{ACAD_REACTORS
330
47
102
}
330
47
100
AcDbScale
 70
     0
300
3/8" = 1'-0"
140
0.375
141
12.0
290
     0
  0
SCALE
  5
62
102
{ACAD_REACTORS
330
47
102
}
330
47
100
AcDbScale
 70
     0
300
1/2" = 1'-0"
140
0.5
141
12.0
290
     0
  0
SCALE
  5
63
102
{ACAD_REACTORS
330
47
102
}
330
47
100
AcDbScale
 70
     0
300
3/4" = 1'-0"
140
0.75
141
12.0
290
     0
  0
SCALE
  5
64
102
{ACAD_REACTORS
330
47
102
}
330
47
100
AcDbScale
 70
     0
300
1" = 1'-0"
140
1.0
141
12.0
290
     0
  0
SCALE
  5
65
102
{ACAD_REACTORS
330
47
102
}
330
47
100
AcDbScale
 70
     0
300
1-1/2" = 1'-0"
140
1.5
141
12.0
290
     0
  0
SCALE
  5
66
102
{ACAD_REACTORS
330
47
102
}
330
47
100
AcDbScale
 70
     0
300
3" = 1'-0"
140
3.0
141
12.0
290
     0
  0
SCALE
  5
67
102
{ACAD_REACTORS
330
47
102
}
330
47
100
AcDbScale
 70
     0
300
6" = 1'-0"
140
6.0
141
12.0
290
     0
  0
SCALE
  5
68
102
{ACAD_REACTORS
330
47
102
}
330
47
100
AcDbScale
 70
     0
300
1'-0" = 1'-0"
140
12.0
141
12.0
290
     0
  0
ENDSEC
  0
EOF
