  0
SECTION
  2
HEADER
  9
$ACADVER
  1
AC1015
  9
$ACADMAINTVER
 70
     6
  9
$DWGCODEPAGE
  3
DOS932
  9
$INSBASE
 10
0.0
 20
0.0
 30
0.0
  9
$EXTMIN
 10
0.0
 20
0.0
 30
0.0
  9
$EXTMAX
 10
431.8
 20
279.4
 30
0.0
  9
$LIMMIN
 10
0.0
 20
0.0
  9
$LIMMAX
 10
431.8
 20
279.4
  9
$ORTHOMODE
 70
     0
  9
$REGENMODE
 70
     1
  9
$FILLMODE
 70
     1
  9
$QTEXTMODE
 70
     0
  9
$MIRRTEXT
 70
     1
  9
$LTSCALE
 40
1.0
  9
$ATTMODE
 70
     1
  9
$TEXTSIZE
 40
3.5
  9
$TRACEWID
 40
1.0
  9
$TEXTSTYLE
  7
Standard
  9
$CLAYER
  8
0
  9
$CELTYPE
  6
ByLayer
  9
$CECOLOR
 62
   256
  9
$CELTSCALE
 40
1.0
  9
$DISPSILH
 70
     0
  9
$DIMSCALE
 40
1.0
  9
$DIMASZ
 40
3.302
  9
$DIMEXO
 40
1.0
  9
$DIMDLI
 40
3.75
  9
$DIMRND
 40
0.0
  9
$DIMDLE
 40
0.0
  9
$DIMEXE
 40
1.0
  9
$DIMTP
 40
0.0
  9
$DIMTM
 40
0.0
  9
$DIMTXT
 40
3.5
  9
$DIMCEN
 40
2.5
  9
$DIMTSZ
 40
0.0
  9
$DIMTOL
 70
     0
  9
$DIMLIM
 70
     0
  9
$DIMTIH
 70
     1
  9
$DIMTOH
 70
     1
  9
$DIMSE1
 70
     0
  9
$DIMSE2
 70
     0
  9
$DIMTAD
 70
     1
  9
$DIMZIN
 70
     1
  9
$DIMBLK
  1

  9
$DIMASO
 70
     1
  9
$DIMSHO
 70
     1
  9
$DIMPOST
  1

  9
$DIMAPOST
  1

  9
$DIMALT
 70
     0
  9
$DIMALTD
 70
     3
  9
$DIMALTF
 40
0.0393700787
  9
$DIMLFAC
 40
1.0
  9
$DIMTOFL
 70
     1
  9
$DIMTVP
 40
0.0
  9
$DIMTIX
 70
     0
  9
$DIMSOXD
 70
     0
  9
$DIMSAH
 70
     0
  9
$DIMBLK1
  1

  9
$DIMBLK2
  1

  9
$DIMSTYLE
  2
ISO-25
  9
$DIMCLRD
 70
     0
  9
$DIMCLRE
 70
     0
  9
$DIMCLRT
 70
     0
  9
$DIMTFAC
 40
1.0
  9
$DIMGAP
 40
1.524
  9
$DIMJUST
 70
     0
  9
$DIMSD1
 70
     0
  9
$DIMSD2
 70
     0
  9
$DIMTOLJ
 70
     0
  9
$DIMTZIN
 70
     1
  9
$DIMALTZ
 70
     0
  9
$DIMALTTZ
 70
     0
  9
$DIMUPT
 70
     0
  9
$DIMDEC
 70
     2
  9
$DIMTDEC
 70
     2
  9
$DIMALTU
 70
     2
  9
$DIMALTTD
 70
     3
  9
$DIMTXSTY
  7
Standard
  9
$DIMAUNIT
 70
     0
  9
$DIMADEC
 70
     2
  9
$DIMALTRND
 40
0.0
  9
$DIMAZIN
 70
     0
  9
$DIMDSEP
 70
    44
  9
$DIMATFIT
 70
     3
  9
$DIMFRAC
 70
     0
  9
$DIMLDRBLK
  1

  9
$DIMLUNIT
 70
     2
  9
$DIMLWD
 70
    -2
  9
$DIMLWE
 70
    -2
  9
$DIMTMOVE
 70
     0
  9
$LUNITS
 70
     2
  9
$LUPREC
 70
     2
  9
$SKETCHINC
 40
1.0
  9
$FILLETRAD
 40
10.0
  9
$AUNITS
 70
     0
  9
$AUPREC
 70
     2
  9
$MENU
  1
.
  9
$ELEVATION
 40
0.0
  9
$PELEVATION
 40
0.0
  9
$THICKNESS
 40
0.0
  9
$LIMCHECK
 70
     0
  9
$CHAMFERA
 40
0.0
  9
$CHAMFERB
 40
0.0
  9
$CHAMFERC
 40
0.0
  9
$CHAMFERD
 40
0.0
  9
$SKPOLY
 70
     0
  9
$TDCREATE
 40
2459486.647651377
  9
$TDUCREATE
 40
2459486.272651377
  9
$TDUPDATE
 40
2459486.647651991
  9
$TDUUPDATE
 40
2459486.272651991
  9
$TDINDWG
 40
0.0000000116
  9
$TDUSRTIMER
 40
0.0000000116
  9
$USRTIMER
 70
     1
  9
$ANGBASE
 50
0.0
  9
$ANGDIR
 70
     0
  9
$PDMODE
 70
     0
  9
$PDSIZE
 40
-1.0
  9
$PLINEWID
 40
0.0
  9
$SPLFRAME
 70
     0
  9
$SPLINETYPE
 70
     6
  9
$SPLINESEGS
 70
     8
  9
$HANDSEED
  5
262
  9
$SURFTAB1
 70
     6
  9
$SURFTAB2
 70
     6
  9
$SURFTYPE
 70
     6
  9
$SURFU
 70
     6
  9
$SURFV
 70
     6
  9
$UCSBASE
  2

  9
$UCSNAME
  2

  9
$UCSORG
 10
0.0
 20
0.0
 30
0.0
  9
$UCSXDIR
 10
1.0
 20
0.0
 30
0.0
  9
$UCSYDIR
 10
0.0
 20
1.0
 30
0.0
  9
$UCSORTHOREF
  2

  9
$UCSORTHOVIEW
 70
     0
  9
$UCSORGTOP
 10
0.0
 20
0.0
 30
0.0
  9
$UCSORGBOTTOM
 10
0.0
 20
0.0
 30
0.0
  9
$UCSORGLEFT
 10
0.0
 20
0.0
 30
0.0
  9
$UCSORGRIGHT
 10
0.0
 20
0.0
 30
0.0
  9
$UCSORGFRONT
 10
0.0
 20
0.0
 30
0.0
  9
$UCSORGBACK
 10
0.0
 20
0.0
 30
0.0
  9
$PUCSBASE
  2

  9
$PUCSNAME
  2

  9
$PUCSORG
 10
0.0
 20
0.0
 30
0.0
  9
$PUCSXDIR
 10
1.0
 20
0.0
 30
0.0
  9
$PUCSYDIR
 10
0.0
 20
1.0
 30
0.0
  9
$PUCSORTHOREF
  2

  9
$PUCSORTHOVIEW
 70
     0
  9
$PUCSORGTOP
 10
0.0
 20
0.0
 30
0.0
  9
$PUCSORGBOTTOM
 10
0.0
 20
0.0
 30
0.0
  9
$PUCSORGLEFT
 10
0.0
 20
0.0
 30
0.0
  9
$PUCSORGRIGHT
 10
0.0
 20
0.0
 30
0.0
  9
$PUCSORGFRONT
 10
0.0
 20
0.0
 30
0.0
  9
$PUCSORGBACK
 10
0.0
 20
0.0
 30
0.0
  9
$USERI1
 70
     0
  9
$USERI2
 70
     0
  9
$USERI3
 70
     0
  9
$USERI4
 70
     0
  9
$USERI5
 70
     0
  9
$USERR1
 40
0.0
  9
$USERR2
 40
0.0
  9
$USERR3
 40
0.0
  9
$USERR4
 40
0.0
  9
$USERR5
 40
0.0
  9
$WORLDVIEW
 70
     1
  9
$SHADEDGE
 70
     3
  9
$SHADEDIF
 70
    70
  9
$TILEMODE
 70
     1
  9
$MAXACTVP
 70
    64
  9
$PINSBASE
 10
0.0
 20
0.0
 30
0.0
  9
$PLIMCHECK
 70
     0
  9
$PEXTMIN
 10
1.0000000000E+20
 20
1.0000000000E+20
 30
1.0000000000E+20
  9
$PEXTMAX
 10
-1.0000000000E+20
 20
-1.0000000000E+20
 30
-1.0000000000E+20
  9
$PLIMMIN
 10
0.0
 20
0.0
  9
$PLIMMAX
 10
420.0
 20
297.0
  9
$UNITMODE
 70
     0
  9
$VISRETAIN
 70
     1
  9
$PLINEGEN
 70
     0
  9
$PSLTSCALE
 70
     1
  9
$TREEDEPTH
 70
  3020
  9
$CMLSTYLE
  2
Standard
  9
$CMLJUST
 70
     0
  9
$CMLSCALE
 40
20.0
  9
$PROXYGRAPHICS
 70
     1
  9
$MEASUREMENT
 70
     1
  9
$CELWEIGHT
370
    -1
  9
$ENDCAPS
280
     0
  9
$JOINSTYLE
280
     0
  9
$LWDISPLAY
290
     1
  9
$INSUNITS
 70
     4
  9
$HYPERLINKBASE
  1

  9
$STYLESHEET
  1

  9
$XEDIT
290
     1
  9
$CEPSNTYPE
380
     0
  9
$PSTYLEMODE
290
     1
  9
$FINGERPRINTGUID
  2
{E3DA1DF6-C529-4C8F-BF24-5201854B7AAA}
  9
$VERSIONGUID
  2
{FAEB1C32-E019-11D5-929B-00C0DF256EC4}
  9
$EXTNAMES
290
     1
  9
$PSVPSCALE
 40
0.0
  9
$OLESTARTUP
290
     0
  0
ENDSEC
  0
SECTION
  2
CLASSES
  0
CLASS
  1
ACDBDICTIONARYWDFLT
  2
AcDbDictionaryWithDefault
  3
ObjectDBX Classes
 90
        0
280
     0
281
     0
  0
CLASS
  1
VISUALSTYLE
  2
AcDbVisualStyle
  3
ObjectDBX Classes
 90
     4095
280
     0
281
     0
  0
CLASS
  1
MATERIAL
  2
AcDbMaterial
  3
ObjectDBX Classes
 90
     1153
280
     0
281
     0
  0
CLASS
  1
SCALE
  2
AcDbScale
  3
ObjectDBX Classes
 90
     1153
280
     0
281
     0
  0
CLASS
  1
TABLESTYLE
  2
AcDbTableStyle
  3
ObjectDBX Classes
 90
     4095
280
     0
281
     0
  0
CLASS
  1
MLEADERSTYLE
  2
AcDbMLeaderStyle
  3
ACDB_MLEADERSTYLE_CLASS
 90
     4095
280
     0
281
     0
  0
CLASS
  1
SUN
  2
AcDbSun
  3
SCENEOE
 90
     1153
280
     0
281
     0
  0
CLASS
  1
ACDBPLACEHOLDER
  2
AcDbPlaceHolder
  3
ObjectDBX Classes
 90
        0
280
     0
281
     0
  0
CLASS
  1
LAYOUT
  2
AcDbLayout
  3
ObjectDBX Classes
 90
        0
280
     0
281
     0
  0
ENDSEC
  0
SECTION
  2
TABLES
  0
TABLE
  2
VPORT
  5
8
330
0
100
AcDbSymbolTable
 70
     1
  0
VPORT
  5
29
330
8
100
AcDbSymbolTableRecord
100
AcDbViewportTableRecord
  2
*Active
 70
     0
 10
0.0
 20
0.0
 11
1.0
 21
1.0
 12
215.9
 22
139.7
 13
0.0
 23
0.0
 14
10.0
 24
10.0
 15
10.0
 25
10.0
 16
0.0
 26
0.0
 36
1.0
 17
0.0
 27
0.0
 37
0.0
 40
279.4
 41
1.5454545455
 42
50.0
 43
0.0
 44
0.0
 50
0.0
 51
0.0
 71
     0
 72
  2000
 73
     1
 74
     3
 75
     0
 76
     0
 77
     0
 78
     0
281
     0
 65
     1
110
0.0
120
0.0
130
0.0
111
1.0
121
0.0
131
0.0
112
0.0
122
1.0
132
0.0
 79
     0
146
0.0
  0
ENDTAB
  0
TABLE
  2
LTYPE
  5
5
330
0
100
AcDbSymbolTable
 70
     6
  0
LTYPE
  5
14
330
5
100
AcDbSymbolTableRecord
100
AcDbLinetypeTableRecord
  2
ByBlock
 70
     0
  3

 72
    65
 73
     0
 40
0.0
  0
LTYPE
  5
15
330
5
100
AcDbSymbolTableRecord
100
AcDbLinetypeTableRecord
  2
ByLayer
 70
     0
  3

 72
    65
 73
     0
 40
0.0
  0
LTYPE
  5
16
330
5
100
AcDbSymbolTableRecord
100
AcDbLinetypeTableRecord
  2
Continuous
 70
     0
  3
Solid line
 72
    65
 73
     0
 40
0.0
  0
LTYPE
  5
6E
330
5
100
AcDbSymbolTableRecord
100
AcDbLinetypeTableRecord
  2
HIDDEN
 70
     0
  3
Hidden __ __ __ __ __ __ __ __ __ __ __ __ __ __
 72
    65
 73
     2
 40
1.905
 49
1.27
 74
     0
 49
-0.635
 74
     0
  0
LTYPE
  5
6F
330
5
100
AcDbSymbolTableRecord
100
AcDbLinetypeTableRecord
  2
PHANTOM
 70
     0
  3
Phantom ______  __  __  ______  __  __  ______
 72
    65
 73
     6
 40
12.7
 49
6.35
 74
     0
 49
-1.27
 74
     0
 49
1.27
 74
     0
 49
-1.27
 74
     0
 49
1.27
 74
     0
 49
-1.27
 74
     0
  0
LTYPE
  5
70
330
5
100
AcDbSymbolTableRecord
100
AcDbLinetypeTableRecord
  2
CENTER
 70
     0
  3
Center ____ _ ____ _ ____ _ ____ _ ____ _ ____
 72
    65
 73
     4
 40
10.16
 49
6.35
 74
     0
 49
-1.27
 74
     0
 49
1.27
 74
     0
 49
-1.27
 74
     0
  0
LTYPE
  5
71
330
5
100
AcDbSymbolTableRecord
100
AcDbLinetypeTableRecord
  2
CENTERX2
 70
     0
  3
Center (2x) ________  __  ________  __  _____
 72
    65
 73
     4
 40
20.32
 49
12.7
 74
     0
 49
-2.54
 74
     0
 49
2.54
 74
     0
 49
-2.54
 74
     0
  0
LTYPE
  5
72
330
5
100
AcDbSymbolTableRecord
100
AcDbLinetypeTableRecord
  2
DOT2
 70
     0
  3
Dot (.5x) ........................................
 72
    65
 73
     2
 40
0.635
 49
0.0
 74
     0
 49
-0.635
 74
     0
  0
ENDTAB
  0
TABLE
  2
LAYER
  5
2
330
0
100
AcDbSymbolTable
 70
     1
  0
LAYER
  5
10
330
2
100
AcDbSymbolTableRecord
100
AcDbLayerTableRecord
  2
0
 70
     0
 62
     7
  6
Continuous
370
    -3
390
F
  0
ENDTAB
  0
TABLE
  2
STYLE
  5
3
330
0
100
AcDbSymbolTable
 70
     2
  0
STYLE
  5
11
330
3
100
AcDbSymbolTableRecord
100
AcDbTextStyleTableRecord
  2
Standard
 70
     0
 40
0.0
 41
1.0
 50
0.0
 71
     0
 42
3.5
  3
txt
  4
bigfont
  0
STYLE
  5
73
330
3
100
AcDbSymbolTableRecord
100
AcDbTextStyleTableRecord
  2
SLDTEXTSTYLE0
 70
     0
 40
0.0
 41
0.7
 50
0.0
 71
     0
 42
3.5
  3
TXT
  4
bigfont
  0
ENDTAB
  0
TABLE
  2
VIEW
  5
6
330
0
100
AcDbSymbolTable
 70
     0
  0
ENDTAB
  0
TABLE
  2
UCS
  5
7
330
0
100
AcDbSymbolTable
 70
     0
  0
ENDTAB
  0
TABLE
  2
APPID
  5
9
330
0
100
AcDbSymbolTable
 70
     1
  0
APPID
  5
12
330
9
100
AcDbSymbolTableRecord
100
AcDbRegAppTableRecord
  2
ACAD
 70
     0
  0
ENDTAB
  0
TABLE
  2
DIMSTYLE
  5
A
330
0
100
AcDbSymbolTable
 70
     1
100
AcDbDimStyleTable
  0
DIMSTYLE
105
27
330
A
100
AcDbSymbolTableRecord
100
AcDbDimStyleTableRecord
  2
ISO-25
 70
     0
 41
2.5
 42
0.625
 43
3.75
 44
1.25
 73
     0
 74
     0
 77
     1
 78
     8
140
2.5
141
2.5
143
0.0393700787
147
0.625
171
     3
172
     1
178
     0
271
     2
272
     2
274
     3
278
    44
283
     0
284
     8
340
11
  0
ENDTAB
  0
TABLE
  2
BLOCK_RECORD
  5
1
330
0
100
AcDbSymbolTable
 70
     2
  0
BLOCK_RECORD
  5
1F
330
1
100
AcDbSymbolTableRecord
100
AcDbBlockTableRecord
  2
*Model_Space
340
22
  0
BLOCK_RECORD
  5
1B
330
1
100
AcDbSymbolTableRecord
100
AcDbBlockTableRecord
  2
*Paper_Space
340
1E
  0
BLOCK_RECORD
  5
23
330
1
100
AcDbSymbolTableRecord
100
AcDbBlockTableRecord
  2
*Paper_Space0
340
26
  0
BLOCK_RECORD
  5
176
330
1
100
AcDbSymbolTableRecord
100
AcDbBlockTableRecord
  2
SW_CENTERMARKSYMBOL_0
340
0
102
{BLKREFS
331
181
102
}
  0
ENDTAB
  0
ENDSEC
  0
SECTION
  2
BLOCKS
  0
BLOCK
  5
20
330
1F
100
AcDbEntity
  8
0
100
AcDbBlockBegin
  2
*Model_Space
 70
     0
 10
0.0
 20
0.0
 30
0.0
  3
*Model_Space
  1

  0
ENDBLK
  5
21
330
1F
100
AcDbEntity
  8
0
100
AcDbBlockEnd
  0
BLOCK
  5
1C
330
1B
100
AcDbEntity
 67
     1
  8
0
100
AcDbBlockBegin
  2
*Paper_Space
 70
     0
 10
0.0
 20
0.0
 30
0.0
  3
*Paper_Space
  1

  0
ENDBLK
  5
1D
330
1B
100
AcDbEntity
 67
     1
  8
0
100
AcDbBlockEnd
  0
BLOCK
  5
24
330
23
100
AcDbEntity
  8
0
100
AcDbBlockBegin
  2
*Paper_Space0
 70
     0
 10
0.0
 20
0.0
 30
0.0
  3
*Paper_Space0
  1

  0
ENDBLK
  5
25
330
23
100
AcDbEntity
  8
0
100
AcDbBlockEnd
  0
BLOCK
  5
177
330
176
100
AcDbEntity
  8
0
100
AcDbBlockBegin
  2
SW_CENTERMARKSYMBOL_0
 70
     0
 10
0.0
 20
0.0
 30
0.0
  3
SW_CENTERMARKSYMBOL_0
  1

  0
LINE
  5
179
330
176
100
AcDbEntity
  8
0
  6
Continuous
 62
     0
370
    18
100
AcDbLine
 10
0.0
 20
0.0
 30
0.0
 11
0.0
 21
2.5
 31
0.0
  0
LINE
  5
17A
330
176
100
AcDbEntity
  8
0
  6
Continuous
 62
     0
370
    18
100
AcDbLine
 10
0.0
 20
0.0
 30
0.0
 11
-2.5
 21
0.0
 31
0.0
  0
LINE
  5
17B
330
176
100
AcDbEntity
  8
0
  6
Continuous
 62
     0
370
    18
100
AcDbLine
 10
0.0
 20
0.0
 30
0.0
 11
0.0
 21
-2.5
 31
0.0
  0
LINE
  5
17C
330
176
100
AcDbEntity
  8
0
  6
Continuous
 62
     0
370
    18
100
AcDbLine
 10
0.0
 20
0.0
 30
0.0
 11
2.5
 21
0.0
 31
0.0
  0
LINE
  5
17D
330
176
100
AcDbEntity
  8
0
  6
Continuous
 62
     0
370
    18
100
AcDbLine
 10
0.0
 20
5.0
 30
0.0
 11
0.0
 21
14.25
 31
0.0
  0
LINE
  5
17E
330
176
100
AcDbEntity
  8
0
  6
Continuous
 62
     0
370
    18
100
AcDbLine
 10
-5.0
 20
0.0
 30
0.0
 11
-14.25
 21
0.0
 31
0.0
  0
LINE
  5
17F
330
176
100
AcDbEntity
  8
0
  6
Continuous
 62
     0
370
    18
100
AcDbLine
 10
0.0
 20
-5.0
 30
0.0
 11
0.0
 21
-14.25
 31
0.0
  0
LINE
  5
180
330
176
100
AcDbEntity
  8
0
  6
Continuous
 62
     0
370
    18
100
AcDbLine
 10
5.0
 20
0.0
 30
0.0
 11
14.25
 21
0.0
 31
0.0
  0
ENDBLK
  5
178
330
176
100
AcDbEntity
  8
0
100
AcDbBlockEnd
  0
ENDSEC
  0
SECTION
  2
ENTITIES
  0
MTEXT
  5
74
330
1F
100
AcDbEntity
  8
0
  6
Continuous
 62
     7
370
     0
100
AcDbMText
 10
192.2098391137
 20
107.6937709852
 30
0.0
 40
4.7625
 41
0.0
 71
     1
 72
     1
  1
HS-2416R
  7
SLDTEXTSTYLE0
 73
     1
 44
1.0
  0
LINE
  5
75
330
1F
100
AcDbEntity
  8
0
  6
Continuous
 62
     7
370
    25
100
AcDbLine
 10
110.1311449173
 20
87.322275471
 30
0.0
 11
103.6311449173
 21
87.322275471
 31
0.0
  0
LINE
  5
76
330
1F
100
AcDbEntity
  8
0
  6
Continuous
 62
     7
370
    25
100
AcDbLine
 10
103.6311449173
 20
71.322275471
 30
0.0
 11
110.1311449173
 21
71.322275471
 31
0.0
  0
LINE
  5
77
330
1F
100
AcDbEntity
  8
0
  6
Continuous
 62
     7
370
    25
100
AcDbLine
 10
103.6311449173
 20
87.322275471
 30
0.0
 11
99.1311449173
 21
86.572275471
 31
0.0
  0
LINE
  5
78
330
1F
100
AcDbEntity
  8
0
  6
Continuous
 62
     7
370
    25
100
AcDbLine
 10
99.1311449173
 20
72.072275471
 30
0.0
 11
103.6311449173
 21
71.322275471
 31
0.0
  0
ARC
  5
79
330
1F
100
AcDbEntity
  8
0
  6
Continuous
 62
     7
370
    25
100
AcDbCircle
 10
85.5311449173
 20
71.434477412
 30
0.0
 40
0.1000000000000004
100
AcDbArc
 50
263.4180553448
 51
0.0
  0
ARC
  5
7A
330
1F
100
AcDbEntity
  8
0
  6
Continuous
 62
     7
370
    25
100
AcDbCircle
 10
85.5311449173
 20
87.21007353
 30
0.0
 40
0.1000000000000004
100
AcDbArc
 50
0.0
 51
96.5819446552
  0
LINE
  5
7B
330
1F
100
AcDbEntity
  8
0
  6
Continuous
 62
     7
370
    25
100
AcDbLine
 10
85.5196825065
 20
87.3094144236
 30
0.0
 11
79.7271902788
 21
86.6410499358
 31
0.0
  0
LINE
  5
7C
330
1F
100
AcDbEntity
  8
0
  6
Continuous
 62
     7
370
    25
100
AcDbLine
 10
79.7271902788
 20
72.0035010062
 30
0.0
 11
85.5196825065
 21
71.3351365184
 31
0.0
  0
ARC
  5
7D
330
1F
100
AcDbEntity
  8
0
  6
Continuous
 62
     7
370
    25
100
AcDbCircle
 10
99.0311449173
 20
71.4403215132
 30
0.0
 40
0.1000000000000085
100
AcDbArc
 50
260.537677792
 51
0.0
  0
ARC
  5
7E
330
1F
100
AcDbEntity
  8
0
  6
Continuous
 62
     7
370
    25
100
AcDbCircle
 10
99.0311449173
 20
87.2042294289
 30
0.0
 40
0.1000000000000085
100
AcDbArc
 50
0.0
 51
99.462322208
  0
ARC
  5
7F
330
1F
100
AcDbEntity
  8
0
  6
Continuous
 62
     7
370
    25
100
AcDbCircle
 10
94.5311449173
 20
71.4403215132
 30
0.0
 40
0.1000000000000227
100
AcDbArc
 50
260.537677792
 51
0.0
  0
ARC
  5
80
330
1F
100
AcDbEntity
  8
0
  6
Continuous
 62
     7
370
    25
100
AcDbCircle
 10
94.5311449173
 20
87.2042294289
 30
0.0
 40
0.1000000000000227
100
AcDbArc
 50
0.0
 51
99.462322208
  0
ARC
  5
81
330
1F
100
AcDbEntity
  8
0
  6
Continuous
 62
     7
370
    25
100
AcDbCircle
 10
90.0311449173
 20
71.4403215132
 30
0.0
 40
0.1000000000000227
100
AcDbArc
 50
260.537677792
 51
0.0
  0
ARC
  5
82
330
1F
100
AcDbEntity
  8
0
  6
Continuous
 62
     7
370
    25
100
AcDbCircle
 10
90.0311449173
 20
87.2042294289
 30
0.0
 40
0.1000000000000227
100
AcDbArc
 50
0.0
 51
99.462322208
  0
LINE
  5
83
330
1F
100
AcDbEntity
  8
0
  6
Continuous
 62
     7
370
    25
100
AcDbLine
 10
99.0147050185
 20
87.3028688212
 30
0.0
 11
94.6311449173
 21
86.572275471
 31
0.0
  0
LINE
  5
84
330
1F
100
AcDbEntity
  8
0
  6
Continuous
 62
     7
370
    25
100
AcDbLine
 10
94.6311449173
 20
72.072275471
 30
0.0
 11
99.0147050185
 21
71.3416821208
 31
0.0
  0
LINE
  5
85
330
1F
100
AcDbEntity
  8
0
  6
Continuous
 62
     7
370
    25
100
AcDbLine
 10
94.5147050185
 20
87.3028688212
 30
0.0
 11
90.1311449173
 21
86.572275471
 31
0.0
  0
LINE
  5
86
330
1F
100
AcDbEntity
  8
0
  6
Continuous
 62
     7
370
    25
100
AcDbLine
 10
90.1311449173
 20
72.072275471
 30
0.0
 11
94.5147050185
 21
71.3416821208
 31
0.0
  0
LINE
  5
87
330
1F
100
AcDbEntity
  8
0
  6
Continuous
 62
     7
370
    25
100
AcDbLine
 10
90.0147050185
 20
87.3028688212
 30
0.0
 11
85.6311449173
 21
86.572275471
 31
0.0
  0
LINE
  5
88
330
1F
100
AcDbEntity
  8
0
  6
Continuous
 62
     7
370
    25
100
AcDbLine
 10
85.6311449173
 20
72.072275471
 30
0.0
 11
90.0147050185
 21
71.3416821208
 31
0.0
  0
LINE
  5
89
330
1F
100
AcDbEntity
  8
0
  6
Continuous
 62
     7
370
    25
100
AcDbLine
 10
79.7271902788
 20
86.6410499358
 30
0.0
 11
79.1311449173
 21
85.972275471
 31
0.0
  0
LINE
  5
8A
330
1F
100
AcDbEntity
  8
0
  6
Continuous
 62
     7
370
    25
100
AcDbLine
 10
79.1311449173
 20
72.672275471
 30
0.0
 11
79.7271902788
 21
72.0035010062
 31
0.0
  0
LINE
  5
8B
330
1F
100
AcDbEntity
  8
0
  6
Continuous
 62
     7
370
    25
100
AcDbLine
 10
159.9349924945
 20
71.322275471
 30
0.0
 11
166.4349924945
 21
71.322275471
 31
0.0
  0
LINE
  5
8C
330
1F
100
AcDbEntity
  8
0
  6
Continuous
 62
     7
370
    25
100
AcDbLine
 10
166.4349924945
 20
87.322275471
 30
0.0
 11
159.9349924945
 21
87.322275471
 31
0.0
  0
LINE
  5
8D
330
1F
100
AcDbEntity
  8
0
  6
Continuous
 62
     7
370
    25
100
AcDbLine
 10
166.4349924945
 20
71.322275471
 30
0.0
 11
170.9349924945
 21
72.072275471
 31
0.0
  0
LINE
  5
8E
330
1F
100
AcDbEntity
  8
0
  6
Continuous
 62
     7
370
    25
100
AcDbLine
 10
170.9349924945
 20
86.572275471
 30
0.0
 11
166.4349924945
 21
87.322275471
 31
0.0
  0
ARC
  5
8F
330
1F
100
AcDbEntity
  8
0
  6
Continuous
 62
     7
370
    25
100
AcDbCircle
 10
184.5349924945
 20
87.21007353
 30
0.0
 40
0.0999999999999988
100
AcDbArc
 50
83.4180553448
 51
180.0
  0
ARC
  5
90
330
1F
100
AcDbEntity
  8
0
  6
Continuous
 62
     7
370
    25
100
AcDbCircle
 10
184.5349924945
 20
71.434477412
 30
0.0
 40
0.0999999999999988
100
AcDbArc
 50
180.0
 51
276.5819446552
  0
LINE
  5
91
330
1F
100
AcDbEntity
  8
0
  6
Continuous
 62
     7
370
    25
100
AcDbLine
 10
184.5464549053
 20
71.3351365184
 30
0.0
 11
190.338947133
 21
72.0035010062
 31
0.0
  0
LINE
  5
92
330
1F
100
AcDbEntity
  8
0
  6
Continuous
 62
     7
370
    25
100
AcDbLine
 10
190.338947133
 20
86.6410499358
 30
0.0
 11
184.5464549053
 21
87.3094144236
 31
0.0
  0
ARC
  5
93
330
1F
100
AcDbEntity
  8
0
  6
Continuous
 62
     7
370
    25
100
AcDbCircle
 10
175.5349924945
 20
87.2042294289
 30
0.0
 40
0.1000000000000227
100
AcDbArc
 50
80.537677792
 51
180.0
  0
ARC
  5
94
330
1F
100
AcDbEntity
  8
0
  6
Continuous
 62
     7
370
    25
100
AcDbCircle
 10
175.5349924945
 20
71.4403215132
 30
0.0
 40
0.1000000000000227
100
AcDbArc
 50
180.0
 51
279.462322208
  0
ARC
  5
95
330
1F
100
AcDbEntity
  8
0
  6
Continuous
 62
     7
370
    25
100
AcDbCircle
 10
171.0349924945
 20
87.2042294289
 30
0.0
 40
0.1000000000000057
100
AcDbArc
 50
80.537677792
 51
180.0
  0
ARC
  5
96
330
1F
100
AcDbEntity
  8
0
  6
Continuous
 62
     7
370
    25
100
AcDbCircle
 10
171.0349924945
 20
71.4403215132
 30
0.0
 40
0.1000000000000057
100
AcDbArc
 50
180.0
 51
279.462322208
  0
ARC
  5
97
330
1F
100
AcDbEntity
  8
0
  6
Continuous
 62
     7
370
    25
100
AcDbCircle
 10
180.0349924945
 20
87.2042294289
 30
0.0
 40
0.1000000000000227
100
AcDbArc
 50
80.537677792
 51
180.0
  0
ARC
  5
98
330
1F
100
AcDbEntity
  8
0
  6
Continuous
 62
     7
370
    25
100
AcDbCircle
 10
180.0349924945
 20
71.4403215132
 30
0.0
 40
0.1000000000000227
100
AcDbArc
 50
180.0
 51
279.462322208
  0
LINE
  5
99
330
1F
100
AcDbEntity
  8
0
  6
Continuous
 62
     7
370
    25
100
AcDbLine
 10
171.0514323933
 20
71.3416821208
 30
0.0
 11
175.4349924945
 21
72.072275471
 31
0.0
  0
LINE
  5
9A
330
1F
100
AcDbEntity
  8
0
  6
Continuous
 62
     7
370
    25
100
AcDbLine
 10
175.4349924945
 20
86.572275471
 30
0.0
 11
171.0514323933
 21
87.3028688212
 31
0.0
  0
LINE
  5
9B
330
1F
100
AcDbEntity
  8
0
  6
Continuous
 62
     7
370
    25
100
AcDbLine
 10
175.5514323933
 20
71.3416821208
 30
0.0
 11
179.9349924945
 21
72.072275471
 31
0.0
  0
LINE
  5
9C
330
1F
100
AcDbEntity
  8
0
  6
Continuous
 62
     7
370
    25
100
AcDbLine
 10
179.9349924945
 20
86.572275471
 30
0.0
 11
175.5514323933
 21
87.3028688212
 31
0.0
  0
LINE
  5
9D
330
1F
100
AcDbEntity
  8
0
  6
Continuous
 62
     7
370
    25
100
AcDbLine
 10
180.0514323933
 20
71.3416821208
 30
0.0
 11
184.4349924945
 21
72.072275471
 31
0.0
  0
LINE
  5
9E
330
1F
100
AcDbEntity
  8
0
  6
Continuous
 62
     7
370
    25
100
AcDbLine
 10
184.4349924945
 20
86.572275471
 30
0.0
 11
180.0514323933
 21
87.3028688212
 31
0.0
  0
LINE
  5
9F
330
1F
100
AcDbEntity
  8
0
  6
Continuous
 62
     7
370
    25
100
AcDbLine
 10
190.338947133
 20
72.0035010062
 30
0.0
 11
190.9349924945
 21
72.672275471
 31
0.0
  0
LINE
  5
A0
330
1F
100
AcDbEntity
  8
0
  6
Continuous
 62
     7
370
    25
100
AcDbLine
 10
190.9349924945
 20
85.972275471
 30
0.0
 11
190.338947133
 21
86.6410499358
 31
0.0
  0
LINE
  5
A1
330
1F
100
AcDbEntity
  8
0
  6
Continuous
 62
     7
370
    25
100
AcDbLine
 10
122.9150105802
 20
65.4658690105
 30
0.0
 11
124.1311449173
 21
67.572275471
 31
0.0
  0
LINE
  5
A2
330
1F
100
AcDbEntity
  8
0
  6
Continuous
 62
     7
370
    25
100
AcDbLine
 10
124.1311449173
 20
91.072275471
 30
0.0
 11
122.9150105802
 21
93.1786819316
 31
0.0
  0
LINE
  5
A3
330
1F
100
AcDbEntity
  8
0
  6
Continuous
 62
     7
370
    25
100
AcDbLine
 10
113.3472792543
 20
93.1786819316
 30
0.0
 11
112.1311449173
 21
91.072275471
 31
0.0
  0
LINE
  5
A4
330
1F
100
AcDbEntity
  8
0
  6
Continuous
 62
     7
370
    25
100
AcDbLine
 10
112.1311449173
 20
67.572275471
 30
0.0
 11
113.3472792543
 21
65.4658690105
 31
0.0
  0
LINE
  5
A5
330
1F
100
AcDbEntity
  8
0
  6
Continuous
 62
     7
370
    25
100
AcDbLine
 10
112.1311449173
 20
91.072275471
 30
0.0
 11
110.6311449173
 21
91.072275471
 31
0.0
  0
LINE
  5
A6
330
1F
100
AcDbEntity
  8
0
  6
Continuous
 62
     7
370
    25
100
AcDbLine
 10
110.6311449173
 20
67.572275471
 30
0.0
 11
112.1311449173
 21
67.572275471
 31
0.0
  0
LINE
  5
A7
330
1F
100
AcDbEntity
  8
0
  6
Continuous
 62
     7
370
    25
100
AcDbLine
 10
124.1311449173
 20
67.572275471
 30
0.0
 11
125.6311449173
 21
67.572275471
 31
0.0
  0
LINE
  5
A8
330
1F
100
AcDbEntity
  8
0
  6
Continuous
 62
     7
370
    25
100
AcDbLine
 10
125.6311449173
 20
91.072275471
 30
0.0
 11
124.1311449173
 21
91.072275471
 31
0.0
  0
LINE
  5
A9
330
1F
100
AcDbEntity
  8
0
  6
Continuous
 62
     7
370
    25
100
AcDbLine
 10
110.6311449173
 20
91.072275471
 30
0.0
 11
110.1311449173
 21
90.572275471
 31
0.0
  0
LINE
  5
AA
330
1F
100
AcDbEntity
  8
0
  6
Continuous
 62
     7
370
    25
100
AcDbLine
 10
110.1311449173
 20
68.072275471
 30
0.0
 11
110.6311449173
 21
67.572275471
 31
0.0
  0
LINE
  5
AB
330
1F
100
AcDbEntity
  8
0
  6
Continuous
 62
     7
370
    25
100
AcDbLine
 10
125.6311449173
 20
67.572275471
 30
0.0
 11
126.1311449173
 21
68.072275471
 31
0.0
  0
LINE
  5
AC
330
1F
100
AcDbEntity
  8
0
  6
Continuous
 62
     7
370
    25
100
AcDbLine
 10
126.1311449173
 20
90.572275471
 30
0.0
 11
125.6311449173
 21
91.072275471
 31
0.0
  0
LINE
  5
AD
330
1F
100
AcDbEntity
  8
0
  6
Continuous
 62
     7
370
    25
100
AcDbLine
 10
118.1311449173
 20
65.9658690105
 30
0.0
 11
118.2651195135
 21
65.4658690105
 31
0.0
  0
LINE
  5
AE
330
1F
100
AcDbEntity
  8
0
  6
Continuous
 62
     7
370
    25
100
AcDbLine
 10
117.997170321
 20
65.4658690105
 30
0.0
 11
118.1311449173
 21
65.9658690105
 31
0.0
  0
LINE
  5
AF
330
1F
100
AcDbEntity
  8
0
  6
Continuous
 62
     7
370
    25
100
AcDbLine
 10
118.2651195135
 20
93.1786819316
 30
0.0
 11
118.1311449173
 21
92.6786819316
 31
0.0
  0
LINE
  5
B0
330
1F
100
AcDbEntity
  8
0
  6
Continuous
 62
     7
370
    25
100
AcDbLine
 10
118.1311449173
 20
92.6786819316
 30
0.0
 11
117.997170321
 21
93.1786819316
 31
0.0
  0
LINE
  5
B1
330
1F
100
AcDbEntity
  8
0
  6
Continuous
 62
     7
370
    25
100
AcDbLine
 10
156.7188581575
 20
65.4658690105
 30
0.0
 11
157.9349924945
 21
67.572275471
 31
0.0
  0
LINE
  5
B2
330
1F
100
AcDbEntity
  8
0
  6
Continuous
 62
     7
370
    25
100
AcDbLine
 10
157.9349924945
 20
91.072275471
 30
0.0
 11
156.7188581575
 21
93.1786819316
 31
0.0
  0
LINE
  5
B3
330
1F
100
AcDbEntity
  8
0
  6
Continuous
 62
     7
370
    25
100
AcDbLine
 10
147.1511268316
 20
93.1786819316
 30
0.0
 11
145.9349924945
 21
91.072275471
 31
0.0
  0
LINE
  5
B4
330
1F
100
AcDbEntity
  8
0
  6
Continuous
 62
     7
370
    25
100
AcDbLine
 10
145.9349924945
 20
67.572275471
 30
0.0
 11
147.1511268316
 21
65.4658690105
 31
0.0
  0
LINE
  5
B5
330
1F
100
AcDbEntity
  8
0
  6
Continuous
 62
     7
370
    25
100
AcDbLine
 10
144.4349924945
 20
91.072275471
 30
0.0
 11
143.9349924945
 21
90.572275471
 31
0.0
  0
LINE
  5
B6
330
1F
100
AcDbEntity
  8
0
  6
Continuous
 62
     7
370
    25
100
AcDbLine
 10
143.9349924945
 20
68.072275471
 30
0.0
 11
144.4349924945
 21
67.572275471
 31
0.0
  0
LINE
  5
B7
330
1F
100
AcDbEntity
  8
0
  6
Continuous
 62
     7
370
    25
100
AcDbLine
 10
145.9349924945
 20
91.072275471
 30
0.0
 11
144.4349924945
 21
91.072275471
 31
0.0
  0
LINE
  5
B8
330
1F
100
AcDbEntity
  8
0
  6
Continuous
 62
     7
370
    25
100
AcDbLine
 10
144.4349924945
 20
67.572275471
 30
0.0
 11
145.9349924945
 21
67.572275471
 31
0.0
  0
LINE
  5
B9
330
1F
100
AcDbEntity
  8
0
  6
Continuous
 62
     7
370
    25
100
AcDbLine
 10
157.9349924945
 20
67.572275471
 30
0.0
 11
159.4349924945
 21
67.572275471
 31
0.0
  0
LINE
  5
BA
330
1F
100
AcDbEntity
  8
0
  6
Continuous
 62
     7
370
    25
100
AcDbLine
 10
159.4349924945
 20
91.072275471
 30
0.0
 11
157.9349924945
 21
91.072275471
 31
0.0
  0
LINE
  5
BB
330
1F
100
AcDbEntity
  8
0
  6
Continuous
 62
     7
370
    25
100
AcDbLine
 10
159.4349924945
 20
67.572275471
 30
0.0
 11
159.9349924945
 21
68.072275471
 31
0.0
  0
LINE
  5
BC
330
1F
100
AcDbEntity
  8
0
  6
Continuous
 62
     7
370
    25
100
AcDbLine
 10
159.9349924945
 20
90.572275471
 30
0.0
 11
159.4349924945
 21
91.072275471
 31
0.0
  0
LINE
  5
BD
330
1F
100
AcDbEntity
  8
0
  6
Continuous
 62
     7
370
    25
100
AcDbLine
 10
151.9349924945
 20
92.6786819316
 30
0.0
 11
151.8010178983
 21
93.1786819316
 31
0.0
  0
LINE
  5
BE
330
1F
100
AcDbEntity
  8
0
  6
Continuous
 62
     7
370
    25
100
AcDbLine
 10
152.0689670908
 20
93.1786819316
 30
0.0
 11
151.9349924945
 21
92.6786819316
 31
0.0
  0
LINE
  5
BF
330
1F
100
AcDbEntity
  8
0
  6
Continuous
 62
     7
370
    25
100
AcDbLine
 10
151.8010178983
 20
65.4658690105
 30
0.0
 11
151.9349924945
 21
65.9658690105
 31
0.0
  0
LINE
  5
C0
330
1F
100
AcDbEntity
  8
0
  6
Continuous
 62
     7
370
    25
100
AcDbLine
 10
151.9349924945
 20
65.9658690105
 30
0.0
 11
152.0689670908
 21
65.4658690105
 31
0.0
  0
LINE
  5
C1
330
1F
100
AcDbEntity
  8
0
  6
Continuous
 62
     7
370
    25
100
AcDbLine
 10
132.6598866454
 20
92.0239813932
 30
0.0
 11
131.5330687059
 21
90.072275471
 31
0.0
  0
LINE
  5
C2
330
1F
100
AcDbEntity
  8
0
  6
Continuous
 62
     7
370
    25
100
AcDbLine
 10
131.5330687059
 20
68.572275471
 30
0.0
 11
132.6598866454
 21
66.6205695489
 31
0.0
  0
LINE
  5
C3
330
1F
100
AcDbEntity
  8
0
  6
Continuous
 62
     7
370
    25
100
AcDbLine
 10
137.4062507664
 20
66.6205695489
 30
0.0
 11
138.5330687059
 21
68.572275471
 31
0.0
  0
LINE
  5
C4
330
1F
100
AcDbEntity
  8
0
  6
Continuous
 62
     7
370
    25
100
AcDbLine
 10
138.5330687059
 20
90.072275471
 30
0.0
 11
137.4062507664
 21
92.0239813932
 31
0.0
  0
LINE
  5
C5
330
1F
100
AcDbEntity
  8
0
  6
Continuous
 62
     7
370
    25
100
AcDbLine
 10
127.6330687059
 20
89.799775471
 30
0.0
 11
126.1311449173
 21
89.799775471
 31
0.0
  0
LINE
  5
C6
330
1F
100
AcDbEntity
  8
0
  6
Continuous
 62
     7
370
    25
100
AcDbLine
 10
126.1311449173
 20
68.844775471
 30
0.0
 11
127.6330687059
 21
68.844775471
 31
0.0
  0
LINE
  5
C7
330
1F
100
AcDbEntity
  8
0
  6
Continuous
 62
     7
370
    25
100
AcDbLine
 10
127.6330687059
 20
68.844775471
 30
0.0
 11
129.0330687059
 21
70.244775471
 31
0.0
  0
LINE
  5
C8
330
1F
100
AcDbEntity
  8
0
  6
Continuous
 62
     7
370
    25
100
AcDbLine
 10
129.0330687059
 20
88.399775471
 30
0.0
 11
127.6330687059
 21
89.799775471
 31
0.0
  0
LINE
  5
C9
330
1F
100
AcDbEntity
  8
0
  6
Continuous
 62
     7
370
    25
100
AcDbLine
 10
142.4330687059
 20
68.844775471
 30
0.0
 11
143.9349924945
 21
68.844775471
 31
0.0
  0
LINE
  5
CA
330
1F
100
AcDbEntity
  8
0
  6
Continuous
 62
     7
370
    25
100
AcDbLine
 10
143.9349924945
 20
89.799775471
 30
0.0
 11
142.4330687059
 21
89.799775471
 31
0.0
  0
LINE
  5
CB
330
1F
100
AcDbEntity
  8
0
  6
Continuous
 62
     7
370
    25
100
AcDbLine
 10
142.4330687059
 20
89.799775471
 30
0.0
 11
141.0330687059
 21
88.399775471
 31
0.0
  0
LINE
  5
CC
330
1F
100
AcDbEntity
  8
0
  6
Continuous
 62
     7
370
    25
100
AcDbLine
 10
141.0330687059
 20
70.244775471
 30
0.0
 11
142.4330687059
 21
68.844775471
 31
0.0
  0
LINE
  5
CD
330
1F
100
AcDbEntity
  8
0
  6
Continuous
 62
     7
370
    25
100
AcDbLine
 10
138.5330687059
 20
70.322275471
 30
0.0
 11
141.0330687059
 21
70.322275471
 31
0.0
  0
LINE
  5
CE
330
1F
100
AcDbEntity
  8
0
  6
Continuous
 62
     7
370
    25
100
AcDbLine
 10
141.0330687059
 20
88.322275471
 30
0.0
 11
138.5330687059
 21
88.322275471
 31
0.0
  0
LINE
  5
CF
330
1F
100
AcDbEntity
  8
0
  6
Continuous
 62
     7
370
    25
100
AcDbLine
 10
131.5330687059
 20
88.322275471
 30
0.0
 11
129.0330687059
 21
88.322275471
 31
0.0
  0
LINE
  5
D0
330
1F
100
AcDbEntity
  8
0
  6
Continuous
 62
     7
370
    25
100
AcDbLine
 10
129.0330687059
 20
70.322275471
 30
0.0
 11
131.5330687059
 21
70.322275471
 31
0.0
  0
LINE
  5
D1
330
1F
100
AcDbEntity
  8
0
  6
Continuous
 62
     7
370
    25
100
AcDbLine
 10
135.0330687059
 20
66.9205695489
 30
0.0
 11
135.1134534636
 21
66.6205695489
 31
0.0
  0
LINE
  5
D2
330
1F
100
AcDbEntity
  8
0
  6
Continuous
 62
     7
370
    25
100
AcDbLine
 10
134.9526839482
 20
66.6205695489
 30
0.0
 11
135.0330687059
 21
66.9205695489
 31
0.0
  0
LINE
  5
D3
330
1F
100
AcDbEntity
  8
0
  6
Continuous
 62
     7
370
    25
100
AcDbLine
 10
135.0330687059
 20
91.7239813932
 30
0.0
 11
134.9526839482
 21
92.0239813932
 31
0.0
  0
LINE
  5
D4
330
1F
100
AcDbEntity
  8
0
  6
Continuous
 62
     7
370
    25
100
AcDbLine
 10
135.1134534636
 20
92.0239813932
 30
0.0
 11
135.0330687059
 21
91.7239813932
 31
0.0
  0
LINE
  5
D5
330
1F
100
AcDbEntity
  8
0
  6
Continuous
 62
     7
370
    25
100
AcDbLine
 10
103.6311449173
 20
87.322275471
 30
0.0
 11
103.6311449173
 21
71.322275471
 31
0.0
  0
LINE
  5
D6
330
1F
100
AcDbEntity
  8
0
  6
Continuous
 62
     7
370
    25
100
AcDbLine
 10
85.6311449173
 20
87.2100735283
 30
0.0
 11
85.6311449173
 21
71.434477412
 31
0.0
  0
LINE
  5
D7
330
1F
100
AcDbEntity
  8
0
  6
Continuous
 62
     7
370
    25
100
AcDbLine
 10
79.7271902788
 20
86.6410499358
 30
0.0
 11
79.7271902788
 21
72.0035010062
 31
0.0
  0
LINE
  5
D8
330
1F
100
AcDbEntity
  8
0
  6
Continuous
 62
     7
370
    25
100
AcDbLine
 10
99.1311449173
 20
87.2042294275
 30
0.0
 11
99.1311449173
 21
71.4403215132
 31
0.0
  0
LINE
  5
D9
330
1F
100
AcDbEntity
  8
0
  6
Continuous
 62
     7
370
    25
100
AcDbLine
 10
94.6311449173
 20
87.2042294275
 30
0.0
 11
94.6311449173
 21
71.4403215132
 31
0.0
  0
LINE
  5
DA
330
1F
100
AcDbEntity
  8
0
  6
Continuous
 62
     7
370
    25
100
AcDbLine
 10
90.1311449173
 20
87.2042294275
 30
0.0
 11
90.1311449173
 21
71.4403215132
 31
0.0
  0
LINE
  5
DB
330
1F
100
AcDbEntity
  8
0
  6
Continuous
 62
     7
370
    25
100
AcDbLine
 10
79.1311449173
 20
72.672275471
 30
0.0
 11
79.1311449173
 21
85.972275471
 31
0.0
  0
LINE
  5
DC
330
1F
100
AcDbEntity
  8
0
  6
Continuous
 62
     7
370
    25
100
AcDbLine
 10
166.4349924945
 20
71.322275471
 30
0.0
 11
166.4349924945
 21
87.322275471
 31
0.0
  0
LINE
  5
DD
330
1F
100
AcDbEntity
  8
0
  6
Continuous
 62
     7
370
    25
100
AcDbLine
 10
184.4349924945
 20
71.4344774137
 30
0.0
 11
184.4349924945
 21
87.21007353
 31
0.0
  0
LINE
  5
DE
330
1F
100
AcDbEntity
  8
0
  6
Continuous
 62
     7
370
    25
100
AcDbLine
 10
190.338947133
 20
72.0035010062
 30
0.0
 11
190.338947133
 21
86.6410499358
 31
0.0
  0
LINE
  5
DF
330
1F
100
AcDbEntity
  8
0
  6
Continuous
 62
     7
370
    25
100
AcDbLine
 10
175.4349924945
 20
71.4403215146
 30
0.0
 11
175.4349924945
 21
87.2042294289
 31
0.0
  0
LINE
  5
E0
330
1F
100
AcDbEntity
  8
0
  6
Continuous
 62
     7
370
    25
100
AcDbLine
 10
170.9349924945
 20
71.4403215146
 30
0.0
 11
170.9349924945
 21
87.2042294289
 31
0.0
  0
LINE
  5
E1
330
1F
100
AcDbEntity
  8
0
  6
Continuous
 62
     7
370
    25
100
AcDbLine
 10
179.9349924945
 20
71.4403215146
 30
0.0
 11
179.9349924945
 21
87.2042294289
 31
0.0
  0
LINE
  5
E2
330
1F
100
AcDbEntity
  8
0
  6
Continuous
 62
     7
370
    25
100
AcDbLine
 10
190.9349924945
 20
85.972275471
 30
0.0
 11
190.9349924945
 21
72.672275471
 31
0.0
  0
LINE
  5
E3
330
1F
100
AcDbEntity
  8
0
  6
Continuous
 62
     7
370
    25
100
AcDbLine
 10
118.1311449173
 20
71.8622731995
 30
0.0
 11
118.2651195135
 21
72.3940722408
 31
0.0
  0
LINE
  5
E4
330
1F
100
AcDbEntity
  8
0
  6
Continuous
 62
     7
370
    25
100
AcDbLine
 10
118.1311449173
 20
71.8622731995
 30
0.0
 11
118.1311449173
 21
73.4576703232
 31
0.0
  0
LINE
  5
E5
330
1F
100
AcDbEntity
  8
0
  6
Continuous
 62
     7
370
    25
100
AcDbLine
 10
118.2651195135
 20
72.3940722408
 30
0.0
 11
118.1311449173
 21
73.4576703232
 31
0.0
  0
LINE
  5
E6
330
1F
100
AcDbEntity
  8
0
  6
Continuous
 62
     7
370
    25
100
AcDbLine
 10
117.997170321
 20
65.4658690105
 30
0.0
 11
118.1311449173
 21
65.9976680517
 31
0.0
  0
LINE
  5
E7
330
1F
100
AcDbEntity
  8
0
  6
Continuous
 62
     7
370
    25
100
AcDbLine
 10
113.3472792543
 20
65.4658690105
 30
0.0
 11
117.997170321
 21
65.4658690105
 31
0.0
  0
SPLINE
  5
E8
330
1F
100
AcDbEntity
  8
0
  6
Continuous
 62
     7
370
    25
100
AcDbSpline
210
0.0
220
0.0
230
1.0
 70
     8
 71
     3
 72
    15
 73
    11
 74
     0
 42
0.000000001
 43
0.00000001
 40
0.0
 40
0.0
 40
0.0
 40
0.0
 40
0.1323065044264402
 40
0.2645755999739297
 40
0.3998036789671092
 40
0.5350073556765894
 40
0.6501969475405021
 40
0.7654045076453765
 40
0.8826909144168968
 40
1.0
 40
1.0
 40
1.0
 40
1.0
 10
113.347279254278
 20
65.46586901047505
 30
0.0
 10
113.1841201723602
 20
65.76519783324565
 30
0.0
 10
112.8578481407869
 20
66.36377084533859
 30
0.0
 10
112.506793437767
 20
67.28552062213137
 30
0.0
 10
112.2957166522379
 20
68.22464573588194
 30
0.0
 10
112.2539193419523
 20
69.12974663392512
 30
0.0
 10
112.3623779746531
 20
69.98594333870967
 30
0.0
 10
112.5846038837139
 20
70.79397584751918
 30
0.0
 10
112.9105816570002
 20
71.5983549166291
 30
0.0
 10
113.2017040073937
 20
72.12881603913377
 30
0.0
 10
113.347279254278
 20
72.39407224075055
 30
0.0
  0
LINE
  5
E9
330
1F
100
AcDbEntity
  8
0
  6
Continuous
 62
     7
370
    25
100
AcDbLine
 10
113.3472792543
 20
72.3940722408
 30
0.0
 11
117.997170321
 21
72.3940722408
 31
0.0
  0
LINE
  5
EA
330
1F
100
AcDbEntity
  8
0
  6
Continuous
 62
     7
370
    25
100
AcDbLine
 10
118.1311449173
 20
71.8622731995
 30
0.0
 11
117.997170321
 21
72.3940722408
 31
0.0
  0
LINE
  5
EB
330
1F
100
AcDbEntity
  8
0
  6
Continuous
 62
     7
370
    25
100
AcDbLine
 10
118.2651195135
 20
72.3940722408
 30
0.0
 11
122.9150105802
 21
72.3940722408
 31
0.0
  0
SPLINE
  5
EC
330
1F
100
AcDbEntity
  8
0
  6
Continuous
 62
     7
370
    25
100
AcDbSpline
210
0.0
220
0.0
230
1.0
 70
     8
 71
     3
 72
    15
 73
    11
 74
     0
 42
0.000000001
 43
0.00000001
 40
0.0
 40
0.0
 40
0.0
 40
0.0
 40
0.1323065044264402
 40
0.2645755999739296
 40
0.3998036789671092
 40
0.5350073556765893
 40
0.650196947540502
 40
0.7654045076453764
 40
0.8826909144168966
 40
1.0
 40
1.0
 40
1.0
 40
1.0
 10
122.9150105802342
 20
65.46586901047505
 30
0.0
 10
123.0781696621519
 20
65.76519783324565
 30
0.0
 10
123.4044416937252
 20
66.36377084533859
 30
0.0
 10
123.7554963967451
 20
67.28552062213137
 30
0.0
 10
123.9665731822742
 20
68.22464573588194
 30
0.0
 10
124.0083704925598
 20
69.12974663392512
 30
0.0
 10
123.899911859859
 20
69.98594333870967
 30
0.0
 10
123.6776859507982
 20
70.79397584751918
 30
0.0
 10
123.3517081775119
 20
71.59835491662912
 30
0.0
 10
123.0605858271184
 20
72.12881603913377
 30
0.0
 10
122.9150105802342
 20
72.39407224075055
 30
0.0
  0
LINE
  5
ED
330
1F
100
AcDbEntity
  8
0
  6
Continuous
 62
     7
370
    25
100
AcDbLine
 10
118.2651195135
 20
65.4658690105
 30
0.0
 11
122.9150105802
 21
65.4658690105
 31
0.0
  0
LINE
  5
EE
330
1F
100
AcDbEntity
  8
0
  6
Continuous
 62
     7
370
    25
100
AcDbLine
 10
118.2651195135
 20
65.4658690105
 30
0.0
 11
118.1311449173
 21
65.9976680517
 31
0.0
  0
LINE
  5
EF
330
1F
100
AcDbEntity
  8
0
  6
Continuous
 62
     7
370
    25
100
AcDbLine
 10
117.997170321
 20
72.3940722408
 30
0.0
 11
118.1311449173
 21
73.4576703232
 31
0.0
  0
SPLINE
  5
F0
330
1F
100
AcDbEntity
  8
0
  6
Continuous
 62
     7
370
    25
100
AcDbSpline
210
0.0
220
0.0
230
1.0
 70
     8
 71
     3
 72
    14
 73
    10
 74
     0
 42
0.000000001
 43
0.00000001
 40
0.0
 40
0.0
 40
0.0
 40
0.0
 40
0.1262255091143315
 40
0.2512292489859025
 40
0.3762014819581575
 40
0.5042708573048457
 40
0.6323411290100946
 40
0.8152386614365866
 40
1.0
 40
1.0
 40
1.0
 40
1.0
 10
113.347279254278
 20
72.39407224075055
 30
0.0
 10
113.1911354970467
 20
72.96502880550224
 30
0.0
 10
112.8803593382632
 20
74.10141549922685
 30
0.0
 10
112.5423350711633
 20
75.83417001505445
 30
0.0
 10
112.3216780291732
 20
77.59427316842465
 30
0.0
 10
112.2503362535701
 20
79.3820456812405
 30
0.0
 10
112.3460060887078
 20
81.44005417364622
 30
0.0
 10
112.6801619663557
 20
83.74648748594463
 30
0.0
 10
113.1241565644058
 20
85.41299889752239
 30
0.0
 10
113.347279254278
 20
86.25047870130157
 30
0.0
  0
LINE
  5
F1
330
1F
100
AcDbEntity
  8
0
  6
Continuous
 62
     7
370
    25
100
AcDbLine
 10
113.3472792543
 20
86.2504787013
 30
0.0
 11
117.997170321
 21
86.2504787013
 31
0.0
  0
LINE
  5
F2
330
1F
100
AcDbEntity
  8
0
  6
Continuous
 62
     7
370
    25
100
AcDbLine
 10
118.1311449173
 20
85.1868806188
 30
0.0
 11
117.997170321
 21
86.2504787013
 31
0.0
  0
LINE
  5
F3
330
1F
100
AcDbEntity
  8
0
  6
Continuous
 62
     7
370
    25
100
AcDbLine
 10
118.1311449173
 20
85.1868806188
 30
0.0
 11
118.2651195135
 21
86.2504787013
 31
0.0
  0
LINE
  5
F4
330
1F
100
AcDbEntity
  8
0
  6
Continuous
 62
     7
370
    25
100
AcDbLine
 10
118.2651195135
 20
86.2504787013
 30
0.0
 11
122.9150105802
 21
86.2504787013
 31
0.0
  0
SPLINE
  5
F5
330
1F
100
AcDbEntity
  8
0
  6
Continuous
 62
     7
370
    25
100
AcDbSpline
210
0.0
220
0.0
230
1.0
 70
     8
 71
     3
 72
    14
 73
    10
 74
     0
 42
0.000000001
 43
0.00000001
 40
0.0
 40
0.0
 40
0.0
 40
0.0
 40
0.1262261345999926
 40
0.2512304939029877
 40
0.3762033461505406
 40
0.504273356119806
 40
0.6323442624520736
 40
0.8161004990450179
 40
1.0
 40
1.0
 40
1.0
 40
1.0
 10
122.9150105802342
 20
72.39407224075055
 30
0.0
 10
123.0711545983658
 20
72.96502884674331
 30
0.0
 10
123.3819312764247
 20
74.10141562255087
 30
0.0
 10
123.7199516781772
 20
75.83416952737484
 30
0.0
 10
123.9406234962791
 20
77.59427501643624
 30
0.0
 10
124.0119087270244
 20
79.38203859108708
 30
0.0
 10
123.9162948354011
 20
81.44410642343135
 30
0.0
 10
123.5802158212589
 20
83.75026297903484
 30
0.0
 10
123.1368032554141
 20
85.4168569867247
 30
0.0
 10
122.9150105802342
 20
86.25047870130157
 30
0.0
  0
LINE
  5
F6
330
1F
100
AcDbEntity
  8
0
  6
Continuous
 62
     7
370
    25
100
AcDbLine
 10
118.1311449173
 20
85.1868806188
 30
0.0
 11
118.1311449173
 21
86.7822777425
 31
0.0
  0
LINE
  5
F7
330
1F
100
AcDbEntity
  8
0
  6
Continuous
 62
     7
370
    25
100
AcDbLine
 10
118.2651195135
 20
86.2504787013
 30
0.0
 11
118.1311449173
 21
86.7822777425
 31
0.0
  0
SPLINE
  5
F8
330
1F
100
AcDbEntity
  8
0
  6
Continuous
 62
     7
370
    25
100
AcDbSpline
210
0.0
220
0.0
230
1.0
 70
     8
 71
     3
 72
    15
 73
    11
 74
     0
 42
0.000000001
 43
0.00000001
 40
0.0
 40
0.0
 40
0.0
 40
0.0
 40
0.1323065044264401
 40
0.2645755999739294
 40
0.3998036789671087
 40
0.5350073556765889
 40
0.6501969475405016
 40
0.7654045076453762
 40
0.8826909144168965
 40
1.0
 40
1.0
 40
1.0
 40
1.0
 10
122.9150105802342
 20
86.25047870130157
 30
0.0
 10
123.0781696621519
 20
86.54980752407218
 30
0.0
 10
123.4044416937252
 20
87.1483805361651
 30
0.0
 10
123.7554963967451
 20
88.0701303129579
 30
0.0
 10
123.9665731822742
 20
89.00925542670846
 30
0.0
 10
124.0083704925598
 20
89.91435632475165
 30
0.0
 10
123.899911859859
 20
90.77055302953622
 30
0.0
 10
123.6776859507982
 20
91.5785855383457
 30
0.0
 10
123.3517081775119
 20
92.38296460745563
 30
0.0
 10
123.0605858271184
 20
92.9134257299603
 30
0.0
 10
122.9150105802342
 20
93.17868193157707
 30
0.0
  0
LINE
  5
F9
330
1F
100
AcDbEntity
  8
0
  6
Continuous
 62
     7
370
    25
100
AcDbLine
 10
124.1311449173
 20
79.322275471
 30
0.0
 11
124.1311449173
 21
91.072275471
 31
0.0
  0
LINE
  5
FA
330
1F
100
AcDbEntity
  8
0
  6
Continuous
 62
     7
370
    25
100
AcDbLine
 10
124.1311449173
 20
67.572275471
 30
0.0
 11
124.1311449173
 21
79.322275471
 31
0.0
  0
LINE
  5
FB
330
1F
100
AcDbEntity
  8
0
  6
Continuous
 62
     7
370
    25
100
AcDbLine
 10
117.997170321
 20
86.2504787013
 30
0.0
 11
118.1311449173
 21
86.7822777425
 31
0.0
  0
SPLINE
  5
FC
330
1F
100
AcDbEntity
  8
0
  6
Continuous
 62
     7
370
    25
100
AcDbSpline
210
0.0
220
0.0
230
1.0
 70
     8
 71
     3
 72
    15
 73
    11
 74
     0
 42
0.000000001
 43
0.00000001
 40
0.0
 40
0.0
 40
0.0
 40
0.0
 40
0.1323065044264402
 40
0.2645755999739294
 40
0.3998036789671088
 40
0.535007355676589
 40
0.6501969475405016
 40
0.7654045076453762
 40
0.8826909144168965
 40
1.0
 40
1.0
 40
1.0
 40
1.0
 10
113.347279254278
 20
86.25047870130157
 30
0.0
 10
113.1841201723602
 20
86.54980752407218
 30
0.0
 10
112.8578481407869
 20
87.1483805361651
 30
0.0
 10
112.506793437767
 20
88.0701303129579
 30
0.0
 10
112.2957166522379
 20
89.00925542670846
 30
0.0
 10
112.2539193419523
 20
89.91435632475165
 30
0.0
 10
112.3623779746531
 20
90.77055302953622
 30
0.0
 10
112.5846038837139
 20
91.5785855383457
 30
0.0
 10
112.9105816570002
 20
92.38296460745563
 30
0.0
 10
113.2017040073937
 20
92.9134257299603
 30
0.0
 10
113.347279254278
 20
93.17868193157707
 30
0.0
  0
LINE
  5
FD
330
1F
100
AcDbEntity
  8
0
  6
Continuous
 62
     7
370
    25
100
AcDbLine
 10
113.3472792543
 20
93.1786819316
 30
0.0
 11
117.997170321
 21
93.1786819316
 31
0.0
  0
LINE
  5
FE
330
1F
100
AcDbEntity
  8
0
  6
Continuous
 62
     7
370
    25
100
AcDbLine
 10
118.1311449173
 20
92.6468828903
 30
0.0
 11
117.997170321
 21
93.1786819316
 31
0.0
  0
LINE
  5
FF
330
1F
100
AcDbEntity
  8
0
  6
Continuous
 62
     7
370
    25
100
AcDbLine
 10
118.1311449173
 20
92.6468828903
 30
0.0
 11
118.2651195135
 21
93.1786819316
 31
0.0
  0
LINE
  5
100
330
1F
100
AcDbEntity
  8
0
  6
Continuous
 62
     7
370
    25
100
AcDbLine
 10
118.2651195135
 20
93.1786819316
 30
0.0
 11
122.9150105802
 21
93.1786819316
 31
0.0
  0
LINE
  5
101
330
1F
100
AcDbEntity
  8
0
  6
Continuous
 62
     7
370
    25
100
AcDbLine
 10
112.1311449173
 20
79.322275471
 30
0.0
 11
112.1311449173
 21
91.072275471
 31
0.0
  0
LINE
  5
102
330
1F
100
AcDbEntity
  8
0
  6
Continuous
 62
     7
370
    25
100
AcDbLine
 10
112.1311449173
 20
67.572275471
 30
0.0
 11
112.1311449173
 21
79.322275471
 31
0.0
  0
LINE
  5
103
330
1F
100
AcDbEntity
  8
0
  6
Continuous
 62
     7
370
    25
100
AcDbLine
 10
110.6311449173
 20
79.322275471
 30
0.0
 11
110.6311449173
 21
67.572275471
 31
0.0
  0
LINE
  5
104
330
1F
100
AcDbEntity
  8
0
  6
Continuous
 62
     7
370
    25
100
AcDbLine
 10
110.6311449173
 20
91.072275471
 30
0.0
 11
110.6311449173
 21
79.322275471
 31
0.0
  0
LINE
  5
105
330
1F
100
AcDbEntity
  8
0
  6
Continuous
 62
     7
370
    25
100
AcDbLine
 10
125.6311449173
 20
67.572275471
 30
0.0
 11
125.6311449173
 21
91.072275471
 31
0.0
  0
LINE
  5
106
330
1F
100
AcDbEntity
  8
0
  6
Continuous
 62
     7
370
    25
100
AcDbLine
 10
110.1311449173
 20
79.322275471
 30
0.0
 11
110.1311449173
 21
90.572275471
 31
0.0
  0
LINE
  5
107
330
1F
100
AcDbEntity
  8
0
  6
Continuous
 62
     7
370
    25
100
AcDbLine
 10
110.1311449173
 20
68.072275471
 30
0.0
 11
110.1311449173
 21
79.322275471
 31
0.0
  0
LINE
  5
108
330
1F
100
AcDbEntity
  8
0
  6
Continuous
 62
     7
370
    25
100
AcDbLine
 10
126.1311449173
 20
90.572275471
 30
0.0
 11
126.1311449173
 21
68.072275471
 31
0.0
  0
LINE
  5
109
330
1F
100
AcDbEntity
  8
0
  6
Continuous
 62
     7
370
    25
100
AcDbLine
 10
118.1311449173
 20
65.9658690105
 30
0.0
 11
118.1311449173
 21
65.9976680517
 31
0.0
  0
LINE
  5
10A
330
1F
100
AcDbEntity
  8
0
  6
Continuous
 62
     7
370
    25
100
AcDbLine
 10
118.1311449173
 20
92.6468828903
 30
0.0
 11
118.1311449173
 21
92.6786819316
 31
0.0
  0
LINE
  5
10B
330
1F
100
AcDbEntity
  8
0
  6
Continuous
 62
     7
370
    25
100
AcDbLine
 10
152.0689670908
 20
93.1786819316
 30
0.0
 11
151.9349924945
 21
92.6468828903
 31
0.0
  0
LINE
  5
10C
330
1F
100
AcDbEntity
  8
0
  6
Continuous
 62
     7
370
    25
100
AcDbLine
 10
156.7188581575
 20
93.1786819316
 30
0.0
 11
152.0689670908
 21
93.1786819316
 31
0.0
  0
SPLINE
  5
10D
330
1F
100
AcDbEntity
  8
0
  6
Continuous
 62
     7
370
    25
100
AcDbSpline
210
0.0
220
0.0
230
1.0
 70
     8
 71
     3
 72
    15
 73
    11
 74
     0
 42
0.000000001
 43
0.00000001
 40
0.0
 40
0.0
 40
0.0
 40
0.0
 40
0.1323065044264402
 40
0.2645755999739297
 40
0.3998036789671092
 40
0.5350073556765894
 40
0.6501969475405021
 40
0.7654045076453765
 40
0.8826909144168968
 40
1.0
 40
1.0
 40
1.0
 40
1.0
 10
156.7188581575276
 20
93.17868193157707
 30
0.0
 10
156.8820172394453
 20
92.87935310880647
 30
0.0
 10
157.2082892710186
 20
92.28078009671353
 30
0.0
 10
157.5593439740385
 20
91.35903031992075
 30
0.0
 10
157.7704207595677
 20
90.41990520617018
 30
0.0
 10
157.8122180698532
 20
89.51480430812698
 30
0.0
 10
157.7037594371525
 20
88.65860760334245
 30
0.0
 10
157.4815335280916
 20
87.85057509453296
 30
0.0
 10
157.1555557548053
 20
87.046196025423
 30
0.0
 10
156.8644334044119
 20
86.51573490291835
 30
0.0
 10
156.7188581575276
 20
86.25047870130156
 30
0.0
  0
LINE
  5
10E
330
1F
100
AcDbEntity
  8
0
  6
Continuous
 62
     7
370
    25
100
AcDbLine
 10
156.7188581575
 20
86.2504787013
 30
0.0
 11
152.0689670908
 21
86.2504787013
 31
0.0
  0
LINE
  5
10F
330
1F
100
AcDbEntity
  8
0
  6
Continuous
 62
     7
370
    25
100
AcDbLine
 10
151.9349924945
 20
86.7822777425
 30
0.0
 11
152.0689670908
 21
86.2504787013
 31
0.0
  0
LINE
  5
110
330
1F
100
AcDbEntity
  8
0
  6
Continuous
 62
     7
370
    25
100
AcDbLine
 10
151.9349924945
 20
86.7822777425
 30
0.0
 11
151.8010178983
 21
86.2504787013
 31
0.0
  0
LINE
  5
111
330
1F
100
AcDbEntity
  8
0
  6
Continuous
 62
     7
370
    25
100
AcDbLine
 10
151.8010178983
 20
86.2504787013
 30
0.0
 11
147.1511268316
 21
86.2504787013
 31
0.0
  0
SPLINE
  5
112
330
1F
100
AcDbEntity
  8
0
  6
Continuous
 62
     7
370
    25
100
AcDbSpline
210
0.0
220
0.0
230
1.0
 70
     8
 71
     3
 72
    15
 73
    11
 74
     0
 42
0.000000001
 43
0.00000001
 40
0.0
 40
0.0
 40
0.0
 40
0.0
 40
0.1323065044264402
 40
0.2645755999739296
 40
0.3998036789671092
 40
0.5350073556765893
 40
0.650196947540502
 40
0.7654045076453764
 40
0.8826909144168966
 40
1.0
 40
1.0
 40
1.0
 40
1.0
 10
147.1511268315714
 20
93.17868193157707
 30
0.0
 10
146.9879677496537
 20
92.87935310880647
 30
0.0
 10
146.6616957180804
 20
92.28078009671353
 30
0.0
 10
146.3106410150605
 20
91.35903031992075
 30
0.0
 10
146.0995642295313
 20
90.41990520617018
 30
0.0
 10
146.0577669192458
 20
89.514804308127
 30
0.0
 10
146.1662255519465
 20
88.65860760334245
 30
0.0
 10
146.3884514610074
 20
87.85057509453296
 30
0.0
 10
146.7144292342937
 20
87.046196025423
 30
0.0
 10
147.0055515846871
 20
86.51573490291835
 30
0.0
 10
147.1511268315714
 20
86.25047870130156
 30
0.0
  0
LINE
  5
113
330
1F
100
AcDbEntity
  8
0
  6
Continuous
 62
     7
370
    25
100
AcDbLine
 10
151.8010178983
 20
93.1786819316
 30
0.0
 11
147.1511268316
 21
93.1786819316
 31
0.0
  0
LINE
  5
114
330
1F
100
AcDbEntity
  8
0
  6
Continuous
 62
     7
370
    25
100
AcDbLine
 10
151.8010178983
 20
93.1786819316
 30
0.0
 11
151.9349924945
 21
92.6468828903
 31
0.0
  0
LINE
  5
115
330
1F
100
AcDbEntity
  8
0
  6
Continuous
 62
     7
370
    25
100
AcDbLine
 10
151.9349924945
 20
86.7822777425
 30
0.0
 11
151.9349924945
 21
85.1868806188
 31
0.0
  0
LINE
  5
116
330
1F
100
AcDbEntity
  8
0
  6
Continuous
 62
     7
370
    25
100
AcDbLine
 10
151.8010178983
 20
86.2504787013
 30
0.0
 11
151.9349924945
 21
85.1868806188
 31
0.0
  0
LINE
  5
117
330
1F
100
AcDbEntity
  8
0
  6
Continuous
 62
     7
370
    25
100
AcDbLine
 10
152.0689670908
 20
86.2504787013
 30
0.0
 11
151.9349924945
 21
85.1868806188
 31
0.0
  0
SPLINE
  5
118
330
1F
100
AcDbEntity
  8
0
  6
Continuous
 62
     7
370
    25
100
AcDbSpline
210
0.0
220
0.0
230
1.0
 70
     8
 71
     3
 72
    14
 73
    10
 74
     0
 42
0.000000001
 43
0.00000001
 40
0.0
 40
0.0
 40
0.0
 40
0.0
 40
0.1262255091143316
 40
0.2512292489859026
 40
0.3762014819581576
 40
0.5042708573048458
 40
0.6323411290100946
 40
0.8152386614365866
 40
1.0
 40
1.0
 40
1.0
 40
1.0
 10
156.7188581575276
 20
86.25047870130156
 30
0.0
 10
156.8750019147588
 20
85.67952213654988
 30
0.0
 10
157.1857780735423
 20
84.54313544282529
 30
0.0
 10
157.5238023406422
 20
82.81038092699768
 30
0.0
 10
157.7444593826324
 20
81.05027777362747
 30
0.0
 10
157.8158011582354
 20
79.26250526081162
 30
0.0
 10
157.7201313230977
 20
77.2044967684059
 30
0.0
 10
157.3859754454498
 20
74.89806345610748
 30
0.0
 10
156.9419808473998
 20
73.23155204452975
 30
0.0
 10
156.7188581575276
 20
72.39407224075055
 30
0.0
  0
LINE
  5
119
330
1F
100
AcDbEntity
  8
0
  6
Continuous
 62
     7
370
    25
100
AcDbLine
 10
156.7188581575
 20
72.3940722408
 30
0.0
 11
152.0689670908
 21
72.3940722408
 31
0.0
  0
LINE
  5
11A
330
1F
100
AcDbEntity
  8
0
  6
Continuous
 62
     7
370
    25
100
AcDbLine
 10
151.9349924945
 20
73.4576703232
 30
0.0
 11
152.0689670908
 21
72.3940722408
 31
0.0
  0
LINE
  5
11B
330
1F
100
AcDbEntity
  8
0
  6
Continuous
 62
     7
370
    25
100
AcDbLine
 10
151.9349924945
 20
73.4576703232
 30
0.0
 11
151.8010178983
 21
72.3940722408
 31
0.0
  0
LINE
  5
11C
330
1F
100
AcDbEntity
  8
0
  6
Continuous
 62
     7
370
    25
100
AcDbLine
 10
151.8010178983
 20
72.3940722408
 30
0.0
 11
147.1511268316
 21
72.3940722408
 31
0.0
  0
SPLINE
  5
11D
330
1F
100
AcDbEntity
  8
0
  6
Continuous
 62
     7
370
    25
100
AcDbSpline
210
0.0
220
0.0
230
1.0
 70
     8
 71
     3
 72
    14
 73
    10
 74
     0
 42
0.000000001
 43
0.00000001
 40
0.0
 40
0.0
 40
0.0
 40
0.0
 40
0.1262261345999926
 40
0.2512304939029877
 40
0.3762033461505406
 40
0.5042733561198058
 40
0.6323442624520736
 40
0.816100499045018
 40
1.0
 40
1.0
 40
1.0
 40
1.0
 10
147.1511268315714
 20
86.25047870130156
 30
0.0
 10
146.9949828134398
 20
85.67952209530881
 30
0.0
 10
146.6842061353809
 20
84.54313531950125
 30
0.0
 10
146.3461857336284
 20
82.81038141467727
 30
0.0
 10
146.1255139155264
 20
81.05027592561588
 30
0.0
 10
146.0542286847811
 20
79.26251235096504
 30
0.0
 10
146.1498425764044
 20
77.20044451862077
 30
0.0
 10
146.4859215905466
 20
74.89428796301728
 30
0.0
 10
146.9293341563914
 20
73.22769395532742
 30
0.0
 10
147.1511268315714
 20
72.39407224075055
 30
0.0
  0
SPLINE
  5
11E
330
1F
100
AcDbEntity
  8
0
  6
Continuous
 62
     7
370
    25
100
AcDbSpline
210
0.0
220
0.0
230
1.0
 70
     8
 71
     3
 72
    15
 73
    11
 74
     0
 42
0.000000001
 43
0.00000001
 40
0.0
 40
0.0
 40
0.0
 40
0.0
 40
0.1323065044264401
 40
0.2645755999739293
 40
0.3998036789671087
 40
0.5350073556765887
 40
0.6501969475405015
 40
0.765404507645376
 40
0.8826909144168964
 40
1.0
 40
1.0
 40
1.0
 40
1.0
 10
156.7188581575276
 20
72.39407224075055
 30
0.0
 10
156.8820172394453
 20
72.09474341797994
 30
0.0
 10
157.2082892710186
 20
71.496170405887
 30
0.0
 10
157.5593439740385
 20
70.57442062909422
 30
0.0
 10
157.7704207595677
 20
69.63529551534367
 30
0.0
 10
157.8122180698532
 20
68.73019461730047
 30
0.0
 10
157.7037594371525
 20
67.87399791251592
 30
0.0
 10
157.4815335280916
 20
67.06596540370641
 30
0.0
 10
157.1555557548053
 20
66.26158633459647
 30
0.0
 10
156.8644334044119
 20
65.73112521209181
 30
0.0
 10
156.7188581575276
 20
65.46586901047505
 30
0.0
  0
LINE
  5
11F
330
1F
100
AcDbEntity
  8
0
  6
Continuous
 62
     7
370
    25
100
AcDbLine
 10
157.9349924945
 20
79.322275471
 30
0.0
 11
157.9349924945
 21
67.572275471
 31
0.0
  0
LINE
  5
120
330
1F
100
AcDbEntity
  8
0
  6
Continuous
 62
     7
370
    25
100
AcDbLine
 10
157.9349924945
 20
91.072275471
 30
0.0
 11
157.9349924945
 21
79.322275471
 31
0.0
  0
SPLINE
  5
121
330
1F
100
AcDbEntity
  8
0
  6
Continuous
 62
     7
370
    25
100
AcDbSpline
210
0.0
220
0.0
230
1.0
 70
     8
 71
     3
 72
    15
 73
    11
 74
     0
 42
0.000000001
 43
0.00000001
 40
0.0
 40
0.0
 40
0.0
 40
0.0
 40
0.1323065044264401
 40
0.2645755999739293
 40
0.3998036789671087
 40
0.5350073556765889
 40
0.6501969475405016
 40
0.7654045076453762
 40
0.8826909144168965
 40
1.0
 40
1.0
 40
1.0
 40
1.0
 10
147.1511268315714
 20
72.39407224075055
 30
0.0
 10
146.9879677496537
 20
72.09474341797994
 30
0.0
 10
146.6616957180804
 20
71.496170405887
 30
0.0
 10
146.3106410150604
 20
70.57442062909422
 30
0.0
 10
146.0995642295313
 20
69.63529551534366
 30
0.0
 10
146.0577669192458
 20
68.73019461730047
 30
0.0
 10
146.1662255519465
 20
67.87399791251592
 30
0.0
 10
146.3884514610074
 20
67.06596540370641
 30
0.0
 10
146.7144292342937
 20
66.26158633459649
 30
0.0
 10
147.0055515846871
 20
65.73112521209183
 30
0.0
 10
147.1511268315714
 20
65.46586901047505
 30
0.0
  0
LINE
  5
122
330
1F
100
AcDbEntity
  8
0
  6
Continuous
 62
     7
370
    25
100
AcDbLine
 10
145.9349924945
 20
79.322275471
 30
0.0
 11
145.9349924945
 21
67.572275471
 31
0.0
  0
LINE
  5
123
330
1F
100
AcDbEntity
  8
0
  6
Continuous
 62
     7
370
    25
100
AcDbLine
 10
145.9349924945
 20
91.072275471
 30
0.0
 11
145.9349924945
 21
79.322275471
 31
0.0
  0
LINE
  5
124
330
1F
100
AcDbEntity
  8
0
  6
Continuous
 62
     7
370
    25
100
AcDbLine
 10
152.0689670908
 20
72.3940722408
 30
0.0
 11
151.9349924945
 21
71.8622731995
 31
0.0
  0
LINE
  5
125
330
1F
100
AcDbEntity
  8
0
  6
Continuous
 62
     7
370
    25
100
AcDbLine
 10
151.9349924945
 20
73.4576703232
 30
0.0
 11
151.9349924945
 21
71.8622731995
 31
0.0
  0
LINE
  5
126
330
1F
100
AcDbEntity
  8
0
  6
Continuous
 62
     7
370
    25
100
AcDbLine
 10
151.8010178983
 20
72.3940722408
 30
0.0
 11
151.9349924945
 21
71.8622731995
 31
0.0
  0
LINE
  5
127
330
1F
100
AcDbEntity
  8
0
  6
Continuous
 62
     7
370
    25
100
AcDbLine
 10
156.7188581575
 20
65.4658690105
 30
0.0
 11
152.0689670908
 21
65.4658690105
 31
0.0
  0
LINE
  5
128
330
1F
100
AcDbEntity
  8
0
  6
Continuous
 62
     7
370
    25
100
AcDbLine
 10
151.9349924945
 20
65.9976680517
 30
0.0
 11
152.0689670908
 21
65.4658690105
 31
0.0
  0
LINE
  5
129
330
1F
100
AcDbEntity
  8
0
  6
Continuous
 62
     7
370
    25
100
AcDbLine
 10
151.9349924945
 20
65.9976680517
 30
0.0
 11
151.8010178983
 21
65.4658690105
 31
0.0
  0
LINE
  5
12A
330
1F
100
AcDbEntity
  8
0
  6
Continuous
 62
     7
370
    25
100
AcDbLine
 10
151.8010178983
 20
65.4658690105
 30
0.0
 11
147.1511268316
 21
65.4658690105
 31
0.0
  0
LINE
  5
12B
330
1F
100
AcDbEntity
  8
0
  6
Continuous
 62
     7
370
    25
100
AcDbLine
 10
144.4349924945
 20
91.072275471
 30
0.0
 11
144.4349924945
 21
67.572275471
 31
0.0
  0
LINE
  5
12C
330
1F
100
AcDbEntity
  8
0
  6
Continuous
 62
     7
370
    25
100
AcDbLine
 10
143.9349924945
 20
68.072275471
 30
0.0
 11
143.9349924945
 21
90.572275471
 31
0.0
  0
LINE
  5
12D
330
1F
100
AcDbEntity
  8
0
  6
Continuous
 62
     7
370
    25
100
AcDbLine
 10
159.4349924945
 20
79.322275471
 30
0.0
 11
159.4349924945
 21
91.072275471
 31
0.0
  0
LINE
  5
12E
330
1F
100
AcDbEntity
  8
0
  6
Continuous
 62
     7
370
    25
100
AcDbLine
 10
159.4349924945
 20
67.572275471
 30
0.0
 11
159.4349924945
 21
79.322275471
 31
0.0
  0
LINE
  5
12F
330
1F
100
AcDbEntity
  8
0
  6
Continuous
 62
     7
370
    25
100
AcDbLine
 10
159.9349924945
 20
79.322275471
 30
0.0
 11
159.9349924945
 21
68.072275471
 31
0.0
  0
LINE
  5
130
330
1F
100
AcDbEntity
  8
0
  6
Continuous
 62
     7
370
    25
100
AcDbLine
 10
159.9349924945
 20
90.572275471
 30
0.0
 11
159.9349924945
 21
79.322275471
 31
0.0
  0
LINE
  5
131
330
1F
100
AcDbEntity
  8
0
  6
Continuous
 62
     7
370
    25
100
AcDbLine
 10
151.9349924945
 20
92.6786819316
 30
0.0
 11
151.9349924945
 21
92.6468828903
 31
0.0
  0
LINE
  5
132
330
1F
100
AcDbEntity
  8
0
  6
Continuous
 62
     7
370
    25
100
AcDbLine
 10
151.9349924945
 20
65.9976680517
 30
0.0
 11
151.9349924945
 21
65.9658690105
 31
0.0
  0
SPLINE
  5
133
330
1F
100
AcDbEntity
  8
0
  6
Continuous
 62
     7
370
    25
100
AcDbSpline
210
0.0
220
0.0
230
1.0
 70
     8
 71
     3
 72
     8
 73
     4
 74
     0
 42
0.000000001
 43
0.00000001
 40
0.0
 40
0.0
 40
0.0
 40
0.0
 40
1.0
 40
1.0
 40
1.0
 40
1.0
 10
135.0330687059028
 20
85.98488987550287
 30
0.0
 10
135.0588096557361
 20
85.88088077606453
 30
0.0
 10
135.085631199997
 20
85.7769625335799
 30
0.0
 10
135.1134534636321
 20
85.67312843211208
 30
0.0
  0
SPLINE
  5
134
330
1F
100
AcDbEntity
  8
0
  6
Continuous
 62
     7
370
    25
100
AcDbSpline
210
0.0
220
0.0
230
1.0
 70
     8
 71
     3
 72
     8
 73
     4
 74
     0
 42
0.000000001
 43
0.00000001
 40
0.0
 40
0.0
 40
0.0
 40
0.0
 40
1.0
 40
1.0
 40
1.0
 40
1.0
 10
135.1134534636321
 20
85.67312843211208
 30
0.0
 10
135.0856204100762
 20
85.4653796921113
 30
0.0
 10
135.0587994223059
 20
85.25754104563828
 30
0.0
 10
135.0330687059028
 20
85.04960554533048
 30
0.0
  0
LINE
  5
135
330
1F
100
AcDbEntity
  8
0
  6
Continuous
 62
     7
370
    25
100
AcDbLine
 10
135.0330687059
 20
85.0496055453
 30
0.0
 11
135.0330687059
 21
85.9848898755
 31
0.0
  0
LINE
  5
136
330
1F
100
AcDbEntity
  8
0
  6
Continuous
 62
     7
370
    25
100
AcDbLine
 10
132.6598866454
 20
66.6205695489
 30
0.0
 11
134.9526839482
 21
66.6205695489
 31
0.0
  0
SPLINE
  5
137
330
1F
100
AcDbEntity
  8
0
  6
Continuous
 62
     7
370
    25
100
AcDbSpline
210
0.0
220
0.0
230
1.0
 70
     8
 71
     3
 72
    16
 73
    12
 74
     0
 42
0.000000001
 43
0.00000001
 40
0.0
 40
0.0
 40
0.0
 40
0.0
 40
0.2500000000000002
 40
0.2500000000000002
 40
0.5000000000000004
 40
0.5000000000000004
 40
0.6250000000000003
 40
0.6250000000000003
 40
0.7500000000000002
 40
0.7500000000000002
 40
1.0
 40
1.0
 40
1.0
 40
1.0
 10
132.6598866454473
 20
66.62056954885426
 30
0.0
 10
132.3605380872643
 20
67.13905646079975
 30
0.0
 10
132.1138206604027
 20
67.6613235311164
 30
0.0
 10
131.7720369280464
 20
68.71674980424878
 30
0.0
 10
131.6780980196614
 20
69.24998998080598
 30
0.0
 10
131.6770661981819
 20
70.05989668516311
 30
0.0
 10
131.7000306050383
 20
70.33113604020521
 30
0.0
 10
131.7895797313239
 20
70.86767606567449
 30
0.0
 10
131.8560735653914
 20
71.13414725982544
 30
0.0
 10
132.1128368622052
 20
71.92881668871027
 30
0.0
 10
132.3601649212256
 20
72.45228925545595
 30
0.0
 10
132.6598866454474
 20
72.9714225099403
 30
0.0
  0
LINE
  5
138
330
1F
100
AcDbEntity
  8
0
  6
Continuous
 62
     7
370
    25
100
AcDbLine
 10
132.6598866454
 20
72.9714225099
 30
0.0
 11
134.9526839482
 21
72.9714225099
 31
0.0
  0
SPLINE
  5
139
330
1F
100
AcDbEntity
  8
0
  6
Continuous
 62
     7
370
    25
100
AcDbSpline
210
0.0
220
0.0
230
1.0
 70
     8
 71
     3
 72
     8
 73
     4
 74
     0
 42
0.000000001
 43
0.00000001
 40
0.0
 40
0.0
 40
0.0
 40
0.0
 40
1.0
 40
1.0
 40
1.0
 40
1.0
 10
135.0330687059028
 20
72.65966106654948
 30
0.0
 10
135.0073277560694
 20
72.76367016598782
 30
0.0
 10
134.9805062118085
 20
72.86758840847244
 30
0.0
 10
134.9526839481734
 20
72.97142250994028
 30
0.0
  0
SPLINE
  5
13A
330
1F
100
AcDbEntity
  8
0
  6
Continuous
 62
     7
370
    25
100
AcDbSpline
210
0.0
220
0.0
230
1.0
 70
     8
 71
     3
 72
     8
 73
     4
 74
     0
 42
0.000000001
 43
0.00000001
 40
0.0
 40
0.0
 40
0.0
 40
0.0
 40
1.0
 40
1.0
 40
1.0
 40
1.0
 10
135.1134534636321
 20
72.97142250994028
 30
0.0
 10
135.085621790575
 20
72.86755329203153
 30
0.0
 10
135.058800730709
 20
72.76363410344779
 30
0.0
 10
135.0330687059028
 20
72.65966106654948
 30
0.0
  0
LINE
  5
13B
330
1F
100
AcDbEntity
  8
0
  6
Continuous
 62
     7
370
    25
100
AcDbLine
 10
135.1134534636
 20
72.9714225099
 30
0.0
 11
137.4062507664
 21
72.9714225099
 31
0.0
  0
SPLINE
  5
13C
330
1F
100
AcDbEntity
  8
0
  6
Continuous
 62
     7
370
    25
100
AcDbSpline
210
0.0
220
0.0
230
1.0
 70
     8
 71
     3
 72
    16
 73
    12
 74
     0
 42
0.000000001
 43
0.00000001
 40
0.0
 40
0.0
 40
0.0
 40
0.0
 40
0.2500000000000002
 40
0.2500000000000002
 40
0.5000000000000004
 40
0.5000000000000004
 40
0.6250000000000003
 40
0.6250000000000003
 40
0.7500000000000002
 40
0.7500000000000002
 40
1.0
 40
1.0
 40
1.0
 40
1.0
 10
137.4062507663582
 20
66.62056954885426
 30
0.0
 10
137.7055993245412
 20
67.13905646079975
 30
0.0
 10
137.9523167514028
 20
67.6613235311164
 30
0.0
 10
138.2941004837591
 20
68.71674980424878
 30
0.0
 10
138.3880393921441
 20
69.24998998080598
 30
0.0
 10
138.3890712136236
 20
70.05989668516311
 30
0.0
 10
138.3661068067672
 20
70.33113604020521
 30
0.0
 10
138.2765576804816
 20
70.86767606567449
 30
0.0
 10
138.2100638464141
 20
71.13414725982544
 30
0.0
 10
137.9533005496003
 20
71.92881668871027
 30
0.0
 10
137.7059724905799
 20
72.45228925545595
 30
0.0
 10
137.4062507663581
 20
72.9714225099403
 30
0.0
  0
LINE
  5
13D
330
1F
100
AcDbEntity
  8
0
  6
Continuous
 62
     7
370
    25
100
AcDbLine
 10
135.1134534636
 20
66.6205695489
 30
0.0
 11
137.4062507664
 21
66.6205695489
 31
0.0
  0
SPLINE
  5
13E
330
1F
100
AcDbEntity
  8
0
  6
Continuous
 62
     7
370
    25
100
AcDbSpline
210
0.0
220
0.0
230
1.0
 70
     8
 71
     3
 72
     8
 73
     4
 74
     0
 42
0.000000001
 43
0.00000001
 40
0.0
 40
0.0
 40
0.0
 40
0.0
 40
1.0
 40
1.0
 40
1.0
 40
1.0
 10
135.0330687059028
 20
66.93233099224508
 30
0.0
 10
135.0588096557361
 20
66.82832189280674
 30
0.0
 10
135.085631199997
 20
66.72440365032212
 30
0.0
 10
135.1134534636321
 20
66.62056954885429
 30
0.0
  0
SPLINE
  5
13F
330
1F
100
AcDbEntity
  8
0
  6
Continuous
 62
     7
370
    25
100
AcDbSpline
210
0.0
220
0.0
230
1.0
 70
     8
 71
     3
 72
     8
 73
     4
 74
     0
 42
0.000000001
 43
0.00000001
 40
0.0
 40
0.0
 40
0.0
 40
0.0
 40
1.0
 40
1.0
 40
1.0
 40
1.0
 10
134.9526839481734
 20
66.62056954885429
 30
0.0
 10
134.9805156212305
 20
66.72443876676304
 30
0.0
 10
135.0073366810966
 20
66.82835795534677
 30
0.0
 10
135.0330687059028
 20
66.93233099224508
 30
0.0
  0
SPLINE
  5
140
330
1F
100
AcDbEntity
  8
0
  6
Continuous
 62
     7
370
    25
100
AcDbSpline
210
0.0
220
0.0
230
1.0
 70
     8
 71
     3
 72
     8
 73
     4
 74
     0
 42
0.000000001
 43
0.00000001
 40
0.0
 40
0.0
 40
0.0
 40
0.0
 40
1.0
 40
1.0
 40
1.0
 40
1.0
 10
134.9526839481734
 20
72.97142250994028
 30
0.0
 10
134.9805170017293
 20
73.17917124994106
 30
0.0
 10
135.0073379894996
 20
73.38700989641407
 30
0.0
 10
135.0330687059028
 20
73.59494539672187
 30
0.0
  0
LINE
  5
141
330
1F
100
AcDbEntity
  8
0
  6
Continuous
 62
     7
370
    25
100
AcDbLine
 10
135.0330687059
 20
72.6596610665
 30
0.0
 11
135.0330687059
 21
73.5949453967
 31
0.0
  0
SPLINE
  5
142
330
1F
100
AcDbEntity
  8
0
  6
Continuous
 62
     7
370
    25
100
AcDbSpline
210
0.0
220
0.0
230
1.0
 70
     8
 71
     3
 72
    16
 73
    12
 74
     0
 42
0.000000001
 43
0.00000001
 40
0.0
 40
0.0
 40
0.0
 40
0.0
 40
0.25
 40
0.25
 40
0.5
 40
0.5
 40
0.625
 40
0.625
 40
0.75
 40
0.75
 40
1.0
 40
1.0
 40
1.0
 40
1.0
 10
132.6598866454476
 20
72.97142250994027
 30
0.0
 10
132.3612774885017
 20
74.00583497281133
 30
0.0
 10
132.1113596342035
 20
75.06358722100494
 30
0.0
 10
131.7696348218967
 20
77.18322588039368
 30
0.0
 10
131.6772721320881
 20
78.24990153853341
 30
0.0
 10
131.6774735668474
 20
79.86203334353196
 30
0.0
 10
131.7004810154743
 20
80.40235728007073
 30
0.0
 10
131.7914004757735
 20
81.48293744358631
 30
0.0
 10
131.8586785377744
 20
82.01751674616823
 30
0.0
 10
132.1167775410471
 20
83.60652777428865
 30
0.0
 10
132.3634765787663
 20
84.64633384137831
 30
0.0
 10
132.6598866454476
 20
85.67312843211208
 30
0.0
  0
LINE
  5
143
330
1F
100
AcDbEntity
  8
0
  6
Continuous
 62
     7
370
    25
100
AcDbLine
 10
132.6598866454
 20
85.6731284321
 30
0.0
 11
134.9526839482
 21
85.6731284321
 31
0.0
  0
SPLINE
  5
144
330
1F
100
AcDbEntity
  8
0
  6
Continuous
 62
     7
370
    25
100
AcDbSpline
210
0.0
220
0.0
230
1.0
 70
     8
 71
     3
 72
     8
 73
     4
 74
     0
 42
0.000000001
 43
0.00000001
 40
0.0
 40
0.0
 40
0.0
 40
0.0
 40
1.0
 40
1.0
 40
1.0
 40
1.0
 10
135.0330687059028
 20
85.04960554533048
 30
0.0
 10
135.0073282153332
 20
85.25762003279769
 30
0.0
 10
134.9805066956837
 20
85.46545661748284
 30
0.0
 10
134.9526839481734
 20
85.67312843211208
 30
0.0
  0
LINE
  5
145
330
1F
100
AcDbEntity
  8
0
  6
Continuous
 62
     7
370
    25
100
AcDbLine
 10
135.1134534636
 20
85.6731284321
 30
0.0
 11
137.4062507664
 21
85.6731284321
 31
0.0
  0
SPLINE
  5
146
330
1F
100
AcDbEntity
  8
0
  6
Continuous
 62
     7
370
    25
100
AcDbSpline
210
0.0
220
0.0
230
1.0
 70
     8
 71
     3
 72
    16
 73
    12
 74
     0
 42
0.000000001
 43
0.00000001
 40
0.0
 40
0.0
 40
0.0
 40
0.0
 40
0.2499999999999999
 40
0.2499999999999999
 40
0.4999999999999999
 40
0.4999999999999999
 40
0.6249999999999999
 40
0.6249999999999999
 40
0.7499999999999998
 40
0.7499999999999998
 40
1.0
 40
1.0
 40
1.0
 40
1.0
 10
137.4062507663579
 20
72.97142250994027
 30
0.0
 10
137.7048599233038
 20
74.00583497281133
 30
0.0
 10
137.954777777602
 20
75.06358722100494
 30
0.0
 10
138.2965025899088
 20
77.18322588039368
 30
0.0
 10
138.3888652797174
 20
78.24990153853341
 30
0.0
 10
138.3886638449582
 20
79.86203334353196
 30
0.0
 10
138.3656563963313
 20
80.40235728007073
 30
0.0
 10
138.274736936032
 20
81.48293744358631
 30
0.0
 10
138.2074588740311
 20
82.01751674616824
 30
0.0
 10
137.9493598707585
 20
83.60652777428865
 30
0.0
 10
137.7026608330392
 20
84.64633384137831
 30
0.0
 10
137.4062507663579
 20
85.67312843211208
 30
0.0
  0
SPLINE
  5
147
330
1F
100
AcDbEntity
  8
0
  6
Continuous
 62
     7
370
    25
100
AcDbSpline
210
0.0
220
0.0
230
1.0
 70
     8
 71
     3
 72
     8
 73
     4
 74
     0
 42
0.000000001
 43
0.00000001
 40
0.0
 40
0.0
 40
0.0
 40
0.0
 40
1.0
 40
1.0
 40
1.0
 40
1.0
 10
135.0330687059028
 20
73.59494539672187
 30
0.0
 10
135.0588091964724
 20
73.38693090925466
 30
0.0
 10
135.0856307161218
 20
73.1790943245695
 30
0.0
 10
135.1134534636321
 20
72.97142250994027
 30
0.0
  0
SPLINE
  5
148
330
1F
100
AcDbEntity
  8
0
  6
Continuous
 62
     7
370
    25
100
AcDbSpline
210
0.0
220
0.0
230
1.0
 70
     8
 71
     3
 72
    16
 73
    12
 74
     0
 42
0.000000001
 43
0.00000001
 40
0.0
 40
0.0
 40
0.0
 40
0.0
 40
0.2500000000000002
 40
0.2500000000000002
 40
0.5000000000000003
 40
0.5000000000000003
 40
0.6250000000000003
 40
0.6250000000000003
 40
0.7500000000000002
 40
0.7500000000000002
 40
1.0
 40
1.0
 40
1.0
 40
1.0
 10
132.6598866454473
 20
85.67312843211205
 30
0.0
 10
132.3605380872643
 20
86.19161534405754
 30
0.0
 10
132.1138206604027
 20
86.71388241437415
 30
0.0
 10
131.7720369280464
 20
87.76930868750648
 30
0.0
 10
131.6780980196615
 20
88.30254886406368
 30
0.0
 10
131.677066198182
 20
89.11245556842077
 30
0.0
 10
131.7000306050383
 20
89.38369492346285
 30
0.0
 10
131.7895797313239
 20
89.92023494893212
 30
0.0
 10
131.8560735653915
 20
90.18670614308307
 30
0.0
 10
132.1128368622052
 20
90.98137557196789
 30
0.0
 10
132.3601649212256
 20
91.50484813871354
 30
0.0
 10
132.6598866454474
 20
92.02398139319786
 30
0.0
  0
LINE
  5
149
330
1F
100
AcDbEntity
  8
0
  6
Continuous
 62
     7
370
    25
100
AcDbLine
 10
131.5330687059
 20
79.322275471
 30
0.0
 11
131.5330687059
 21
90.072275471
 31
0.0
  0
LINE
  5
14A
330
1F
100
AcDbEntity
  8
0
  6
Continuous
 62
     7
370
    25
100
AcDbLine
 10
131.5330687059
 20
68.572275471
 30
0.0
 11
131.5330687059
 21
79.322275471
 31
0.0
  0
SPLINE
  5
14B
330
1F
100
AcDbEntity
  8
0
  6
Continuous
 62
     7
370
    25
100
AcDbSpline
210
0.0
220
0.0
230
1.0
 70
     8
 71
     3
 72
    16
 73
    12
 74
     0
 42
0.000000001
 43
0.00000001
 40
0.0
 40
0.0
 40
0.0
 40
0.0
 40
0.2500000000000002
 40
0.2500000000000002
 40
0.5000000000000003
 40
0.5000000000000003
 40
0.6250000000000003
 40
0.6250000000000003
 40
0.7500000000000002
 40
0.7500000000000002
 40
1.0
 40
1.0
 40
1.0
 40
1.0
 10
137.4062507663582
 20
85.67312843211205
 30
0.0
 10
137.7055993245412
 20
86.19161534405754
 30
0.0
 10
137.9523167514028
 20
86.71388241437415
 30
0.0
 10
138.2941004837591
 20
87.76930868750648
 30
0.0
 10
138.3880393921441
 20
88.30254886406368
 30
0.0
 10
138.3890712136236
 20
89.11245556842077
 30
0.0
 10
138.3661068067672
 20
89.38369492346285
 30
0.0
 10
138.2765576804816
 20
89.92023494893212
 30
0.0
 10
138.2100638464141
 20
90.18670614308307
 30
0.0
 10
137.9533005496003
 20
90.98137557196789
 30
0.0
 10
137.7059724905799
 20
91.50484813871354
 30
0.0
 10
137.4062507663581
 20
92.02398139319786
 30
0.0
  0
LINE
  5
14C
330
1F
100
AcDbEntity
  8
0
  6
Continuous
 62
     7
370
    25
100
AcDbLine
 10
138.5330687059
 20
79.322275471
 30
0.0
 11
138.5330687059
 21
90.072275471
 31
0.0
  0
LINE
  5
14D
330
1F
100
AcDbEntity
  8
0
  6
Continuous
 62
     7
370
    25
100
AcDbLine
 10
138.5330687059
 20
68.572275471
 30
0.0
 11
138.5330687059
 21
79.322275471
 31
0.0
  0
SPLINE
  5
14E
330
1F
100
AcDbEntity
  8
0
  6
Continuous
 62
     7
370
    25
100
AcDbSpline
210
0.0
220
0.0
230
1.0
 70
     8
 71
     3
 72
     8
 73
     4
 74
     0
 42
0.000000001
 43
0.00000001
 40
0.0
 40
0.0
 40
0.0
 40
0.0
 40
1.0
 40
1.0
 40
1.0
 40
1.0
 10
134.9526839481734
 20
85.67312843211208
 30
0.0
 10
134.9805156212305
 20
85.77699765002082
 30
0.0
 10
135.0073366810966
 20
85.88091683860456
 30
0.0
 10
135.0330687059028
 20
85.98488987550287
 30
0.0
  0
LINE
  5
14F
330
1F
100
AcDbEntity
  8
0
  6
Continuous
 62
     7
370
    25
100
AcDbLine
 10
132.6598866454
 20
92.0239813932
 30
0.0
 11
134.9526839482
 21
92.0239813932
 31
0.0
  0
SPLINE
  5
150
330
1F
100
AcDbEntity
  8
0
  6
Continuous
 62
     7
370
    25
100
AcDbSpline
210
0.0
220
0.0
230
1.0
 70
     8
 71
     3
 72
     8
 73
     4
 74
     0
 42
0.000000001
 43
0.00000001
 40
0.0
 40
0.0
 40
0.0
 40
0.0
 40
1.0
 40
1.0
 40
1.0
 40
1.0
 10
135.0330687059028
 20
91.71221994980704
 30
0.0
 10
135.0073277560694
 20
91.81622904924538
 30
0.0
 10
134.9805062118085
 20
91.92014729173
 30
0.0
 10
134.9526839481734
 20
92.02398139319784
 30
0.0
  0
SPLINE
  5
151
330
1F
100
AcDbEntity
  8
0
  6
Continuous
 62
     7
370
    25
100
AcDbSpline
210
0.0
220
0.0
230
1.0
 70
     8
 71
     3
 72
     8
 73
     4
 74
     0
 42
0.000000001
 43
0.00000001
 40
0.0
 40
0.0
 40
0.0
 40
0.0
 40
1.0
 40
1.0
 40
1.0
 40
1.0
 10
135.1134534636321
 20
92.02398139319784
 30
0.0
 10
135.085621790575
 20
91.92011217528909
 30
0.0
 10
135.058800730709
 20
91.81619298670535
 30
0.0
 10
135.0330687059028
 20
91.71221994980704
 30
0.0
  0
LINE
  5
152
330
1F
100
AcDbEntity
  8
0
  6
Continuous
 62
     7
370
    25
100
AcDbLine
 10
135.1134534636
 20
92.0239813932
 30
0.0
 11
137.4062507664
 21
92.0239813932
 31
0.0
  0
LINE
  5
153
330
1F
100
AcDbEntity
  8
0
  6
Continuous
 62
     7
370
    25
100
AcDbLine
 10
127.6330687059
 20
79.322275471
 30
0.0
 11
127.6330687059
 21
89.799775471
 31
0.0
  0
LINE
  5
154
330
1F
100
AcDbEntity
  8
0
  6
Continuous
 62
     7
370
    25
100
AcDbLine
 10
127.6330687059
 20
68.844775471
 30
0.0
 11
127.6330687059
 21
79.322275471
 31
0.0
  0
LINE
  5
155
330
1F
100
AcDbEntity
  8
0
  6
Continuous
 62
     7
370
    25
100
AcDbLine
 10
129.0330687059
 20
79.322275471
 30
0.0
 11
129.0330687059
 21
70.244775471
 31
0.0
  0
LINE
  5
156
330
1F
100
AcDbEntity
  8
0
  6
Continuous
 62
     7
370
    25
100
AcDbLine
 10
129.0330687059
 20
88.399775471
 30
0.0
 11
129.0330687059
 21
79.322275471
 31
0.0
  0
LINE
  5
157
330
1F
100
AcDbEntity
  8
0
  6
Continuous
 62
     7
370
    25
100
AcDbLine
 10
142.4330687059
 20
89.799775471
 30
0.0
 11
142.4330687059
 21
68.844775471
 31
0.0
  0
LINE
  5
158
330
1F
100
AcDbEntity
  8
0
  6
Continuous
 62
     7
370
    25
100
AcDbLine
 10
141.0330687059
 20
70.244775471
 30
0.0
 11
141.0330687059
 21
88.399775471
 31
0.0
  0
LINE
  5
159
330
1F
100
AcDbEntity
  8
0
  6
Continuous
 62
     7
370
    25
100
AcDbLine
 10
135.0330687059
 20
66.9205695489
 30
0.0
 11
135.0330687059
 21
66.9323309922
 31
0.0
  0
LINE
  5
15A
330
1F
100
AcDbEntity
  8
0
  6
Continuous
 62
     7
370
    25
100
AcDbLine
 10
135.0330687059
 20
91.7122199498
 30
0.0
 11
135.0330687059
 21
91.7239813932
 31
0.0
  0
LINE
  5
15B
330
1F
100
AcDbEntity
  8
0
  6
Continuous
 62
     8
370
    25
100
AcDbLine
 10
85.5196825065
 20
71.3351365184
 30
0.0
 11
85.5196825065
 21
87.3094144236
 31
0.0
  0
LINE
  5
15C
330
1F
100
AcDbEntity
  8
0
  6
Continuous
 62
     8
370
    25
100
AcDbLine
 10
99.0147050185
 20
71.3416821208
 30
0.0
 11
99.0147050185
 21
87.3028688212
 31
0.0
  0
LINE
  5
15D
330
1F
100
AcDbEntity
  8
0
  6
Continuous
 62
     8
370
    25
100
AcDbLine
 10
94.5147050185
 20
71.3416821208
 30
0.0
 11
94.5147050185
 21
87.3028688212
 31
0.0
  0
LINE
  5
15E
330
1F
100
AcDbEntity
  8
0
  6
Continuous
 62
     8
370
    25
100
AcDbLine
 10
90.0147050185
 20
71.3416821208
 30
0.0
 11
90.0147050185
 21
87.3028688212
 31
0.0
  0
LINE
  5
15F
330
1F
100
AcDbEntity
  8
0
  6
Continuous
 62
     8
370
    25
100
AcDbLine
 10
184.5464549053
 20
87.3094144236
 30
0.0
 11
184.5464549053
 21
71.3351365184
 31
0.0
  0
LINE
  5
160
330
1F
100
AcDbEntity
  8
0
  6
Continuous
 62
     8
370
    25
100
AcDbLine
 10
175.5514323933
 20
87.3028688212
 30
0.0
 11
175.5514323933
 21
71.3416821208
 31
0.0
  0
LINE
  5
161
330
1F
100
AcDbEntity
  8
0
  6
Continuous
 62
     8
370
    25
100
AcDbLine
 10
171.0514323933
 20
87.3028688212
 30
0.0
 11
171.0514323933
 21
71.3416821208
 31
0.0
  0
LINE
  5
162
330
1F
100
AcDbEntity
  8
0
  6
Continuous
 62
     8
370
    25
100
AcDbLine
 10
180.0514323933
 20
87.3028688212
 30
0.0
 11
180.0514323933
 21
71.3416821208
 31
0.0
  0
LINE
  5
163
330
1F
100
AcDbEntity
  8
0
  6
CENTERX2
 62
     7
370
    18
100
AcDbLine
 10
192.9349924945
 20
79.322275471
 30
0.0
 11
76.4970282923
 21
79.322275471
 31
0.0
  0
CIRCLE
  5
164
330
1F
100
AcDbEntity
  8
0
  6
Continuous
 62
     7
370
    25
100
AcDbCircle
 10
222.3965881896
 20
79.322275471
 30
0.0
 40
7.987798059013073
  0
CIRCLE
  5
165
330
1F
100
AcDbEntity
  8
0
  6
Continuous
 62
     7
370
    25
100
AcDbCircle
 10
222.3965881896
 20
79.322275471
 30
0.0
 40
7.31877446479109
  0
CIRCLE
  5
166
330
1F
100
AcDbEntity
  8
0
  6
Continuous
 62
     7
370
    25
100
AcDbCircle
 10
222.3965881896
 20
79.322275471
 30
0.0
 40
6.650000000000006
  0
CIRCLE
  5
167
330
1F
100
AcDbEntity
  8
0
  6
Continuous
 62
     7
370
    25
100
AcDbCircle
 10
222.3965881896
 20
79.322275471
 30
0.0
 40
5.949999999999989
  0
CIRCLE
  5
168
330
1F
100
AcDbEntity
  8
0
  6
Continuous
 62
     7
370
    25
100
AcDbCircle
 10
222.3965881896
 20
79.322275471
 30
0.0
 40
5.749999999999986
  0
CIRCLE
  5
169
330
1F
100
AcDbEntity
  8
0
  6
Continuous
 62
     7
370
    25
100
AcDbCircle
 10
222.3965881896
 20
79.322275471
 30
0.0
 40
7.987138952600176
  0
CIRCLE
  5
16A
330
1F
100
AcDbEntity
  8
0
  6
Continuous
 62
     7
370
    25
100
AcDbCircle
 10
222.3965881896
 20
79.322275471
 30
0.0
 40
7.999999999999986
  0
CIRCLE
  5
16B
330
1F
100
AcDbEntity
  8
0
  6
Continuous
 62
     7
370
    25
100
AcDbCircle
 10
222.3965881896
 20
79.322275471
 30
0.0
 40
11.24999999999997
  0
CIRCLE
  5
16C
330
1F
100
AcDbEntity
  8
0
  6
Continuous
 62
     7
370
    25
100
AcDbCircle
 10
222.3965881896
 20
79.322275471
 30
0.0
 40
11.75
  0
CIRCLE
  5
16D
330
1F
100
AcDbEntity
  8
0
  6
Continuous
 62
     7
370
    25
100
AcDbCircle
 10
222.3965881896
 20
79.322275471
 30
0.0
 40
8.349999999999994
  0
CIRCLE
  5
16E
330
1F
100
AcDbEntity
  8
0
  6
Continuous
 62
     7
370
    25
100
AcDbCircle
 10
222.3965881896
 20
79.322275471
 30
0.0
 40
8.249999999999972
  0
SPLINE
  5
16F
330
1F
100
AcDbEntity
  8
0
  6
Continuous
 62
     7
370
    25
100
AcDbSpline
210
0.0
220
0.0
230
1.0
 70
    24
 71
     3
 72
    15
 73
    11
 74
     0
 42
0.000000001
 43
0.00000001
 40
0.0
 40
0.0
 40
0.0
 40
0.0
 40
0.13230650442644
 40
0.2645755999739293
 40
0.3998036789671087
 40
0.5350073556765887
 40
0.6501969475405015
 40
0.765404507645376
 40
0.8826909144168965
 40
1.0
 40
1.0
 40
1.0
 40
1.0
 10
210.3965881895656
 20
72.39407224075055
 30
0.0
 10
210.9150409187741
 20
72.09474341797994
 30
0.0
 10
211.9517997877586
 20
71.496170405887
 30
0.0
 10
213.5483172330289
 20
70.57442062909422
 30
0.0
 10
215.1749296447088
 20
69.63529551534367
 30
0.0
 10
216.7426103860959
 20
68.73019461730047
 30
0.0
 10
218.2255865800558
 20
67.87399791251592
 30
0.0
 10
219.6251399394812
 20
67.06596540370641
 30
0.0
 10
221.0183653557245
 20
66.26158633459647
 30
0.0
 10
221.9371509713426
 20
65.73112521209183
 30
0.0
 10
222.3965881895656
 20
65.46586901047505
 30
0.0
  0
SPLINE
  5
170
330
1F
100
AcDbEntity
  8
0
  6
Continuous
 62
     7
370
    25
100
AcDbSpline
210
0.0
220
0.0
230
1.0
 70
    24
 71
     3
 72
    14
 73
    10
 74
     0
 42
0.000000001
 43
0.00000001
 40
0.0
 40
0.0
 40
0.0
 40
0.0
 40
0.1262255091143315
 40
0.2512292489859025
 40
0.3762014819581575
 40
0.5042708573048457
 40
0.6323411290100945
 40
0.8152386614365866
 40
1.0
 40
1.0
 40
1.0
 40
1.0
 10
210.3965881895656
 20
86.25047870130156
 30
0.0
 10
210.3965881895656
 20
85.67952213654988
 30
0.0
 10
210.3965881895656
 20
84.54313544282529
 30
0.0
 10
210.3965881895656
 20
82.81038092699768
 30
0.0
 10
210.3965881895656
 20
81.05027777362747
 30
0.0
 10
210.3965881895656
 20
79.26250526081162
 30
0.0
 10
210.3965881895656
 20
77.2044967684059
 30
0.0
 10
210.3965881895656
 20
74.89806345610748
 30
0.0
 10
210.3965881895656
 20
73.23155204452975
 30
0.0
 10
210.3965881895656
 20
72.39407224075055
 30
0.0
  0
SPLINE
  5
171
330
1F
100
AcDbEntity
  8
0
  6
Continuous
 62
     7
370
    25
100
AcDbSpline
210
0.0
220
0.0
230
1.0
 70
    24
 71
     3
 72
    15
 73
    11
 74
     0
 42
0.000000001
 43
0.00000001
 40
0.0
 40
0.0
 40
0.0
 40
0.0
 40
0.1323065044264402
 40
0.2645755999739296
 40
0.3998036789671092
 40
0.5350073556765892
 40
0.650196947540502
 40
0.7654045076453764
 40
0.8826909144168966
 40
0.9999999999999999
 40
0.9999999999999999
 40
0.9999999999999999
 40
0.9999999999999999
 10
222.3965881895656
 20
93.17868193157707
 30
0.0
 10
221.8781354603571
 20
92.87935310880647
 30
0.0
 10
220.8413765913726
 20
92.28078009671353
 30
0.0
 10
219.2448591461022
 20
91.35903031992075
 30
0.0
 10
217.6182467344224
 20
90.41990520617018
 30
0.0
 10
216.0505659930353
 20
89.51480430812698
 30
0.0
 10
214.5675897990754
 20
88.65860760334245
 30
0.0
 10
213.1680364396501
 20
87.85057509453294
 30
0.0
 10
211.7748110234067
 20
87.046196025423
 30
0.0
 10
210.8560254077886
 20
86.51573490291835
 30
0.0
 10
210.3965881895656
 20
86.25047870130156
 30
0.0
  0
SPLINE
  5
172
330
1F
100
AcDbEntity
  8
0
  6
Continuous
 62
     7
370
    25
100
AcDbSpline
210
0.0
220
0.0
230
1.0
 70
    24
 71
     3
 72
    15
 73
    11
 74
     0
 42
0.000000001
 43
0.00000001
 40
0.0
 40
0.0
 40
0.0
 40
0.0
 40
0.1323065044264403
 40
0.2645755999739297
 40
0.3998036789671093
 40
0.5350073556765894
 40
0.6501969475405021
 40
0.7654045076453765
 40
0.8826909144168966
 40
0.9999999999999999
 40
0.9999999999999999
 40
0.9999999999999999
 40
0.9999999999999999
 10
234.3965881895656
 20
86.25047870130157
 30
0.0
 10
233.8781354603571
 20
86.54980752407218
 30
0.0
 10
232.8413765913726
 20
87.14838053616512
 30
0.0
 10
231.2448591461022
 20
88.0701303129579
 30
0.0
 10
229.6182467344223
 20
89.00925542670846
 30
0.0
 10
228.0505659930353
 20
89.91435632475167
 30
0.0
 10
226.5675897990754
 20
90.77055302953622
 30
0.0
 10
225.1680364396501
 20
91.57858553834572
 30
0.0
 10
223.7748110234066
 20
92.38296460745563
 30
0.0
 10
222.8560254077886
 20
92.9134257299603
 30
0.0
 10
222.3965881895656
 20
93.17868193157707
 30
0.0
  0
SPLINE
  5
173
330
1F
100
AcDbEntity
  8
0
  6
Continuous
 62
     7
370
    25
100
AcDbSpline
210
0.0
220
0.0
230
1.0
 70
    24
 71
     3
 72
    14
 73
    10
 74
     0
 42
0.000000001
 43
0.00000001
 40
0.0
 40
0.0
 40
0.0
 40
0.0
 40
0.1830431512383958
 40
0.367657974216095
 40
0.4925153642934577
 40
0.6173713255910024
 40
0.7455555889528352
 40
0.8737745622886145
 40
1.0
 40
1.0
 40
1.0
 40
1.0
 10
234.3965881895656
 20
72.39407224075056
 30
0.0
 10
234.3965881895656
 20
73.22370885973814
 30
0.0
 10
234.3965881895656
 20
74.89010564436957
 30
0.0
 10
234.3965881895656
 20
77.18151918547223
 30
0.0
 10
234.3965881895656
 20
79.21722964910163
 30
0.0
 10
234.3965881895656
 20
80.99002751482276
 30
0.0
 10
234.3965881895656
 20
82.76585456749775
 30
0.0
 10
234.3965881895656
 20
84.52858520786512
 30
0.0
 10
234.3965881895656
 20
85.67952000675243
 30
0.0
 10
234.3965881895656
 20
86.25047870130157
 30
0.0
  0
SPLINE
  5
174
330
1F
100
AcDbEntity
  8
0
  6
Continuous
 62
     7
370
    25
100
AcDbSpline
210
0.0
220
0.0
230
1.0
 70
    24
 71
     3
 72
    15
 73
    11
 74
     0
 42
0.000000001
 43
0.00000001
 40
0.0
 40
0.0
 40
0.0
 40
0.0
 40
0.1320297612399399
 40
0.2645740184078837
 40
0.3992784260596375
 40
0.5350086679185997
 40
0.6498919368826491
 40
0.7654060347253148
 40
0.882507980435099
 40
1.0
 40
1.0
 40
1.0
 40
1.0
 10
222.3965881895656
 20
65.46586901047505
 30
0.0
 10
222.9139456683078
 20
65.76456549009413
 30
0.0
 10
223.9506766736412
 20
66.36312241510056
 30
0.0
 10
225.5451491271094
 20
67.28369151532588
 30
0.0
 10
227.1727114723466
 20
68.22336507347153
 30
0.0
 10
228.739228746416
 20
69.12779424334566
 30
0.0
 10
230.2243906402148
 20
69.98525286252058
 30
0.0
 10
231.6231600859474
 20
70.7928327785485
 30
0.0
 10
233.0176484113455
 20
71.5979409885989
 30
0.0
 10
233.9364323572474
 20
72.12840114709243
 30
0.0
 10
234.3965881895656
 20
72.39407224075056
 30
0.0
  0
CIRCLE
  5
175
330
1F
100
AcDbEntity
  8
0
  6
Continuous
 62
     7
370
    25
100
AcDbCircle
 10
222.3965881896
 20
79.322275471
 30
0.0
 40
5.0
  0
INSERT
  5
181
330
1F
100
AcDbEntity
  8
0
  6
Continuous
 62
     7
370
    18
100
AcDbBlockReference
  2
SW_CENTERMARKSYMBOL_0
 10
222.3965881896
 20
79.322275471
 30
0.0
  0
LINE
  5
182
330
1F
100
AcDbEntity
  8
0
  6
Continuous
 62
     7
370
    25
100
AcDbLine
 10
110.1311449173
 20
134.8789098402
 30
0.0
 11
103.6311449173
 21
134.8789098402
 31
0.0
  0
LINE
  5
183
330
1F
100
AcDbEntity
  8
0
  6
Continuous
 62
     7
370
    25
100
AcDbLine
 10
103.6311449173
 20
118.8789098402
 30
0.0
 11
110.1311449173
 21
118.8789098402
 31
0.0
  0
LINE
  5
184
330
1F
100
AcDbEntity
  8
0
  6
Continuous
 62
     7
370
    25
100
AcDbLine
 10
103.6311449173
 20
134.8789098402
 30
0.0
 11
99.1311449173
 21
134.1289098402
 31
0.0
  0
LINE
  5
185
330
1F
100
AcDbEntity
  8
0
  6
Continuous
 62
     7
370
    25
100
AcDbLine
 10
99.1311449173
 20
119.6289098402
 30
0.0
 11
103.6311449173
 21
118.8789098402
 31
0.0
  0
ARC
  5
186
330
1F
100
AcDbEntity
  8
0
  6
Continuous
 62
     7
370
    25
100
AcDbCircle
 10
85.5311449173
 20
118.9911117812
 30
0.0
 40
0.1000000000000004
100
AcDbArc
 50
263.4180553448
 51
0.0
  0
ARC
  5
187
330
1F
100
AcDbEntity
  8
0
  6
Continuous
 62
     7
370
    25
100
AcDbCircle
 10
85.5311449173
 20
134.7667078993
 30
0.0
 40
0.0999999999999943
100
AcDbArc
 50
0.0
 51
96.5819446552
  0
LINE
  5
188
330
1F
100
AcDbEntity
  8
0
  6
Continuous
 62
     7
370
    25
100
AcDbLine
 10
85.5196825065
 20
134.8660487928
 30
0.0
 11
79.7271902788
 21
134.197684305
 31
0.0
  0
LINE
  5
189
330
1F
100
AcDbEntity
  8
0
  6
Continuous
 62
     7
370
    25
100
AcDbLine
 10
79.7271902788
 20
119.5601353755
 30
0.0
 11
85.5196825065
 21
118.8917708876
 31
0.0
  0
ARC
  5
18A
330
1F
100
AcDbEntity
  8
0
  6
Continuous
 62
     7
370
    25
100
AcDbCircle
 10
99.0311449173
 20
118.9969558824
 30
0.0
 40
0.1000000000000057
100
AcDbArc
 50
260.537677792
 51
0.0
  0
ARC
  5
18B
330
1F
100
AcDbEntity
  8
0
  6
Continuous
 62
     7
370
    25
100
AcDbCircle
 10
99.0311449173
 20
134.7608637981
 30
0.0
 40
0.0999999999999943
100
AcDbArc
 50
0.0
 51
99.462322208
  0
ARC
  5
18C
330
1F
100
AcDbEntity
  8
0
  6
Continuous
 62
     7
370
    25
100
AcDbCircle
 10
94.5311449173
 20
118.9969558824
 30
0.0
 40
0.1000000000000085
100
AcDbArc
 50
260.537677792
 51
0.0
  0
ARC
  5
18D
330
1F
100
AcDbEntity
  8
0
  6
Continuous
 62
     7
370
    25
100
AcDbCircle
 10
94.5311449173
 20
134.7608637981
 30
0.0
 40
0.1000000000000085
100
AcDbArc
 50
0.0
 51
99.462322208
  0
ARC
  5
18E
330
1F
100
AcDbEntity
  8
0
  6
Continuous
 62
     7
370
    25
100
AcDbCircle
 10
90.0311449173
 20
118.9969558824
 30
0.0
 40
0.1000000000000085
100
AcDbArc
 50
260.537677792
 51
0.0
  0
ARC
  5
18F
330
1F
100
AcDbEntity
  8
0
  6
Continuous
 62
     7
370
    25
100
AcDbCircle
 10
90.0311449173
 20
134.7608637981
 30
0.0
 40
0.1000000000000085
100
AcDbArc
 50
0.0
 51
99.462322208
  0
LINE
  5
190
330
1F
100
AcDbEntity
  8
0
  6
Continuous
 62
     7
370
    25
100
AcDbLine
 10
99.0147050185
 20
134.8595031905
 30
0.0
 11
94.6311449173
 21
134.1289098402
 31
0.0
  0
LINE
  5
191
330
1F
100
AcDbEntity
  8
0
  6
Continuous
 62
     7
370
    25
100
AcDbLine
 10
94.6311449173
 20
119.6289098402
 30
0.0
 11
99.0147050185
 21
118.89831649
 31
0.0
  0
LINE
  5
192
330
1F
100
AcDbEntity
  8
0
  6
Continuous
 62
     7
370
    25
100
AcDbLine
 10
94.5147050185
 20
134.8595031905
 30
0.0
 11
90.1311449173
 21
134.1289098402
 31
0.0
  0
LINE
  5
193
330
1F
100
AcDbEntity
  8
0
  6
Continuous
 62
     7
370
    25
100
AcDbLine
 10
90.1311449173
 20
119.6289098402
 30
0.0
 11
94.5147050185
 21
118.89831649
 31
0.0
  0
LINE
  5
194
330
1F
100
AcDbEntity
  8
0
  6
Continuous
 62
     7
370
    25
100
AcDbLine
 10
90.0147050185
 20
134.8595031905
 30
0.0
 11
85.6311449173
 21
134.1289098402
 31
0.0
  0
LINE
  5
195
330
1F
100
AcDbEntity
  8
0
  6
Continuous
 62
     7
370
    25
100
AcDbLine
 10
85.6311449173
 20
119.6289098402
 30
0.0
 11
90.0147050185
 21
118.89831649
 31
0.0
  0
LINE
  5
196
330
1F
100
AcDbEntity
  8
0
  6
Continuous
 62
     7
370
    25
100
AcDbLine
 10
79.7271902788
 20
134.197684305
 30
0.0
 11
79.1311449173
 21
133.5289098402
 31
0.0
  0
LINE
  5
197
330
1F
100
AcDbEntity
  8
0
  6
Continuous
 62
     7
370
    25
100
AcDbLine
 10
79.1311449173
 20
120.2289098402
 30
0.0
 11
79.7271902788
 21
119.5601353755
 31
0.0
  0
LINE
  5
198
330
1F
100
AcDbEntity
  8
0
  6
Continuous
 62
     7
370
    25
100
AcDbLine
 10
159.9349924945
 20
118.8789098402
 30
0.0
 11
166.4349924945
 21
118.8789098402
 31
0.0
  0
LINE
  5
199
330
1F
100
AcDbEntity
  8
0
  6
Continuous
 62
     7
370
    25
100
AcDbLine
 10
166.4349924945
 20
134.8789098402
 30
0.0
 11
159.9349924945
 21
134.8789098402
 31
0.0
  0
LINE
  5
19A
330
1F
100
AcDbEntity
  8
0
  6
Continuous
 62
     7
370
    25
100
AcDbLine
 10
166.4349924945
 20
118.8789098402
 30
0.0
 11
170.9349924945
 21
119.6289098402
 31
0.0
  0
LINE
  5
19B
330
1F
100
AcDbEntity
  8
0
  6
Continuous
 62
     7
370
    25
100
AcDbLine
 10
170.9349924945
 20
134.1289098402
 30
0.0
 11
166.4349924945
 21
134.8789098402
 31
0.0
  0
ARC
  5
19C
330
1F
100
AcDbEntity
  8
0
  6
Continuous
 62
     7
370
    25
100
AcDbCircle
 10
184.5349924945
 20
134.7667078993
 30
0.0
 40
0.0999999999999943
100
AcDbArc
 50
83.4180553448
 51
180.0
  0
ARC
  5
19D
330
1F
100
AcDbEntity
  8
0
  6
Continuous
 62
     7
370
    25
100
AcDbCircle
 10
184.5349924945
 20
118.9911117812
 30
0.0
 40
0.0999999999999988
100
AcDbArc
 50
180.0
 51
276.5819446552
  0
LINE
  5
19E
330
1F
100
AcDbEntity
  8
0
  6
Continuous
 62
     7
370
    25
100
AcDbLine
 10
184.5464549053
 20
118.8917708876
 30
0.0
 11
190.338947133
 21
119.5601353755
 31
0.0
  0
LINE
  5
19F
330
1F
100
AcDbEntity
  8
0
  6
Continuous
 62
     7
370
    25
100
AcDbLine
 10
190.338947133
 20
134.197684305
 30
0.0
 11
184.5464549053
 21
134.8660487928
 31
0.0
  0
ARC
  5
1A0
330
1F
100
AcDbEntity
  8
0
  6
Continuous
 62
     7
370
    25
100
AcDbCircle
 10
175.5349924945
 20
134.7608637981
 30
0.0
 40
0.1000000000000227
100
AcDbArc
 50
80.537677792
 51
180.0
  0
ARC
  5
1A1
330
1F
100
AcDbEntity
  8
0
  6
Continuous
 62
     7
370
    25
100
AcDbCircle
 10
175.5349924945
 20
118.9969558824
 30
0.0
 40
0.1000000000000227
100
AcDbArc
 50
180.0
 51
279.462322208
  0
ARC
  5
1A2
330
1F
100
AcDbEntity
  8
0
  6
Continuous
 62
     7
370
    25
100
AcDbCircle
 10
171.0349924945
 20
134.7608637981
 30
0.0
 40
0.0999999999999943
100
AcDbArc
 50
80.537677792
 51
180.0
  0
ARC
  5
1A3
330
1F
100
AcDbEntity
  8
0
  6
Continuous
 62
     7
370
    25
100
AcDbCircle
 10
171.0349924945
 20
118.9969558824
 30
0.0
 40
0.1000000000000057
100
AcDbArc
 50
180.0
 51
279.462322208
  0
ARC
  5
1A4
330
1F
100
AcDbEntity
  8
0
  6
Continuous
 62
     7
370
    25
100
AcDbCircle
 10
180.0349924945
 20
134.7608637981
 30
0.0
 40
0.1000000000000227
100
AcDbArc
 50
80.537677792
 51
180.0
  0
ARC
  5
1A5
330
1F
100
AcDbEntity
  8
0
  6
Continuous
 62
     7
370
    25
100
AcDbCircle
 10
180.0349924945
 20
118.9969558824
 30
0.0
 40
0.1000000000000227
100
AcDbArc
 50
180.0
 51
279.462322208
  0
LINE
  5
1A6
330
1F
100
AcDbEntity
  8
0
  6
Continuous
 62
     7
370
    25
100
AcDbLine
 10
171.0514323933
 20
118.89831649
 30
0.0
 11
175.4349924945
 21
119.6289098402
 31
0.0
  0
LINE
  5
1A7
330
1F
100
AcDbEntity
  8
0
  6
Continuous
 62
     7
370
    25
100
AcDbLine
 10
175.4349924945
 20
134.1289098402
 30
0.0
 11
171.0514323933
 21
134.8595031905
 31
0.0
  0
LINE
  5
1A8
330
1F
100
AcDbEntity
  8
0
  6
Continuous
 62
     7
370
    25
100
AcDbLine
 10
175.5514323933
 20
118.89831649
 30
0.0
 11
179.9349924945
 21
119.6289098402
 31
0.0
  0
LINE
  5
1A9
330
1F
100
AcDbEntity
  8
0
  6
Continuous
 62
     7
370
    25
100
AcDbLine
 10
179.9349924945
 20
134.1289098402
 30
0.0
 11
175.5514323933
 21
134.8595031905
 31
0.0
  0
LINE
  5
1AA
330
1F
100
AcDbEntity
  8
0
  6
Continuous
 62
     7
370
    25
100
AcDbLine
 10
180.0514323933
 20
118.89831649
 30
0.0
 11
184.4349924945
 21
119.6289098402
 31
0.0
  0
LINE
  5
1AB
330
1F
100
AcDbEntity
  8
0
  6
Continuous
 62
     7
370
    25
100
AcDbLine
 10
184.4349924945
 20
134.1289098402
 30
0.0
 11
180.0514323933
 21
134.8595031905
 31
0.0
  0
LINE
  5
1AC
330
1F
100
AcDbEntity
  8
0
  6
Continuous
 62
     7
370
    25
100
AcDbLine
 10
190.338947133
 20
119.5601353755
 30
0.0
 11
190.9349924945
 21
120.2289098402
 31
0.0
  0
LINE
  5
1AD
330
1F
100
AcDbEntity
  8
0
  6
Continuous
 62
     7
370
    25
100
AcDbLine
 10
190.9349924945
 20
133.5289098402
 30
0.0
 11
190.338947133
 21
134.197684305
 31
0.0
  0
LINE
  5
1AE
330
1F
100
AcDbEntity
  8
0
  6
Continuous
 62
     7
370
    25
100
AcDbLine
 10
112.2754824846
 20
138.8789098402
 30
0.0
 11
112.1311449173
 21
138.6289098402
 31
0.0
  0
LINE
  5
1AF
330
1F
100
AcDbEntity
  8
0
  6
Continuous
 62
     7
370
    25
100
AcDbLine
 10
112.1311449173
 20
115.1289098402
 30
0.0
 11
112.2754824846
 21
114.8789098402
 31
0.0
  0
LINE
  5
1B0
330
1F
100
AcDbEntity
  8
0
  6
Continuous
 62
     7
370
    25
100
AcDbLine
 10
123.98680735
 20
114.8789098402
 30
0.0
 11
124.1311449173
 21
115.1289098402
 31
0.0
  0
LINE
  5
1B1
330
1F
100
AcDbEntity
  8
0
  6
Continuous
 62
     7
370
    25
100
AcDbLine
 10
124.1311449173
 20
138.6289098402
 30
0.0
 11
123.98680735
 21
138.8789098402
 31
0.0
  0
LINE
  5
1B2
330
1F
100
AcDbEntity
  8
0
  6
Continuous
 62
     7
370
    25
100
AcDbLine
 10
124.1311449173
 20
115.1289098402
 30
0.0
 11
125.6311449173
 21
115.1289098402
 31
0.0
  0
LINE
  5
1B3
330
1F
100
AcDbEntity
  8
0
  6
Continuous
 62
     7
370
    25
100
AcDbLine
 10
125.6311449173
 20
138.6289098402
 30
0.0
 11
124.1311449173
 21
138.6289098402
 31
0.0
  0
LINE
  5
1B4
330
1F
100
AcDbEntity
  8
0
  6
Continuous
 62
     7
370
    25
100
AcDbLine
 10
110.6311449173
 20
138.6289098402
 30
0.0
 11
110.1311449173
 21
138.1289098402
 31
0.0
  0
LINE
  5
1B5
330
1F
100
AcDbEntity
  8
0
  6
Continuous
 62
     7
370
    25
100
AcDbLine
 10
110.1311449173
 20
115.6289098402
 30
0.0
 11
110.6311449173
 21
115.1289098402
 31
0.0
  0
LINE
  5
1B6
330
1F
100
AcDbEntity
  8
0
  6
Continuous
 62
     7
370
    25
100
AcDbLine
 10
125.6311449173
 20
115.1289098402
 30
0.0
 11
126.1311449173
 21
115.6289098402
 31
0.0
  0
LINE
  5
1B7
330
1F
100
AcDbEntity
  8
0
  6
Continuous
 62
     7
370
    25
100
AcDbLine
 10
126.1311449173
 20
138.1289098402
 30
0.0
 11
125.6311449173
 21
138.6289098402
 31
0.0
  0
LINE
  5
1B8
330
1F
100
AcDbEntity
  8
0
  6
Continuous
 62
     7
370
    25
100
AcDbLine
 10
112.1311449173
 20
138.6289098402
 30
0.0
 11
110.6311449173
 21
138.6289098402
 31
0.0
  0
LINE
  5
1B9
330
1F
100
AcDbEntity
  8
0
  6
Continuous
 62
     7
370
    25
100
AcDbLine
 10
110.6311449173
 20
115.1289098402
 30
0.0
 11
112.1311449173
 21
115.1289098402
 31
0.0
  0
LINE
  5
1BA
330
1F
100
AcDbEntity
  8
0
  6
Continuous
 62
     7
370
    25
100
AcDbLine
 10
146.0793300618
 20
138.8789098402
 30
0.0
 11
145.9349924945
 21
138.6289098402
 31
0.0
  0
LINE
  5
1BB
330
1F
100
AcDbEntity
  8
0
  6
Continuous
 62
     7
370
    25
100
AcDbLine
 10
145.9349924945
 20
115.1289098402
 30
0.0
 11
146.0793300618
 21
114.8789098402
 31
0.0
  0
LINE
  5
1BC
330
1F
100
AcDbEntity
  8
0
  6
Continuous
 62
     7
370
    25
100
AcDbLine
 10
157.7906549273
 20
114.8789098402
 30
0.0
 11
157.9349924945
 21
115.1289098402
 31
0.0
  0
LINE
  5
1BD
330
1F
100
AcDbEntity
  8
0
  6
Continuous
 62
     7
370
    25
100
AcDbLine
 10
157.9349924945
 20
138.6289098402
 30
0.0
 11
157.7906549273
 21
138.8789098402
 31
0.0
  0
LINE
  5
1BE
330
1F
100
AcDbEntity
  8
0
  6
Continuous
 62
     7
370
    25
100
AcDbLine
 10
157.9349924945
 20
115.1289098402
 30
0.0
 11
159.4349924945
 21
115.1289098402
 31
0.0
  0
LINE
  5
1BF
330
1F
100
AcDbEntity
  8
0
  6
Continuous
 62
     7
370
    25
100
AcDbLine
 10
159.4349924945
 20
138.6289098402
 30
0.0
 11
157.9349924945
 21
138.6289098402
 31
0.0
  0
LINE
  5
1C0
330
1F
100
AcDbEntity
  8
0
  6
Continuous
 62
     7
370
    25
100
AcDbLine
 10
159.4349924945
 20
115.1289098402
 30
0.0
 11
159.9349924945
 21
115.6289098402
 31
0.0
  0
LINE
  5
1C1
330
1F
100
AcDbEntity
  8
0
  6
Continuous
 62
     7
370
    25
100
AcDbLine
 10
159.9349924945
 20
138.1289098402
 30
0.0
 11
159.4349924945
 21
138.6289098402
 31
0.0
  0
LINE
  5
1C2
330
1F
100
AcDbEntity
  8
0
  6
Continuous
 62
     7
370
    25
100
AcDbLine
 10
145.9349924945
 20
138.6289098402
 30
0.0
 11
144.4349924945
 21
138.6289098402
 31
0.0
  0
LINE
  5
1C3
330
1F
100
AcDbEntity
  8
0
  6
Continuous
 62
     7
370
    25
100
AcDbLine
 10
144.4349924945
 20
115.1289098402
 30
0.0
 11
145.9349924945
 21
115.1289098402
 31
0.0
  0
LINE
  5
1C4
330
1F
100
AcDbEntity
  8
0
  6
Continuous
 62
     7
370
    25
100
AcDbLine
 10
144.4349924945
 20
138.6289098402
 30
0.0
 11
143.9349924945
 21
138.1289098402
 31
0.0
  0
LINE
  5
1C5
330
1F
100
AcDbEntity
  8
0
  6
Continuous
 62
     7
370
    25
100
AcDbLine
 10
143.9349924945
 20
115.6289098402
 30
0.0
 11
144.4349924945
 21
115.1289098402
 31
0.0
  0
LINE
  5
1C6
330
1F
100
AcDbEntity
  8
0
  6
Continuous
 62
     7
370
    25
100
AcDbLine
 10
138.3887311386
 20
115.8789098402
 30
0.0
 11
138.5330687059
 21
116.1289098402
 31
0.0
  0
LINE
  5
1C7
330
1F
100
AcDbEntity
  8
0
  6
Continuous
 62
     7
370
    25
100
AcDbLine
 10
138.5330687059
 20
137.6289098402
 30
0.0
 11
138.3887311386
 21
137.8789098402
 31
0.0
  0
LINE
  5
1C8
330
1F
100
AcDbEntity
  8
0
  6
Continuous
 62
     7
370
    25
100
AcDbLine
 10
131.6774062732
 20
137.8789098402
 30
0.0
 11
131.5330687059
 21
137.6289098402
 31
0.0
  0
LINE
  5
1C9
330
1F
100
AcDbEntity
  8
0
  6
Continuous
 62
     7
370
    25
100
AcDbLine
 10
131.5330687059
 20
116.1289098402
 30
0.0
 11
131.6774062732
 21
115.8789098402
 31
0.0
  0
LINE
  5
1CA
330
1F
100
AcDbEntity
  8
0
  6
Continuous
 62
     7
370
    25
100
AcDbLine
 10
127.6330687059
 20
116.4014098402
 30
0.0
 11
129.0330687059
 21
117.8014098402
 31
0.0
  0
LINE
  5
1CB
330
1F
100
AcDbEntity
  8
0
  6
Continuous
 62
     7
370
    25
100
AcDbLine
 10
129.0330687059
 20
135.9564098402
 30
0.0
 11
127.6330687059
 21
137.3564098402
 31
0.0
  0
LINE
  5
1CC
330
1F
100
AcDbEntity
  8
0
  6
Continuous
 62
     7
370
    25
100
AcDbLine
 10
142.4330687059
 20
116.4014098402
 30
0.0
 11
143.9349924945
 21
116.4014098402
 31
0.0
  0
LINE
  5
1CD
330
1F
100
AcDbEntity
  8
0
  6
Continuous
 62
     7
370
    25
100
AcDbLine
 10
143.9349924945
 20
137.3564098402
 30
0.0
 11
142.4330687059
 21
137.3564098402
 31
0.0
  0
LINE
  5
1CE
330
1F
100
AcDbEntity
  8
0
  6
Continuous
 62
     7
370
    25
100
AcDbLine
 10
142.4330687059
 20
137.3564098402
 30
0.0
 11
141.0330687059
 21
135.9564098402
 31
0.0
  0
LINE
  5
1CF
330
1F
100
AcDbEntity
  8
0
  6
Continuous
 62
     7
370
    25
100
AcDbLine
 10
141.0330687059
 20
117.8014098402
 30
0.0
 11
142.4330687059
 21
116.4014098402
 31
0.0
  0
LINE
  5
1D0
330
1F
100
AcDbEntity
  8
0
  6
Continuous
 62
     7
370
    25
100
AcDbLine
 10
127.6330687059
 20
137.3564098402
 30
0.0
 11
126.1311449173
 21
137.3564098402
 31
0.0
  0
LINE
  5
1D1
330
1F
100
AcDbEntity
  8
0
  6
Continuous
 62
     7
370
    25
100
AcDbLine
 10
126.1311449173
 20
116.4014098402
 30
0.0
 11
127.6330687059
 21
116.4014098402
 31
0.0
  0
LINE
  5
1D2
330
1F
100
AcDbEntity
  8
0
  6
Continuous
 62
     7
370
    25
100
AcDbLine
 10
138.5330687059
 20
117.8789098402
 30
0.0
 11
141.0330687059
 21
117.8789098402
 31
0.0
  0
LINE
  5
1D3
330
1F
100
AcDbEntity
  8
0
  6
Continuous
 62
     7
370
    25
100
AcDbLine
 10
141.0330687059
 20
135.8789098402
 30
0.0
 11
138.5330687059
 21
135.8789098402
 31
0.0
  0
LINE
  5
1D4
330
1F
100
AcDbEntity
  8
0
  6
Continuous
 62
     7
370
    25
100
AcDbLine
 10
131.5330687059
 20
135.8789098402
 30
0.0
 11
129.0330687059
 21
135.8789098402
 31
0.0
  0
LINE
  5
1D5
330
1F
100
AcDbEntity
  8
0
  6
Continuous
 62
     7
370
    25
100
AcDbLine
 10
129.0330687059
 20
117.8789098402
 30
0.0
 11
131.5330687059
 21
117.8789098402
 31
0.0
  0
LINE
  5
1D6
330
1F
100
AcDbEntity
  8
0
  6
Continuous
 62
     7
370
    25
100
AcDbLine
 10
103.6311449173
 20
126.8789098402
 30
0.0
 11
103.6311449173
 21
118.8789098402
 31
0.0
  0
LINE
  5
1D7
330
1F
100
AcDbEntity
  8
0
  6
Continuous
 62
     7
370
    25
100
AcDbLine
 10
103.6311449173
 20
134.8789098402
 30
0.0
 11
103.6311449173
 21
126.8789098402
 31
0.0
  0
LINE
  5
1D8
330
1F
100
AcDbEntity
  8
0
  6
Continuous
 62
     7
370
    25
100
AcDbLine
 10
85.6311449173
 20
134.7667078993
 30
0.0
 11
85.6311449173
 21
118.9911117812
 31
0.0
  0
LINE
  5
1D9
330
1F
100
AcDbEntity
  8
0
  6
Continuous
 62
     7
370
    25
100
AcDbLine
 10
79.7271902788
 20
134.197684305
 30
0.0
 11
79.7271902788
 21
119.5601353755
 31
0.0
  0
LINE
  5
1DA
330
1F
100
AcDbEntity
  8
0
  6
Continuous
 62
     7
370
    25
100
AcDbLine
 10
99.1311449173
 20
134.7608637981
 30
0.0
 11
99.1311449173
 21
118.9969558824
 31
0.0
  0
LINE
  5
1DB
330
1F
100
AcDbEntity
  8
0
  6
Continuous
 62
     7
370
    25
100
AcDbLine
 10
94.6311449173
 20
134.7608637981
 30
0.0
 11
94.6311449173
 21
118.9969558824
 31
0.0
  0
LINE
  5
1DC
330
1F
100
AcDbEntity
  8
0
  6
Continuous
 62
     7
370
    25
100
AcDbLine
 10
90.1311449173
 20
134.7608637981
 30
0.0
 11
90.1311449173
 21
118.9969558824
 31
0.0
  0
LINE
  5
1DD
330
1F
100
AcDbEntity
  8
0
  6
Continuous
 62
     7
370
    25
100
AcDbLine
 10
79.1311449173
 20
126.8789098402
 30
0.0
 11
79.1311449173
 21
133.5289098402
 31
0.0
  0
LINE
  5
1DE
330
1F
100
AcDbEntity
  8
0
  6
Continuous
 62
     7
370
    25
100
AcDbLine
 10
79.1311449173
 20
120.2289098402
 30
0.0
 11
79.1311449173
 21
126.8789098402
 31
0.0
  0
LINE
  5
1DF
330
1F
100
AcDbEntity
  8
0
  6
Continuous
 62
     7
370
    25
100
AcDbLine
 10
166.4349924945
 20
118.8789098402
 30
0.0
 11
166.4349924945
 21
134.8789098402
 31
0.0
  0
LINE
  5
1E0
330
1F
100
AcDbEntity
  8
0
  6
Continuous
 62
     7
370
    25
100
AcDbLine
 10
184.4349924945
 20
126.8789098402
 30
0.0
 11
184.4349924945
 21
134.7667078993
 31
0.0
  0
LINE
  5
1E1
330
1F
100
AcDbEntity
  8
0
  6
Continuous
 62
     7
370
    25
100
AcDbLine
 10
184.4349924945
 20
118.9911117812
 30
0.0
 11
184.4349924945
 21
126.8789098402
 31
0.0
  0
LINE
  5
1E2
330
1F
100
AcDbEntity
  8
0
  6
Continuous
 62
     7
370
    25
100
AcDbLine
 10
190.338947133
 20
126.8789098402
 30
0.0
 11
190.338947133
 21
134.197684305
 31
0.0
  0
LINE
  5
1E3
330
1F
100
AcDbEntity
  8
0
  6
Continuous
 62
     7
370
    25
100
AcDbLine
 10
190.338947133
 20
119.5601353755
 30
0.0
 11
190.338947133
 21
126.8789098402
 31
0.0
  0
LINE
  5
1E4
330
1F
100
AcDbEntity
  8
0
  6
Continuous
 62
     7
370
    25
100
AcDbLine
 10
175.4349924945
 20
126.8789098402
 30
0.0
 11
175.4349924945
 21
134.7608637981
 31
0.0
  0
LINE
  5
1E5
330
1F
100
AcDbEntity
  8
0
  6
Continuous
 62
     7
370
    25
100
AcDbLine
 10
175.4349924945
 20
118.9969558824
 30
0.0
 11
175.4349924945
 21
126.8789098402
 31
0.0
  0
LINE
  5
1E6
330
1F
100
AcDbEntity
  8
0
  6
Continuous
 62
     7
370
    25
100
AcDbLine
 10
170.9349924945
 20
126.8789098402
 30
0.0
 11
170.9349924945
 21
134.7608637981
 31
0.0
  0
LINE
  5
1E7
330
1F
100
AcDbEntity
  8
0
  6
Continuous
 62
     7
370
    25
100
AcDbLine
 10
170.9349924945
 20
118.9969558824
 30
0.0
 11
170.9349924945
 21
126.8789098402
 31
0.0
  0
LINE
  5
1E8
330
1F
100
AcDbEntity
  8
0
  6
Continuous
 62
     7
370
    25
100
AcDbLine
 10
179.9349924945
 20
126.8789098402
 30
0.0
 11
179.9349924945
 21
134.7608637981
 31
0.0
  0
LINE
  5
1E9
330
1F
100
AcDbEntity
  8
0
  6
Continuous
 62
     7
370
    25
100
AcDbLine
 10
179.9349924945
 20
118.9969558824
 30
0.0
 11
179.9349924945
 21
126.8789098402
 31
0.0
  0
LINE
  5
1EA
330
1F
100
AcDbEntity
  8
0
  6
Continuous
 62
     7
370
    25
100
AcDbLine
 10
190.9349924945
 20
133.5289098402
 30
0.0
 11
190.9349924945
 21
120.2289098402
 31
0.0
  0
LINE
  5
1EB
330
1F
100
AcDbEntity
  8
0
  6
Continuous
 62
     7
370
    25
100
AcDbLine
 10
117.997170321
 20
126.8789098402
 30
0.0
 11
118.1311449173
 21
127.8000127991
 31
0.0
  0
LINE
  5
1EC
330
1F
100
AcDbEntity
  8
0
  6
Continuous
 62
     7
370
    25
100
AcDbLine
 10
113.3472792543
 20
126.8789098402
 30
0.0
 11
117.997170321
 21
126.8789098402
 31
0.0
  0
SPLINE
  5
1ED
330
1F
100
AcDbEntity
  8
0
  6
Continuous
 62
     7
370
    25
100
AcDbSpline
210
0.0
220
0.0
230
1.0
 70
     8
 71
     3
 72
    15
 73
    11
 74
     0
 42
0.000000001
 43
0.00000001
 40
0.0
 40
0.0
 40
0.0
 40
0.0
 40
0.1320297612399399
 40
0.2645740184078837
 40
0.3992784260596375
 40
0.5350086679185997
 40
0.6498919368826491
 40
0.7654060347253148
 40
0.882507980435099
 40
1.0
 40
1.0
 40
1.0
 40
1.0
 10
113.347279254278
 20
126.8789098402462
 30
0.0
 10
113.1843803920731
 20
127.3962673189884
 30
0.0
 10
112.8579478804722
 20
128.4329983243217
 30
0.0
 10
112.5077907452321
 20
130.0274707777899
 30
0.0
 10
112.294485803968
 20
131.6550331230272
 30
0.0
 10
112.2542896823932
 20
133.2215503970966
 30
0.0
 10
112.361558290997
 20
134.7067122908954
 30
0.0
 10
112.584390232923
 20
136.105481736628
 30
0.0
 10
112.9103005558839
 20
137.4999700620261
 30
0.0
 10
113.2014583128265
 20
138.4187540079279
 30
0.0
 10
113.347279254278
 20
138.8789098402462
 30
0.0
  0
LINE
  5
1EE
330
1F
100
AcDbEntity
  8
0
  6
Continuous
 62
     7
370
    25
100
AcDbLine
 10
113.3472792543
 20
138.8789098402
 30
0.0
 11
117.997170321
 21
138.8789098402
 31
0.0
  0
LINE
  5
1EF
330
1F
100
AcDbEntity
  8
0
  6
Continuous
 62
     7
370
    25
100
AcDbLine
 10
118.1311449173
 20
137.9578068814
 30
0.0
 11
117.997170321
 21
138.8789098402
 31
0.0
  0
LINE
  5
1F0
330
1F
100
AcDbEntity
  8
0
  6
Continuous
 62
     7
370
    25
100
AcDbLine
 10
118.1311449173
 20
137.9578068814
 30
0.0
 11
118.2651195135
 21
138.8789098402
 31
0.0
  0
LINE
  5
1F1
330
1F
100
AcDbEntity
  8
0
  6
Continuous
 62
     7
370
    25
100
AcDbLine
 10
118.2651195135
 20
138.8789098402
 30
0.0
 11
122.9150105802
 21
138.8789098402
 31
0.0
  0
SPLINE
  5
1F2
330
1F
100
AcDbEntity
  8
0
  6
Continuous
 62
     7
370
    25
100
AcDbSpline
210
0.0
220
0.0
230
1.0
 70
     8
 71
     3
 72
    15
 73
    11
 74
     0
 42
0.000000001
 43
0.00000001
 40
0.0
 40
0.0
 40
0.0
 40
0.0
 40
0.1323065044264403
 40
0.2645755999739298
 40
0.3998036789671093
 40
0.5350073556765894
 40
0.6501969475405021
 40
0.7654045076453766
 40
0.8826909144168968
 40
1.0
 40
1.0
 40
1.0
 40
1.0
 10
122.9150105802342
 20
126.8789098402462
 30
0.0
 10
123.0781696621519
 20
127.3973625694547
 30
0.0
 10
123.4044416937252
 20
128.4341214384392
 30
0.0
 10
123.7554963967451
 20
130.0306388837095
 30
0.0
 10
123.9665731822742
 20
131.6572512953894
 30
0.0
 10
124.0083704925598
 20
133.2249320367765
 30
0.0
 10
123.899911859859
 20
134.7079082307364
 30
0.0
 10
123.6776859507982
 20
136.1074615901617
 30
0.0
 10
123.3517081775119
 20
137.5006870064051
 30
0.0
 10
123.0605858271184
 20
138.4194726220232
 30
0.0
 10
122.9150105802342
 20
138.8789098402462
 30
0.0
  0
LINE
  5
1F3
330
1F
100
AcDbEntity
  8
0
  6
Continuous
 62
     7
370
    25
100
AcDbLine
 10
118.2651195135
 20
126.8789098402
 30
0.0
 11
122.9150105802
 21
126.8789098402
 31
0.0
  0
LINE
  5
1F4
330
1F
100
AcDbEntity
  8
0
  6
Continuous
 62
     7
370
    25
100
AcDbLine
 10
118.2651195135
 20
126.8789098402
 30
0.0
 11
118.1311449173
 21
127.8000127991
 31
0.0
  0
SPLINE
  5
1F5
330
1F
100
AcDbEntity
  8
0
  6
Continuous
 62
     7
370
    25
100
AcDbSpline
210
0.0
220
0.0
230
1.0
 70
     8
 71
     3
 72
    15
 73
    11
 74
     0
 42
0.000000001
 43
0.00000001
 40
0.0
 40
0.0
 40
0.0
 40
0.0
 40
0.13230650442644
 40
0.2645755999739293
 40
0.3998036789671087
 40
0.5350073556765887
 40
0.6501969475405014
 40
0.765404507645376
 40
0.8826909144168965
 40
1.0
 40
1.0
 40
1.0
 40
1.0
 10
113.347279254278
 20
114.8789098402462
 30
0.0
 10
113.1841201723602
 20
115.3973625694547
 30
0.0
 10
112.8578481407869
 20
116.4341214384392
 30
0.0
 10
112.506793437767
 20
118.0306388837095
 30
0.0
 10
112.2957166522379
 20
119.6572512953894
 30
0.0
 10
112.2539193419523
 20
121.2249320367765
 30
0.0
 10
112.3623779746531
 20
122.7079082307364
 30
0.0
 10
112.5846038837139
 20
124.1074615901617
 30
0.0
 10
112.9105816570002
 20
125.5006870064051
 30
0.0
 10
113.2017040073937
 20
126.4194726220232
 30
0.0
 10
113.347279254278
 20
126.8789098402462
 30
0.0
  0
SPLINE
  5
1F6
330
1F
100
AcDbEntity
  8
0
  6
Continuous
 62
     7
370
    25
100
AcDbSpline
210
0.0
220
0.0
230
1.0
 70
    24
 71
     3
 72
    11
 73
     7
 74
     0
 42
0.000000001
 43
0.00000001
 40
0.0
 40
0.0
 40
0.0
 40
0.0
 40
0.0074635275420162
 40
0.2645848334313303
 40
0.6304283636371345
 40
1.0
 40
1.0
 40
1.0
 40
1.0
 10
112.2776671773315
 20
114.8789098402462
 30
0.0
 10
112.2769421798549
 20
114.8789098402462
 30
0.0
 10
112.2512407490619
 20
114.8789098402462
 30
0.0
 10
112.3626714958428
 20
114.8789098402462
 30
0.0
 10
112.6752588058465
 20
114.8789098402462
 30
0.0
 10
113.1225166633246
 20
114.8789098402462
 30
0.0
 10
113.347279254278
 20
114.8789098402462
 30
0.0
  0
SPLINE
  5
1F7
330
1F
100
AcDbEntity
  8
0
  6
Continuous
 62
     7
370
    25
100
AcDbSpline
210
0.0
220
0.0
230
1.0
 70
    24
 71
     3
 72
    11
 73
     7
 74
     0
 42
0.000000001
 43
0.00000001
 40
0.0
 40
0.0
 40
0.0
 40
0.0
 40
0.3661325478993146
 40
0.7354088363564122
 40
0.9842849824267497
 40
1.0
 40
1.0
 40
1.0
 40
1.0
 10
113.347279254278
 20
138.8789098402462
 30
0.0
 10
113.1245750352926
 20
138.8789098402462
 30
0.0
 10
112.6772543819517
 20
138.8789098402462
 30
0.0
 10
112.3648192537633
 20
138.8789098402462
 30
0.0
 10
112.2541764214194
 20
138.8789098402462
 30
0.0
 10
112.2784085787278
 20
138.8789098402462
 30
0.0
 10
112.2798478134048
 20
138.8789098402462
 30
0.0
  0
LINE
  5
1F8
330
1F
100
AcDbEntity
  8
0
  6
Continuous
 62
     7
370
    25
100
AcDbLine
 10
112.1311449173
 20
115.1289098402
 30
0.0
 11
112.1311449173
 21
138.6289098402
 31
0.0
  0
SPLINE
  5
1F9
330
1F
100
AcDbEntity
  8
0
  6
Continuous
 62
     7
370
    25
100
AcDbSpline
210
0.0
220
0.0
230
1.0
 70
     8
 71
     3
 72
    15
 73
    11
 74
     0
 42
0.000000001
 43
0.00000001
 40
0.0
 40
0.0
 40
0.0
 40
0.0
 40
0.1323065044264401
 40
0.2645755999739293
 40
0.3998036789671087
 40
0.5350073556765887
 40
0.6501969475405015
 40
0.765404507645376
 40
0.8826909144168965
 40
1.0
 40
1.0
 40
1.0
 40
1.0
 10
122.9150105802342
 20
114.8789098402462
 30
0.0
 10
123.0781696621519
 20
115.3973625694547
 30
0.0
 10
123.4044416937252
 20
116.4341214384392
 30
0.0
 10
123.7554963967451
 20
118.0306388837095
 30
0.0
 10
123.9665731822742
 20
119.6572512953894
 30
0.0
 10
124.0083704925598
 20
121.2249320367765
 30
0.0
 10
123.899911859859
 20
122.7079082307363
 30
0.0
 10
123.6776859507982
 20
124.1074615901617
 30
0.0
 10
123.3517081775119
 20
125.5006870064051
 30
0.0
 10
123.0605858271184
 20
126.4194726220232
 30
0.0
 10
122.9150105802342
 20
126.8789098402462
 30
0.0
  0
SPLINE
  5
1FA
330
1F
100
AcDbEntity
  8
0
  6
Continuous
 62
     7
370
    25
100
AcDbSpline
210
0.0
220
0.0
230
1.0
 70
    24
 71
     3
 72
    11
 73
     7
 74
     0
 42
0.000000001
 43
0.00000001
 40
0.0
 40
0.0
 40
0.0
 40
0.0
 40
0.3661325478993147
 40
0.7354088363564122
 40
0.9842849824267497
 40
1.0
 40
1.0
 40
1.0
 40
1.0
 10
122.9150105802342
 20
138.8789098402462
 30
0.0
 10
123.1377147992195
 20
138.8789098402462
 30
0.0
 10
123.5850354525604
 20
138.8789098402462
 30
0.0
 10
123.8974705807488
 20
138.8789098402462
 30
0.0
 10
124.0081134130927
 20
138.8789098402462
 30
0.0
 10
123.9838812557843
 20
138.8789098402462
 30
0.0
 10
123.9824420211073
 20
138.8789098402462
 30
0.0
  0
SPLINE
  5
1FB
330
1F
100
AcDbEntity
  8
0
  6
Continuous
 62
     7
370
    25
100
AcDbSpline
210
0.0
220
0.0
230
1.0
 70
    24
 71
     3
 72
    11
 73
     7
 74
     0
 42
0.000000001
 43
0.00000001
 40
0.0
 40
0.0
 40
0.0
 40
0.0
 40
0.0074635275420162
 40
0.2645848334313303
 40
0.6304283636371345
 40
1.0
 40
1.0
 40
1.0
 40
1.0
 10
123.9846226571806
 20
114.8789098402462
 30
0.0
 10
123.9853476546572
 20
114.8789098402462
 30
0.0
 10
124.0110490854503
 20
114.8789098402462
 30
0.0
 10
123.8996183386692
 20
114.8789098402462
 30
0.0
 10
123.5870310286656
 20
114.8789098402462
 30
0.0
 10
123.1397731711875
 20
114.8789098402462
 30
0.0
 10
122.9150105802342
 20
114.8789098402462
 30
0.0
  0
LINE
  5
1FC
330
1F
100
AcDbEntity
  8
0
  6
Continuous
 62
     7
370
    25
100
AcDbLine
 10
124.1311449173
 20
115.1289098402
 30
0.0
 11
124.1311449173
 21
138.6289098402
 31
0.0
  0
LINE
  5
1FD
330
1F
100
AcDbEntity
  8
0
  6
Continuous
 62
     7
370
    25
100
AcDbLine
 10
118.1311449173
 20
125.9578068814
 30
0.0
 11
118.1311449173
 21
127.8000127991
 31
0.0
  0
LINE
  5
1FE
330
1F
100
AcDbEntity
  8
0
  6
Continuous
 62
     7
370
    25
100
AcDbLine
 10
118.1311449173
 20
125.9578068814
 30
0.0
 11
118.2651195135
 21
126.8789098402
 31
0.0
  0
LINE
  5
1FF
330
1F
100
AcDbEntity
  8
0
  6
Continuous
 62
     7
370
    25
100
AcDbLine
 10
118.1311449173
 20
125.9578068814
 30
0.0
 11
117.997170321
 21
126.8789098402
 31
0.0
  0
LINE
  5
200
330
1F
100
AcDbEntity
  8
0
  6
Continuous
 62
     7
370
    25
100
AcDbLine
 10
117.997170321
 20
114.8789098402
 30
0.0
 11
118.1311449173
 21
115.8000127991
 31
0.0
  0
LINE
  5
201
330
1F
100
AcDbEntity
  8
0
  6
Continuous
 62
     7
370
    25
100
AcDbLine
 10
113.3472792543
 20
114.8789098402
 30
0.0
 11
117.997170321
 21
114.8789098402
 31
0.0
  0
LINE
  5
202
330
1F
100
AcDbEntity
  8
0
  6
Continuous
 62
     7
370
    25
100
AcDbLine
 10
118.2651195135
 20
114.8789098402
 30
0.0
 11
122.9150105802
 21
114.8789098402
 31
0.0
  0
LINE
  5
203
330
1F
100
AcDbEntity
  8
0
  6
Continuous
 62
     7
370
    25
100
AcDbLine
 10
118.2651195135
 20
114.8789098402
 30
0.0
 11
118.1311449173
 21
115.8000127991
 31
0.0
  0
LINE
  5
204
330
1F
100
AcDbEntity
  8
0
  6
Continuous
 62
     7
370
    25
100
AcDbLine
 10
125.6311449173
 20
115.1289098402
 30
0.0
 11
125.6311449173
 21
138.6289098402
 31
0.0
  0
LINE
  5
205
330
1F
100
AcDbEntity
  8
0
  6
Continuous
 62
     7
370
    25
100
AcDbLine
 10
110.1311449173
 20
115.6289098402
 30
0.0
 11
110.1311449173
 21
138.1289098402
 31
0.0
  0
LINE
  5
206
330
1F
100
AcDbEntity
  8
0
  6
Continuous
 62
     7
370
    25
100
AcDbLine
 10
110.6311449173
 20
138.6289098402
 30
0.0
 11
110.6311449173
 21
115.1289098402
 31
0.0
  0
LINE
  5
207
330
1F
100
AcDbEntity
  8
0
  6
Continuous
 62
     7
370
    25
100
AcDbLine
 10
126.1311449173
 20
138.1289098402
 30
0.0
 11
126.1311449173
 21
115.6289098402
 31
0.0
  0
LINE
  5
208
330
1F
100
AcDbEntity
  8
0
  6
Continuous
 62
     7
370
    25
100
AcDbLine
 10
118.1311449173
 20
137.9578068814
 30
0.0
 11
118.1311449173
 21
138.8789098402
 31
0.0
  0
LINE
  5
209
330
1F
100
AcDbEntity
  8
0
  6
Continuous
 62
     7
370
    25
100
AcDbLine
 10
118.2651195135
 20
138.8789098402
 30
0.0
 11
118.1311449173
 21
138.8789098402
 31
0.0
  0
LINE
  5
20A
330
1F
100
AcDbEntity
  8
0
  6
Continuous
 62
     7
370
    25
100
AcDbLine
 10
117.997170321
 20
138.8789098402
 30
0.0
 11
118.1311449173
 21
138.8789098402
 31
0.0
  0
LINE
  5
20B
330
1F
100
AcDbEntity
  8
0
  6
Continuous
 62
     7
370
    25
100
AcDbLine
 10
118.1311449173
 20
114.8789098402
 30
0.0
 11
118.1311449173
 21
115.8000127991
 31
0.0
  0
LINE
  5
20C
330
1F
100
AcDbEntity
  8
0
  6
Continuous
 62
     7
370
    25
100
AcDbLine
 10
118.1311449173
 20
114.8789098402
 30
0.0
 11
117.997170321
 21
114.8789098402
 31
0.0
  0
LINE
  5
20D
330
1F
100
AcDbEntity
  8
0
  6
Continuous
 62
     7
370
    25
100
AcDbLine
 10
118.1311449173
 20
114.8789098402
 30
0.0
 11
118.2651195135
 21
114.8789098402
 31
0.0
  0
LINE
  5
20E
330
1F
100
AcDbEntity
  8
0
  6
Continuous
 62
     7
370
    25
100
AcDbLine
 10
152.0689670908
 20
138.8789098402
 30
0.0
 11
151.9349924945
 21
137.9578068814
 31
0.0
  0
LINE
  5
20F
330
1F
100
AcDbEntity
  8
0
  6
Continuous
 62
     7
370
    25
100
AcDbLine
 10
156.7188581575
 20
138.8789098402
 30
0.0
 11
152.0689670908
 21
138.8789098402
 31
0.0
  0
SPLINE
  5
210
330
1F
100
AcDbEntity
  8
0
  6
Continuous
 62
     7
370
    25
100
AcDbSpline
210
0.0
220
0.0
230
1.0
 70
     8
 71
     3
 72
    15
 73
    11
 74
     0
 42
0.000000001
 43
0.00000001
 40
0.0
 40
0.0
 40
0.0
 40
0.0
 40
0.1323065044264403
 40
0.2645755999739297
 40
0.3998036789671093
 40
0.5350073556765894
 40
0.6501969475405021
 40
0.7654045076453765
 40
0.8826909144168967
 40
1.0
 40
1.0
 40
1.0
 40
1.0
 10
156.7188581575276
 20
138.8789098402462
 30
0.0
 10
156.8820172394453
 20
138.3604571110377
 30
0.0
 10
157.2082892710186
 20
137.3236982420532
 30
0.0
 10
157.5593439740385
 20
135.7271807967828
 30
0.0
 10
157.7704207595677
 20
134.1005683851029
 30
0.0
 10
157.8122180698532
 20
132.5328876437159
 30
0.0
 10
157.7037594371525
 20
131.049911449756
 30
0.0
 10
157.4815335280916
 20
129.6503580903307
 30
0.0
 10
157.1555557548053
 20
128.2571326740873
 30
0.0
 10
156.8644334044119
 20
127.3383470584692
 30
0.0
 10
156.7188581575276
 20
126.8789098402462
 30
0.0
  0
LINE
  5
211
330
1F
100
AcDbEntity
  8
0
  6
Continuous
 62
     7
370
    25
100
AcDbLine
 10
156.7188581575
 20
126.8789098402
 30
0.0
 11
152.0689670908
 21
126.8789098402
 31
0.0
  0
LINE
  5
212
330
1F
100
AcDbEntity
  8
0
  6
Continuous
 62
     7
370
    25
100
AcDbLine
 10
151.9349924945
 20
127.8000127991
 30
0.0
 11
152.0689670908
 21
126.8789098402
 31
0.0
  0
LINE
  5
213
330
1F
100
AcDbEntity
  8
0
  6
Continuous
 62
     7
370
    25
100
AcDbLine
 10
151.9349924945
 20
127.8000127991
 30
0.0
 11
151.8010178983
 21
126.8789098402
 31
0.0
  0
LINE
  5
214
330
1F
100
AcDbEntity
  8
0
  6
Continuous
 62
     7
370
    25
100
AcDbLine
 10
151.8010178983
 20
126.8789098402
 30
0.0
 11
147.1511268316
 21
126.8789098402
 31
0.0
  0
SPLINE
  5
215
330
1F
100
AcDbEntity
  8
0
  6
Continuous
 62
     7
370
    25
100
AcDbSpline
210
0.0
220
0.0
230
1.0
 70
     8
 71
     3
 72
    15
 73
    11
 74
     0
 42
0.000000001
 43
0.00000001
 40
0.0
 40
0.0
 40
0.0
 40
0.0
 40
0.1323065044264403
 40
0.2645755999739297
 40
0.3998036789671092
 40
0.5350073556765893
 40
0.650196947540502
 40
0.7654045076453763
 40
0.8826909144168965
 40
0.9999999999999999
 40
0.9999999999999999
 40
0.9999999999999999
 40
0.9999999999999999
 10
147.1511268315714
 20
138.8789098402462
 30
0.0
 10
146.9879677496537
 20
138.3604571110377
 30
0.0
 10
146.6616957180804
 20
137.3236982420532
 30
0.0
 10
146.3106410150605
 20
135.7271807967828
 30
0.0
 10
146.0995642295313
 20
134.1005683851029
 30
0.0
 10
146.0577669192458
 20
132.5328876437159
 30
0.0
 10
146.1662255519465
 20
131.049911449756
 30
0.0
 10
146.3884514610074
 20
129.6503580903307
 30
0.0
 10
146.7144292342937
 20
128.2571326740872
 30
0.0
 10
147.0055515846871
 20
127.3383470584692
 30
0.0
 10
147.1511268315714
 20
126.8789098402462
 30
0.0
  0
LINE
  5
216
330
1F
100
AcDbEntity
  8
0
  6
Continuous
 62
     7
370
    25
100
AcDbLine
 10
151.8010178983
 20
138.8789098402
 30
0.0
 11
147.1511268316
 21
138.8789098402
 31
0.0
  0
LINE
  5
217
330
1F
100
AcDbEntity
  8
0
  6
Continuous
 62
     7
370
    25
100
AcDbLine
 10
151.8010178983
 20
138.8789098402
 30
0.0
 11
151.9349924945
 21
137.9578068814
 31
0.0
  0
SPLINE
  5
218
330
1F
100
AcDbEntity
  8
0
  6
Continuous
 62
     7
370
    25
100
AcDbSpline
210
0.0
220
0.0
230
1.0
 70
    24
 71
     3
 72
    11
 73
     7
 74
     0
 42
0.000000001
 43
0.00000001
 40
0.0
 40
0.0
 40
0.0
 40
0.0
 40
0.2348443336262685
 40
0.4904786049179216
 40
0.7475837673519914
 40
0.9999999999999999
 40
0.9999999999999999
 40
0.9999999999999999
 40
0.9999999999999999
 10
146.0836953906983
 20
138.8789098402462
 30
0.0
 10
146.0945820557643
 20
138.8789098402462
 30
0.0
 10
146.1173191438232
 20
138.8789098402462
 30
0.0
 10
146.3392443541443
 20
138.8789098402462
 30
0.0
 10
146.6794487966906
 20
138.8789098402462
 30
0.0
 10
146.9948683817267
 20
138.8789098402462
 30
0.0
 10
147.1511268315714
 20
138.8789098402462
 30
0.0
  0
SPLINE
  5
219
330
1F
100
AcDbEntity
  8
0
  6
Continuous
 62
     7
370
    25
100
AcDbSpline
210
0.0
220
0.0
230
1.0
 70
     8
 71
     3
 72
    15
 73
    11
 74
     0
 42
0.000000001
 43
0.00000001
 40
0.0
 40
0.0
 40
0.0
 40
0.0
 40
0.1323065044264403
 40
0.2645755999739298
 40
0.3998036789671092
 40
0.5350073556765893
 40
0.6501969475405021
 40
0.7654045076453765
 40
0.8826909144168967
 40
1.0
 40
1.0
 40
1.0
 40
1.0
 10
147.1511268315714
 20
126.8789098402462
 30
0.0
 10
146.9879677496537
 20
126.3604571110377
 30
0.0
 10
146.6616957180804
 20
125.3236982420532
 30
0.0
 10
146.3106410150605
 20
123.7271807967828
 30
0.0
 10
146.0995642295313
 20
122.100568385103
 30
0.0
 10
146.0577669192458
 20
120.5328876437159
 30
0.0
 10
146.1662255519465
 20
119.049911449756
 30
0.0
 10
146.3884514610074
 20
117.6503580903306
 30
0.0
 10
146.7144292342937
 20
116.2571326740873
 30
0.0
 10
147.0055515846871
 20
115.3383470584692
 30
0.0
 10
147.1511268315714
 20
114.8789098402462
 30
0.0
  0
SPLINE
  5
21A
330
1F
100
AcDbEntity
  8
0
  6
Continuous
 62
     7
370
    25
100
AcDbSpline
210
0.0
220
0.0
230
1.0
 70
    24
 71
     3
 72
    11
 73
     7
 74
     0
 42
0.000000001
 43
0.00000001
 40
0.0
 40
0.0
 40
0.0
 40
0.0
 40
0.2524147228692217
 40
0.5017436237333062
 40
0.7522974748568274
 40
1.0
 40
1.0
 40
1.0
 40
1.0
 10
147.1511268315714
 20
114.8789098402462
 30
0.0
 10
146.9948628330006
 20
114.8789098402462
 30
0.0
 10
146.6842451954447
 20
114.8789098402462
 30
0.0
 10
146.347835520126
 20
114.8789098402462
 30
0.0
 10
146.1211644986408
 20
114.8789098402462
 30
0.0
 10
146.0946808173872
 20
114.8789098402462
 30
0.0
 10
146.0815147546249
 20
114.8789098402462
 30
0.0
  0
LINE
  5
21B
330
1F
100
AcDbEntity
  8
0
  6
Continuous
 62
     7
370
    25
100
AcDbLine
 10
145.9349924945
 20
138.6289098402
 30
0.0
 11
145.9349924945
 21
115.1289098402
 31
0.0
  0
SPLINE
  5
21C
330
1F
100
AcDbEntity
  8
0
  6
Continuous
 62
     7
370
    25
100
AcDbSpline
210
0.0
220
0.0
230
1.0
 70
    24
 71
     3
 72
    11
 73
     7
 74
     0
 42
0.000000001
 43
0.00000001
 40
0.0
 40
0.0
 40
0.0
 40
0.0
 40
0.2524147228692215
 40
0.5017436237333059
 40
0.7522974748568272
 40
0.9999999999999999
 40
0.9999999999999999
 40
0.9999999999999999
 40
0.9999999999999999
 10
156.7188581575276
 20
114.8789098402462
 30
0.0
 10
156.8751221560984
 20
114.8789098402462
 30
0.0
 10
157.1857397936543
 20
114.8789098402462
 30
0.0
 10
157.522149468973
 20
114.8789098402462
 30
0.0
 10
157.7488204904582
 20
114.8789098402462
 30
0.0
 10
157.7753041717118
 20
114.8789098402462
 30
0.0
 10
157.788470234474
 20
114.8789098402462
 30
0.0
  0
SPLINE
  5
21D
330
1F
100
AcDbEntity
  8
0
  6
Continuous
 62
     7
370
    25
100
AcDbSpline
210
0.0
220
0.0
230
1.0
 70
     8
 71
     3
 72
    15
 73
    11
 74
     0
 42
0.000000001
 43
0.00000001
 40
0.0
 40
0.0
 40
0.0
 40
0.0
 40
0.1323065044264402
 40
0.2645755999739297
 40
0.3998036789671092
 40
0.5350073556765893
 40
0.6501969475405021
 40
0.7654045076453765
 40
0.8826909144168967
 40
1.0
 40
1.0
 40
1.0
 40
1.0
 10
156.7188581575276
 20
126.8789098402462
 30
0.0
 10
156.8820172394453
 20
126.3604571110377
 30
0.0
 10
157.2082892710186
 20
125.3236982420532
 30
0.0
 10
157.5593439740385
 20
123.7271807967828
 30
0.0
 10
157.7704207595677
 20
122.100568385103
 30
0.0
 10
157.8122180698532
 20
120.5328876437159
 30
0.0
 10
157.7037594371525
 20
119.049911449756
 30
0.0
 10
157.4815335280916
 20
117.6503580903306
 30
0.0
 10
157.1555557548053
 20
116.2571326740873
 30
0.0
 10
156.8644334044119
 20
115.3383470584692
 30
0.0
 10
156.7188581575276
 20
114.8789098402462
 30
0.0
  0
SPLINE
  5
21E
330
1F
100
AcDbEntity
  8
0
  6
Continuous
 62
     7
370
    25
100
AcDbSpline
210
0.0
220
0.0
230
1.0
 70
    24
 71
     3
 72
    11
 73
     7
 74
     0
 42
0.000000001
 43
0.00000001
 40
0.0
 40
0.0
 40
0.0
 40
0.0
 40
0.2348443336262685
 40
0.4904786049179216
 40
0.7475837673519913
 40
0.9999999999999999
 40
0.9999999999999999
 40
0.9999999999999999
 40
0.9999999999999999
 10
157.7862895984007
 20
138.8789098402462
 30
0.0
 10
157.7754029333347
 20
138.8789098402462
 30
0.0
 10
157.7526658452758
 20
138.8789098402462
 30
0.0
 10
157.5307406349547
 20
138.8789098402462
 30
0.0
 10
157.1905361924084
 20
138.8789098402462
 30
0.0
 10
156.8751166073722
 20
138.8789098402462
 30
0.0
 10
156.7188581575276
 20
138.8789098402462
 30
0.0
  0
LINE
  5
21F
330
1F
100
AcDbEntity
  8
0
  6
Continuous
 62
     7
370
    25
100
AcDbLine
 10
157.9349924945
 20
138.6289098402
 30
0.0
 11
157.9349924945
 21
115.1289098402
 31
0.0
  0
LINE
  5
220
330
1F
100
AcDbEntity
  8
0
  6
Continuous
 62
     7
370
    25
100
AcDbLine
 10
151.9349924945
 20
127.8000127991
 30
0.0
 11
151.9349924945
 21
125.9578068814
 31
0.0
  0
LINE
  5
221
330
1F
100
AcDbEntity
  8
0
  6
Continuous
 62
     7
370
    25
100
AcDbLine
 10
151.8010178983
 20
126.8789098402
 30
0.0
 11
151.9349924945
 21
125.9578068814
 31
0.0
  0
LINE
  5
222
330
1F
100
AcDbEntity
  8
0
  6
Continuous
 62
     7
370
    25
100
AcDbLine
 10
152.0689670908
 20
126.8789098402
 30
0.0
 11
151.9349924945
 21
125.9578068814
 31
0.0
  0
LINE
  5
223
330
1F
100
AcDbEntity
  8
0
  6
Continuous
 62
     7
370
    25
100
AcDbLine
 10
156.7188581575
 20
114.8789098402
 30
0.0
 11
152.0689670908
 21
114.8789098402
 31
0.0
  0
LINE
  5
224
330
1F
100
AcDbEntity
  8
0
  6
Continuous
 62
     7
370
    25
100
AcDbLine
 10
151.9349924945
 20
115.8000127991
 30
0.0
 11
152.0689670908
 21
114.8789098402
 31
0.0
  0
LINE
  5
225
330
1F
100
AcDbEntity
  8
0
  6
Continuous
 62
     7
370
    25
100
AcDbLine
 10
151.9349924945
 20
115.8000127991
 30
0.0
 11
151.8010178983
 21
114.8789098402
 31
0.0
  0
LINE
  5
226
330
1F
100
AcDbEntity
  8
0
  6
Continuous
 62
     7
370
    25
100
AcDbLine
 10
151.8010178983
 20
114.8789098402
 30
0.0
 11
147.1511268316
 21
114.8789098402
 31
0.0
  0
LINE
  5
227
330
1F
100
AcDbEntity
  8
0
  6
Continuous
 62
     7
370
    25
100
AcDbLine
 10
159.4349924945
 20
115.1289098402
 30
0.0
 11
159.4349924945
 21
138.6289098402
 31
0.0
  0
LINE
  5
228
330
1F
100
AcDbEntity
  8
0
  6
Continuous
 62
     7
370
    25
100
AcDbLine
 10
159.9349924945
 20
138.1289098402
 30
0.0
 11
159.9349924945
 21
115.6289098402
 31
0.0
  0
LINE
  5
229
330
1F
100
AcDbEntity
  8
0
  6
Continuous
 62
     7
370
    25
100
AcDbLine
 10
144.4349924945
 20
138.6289098402
 30
0.0
 11
144.4349924945
 21
115.1289098402
 31
0.0
  0
LINE
  5
22A
330
1F
100
AcDbEntity
  8
0
  6
Continuous
 62
     7
370
    25
100
AcDbLine
 10
143.9349924945
 20
115.6289098402
 30
0.0
 11
143.9349924945
 21
138.1289098402
 31
0.0
  0
LINE
  5
22B
330
1F
100
AcDbEntity
  8
0
  6
Continuous
 62
     7
370
    25
100
AcDbLine
 10
151.9349924945
 20
138.8789098402
 30
0.0
 11
151.8010178983
 21
138.8789098402
 31
0.0
  0
LINE
  5
22C
330
1F
100
AcDbEntity
  8
0
  6
Continuous
 62
     7
370
    25
100
AcDbLine
 10
151.9349924945
 20
138.8789098402
 30
0.0
 11
151.9349924945
 21
137.9578068814
 31
0.0
  0
LINE
  5
22D
330
1F
100
AcDbEntity
  8
0
  6
Continuous
 62
     7
370
    25
100
AcDbLine
 10
151.9349924945
 20
138.8789098402
 30
0.0
 11
152.0689670908
 21
138.8789098402
 31
0.0
  0
LINE
  5
22E
330
1F
100
AcDbEntity
  8
0
  6
Continuous
 62
     7
370
    25
100
AcDbLine
 10
152.0689670908
 20
114.8789098402
 30
0.0
 11
151.9349924945
 21
114.8789098402
 31
0.0
  0
LINE
  5
22F
330
1F
100
AcDbEntity
  8
0
  6
Continuous
 62
     7
370
    25
100
AcDbLine
 10
151.9349924945
 20
115.8000127991
 30
0.0
 11
151.9349924945
 21
114.8789098402
 31
0.0
  0
LINE
  5
230
330
1F
100
AcDbEntity
  8
0
  6
Continuous
 62
     7
370
    25
100
AcDbLine
 10
151.8010178983
 20
114.8789098402
 30
0.0
 11
151.9349924945
 21
114.8789098402
 31
0.0
  0
LINE
  5
231
330
1F
100
AcDbEntity
  8
0
  6
Continuous
 62
     7
370
    25
100
AcDbLine
 10
132.6598866454
 20
126.8789098402
 30
0.0
 11
134.9526839482
 21
126.8789098402
 31
0.0
  0
SPLINE
  5
232
330
1F
100
AcDbEntity
  8
0
  6
Continuous
 62
     7
370
    25
100
AcDbSpline
210
0.0
220
0.0
230
1.0
 70
     8
 71
     3
 72
    16
 73
    12
 74
     0
 42
0.000000001
 43
0.00000001
 40
0.0
 40
0.0
 40
0.0
 40
0.0
 40
0.2500000000000002
 40
0.2500000000000002
 40
0.5000000000000004
 40
0.5000000000000004
 40
0.6250000000000003
 40
0.6250000000000003
 40
0.7500000000000002
 40
0.7500000000000002
 40
1.0
 40
1.0
 40
1.0
 40
1.0
 10
132.6598866454473
 20
126.8789098402462
 30
0.0
 10
132.3605380872643
 20
127.7769555147952
 30
0.0
 10
132.1138206604027
 20
128.6815486157038
 30
0.0
 10
131.7720369280464
 20
130.5096005444121
 30
0.0
 10
131.6780980196615
 20
131.4331996228462
 30
0.0
 10
131.6770661981819
 20
132.8359991841834
 30
0.0
 10
131.7000306050383
 20
133.3057995281285
 30
0.0
 10
131.7895797313239
 20
134.2351141125355
 30
0.0
 10
131.8560735653914
 20
134.6966557595586
 30
0.0
 10
132.1128368622052
 20
136.0730635856088
 30
0.0
 10
132.3601649212256
 20
136.9797446675808
 30
0.0
 10
132.6598866454474
 20
137.8789098402462
 30
0.0
  0
LINE
  5
233
330
1F
100
AcDbEntity
  8
0
  6
Continuous
 62
     7
370
    25
100
AcDbLine
 10
132.6598866454
 20
137.8789098402
 30
0.0
 11
134.9526839482
 21
137.8789098402
 31
0.0
  0
SPLINE
  5
234
330
1F
100
AcDbEntity
  8
0
  6
Continuous
 62
     7
370
    25
100
AcDbSpline
210
0.0
220
0.0
230
1.0
 70
     8
 71
     3
 72
     8
 73
     4
 74
     0
 42
0.000000001
 43
0.00000001
 40
0.0
 40
0.0
 40
0.0
 40
0.0
 40
1.0
 40
1.0
 40
1.0
 40
1.0
 10
135.0330687059028
 20
137.3389231804523
 30
0.0
 10
135.0073277560694
 20
137.519072225129
 30
0.0
 10
134.9805062118085
 20
137.6990639009457
 30
0.0
 10
134.9526839481734
 20
137.8789098402462
 30
0.0
  0
SPLINE
  5
235
330
1F
100
AcDbEntity
  8
0
  6
Continuous
 62
     7
370
    25
100
AcDbSpline
210
0.0
220
0.0
230
1.0
 70
     8
 71
     3
 72
     8
 73
     4
 74
     0
 42
0.000000001
 43
0.00000001
 40
0.0
 40
0.0
 40
0.0
 40
0.0
 40
1.0
 40
1.0
 40
1.0
 40
1.0
 10
135.1134534636321
 20
137.8789098402462
 30
0.0
 10
135.085621790575
 20
137.6990030774858
 30
0.0
 10
135.058800730709
 20
137.5190097629774
 30
0.0
 10
135.0330687059028
 20
137.3389231804523
 30
0.0
  0
LINE
  5
236
330
1F
100
AcDbEntity
  8
0
  6
Continuous
 62
     7
370
    25
100
AcDbLine
 10
135.1134534636
 20
137.8789098402
 30
0.0
 11
137.4062507664
 21
137.8789098402
 31
0.0
  0
SPLINE
  5
237
330
1F
100
AcDbEntity
  8
0
  6
Continuous
 62
     7
370
    25
100
AcDbSpline
210
0.0
220
0.0
230
1.0
 70
     8
 71
     3
 72
    16
 73
    12
 74
     0
 42
0.000000001
 43
0.00000001
 40
0.0
 40
0.0
 40
0.0
 40
0.0
 40
0.2500000000000002
 40
0.2500000000000002
 40
0.5000000000000004
 40
0.5000000000000004
 40
0.6250000000000003
 40
0.6250000000000003
 40
0.7500000000000002
 40
0.7500000000000002
 40
1.0
 40
1.0
 40
1.0
 40
1.0
 10
137.4062507663582
 20
126.8789098402462
 30
0.0
 10
137.7055993245412
 20
127.7769555147952
 30
0.0
 10
137.9523167514028
 20
128.6815486157038
 30
0.0
 10
138.2941004837591
 20
130.5096005444121
 30
0.0
 10
138.3880393921441
 20
131.4331996228462
 30
0.0
 10
138.3890712136236
 20
132.8359991841834
 30
0.0
 10
138.3661068067672
 20
133.3057995281285
 30
0.0
 10
138.2765576804816
 20
134.2351141125355
 30
0.0
 10
138.2100638464141
 20
134.6966557595586
 30
0.0
 10
137.9533005496003
 20
136.0730635856088
 30
0.0
 10
137.7059724905799
 20
136.9797446675808
 30
0.0
 10
137.4062507663581
 20
137.8789098402462
 30
0.0
  0
LINE
  5
238
330
1F
100
AcDbEntity
  8
0
  6
Continuous
 62
     7
370
    25
100
AcDbLine
 10
135.1134534636
 20
126.8789098402
 30
0.0
 11
137.4062507664
 21
126.8789098402
 31
0.0
  0
SPLINE
  5
239
330
1F
100
AcDbEntity
  8
0
  6
Continuous
 62
     7
370
    25
100
AcDbSpline
210
0.0
220
0.0
230
1.0
 70
     8
 71
     3
 72
     8
 73
     4
 74
     0
 42
0.000000001
 43
0.00000001
 40
0.0
 40
0.0
 40
0.0
 40
0.0
 40
1.0
 40
1.0
 40
1.0
 40
1.0
 10
135.0330687059028
 20
127.4188965000401
 30
0.0
 10
135.0588096557361
 20
127.2387474553633
 30
0.0
 10
135.085631199997
 20
127.0587557795467
 30
0.0
 10
135.1134534636321
 20
126.8789098402462
 30
0.0
  0
SPLINE
  5
23A
330
1F
100
AcDbEntity
  8
0
  6
Continuous
 62
     7
370
    25
100
AcDbSpline
210
0.0
220
0.0
230
1.0
 70
     8
 71
     3
 72
     8
 73
     4
 74
     0
 42
0.000000001
 43
0.00000001
 40
0.0
 40
0.0
 40
0.0
 40
0.0
 40
1.0
 40
1.0
 40
1.0
 40
1.0
 10
134.9526839481734
 20
126.8789098402462
 30
0.0
 10
134.9805156212305
 20
127.0588166030066
 30
0.0
 10
135.0073366810966
 20
127.238809917515
 30
0.0
 10
135.0330687059028
 20
127.4188965000401
 30
0.0
  0
SPLINE
  5
23B
330
1F
100
AcDbEntity
  8
0
  6
Continuous
 62
     7
370
    25
100
AcDbSpline
210
0.0
220
0.0
230
1.0
 70
     8
 71
     3
 72
    16
 73
    12
 74
     0
 42
0.000000001
 43
0.00000001
 40
0.0
 40
0.0
 40
0.0
 40
0.0
 40
0.2500000000000002
 40
0.2500000000000002
 40
0.5000000000000003
 40
0.5000000000000003
 40
0.6250000000000003
 40
0.6250000000000003
 40
0.7500000000000002
 40
0.7500000000000002
 40
1.0
 40
1.0
 40
1.0
 40
1.0
 10
137.4062507663582
 20
115.8789098402462
 30
0.0
 10
137.7055993245412
 20
116.7769555147953
 30
0.0
 10
137.9523167514028
 20
117.6815486157038
 30
0.0
 10
138.2941004837591
 20
119.5096005444121
 30
0.0
 10
138.3880393921441
 20
120.4331996228462
 30
0.0
 10
138.3890712136236
 20
121.8359991841834
 30
0.0
 10
138.3661068067672
 20
122.3057995281285
 30
0.0
 10
138.2765576804816
 20
123.2351141125355
 30
0.0
 10
138.2100638464141
 20
123.6966557595585
 30
0.0
 10
137.9533005496003
 20
125.0730635856088
 30
0.0
 10
137.7059724905799
 20
125.9797446675808
 30
0.0
 10
137.4062507663581
 20
126.8789098402462
 30
0.0
  0
SPLINE
  5
23C
330
1F
100
AcDbEntity
  8
0
  6
Continuous
 62
     7
370
    25
100
AcDbSpline
210
0.0
220
0.0
230
1.0
 70
    24
 71
     3
 72
    10
 73
     6
 74
     0
 42
0.000000001
 43
0.00000001
 40
0.0
 40
0.0
 40
0.0
 40
0.0
 40
0.3810548970659027
 40
0.7657226776321222
 40
1.0
 40
1.0
 40
1.0
 40
1.0
 10
137.4062507663579
 20
137.8789098402462
 30
0.0
 10
137.6155891057753
 20
137.8789098402462
 30
0.0
 10
138.0362505774531
 20
137.8789098402462
 30
0.0
 10
138.3459253047786
 20
137.8789098402462
 30
0.0
 10
138.3739299802883
 20
137.8789098402462
 30
0.0
 10
138.3845300486322
 20
137.8789098402462
 30
0.0
  0
SPLINE
  5
23D
330
1F
100
AcDbEntity
  8
0
  6
Continuous
 62
     7
370
    25
100
AcDbSpline
210
0.0
220
0.0
230
1.0
 70
    24
 71
     3
 72
    10
 73
     6
 74
     0
 42
0.000000001
 43
0.00000001
 40
0.0
 40
0.0
 40
0.0
 40
0.0
 40
0.2342731316444541
 40
0.6149864780052532
 40
0.9999999999999999
 40
0.9999999999999999
 40
0.9999999999999999
 40
0.9999999999999999
 10
138.3824188814814
 20
115.8789098402462
 30
0.0
 10
138.3726735486379
 20
115.8789098402462
 30
0.0
 10
138.34709123845
 20
115.8789098402462
 30
0.0
 10
138.0376695765618
 20
115.8789098402462
 30
0.0
 10
137.6175102146304
 20
115.8789098402463
 30
0.0
 10
137.4062507663579
 20
115.8789098402463
 30
0.0
  0
LINE
  5
23E
330
1F
100
AcDbEntity
  8
0
  6
Continuous
 62
     7
370
    25
100
AcDbLine
 10
138.5330687059
 20
116.1289098402
 30
0.0
 11
138.5330687059
 21
137.6289098402
 31
0.0
  0
SPLINE
  5
23F
330
1F
100
AcDbEntity
  8
0
  6
Continuous
 62
     7
370
    25
100
AcDbSpline
210
0.0
220
0.0
230
1.0
 70
    24
 71
     3
 72
    10
 73
     6
 74
     0
 42
0.000000001
 43
0.00000001
 40
0.0
 40
0.0
 40
0.0
 40
0.0
 40
0.234273131644454
 40
0.6149864780052532
 40
0.9999999999999999
 40
0.9999999999999999
 40
0.9999999999999999
 40
0.9999999999999999
 10
131.6837185303241
 20
115.8789098402462
 30
0.0
 10
131.6934638631676
 20
115.8789098402462
 30
0.0
 10
131.7190461733555
 20
115.8789098402462
 30
0.0
 10
132.0284678352437
 20
115.8789098402462
 30
0.0
 10
132.4486271971751
 20
115.8789098402463
 30
0.0
 10
132.6598866454476
 20
115.8789098402463
 30
0.0
  0
SPLINE
  5
240
330
1F
100
AcDbEntity
  8
0
  6
Continuous
 62
     7
370
    25
100
AcDbSpline
210
0.0
220
0.0
230
1.0
 70
    24
 71
     3
 72
    10
 73
     6
 74
     0
 42
0.000000001
 43
0.00000001
 40
0.0
 40
0.0
 40
0.0
 40
0.0
 40
0.3810548970659027
 40
0.7657226776321222
 40
1.0
 40
1.0
 40
1.0
 40
1.0
 10
132.6598866454476
 20
137.8789098402462
 30
0.0
 10
132.4505483060302
 20
137.8789098402462
 30
0.0
 10
132.0298868343524
 20
137.8789098402462
 30
0.0
 10
131.7202121070269
 20
137.8789098402462
 30
0.0
 10
131.6922074315172
 20
137.8789098402462
 30
0.0
 10
131.6816073631734
 20
137.8789098402462
 30
0.0
  0
SPLINE
  5
241
330
1F
100
AcDbEntity
  8
0
  6
Continuous
 62
     7
370
    25
100
AcDbSpline
210
0.0
220
0.0
230
1.0
 70
     8
 71
     3
 72
    16
 73
    12
 74
     0
 42
0.000000001
 43
0.00000001
 40
0.0
 40
0.0
 40
0.0
 40
0.0
 40
0.2500000000000002
 40
0.2500000000000002
 40
0.5000000000000003
 40
0.5000000000000003
 40
0.6250000000000003
 40
0.6250000000000003
 40
0.7500000000000002
 40
0.7500000000000002
 40
1.0
 40
1.0
 40
1.0
 40
1.0
 10
132.6598866454473
 20
115.8789098402462
 30
0.0
 10
132.3605380872643
 20
116.7769555147953
 30
0.0
 10
132.1138206604027
 20
117.6815486157038
 30
0.0
 10
131.7720369280464
 20
119.5096005444121
 30
0.0
 10
131.6780980196615
 20
120.4331996228462
 30
0.0
 10
131.677066198182
 20
121.8359991841834
 30
0.0
 10
131.7000306050383
 20
122.3057995281285
 30
0.0
 10
131.7895797313239
 20
123.2351141125355
 30
0.0
 10
131.8560735653915
 20
123.6966557595585
 30
0.0
 10
132.1128368622052
 20
125.0730635856088
 30
0.0
 10
132.3601649212256
 20
125.9797446675808
 30
0.0
 10
132.6598866454474
 20
126.8789098402462
 30
0.0
  0
LINE
  5
242
330
1F
100
AcDbEntity
  8
0
  6
Continuous
 62
     7
370
    25
100
AcDbLine
 10
131.5330687059
 20
116.1289098402
 30
0.0
 11
131.5330687059
 21
137.6289098402
 31
0.0
  0
SPLINE
  5
243
330
1F
100
AcDbEntity
  8
0
  6
Continuous
 62
     7
370
    25
100
AcDbSpline
210
0.0
220
0.0
230
1.0
 70
     8
 71
     3
 72
     8
 73
     4
 74
     0
 42
0.000000001
 43
0.00000001
 40
0.0
 40
0.0
 40
0.0
 40
0.0
 40
1.0
 40
1.0
 40
1.0
 40
1.0
 10
135.0330687059028
 20
126.3389231804523
 30
0.0
 10
135.0073277560694
 20
126.519072225129
 30
0.0
 10
134.9805062118085
 20
126.6990639009456
 30
0.0
 10
134.9526839481734
 20
126.8789098402462
 30
0.0
  0
LINE
  5
244
330
1F
100
AcDbEntity
  8
0
  6
Continuous
 62
     7
370
    25
100
AcDbLine
 10
135.0330687059
 20
126.3389231805
 30
0.0
 11
135.0330687059
 21
127.4188965
 31
0.0
  0
SPLINE
  5
245
330
1F
100
AcDbEntity
  8
0
  6
Continuous
 62
     7
370
    25
100
AcDbSpline
210
0.0
220
0.0
230
1.0
 70
     8
 71
     3
 72
     8
 73
     4
 74
     0
 42
0.000000001
 43
0.00000001
 40
0.0
 40
0.0
 40
0.0
 40
0.0
 40
1.0
 40
1.0
 40
1.0
 40
1.0
 10
135.1134534636321
 20
126.8789098402462
 30
0.0
 10
135.085621790575
 20
126.6990030774858
 30
0.0
 10
135.058800730709
 20
126.5190097629774
 30
0.0
 10
135.0330687059028
 20
126.3389231804523
 30
0.0
  0
LINE
  5
246
330
1F
100
AcDbEntity
  8
0
  6
Continuous
 62
     7
370
    25
100
AcDbLine
 10
132.6598866454
 20
115.8789098402
 30
0.0
 11
134.9526839482
 21
115.8789098402
 31
0.0
  0
LINE
  5
247
330
1F
100
AcDbEntity
  8
0
  6
Continuous
 62
     7
370
    25
100
AcDbLine
 10
135.1134534636
 20
115.8789098402
 30
0.0
 11
137.4062507664
 21
115.8789098402
 31
0.0
  0
SPLINE
  5
248
330
1F
100
AcDbEntity
  8
0
  6
Continuous
 62
     7
370
    25
100
AcDbSpline
210
0.0
220
0.0
230
1.0
 70
     8
 71
     3
 72
     8
 73
     4
 74
     0
 42
0.000000001
 43
0.00000001
 40
0.0
 40
0.0
 40
0.0
 40
0.0
 40
1.0
 40
1.0
 40
1.0
 40
1.0
 10
135.0330687059028
 20
116.4188965000401
 30
0.0
 10
135.0588096557361
 20
116.2387474553634
 30
0.0
 10
135.085631199997
 20
116.0587557795468
 30
0.0
 10
135.1134534636321
 20
115.8789098402463
 30
0.0
  0
SPLINE
  5
249
330
1F
100
AcDbEntity
  8
0
  6
Continuous
 62
     7
370
    25
100
AcDbSpline
210
0.0
220
0.0
230
1.0
 70
     8
 71
     3
 72
     8
 73
     4
 74
     0
 42
0.000000001
 43
0.00000001
 40
0.0
 40
0.0
 40
0.0
 40
0.0
 40
1.0
 40
1.0
 40
1.0
 40
1.0
 10
134.9526839481734
 20
115.8789098402463
 30
0.0
 10
134.9805156212305
 20
116.0588166030066
 30
0.0
 10
135.0073366810966
 20
116.238809917515
 30
0.0
 10
135.0330687059028
 20
116.4188965000401
 30
0.0
  0
LINE
  5
24A
330
1F
100
AcDbEntity
  8
0
  6
Continuous
 62
     7
370
    25
100
AcDbLine
 10
127.6330687059
 20
116.4014098402
 30
0.0
 11
127.6330687059
 21
137.3564098402
 31
0.0
  0
LINE
  5
24B
330
1F
100
AcDbEntity
  8
0
  6
Continuous
 62
     7
370
    25
100
AcDbLine
 10
129.0330687059
 20
135.9564098402
 30
0.0
 11
129.0330687059
 21
117.8014098402
 31
0.0
  0
LINE
  5
24C
330
1F
100
AcDbEntity
  8
0
  6
Continuous
 62
     7
370
    25
100
AcDbLine
 10
142.4330687059
 20
137.3564098402
 30
0.0
 11
142.4330687059
 21
116.4014098402
 31
0.0
  0
LINE
  5
24D
330
1F
100
AcDbEntity
  8
0
  6
Continuous
 62
     7
370
    25
100
AcDbLine
 10
141.0330687059
 20
117.8014098402
 30
0.0
 11
141.0330687059
 21
135.9564098402
 31
0.0
  0
LINE
  5
24E
330
1F
100
AcDbEntity
  8
0
  6
Continuous
 62
     7
370
    25
100
AcDbLine
 10
135.0330687059
 20
115.8789098402
 30
0.0
 11
135.0330687059
 21
116.4188965
 31
0.0
  0
SPLINE
  5
24F
330
1F
100
AcDbEntity
  8
0
  6
Continuous
 62
     7
370
    25
100
AcDbSpline
210
0.0
220
0.0
230
1.0
 70
    24
 71
     3
 72
     8
 73
     4
 74
     0
 42
0.000000001
 43
0.00000001
 40
0.0
 40
0.0
 40
0.0
 40
0.0
 40
1.0
 40
1.0
 40
1.0
 40
1.0
 10
135.0330687059028
 20
115.8789098402463
 30
0.0
 10
135.0073282153332
 20
115.8789098402463
 30
0.0
 10
134.9805066956837
 20
115.8789098402463
 30
0.0
 10
134.9526839481734
 20
115.8789098402463
 30
0.0
  0
SPLINE
  5
250
330
1F
100
AcDbEntity
  8
0
  6
Continuous
 62
     7
370
    25
100
AcDbSpline
210
0.0
220
0.0
230
1.0
 70
    24
 71
     3
 72
     8
 73
     4
 74
     0
 42
0.000000001
 43
0.00000001
 40
0.0
 40
0.0
 40
0.0
 40
0.0
 40
1.0
 40
1.0
 40
1.0
 40
1.0
 10
135.1134534636321
 20
115.8789098402463
 30
0.0
 10
135.0856204100762
 20
115.8789098402463
 30
0.0
 10
135.0587994223059
 20
115.8789098402463
 30
0.0
 10
135.0330687059028
 20
115.8789098402463
 30
0.0
  0
SPLINE
  5
251
330
1F
100
AcDbEntity
  8
0
  6
Continuous
 62
     7
370
    25
100
AcDbSpline
210
0.0
220
0.0
230
1.0
 70
    24
 71
     3
 72
     8
 73
     4
 74
     0
 42
0.000000001
 43
0.00000001
 40
0.0
 40
0.0
 40
0.0
 40
0.0
 40
1.0
 40
1.0
 40
1.0
 40
1.0
 10
134.9526839481734
 20
137.8789098402462
 30
0.0
 10
134.9805170017293
 20
137.8789098402462
 30
0.0
 10
135.0073379894996
 20
137.8789098402462
 30
0.0
 10
135.0330687059028
 20
137.8789098402462
 30
0.0
  0
LINE
  5
252
330
1F
100
AcDbEntity
  8
0
  6
Continuous
 62
     7
370
    25
100
AcDbLine
 10
135.0330687059
 20
137.3389231805
 30
0.0
 11
135.0330687059
 21
137.8789098402
 31
0.0
  0
SPLINE
  5
253
330
1F
100
AcDbEntity
  8
0
  6
Continuous
 62
     7
370
    25
100
AcDbSpline
210
0.0
220
0.0
230
1.0
 70
    24
 71
     3
 72
     8
 73
     4
 74
     0
 42
0.000000001
 43
0.00000001
 40
0.0
 40
0.0
 40
0.0
 40
0.0
 40
1.0
 40
1.0
 40
1.0
 40
1.0
 10
135.0330687059028
 20
137.8789098402462
 30
0.0
 10
135.0588091964724
 20
137.8789098402462
 30
0.0
 10
135.0856307161218
 20
137.8789098402462
 30
0.0
 10
135.1134534636321
 20
137.8789098402462
 30
0.0
  0
LINE
  5
254
330
1F
100
AcDbEntity
  8
0
  6
Continuous
 62
     8
370
    25
100
AcDbLine
 10
85.5196825065
 20
118.8917708876
 30
0.0
 11
85.5196825065
 21
134.8660487928
 31
0.0
  0
LINE
  5
255
330
1F
100
AcDbEntity
  8
0
  6
Continuous
 62
     8
370
    25
100
AcDbLine
 10
99.0147050185
 20
118.89831649
 30
0.0
 11
99.0147050185
 21
134.8595031905
 31
0.0
  0
LINE
  5
256
330
1F
100
AcDbEntity
  8
0
  6
Continuous
 62
     8
370
    25
100
AcDbLine
 10
94.5147050185
 20
118.89831649
 30
0.0
 11
94.5147050185
 21
134.8595031905
 31
0.0
  0
LINE
  5
257
330
1F
100
AcDbEntity
  8
0
  6
Continuous
 62
     8
370
    25
100
AcDbLine
 10
90.0147050185
 20
118.89831649
 30
0.0
 11
90.0147050185
 21
134.8595031905
 31
0.0
  0
LINE
  5
258
330
1F
100
AcDbEntity
  8
0
  6
Continuous
 62
     8
370
    25
100
AcDbLine
 10
184.5464549053
 20
126.8789098402
 30
0.0
 11
184.5464549053
 21
118.8917708876
 31
0.0
  0
LINE
  5
259
330
1F
100
AcDbEntity
  8
0
  6
Continuous
 62
     8
370
    25
100
AcDbLine
 10
184.5464549053
 20
134.8660487928
 30
0.0
 11
184.5464549053
 21
126.8789098402
 31
0.0
  0
LINE
  5
25A
330
1F
100
AcDbEntity
  8
0
  6
Continuous
 62
     8
370
    25
100
AcDbLine
 10
175.5514323933
 20
126.8789098402
 30
0.0
 11
175.5514323933
 21
118.89831649
 31
0.0
  0
LINE
  5
25B
330
1F
100
AcDbEntity
  8
0
  6
Continuous
 62
     8
370
    25
100
AcDbLine
 10
175.5514323933
 20
134.8595031905
 30
0.0
 11
175.5514323933
 21
126.8789098402
 31
0.0
  0
LINE
  5
25C
330
1F
100
AcDbEntity
  8
0
  6
Continuous
 62
     8
370
    25
100
AcDbLine
 10
171.0514323933
 20
126.8789098402
 30
0.0
 11
171.0514323933
 21
118.89831649
 31
0.0
  0
LINE
  5
25D
330
1F
100
AcDbEntity
  8
0
  6
Continuous
 62
     8
370
    25
100
AcDbLine
 10
171.0514323933
 20
134.8595031905
 30
0.0
 11
171.0514323933
 21
126.8789098402
 31
0.0
  0
LINE
  5
25E
330
1F
100
AcDbEntity
  8
0
  6
Continuous
 62
     8
370
    25
100
AcDbLine
 10
180.0514323933
 20
126.8789098402
 30
0.0
 11
180.0514323933
 21
118.89831649
 31
0.0
  0
LINE
  5
25F
330
1F
100
AcDbEntity
  8
0
  6
Continuous
 62
     8
370
    25
100
AcDbLine
 10
180.0514323933
 20
134.8595031905
 30
0.0
 11
180.0514323933
 21
126.8789098402
 31
0.0
  0
LINE
  5
260
330
1F
100
AcDbEntity
  8
0
  6
CENTERX2
 62
     7
370
    18
100
AcDbLine
 10
146.9349924945
 20
126.8789098402
 30
0.0
 11
77.2522663304
 21
126.8789098402
 31
0.0
  0
LINE
  5
261
330
1F
100
AcDbEntity
  8
0
  6
CENTERX2
 62
     7
370
    18
100
AcDbLine
 10
192.9349924945
 20
126.8789098402
 30
0.0
 11
146.9349924945
 21
126.8789098402
 31
0.0
  0
ENDSEC
  0
SECTION
  2
OBJECTS
  0
DICTIONARY
  5
C
330
0
100
AcDbDictionary
281
     1
  3
ACAD_GROUP
350
D
  3
ACAD_LAYOUT
350
1A
  3
ACAD_MLINESTYLE
350
17
  3
ACAD_PLOTSETTINGS
350
19
  3
ACAD_PLOTSTYLENAME
350
E
  3
ACAD_SCALELIST
350
47
  0
DICTIONARY
  5
D
102
{ACAD_REACTORS
330
C
102
}
330
C
100
AcDbDictionary
281
     1
  0
DICTIONARY
  5
1A
102
{ACAD_REACTORS
330
C
102
}
330
C
100
AcDbDictionary
281
     1
  3
Layout1
350
1E
  3
Layout2
350
26
  3
Model
350
22
  0
DICTIONARY
  5
17
102
{ACAD_REACTORS
330
C
102
}
330
C
100
AcDbDictionary
281
     1
  3
Standard
350
18
  0
DICTIONARY
  5
19
102
{ACAD_REACTORS
330
C
102
}
330
C
100
AcDbDictionary
281
     1
  0
ACDBDICTIONARYWDFLT
  5
E
102
{ACAD_REACTORS
330
C
102
}
330
C
100
AcDbDictionary
281
     1
  3
Normal
350
F
100
AcDbDictionaryWithDefault
340
F
  0
DICTIONARY
  5
47
102
{ACAD_REACTORS
330
C
102
}
330
C
100
AcDbDictionary
281
     1
  3
A0
350
48
  3
A1
350
49
  3
A2
350
4A
  3
A3
350
4B
  3
A4
350
4C
  3
A5
350
4D
  3
A6
350
4E
  3
A7
350
4F
  3
A8
350
50
  3
A9
350
51
  3
B0
350
52
  3
B1
350
53
  3
B2
350
54
  3
B3
350
55
  3
B4
350
56
  3
B5
350
57
  3
B6
350
58
  3
B7
350
59
  3
B8
350
5A
  3
B9
350
5B
  3
C0
350
5C
  3
C1
350
5D
  3
C2
350
5E
  3
C3
350
5F
  3
C4
350
60
  3
C5
350
61
  3
C6
350
62
  3
C7
350
63
  3
C8
350
64
  3
C9
350
65
  3
D0
350
66
  3
D1
350
67
  3
D2
350
68
  0
LAYOUT
  5
1E
102
{ACAD_REACTORS
330
1A
102
}
330
1A
100
AcDbPlotSettings
  1

  2
none_device
  4

  6

 40
0.0
 41
0.0
 42
0.0
 43
0.0
 44
0.0
 45
0.0
 46
0.0
 47
0.0
 48
0.0
 49
0.0
140
0.0
141
0.0
142
1.0
143
1.0
 70
   688
 72
     1
 73
     0
 74
     5
  7

 75
    16
147
1.0
148
0.0
149
0.0
100
AcDbLayout
  1
Layout1
 70
     1
 71
     1
 10
0.0
 20
0.0
 11
420.0
 21
297.0
 12
0.0
 22
0.0
 32
0.0
 14
1.0000000000E+20
 24
1.0000000000E+20
 34
1.0000000000E+20
 15
-1.0000000000E+20
 25
-1.0000000000E+20
 35
-1.0000000000E+20
146
0.0
 13
0.0
 23
0.0
 33
0.0
 16
1.0
 26
0.0
 36
0.0
 17
0.0
 27
1.0
 37
0.0
 76
     0
330
1B
  0
LAYOUT
  5
26
102
{ACAD_REACTORS
330
1A
102
}
330
1A
100
AcDbPlotSettings
  1

  2
none_device
  4

  6

 40
0.0
 41
0.0
 42
0.0
 43
0.0
 44
0.0
 45
0.0
 46
0.0
 47
0.0
 48
0.0
 49
0.0
140
0.0
141
0.0
142
1.0
143
1.0
 70
   688
 72
     1
 73
     0
 74
     5
  7

 75
    16
147
1.0
148
0.0
149
0.0
100
AcDbLayout
  1
Layout2
 70
     1
 71
     2
 10
0.0
 20
0.0
 11
0.0
 21
0.0
 12
0.0
 22
0.0
 32
0.0
 14
0.0
 24
0.0
 34
0.0
 15
0.0
 25
0.0
 35
0.0
146
0.0
 13
0.0
 23
0.0
 33
0.0
 16
1.0
 26
0.0
 36
0.0
 17
0.0
 27
1.0
 37
0.0
 76
     0
330
23
  0
LAYOUT
  5
22
102
{ACAD_REACTORS
330
1A
102
}
330
1A
100
AcDbPlotSettings
  1

  2
none_device
  4
Letter_(8.50_x_11.00_Inches)
  6

 40
6.35
 41
6.35
 42
6.35000508
 43
6.35000508
 44
215.9
 45
279.4
 46
0.0
 47
0.0
 48
0.0
 49
0.0
140
0.0
141
0.0
142
1.0
143
1.0
 70
  1712
 72
     1
 73
     0
 74
     0
  7

 75
     0
147
1.0
148
0.0
149
0.0
100
AcDbLayout
  1
Model
 70
     1
 71
     0
 10
0.0
 20
0.0
 11
431.8
 21
279.4
 12
0.0
 22
0.0
 32
0.0
 14
0.0
 24
0.0
 34
0.0
 15
431.8
 25
279.4
 35
0.0
146
0.0
 13
0.0
 23
0.0
 33
0.0
 16
1.0
 26
0.0
 36
0.0
 17
0.0
 27
1.0
 37
0.0
 76
     0
330
1F
331
29
  0
MLINESTYLE
  5
18
102
{ACAD_REACTORS
330
17
102
}
330
17
100
AcDbMlineStyle
  2
Standard
 70
     0
  3

 62
   256
 51
90.0
 52
90.0
 71
     2
 49
0.5
 62
   256
  6
BYLAYER
 49
-0.5
 62
   256
  6
BYLAYER
  0
ACDBPLACEHOLDER
  5
F
102
{ACAD_REACTORS
330
E
102
}
330
E
  0
SCALE
  5
48
102
{ACAD_REACTORS
330
47
102
}
330
47
100
AcDbScale
 70
     0
300
1:1
140
1.0
141
1.0
290
     1
  0
SCALE
  5
49
102
{ACAD_REACTORS
330
47
102
}
330
47
100
AcDbScale
 70
     0
300
1:2
140
1.0
141
2.0
290
     0
  0
SCALE
  5
4A
102
{ACAD_REACTORS
330
47
102
}
330
47
100
AcDbScale
 70
     0
300
1:4
140
1.0
141
4.0
290
     0
  0
SCALE
  5
4B
102
{ACAD_REACTORS
330
47
102
}
330
47
100
AcDbScale
 70
     0
300
1:5
140
1.0
141
5.0
290
     0
  0
SCALE
  5
4C
102
{ACAD_REACTORS
330
47
102
}
330
47
100
AcDbScale
 70
     0
300
1:8
140
1.0
141
8.0
290
     0
  0
SCALE
  5
4D
102
{ACAD_REACTORS
330
47
102
}
330
47
100
AcDbScale
 70
     0
300
1:10
140
1.0
141
10.0
290
     0
  0
SCALE
  5
4E
102
{ACAD_REACTORS
330
47
102
}
330
47
100
AcDbScale
 70
     0
300
1:16
140
1.0
141
16.0
290
     0
  0
SCALE
  5
4F
102
{ACAD_REACTORS
330
47
102
}
330
47
100
AcDbScale
 70
     0
300
1:20
140
1.0
141
20.0
290
     0
  0
SCALE
  5
50
102
{ACAD_REACTORS
330
47
102
}
330
47
100
AcDbScale
 70
     0
300
1:30
140
1.0
141
30.0
290
     0
  0
SCALE
  5
51
102
{ACAD_REACTORS
330
47
102
}
330
47
100
AcDbScale
 70
     0
300
1:40
140
1.0
141
40.0
290
     0
  0
SCALE
  5
52
102
{ACAD_REACTORS
330
47
102
}
330
47
100
AcDbScale
 70
     0
300
1:50
140
1.0
141
50.0
290
     0
  0
SCALE
  5
53
102
{ACAD_REACTORS
330
47
102
}
330
47
100
AcDbScale
 70
     0
300
1:100
140
1.0
141
100.0
290
     0
  0
SCALE
  5
54
102
{ACAD_REACTORS
330
47
102
}
330
47
100
AcDbScale
 70
     0
300
2:1
140
2.0
141
1.0
290
     0
  0
SCALE
  5
55
102
{ACAD_REACTORS
330
47
102
}
330
47
100
AcDbScale
 70
     0
300
4:1
140
4.0
141
1.0
290
     0
  0
SCALE
  5
56
102
{ACAD_REACTORS
330
47
102
}
330
47
100
AcDbScale
 70
     0
300
8:1
140
8.0
141
1.0
290
     0
  0
SCALE
  5
57
102
{ACAD_REACTORS
330
47
102
}
330
47
100
AcDbScale
 70
     0
300
10:1
140
10.0
141
1.0
290
     0
  0
SCALE
  5
58
102
{ACAD_REACTORS
330
47
102
}
330
47
100
AcDbScale
 70
     0
300
100:1
140
100.0
141
1.0
290
     0
  0
SCALE
  5
59
102
{ACAD_REACTORS
330
47
102
}
330
47
100
AcDbScale
 70
     0
300
1/128" = 1'-0"
140
0.0078125
141
12.0
290
     0
  0
SCALE
  5
5A
102
{ACAD_REACTORS
330
47
102
}
330
47
100
AcDbScale
 70
     0
300
1/64" = 1'-0"
140
0.015625
141
12.0
290
     0
  0
SCALE
  5
5B
102
{ACAD_REACTORS
330
47
102
}
330
47
100
AcDbScale
 70
     0
300
1/32" = 1'-0"
140
0.03125
141
12.0
290
     0
  0
SCALE
  5
5C
102
{ACAD_REACTORS
330
47
102
}
330
47
100
AcDbScale
 70
     0
300
1/16" = 1'-0"
140
0.0625
141
12.0
290
     0
  0
SCALE
  5
5D
102
{ACAD_REACTORS
330
47
102
}
330
47
100
AcDbScale
 70
     0
300
3/32" = 1'-0"
140
0.09375
141
12.0
290
     0
  0
SCALE
  5
5E
102
{ACAD_REACTORS
330
47
102
}
330
47
100
AcDbScale
 70
     0
300
1/8" = 1'-0"
140
0.125
141
12.0
290
     0
  0
SCALE
  5
5F
102
{ACAD_REACTORS
330
47
102
}
330
47
100
AcDbScale
 70
     0
300
3/16" = 1'-0"
140
0.1875
141
12.0
290
     0
  0
SCALE
  5
60
102
{ACAD_REACTORS
330
47
102
}
330
47
100
AcDbScale
 70
     0
300
1/4" = 1'-0"
140
0.25
141
12.0
290
     0
  0
SCALE
  5
61
102
{ACAD_REACTORS
330
47
102
}
330
47
100
AcDbScale
 70
     0
300
3/8" = 1'-0"
140
0.375
141
12.0
290
     0
  0
SCALE
  5
62
102
{ACAD_REACTORS
330
47
102
}
330
47
100
AcDbScale
 70
     0
300
1/2" = 1'-0"
140
0.5
141
12.0
290
     0
  0
SCALE
  5
63
102
{ACAD_REACTORS
330
47
102
}
330
47
100
AcDbScale
 70
     0
300
3/4" = 1'-0"
140
0.75
141
12.0
290
     0
  0
SCALE
  5
64
102
{ACAD_REACTORS
330
47
102
}
330
47
100
AcDbScale
 70
     0
300
1" = 1'-0"
140
1.0
141
12.0
290
     0
  0
SCALE
  5
65
102
{ACAD_REACTORS
330
47
102
}
330
47
100
AcDbScale
 70
     0
300
1-1/2" = 1'-0"
140
1.5
141
12.0
290
     0
  0
SCALE
  5
66
102
{ACAD_REACTORS
330
47
102
}
330
47
100
AcDbScale
 70
     0
300
3" = 1'-0"
140
3.0
141
12.0
290
     0
  0
SCALE
  5
67
102
{ACAD_REACTORS
330
47
102
}
330
47
100
AcDbScale
 70
     0
300
6" = 1'-0"
140
6.0
141
12.0
290
     0
  0
SCALE
  5
68
102
{ACAD_REACTORS
330
47
102
}
330
47
100
AcDbScale
 70
     0
300
1'-0" = 1'-0"
140
12.0
141
12.0
290
     0
  0
ENDSEC
  0
EOF
