  0
SECTION
  2
HEADER
  9
$ACADVER
  1
AC1015
  9
$ACADMAINTVER
 70
     6
  9
$DWGCODEPAGE
  3
DOS932
  9
$INSBASE
 10
0.0
 20
0.0
 30
0.0
  9
$EXTMIN
 10
0.0
 20
0.0
 30
0.0
  9
$EXTMAX
 10
431.8
 20
279.4
 30
0.0
  9
$LIMMIN
 10
0.0
 20
0.0
  9
$LIMMAX
 10
431.8
 20
279.4
  9
$ORTHOMODE
 70
     0
  9
$REGENMODE
 70
     1
  9
$FILLMODE
 70
     1
  9
$QTEXTMODE
 70
     0
  9
$MIRRTEXT
 70
     1
  9
$LTSCALE
 40
1.0
  9
$ATTMODE
 70
     1
  9
$TEXTSIZE
 40
3.5
  9
$TRACEWID
 40
1.0
  9
$TEXTSTYLE
  7
Standard
  9
$CLAYER
  8
0
  9
$CELTYPE
  6
ByLayer
  9
$CECOLOR
 62
   256
  9
$CELTSCALE
 40
1.0
  9
$DISPSILH
 70
     0
  9
$DIMSCALE
 40
1.0
  9
$DIMASZ
 40
3.302
  9
$DIMEXO
 40
1.0
  9
$DIMDLI
 40
3.75
  9
$DIMRND
 40
0.0
  9
$DIMDLE
 40
0.0
  9
$DIMEXE
 40
1.0
  9
$DIMTP
 40
0.0
  9
$DIMTM
 40
0.0
  9
$DIMTXT
 40
3.5
  9
$DIMCEN
 40
2.5
  9
$DIMTSZ
 40
0.0
  9
$DIMTOL
 70
     0
  9
$DIMLIM
 70
     0
  9
$DIMTIH
 70
     1
  9
$DIMTOH
 70
     1
  9
$DIMSE1
 70
     0
  9
$DIMSE2
 70
     0
  9
$DIMTAD
 70
     1
  9
$DIMZIN
 70
     1
  9
$DIMBLK
  1

  9
$DIMASO
 70
     1
  9
$DIMSHO
 70
     1
  9
$DIMPOST
  1

  9
$DIMAPOST
  1

  9
$DIMALT
 70
     0
  9
$DIMALTD
 70
     3
  9
$DIMALTF
 40
0.0393700787
  9
$DIMLFAC
 40
1.0
  9
$DIMTOFL
 70
     1
  9
$DIMTVP
 40
0.0
  9
$DIMTIX
 70
     0
  9
$DIMSOXD
 70
     0
  9
$DIMSAH
 70
     0
  9
$DIMBLK1
  1

  9
$DIMBLK2
  1

  9
$DIMSTYLE
  2
ISO-25
  9
$DIMCLRD
 70
     0
  9
$DIMCLRE
 70
     0
  9
$DIMCLRT
 70
     0
  9
$DIMTFAC
 40
1.0
  9
$DIMGAP
 40
1.524
  9
$DIMJUST
 70
     0
  9
$DIMSD1
 70
     0
  9
$DIMSD2
 70
     0
  9
$DIMTOLJ
 70
     0
  9
$DIMTZIN
 70
     1
  9
$DIMALTZ
 70
     0
  9
$DIMALTTZ
 70
     0
  9
$DIMUPT
 70
     0
  9
$DIMDEC
 70
     2
  9
$DIMTDEC
 70
     2
  9
$DIMALTU
 70
     2
  9
$DIMALTTD
 70
     3
  9
$DIMTXSTY
  7
Standard
  9
$DIMAUNIT
 70
     0
  9
$DIMADEC
 70
     2
  9
$DIMALTRND
 40
0.0
  9
$DIMAZIN
 70
     0
  9
$DIMDSEP
 70
    44
  9
$DIMATFIT
 70
     3
  9
$DIMFRAC
 70
     0
  9
$DIMLDRBLK
  1

  9
$DIMLUNIT
 70
     2
  9
$DIMLWD
 70
    -2
  9
$DIMLWE
 70
    -2
  9
$DIMTMOVE
 70
     0
  9
$LUNITS
 70
     2
  9
$LUPREC
 70
     2
  9
$SKETCHINC
 40
1.0
  9
$FILLETRAD
 40
10.0
  9
$AUNITS
 70
     0
  9
$AUPREC
 70
     2
  9
$MENU
  1
.
  9
$ELEVATION
 40
0.0
  9
$PELEVATION
 40
0.0
  9
$THICKNESS
 40
0.0
  9
$LIMCHECK
 70
     0
  9
$CHAMFERA
 40
0.0
  9
$CHAMFERB
 40
0.0
  9
$CHAMFERC
 40
0.0
  9
$CHAMFERD
 40
0.0
  9
$SKPOLY
 70
     0
  9
$TDCREATE
 40
2459486.645421285
  9
$TDUCREATE
 40
2459486.270421285
  9
$TDUPDATE
 40
2459486.645421875
  9
$TDUUPDATE
 40
2459486.270421875
  9
$TDINDWG
 40
0.0000000116
  9
$TDUSRTIMER
 40
0.0000000116
  9
$USRTIMER
 70
     1
  9
$ANGBASE
 50
0.0
  9
$ANGDIR
 70
     0
  9
$PDMODE
 70
     0
  9
$PDSIZE
 40
-1.0
  9
$PLINEWID
 40
0.0
  9
$SPLFRAME
 70
     0
  9
$SPLINETYPE
 70
     6
  9
$SPLINESEGS
 70
     8
  9
$HANDSEED
  5
20E
  9
$SURFTAB1
 70
     6
  9
$SURFTAB2
 70
     6
  9
$SURFTYPE
 70
     6
  9
$SURFU
 70
     6
  9
$SURFV
 70
     6
  9
$UCSBASE
  2

  9
$UCSNAME
  2

  9
$UCSORG
 10
0.0
 20
0.0
 30
0.0
  9
$UCSXDIR
 10
1.0
 20
0.0
 30
0.0
  9
$UCSYDIR
 10
0.0
 20
1.0
 30
0.0
  9
$UCSORTHOREF
  2

  9
$UCSORTHOVIEW
 70
     0
  9
$UCSORGTOP
 10
0.0
 20
0.0
 30
0.0
  9
$UCSORGBOTTOM
 10
0.0
 20
0.0
 30
0.0
  9
$UCSORGLEFT
 10
0.0
 20
0.0
 30
0.0
  9
$UCSORGRIGHT
 10
0.0
 20
0.0
 30
0.0
  9
$UCSORGFRONT
 10
0.0
 20
0.0
 30
0.0
  9
$UCSORGBACK
 10
0.0
 20
0.0
 30
0.0
  9
$PUCSBASE
  2

  9
$PUCSNAME
  2

  9
$PUCSORG
 10
0.0
 20
0.0
 30
0.0
  9
$PUCSXDIR
 10
1.0
 20
0.0
 30
0.0
  9
$PUCSYDIR
 10
0.0
 20
1.0
 30
0.0
  9
$PUCSORTHOREF
  2

  9
$PUCSORTHOVIEW
 70
     0
  9
$PUCSORGTOP
 10
0.0
 20
0.0
 30
0.0
  9
$PUCSORGBOTTOM
 10
0.0
 20
0.0
 30
0.0
  9
$PUCSORGLEFT
 10
0.0
 20
0.0
 30
0.0
  9
$PUCSORGRIGHT
 10
0.0
 20
0.0
 30
0.0
  9
$PUCSORGFRONT
 10
0.0
 20
0.0
 30
0.0
  9
$PUCSORGBACK
 10
0.0
 20
0.0
 30
0.0
  9
$USERI1
 70
     0
  9
$USERI2
 70
     0
  9
$USERI3
 70
     0
  9
$USERI4
 70
     0
  9
$USERI5
 70
     0
  9
$USERR1
 40
0.0
  9
$USERR2
 40
0.0
  9
$USERR3
 40
0.0
  9
$USERR4
 40
0.0
  9
$USERR5
 40
0.0
  9
$WORLDVIEW
 70
     1
  9
$SHADEDGE
 70
     3
  9
$SHADEDIF
 70
    70
  9
$TILEMODE
 70
     1
  9
$MAXACTVP
 70
    64
  9
$PINSBASE
 10
0.0
 20
0.0
 30
0.0
  9
$PLIMCHECK
 70
     0
  9
$PEXTMIN
 10
1.0000000000E+20
 20
1.0000000000E+20
 30
1.0000000000E+20
  9
$PEXTMAX
 10
-1.0000000000E+20
 20
-1.0000000000E+20
 30
-1.0000000000E+20
  9
$PLIMMIN
 10
0.0
 20
0.0
  9
$PLIMMAX
 10
420.0
 20
297.0
  9
$UNITMODE
 70
     0
  9
$VISRETAIN
 70
     1
  9
$PLINEGEN
 70
     0
  9
$PSLTSCALE
 70
     1
  9
$TREEDEPTH
 70
  3020
  9
$CMLSTYLE
  2
Standard
  9
$CMLJUST
 70
     0
  9
$CMLSCALE
 40
20.0
  9
$PROXYGRAPHICS
 70
     1
  9
$MEASUREMENT
 70
     1
  9
$CELWEIGHT
370
    -1
  9
$ENDCAPS
280
     0
  9
$JOINSTYLE
280
     0
  9
$LWDISPLAY
290
     1
  9
$INSUNITS
 70
     4
  9
$HYPERLINKBASE
  1

  9
$STYLESHEET
  1

  9
$XEDIT
290
     1
  9
$CEPSNTYPE
380
     0
  9
$PSTYLEMODE
290
     1
  9
$FINGERPRINTGUID
  2
{2D056208-6FF1-4751-ABFA-72D5E90D8BE8}
  9
$VERSIONGUID
  2
{FAEB1C32-E019-11D5-929B-00C0DF256EC4}
  9
$EXTNAMES
290
     1
  9
$PSVPSCALE
 40
0.0
  9
$OLESTARTUP
290
     0
  0
ENDSEC
  0
SECTION
  2
CLASSES
  0
CLASS
  1
ACDBDICTIONARYWDFLT
  2
AcDbDictionaryWithDefault
  3
ObjectDBX Classes
 90
        0
280
     0
281
     0
  0
CLASS
  1
VISUALSTYLE
  2
AcDbVisualStyle
  3
ObjectDBX Classes
 90
     4095
280
     0
281
     0
  0
CLASS
  1
MATERIAL
  2
AcDbMaterial
  3
ObjectDBX Classes
 90
     1153
280
     0
281
     0
  0
CLASS
  1
SCALE
  2
AcDbScale
  3
ObjectDBX Classes
 90
     1153
280
     0
281
     0
  0
CLASS
  1
TABLESTYLE
  2
AcDbTableStyle
  3
ObjectDBX Classes
 90
     4095
280
     0
281
     0
  0
CLASS
  1
MLEADERSTYLE
  2
AcDbMLeaderStyle
  3
ACDB_MLEADERSTYLE_CLASS
 90
     4095
280
     0
281
     0
  0
CLASS
  1
SUN
  2
AcDbSun
  3
SCENEOE
 90
     1153
280
     0
281
     0
  0
CLASS
  1
ACDBPLACEHOLDER
  2
AcDbPlaceHolder
  3
ObjectDBX Classes
 90
        0
280
     0
281
     0
  0
CLASS
  1
LAYOUT
  2
AcDbLayout
  3
ObjectDBX Classes
 90
        0
280
     0
281
     0
  0
ENDSEC
  0
SECTION
  2
TABLES
  0
TABLE
  2
VPORT
  5
8
330
0
100
AcDbSymbolTable
 70
     1
  0
VPORT
  5
29
330
8
100
AcDbSymbolTableRecord
100
AcDbViewportTableRecord
  2
*Active
 70
     0
 10
0.0
 20
0.0
 11
1.0
 21
1.0
 12
215.9
 22
139.7
 13
0.0
 23
0.0
 14
10.0
 24
10.0
 15
10.0
 25
10.0
 16
0.0
 26
0.0
 36
1.0
 17
0.0
 27
0.0
 37
0.0
 40
279.4
 41
1.5454545455
 42
50.0
 43
0.0
 44
0.0
 50
0.0
 51
0.0
 71
     0
 72
  2000
 73
     1
 74
     3
 75
     0
 76
     0
 77
     0
 78
     0
281
     0
 65
     1
110
0.0
120
0.0
130
0.0
111
1.0
121
0.0
131
0.0
112
0.0
122
1.0
132
0.0
 79
     0
146
0.0
  0
ENDTAB
  0
TABLE
  2
LTYPE
  5
5
330
0
100
AcDbSymbolTable
 70
     6
  0
LTYPE
  5
14
330
5
100
AcDbSymbolTableRecord
100
AcDbLinetypeTableRecord
  2
ByBlock
 70
     0
  3

 72
    65
 73
     0
 40
0.0
  0
LTYPE
  5
15
330
5
100
AcDbSymbolTableRecord
100
AcDbLinetypeTableRecord
  2
ByLayer
 70
     0
  3

 72
    65
 73
     0
 40
0.0
  0
LTYPE
  5
16
330
5
100
AcDbSymbolTableRecord
100
AcDbLinetypeTableRecord
  2
Continuous
 70
     0
  3
Solid line
 72
    65
 73
     0
 40
0.0
  0
LTYPE
  5
6E
330
5
100
AcDbSymbolTableRecord
100
AcDbLinetypeTableRecord
  2
HIDDEN
 70
     0
  3
Hidden __ __ __ __ __ __ __ __ __ __ __ __ __ __
 72
    65
 73
     2
 40
1.905
 49
1.27
 74
     0
 49
-0.635
 74
     0
  0
LTYPE
  5
6F
330
5
100
AcDbSymbolTableRecord
100
AcDbLinetypeTableRecord
  2
PHANTOM
 70
     0
  3
Phantom ______  __  __  ______  __  __  ______
 72
    65
 73
     6
 40
12.7
 49
6.35
 74
     0
 49
-1.27
 74
     0
 49
1.27
 74
     0
 49
-1.27
 74
     0
 49
1.27
 74
     0
 49
-1.27
 74
     0
  0
LTYPE
  5
70
330
5
100
AcDbSymbolTableRecord
100
AcDbLinetypeTableRecord
  2
CENTER
 70
     0
  3
Center ____ _ ____ _ ____ _ ____ _ ____ _ ____
 72
    65
 73
     4
 40
10.16
 49
6.35
 74
     0
 49
-1.27
 74
     0
 49
1.27
 74
     0
 49
-1.27
 74
     0
  0
LTYPE
  5
71
330
5
100
AcDbSymbolTableRecord
100
AcDbLinetypeTableRecord
  2
CENTERX2
 70
     0
  3
Center (2x) ________  __  ________  __  _____
 72
    65
 73
     4
 40
20.32
 49
12.7
 74
     0
 49
-2.54
 74
     0
 49
2.54
 74
     0
 49
-2.54
 74
     0
  0
LTYPE
  5
72
330
5
100
AcDbSymbolTableRecord
100
AcDbLinetypeTableRecord
  2
DOT2
 70
     0
  3
Dot (.5x) ........................................
 72
    65
 73
     2
 40
0.635
 49
0.0
 74
     0
 49
-0.635
 74
     0
  0
ENDTAB
  0
TABLE
  2
LAYER
  5
2
330
0
100
AcDbSymbolTable
 70
     1
  0
LAYER
  5
10
330
2
100
AcDbSymbolTableRecord
100
AcDbLayerTableRecord
  2
0
 70
     0
 62
     7
  6
Continuous
370
    -3
390
F
  0
ENDTAB
  0
TABLE
  2
STYLE
  5
3
330
0
100
AcDbSymbolTable
 70
     2
  0
STYLE
  5
11
330
3
100
AcDbSymbolTableRecord
100
AcDbTextStyleTableRecord
  2
Standard
 70
     0
 40
0.0
 41
1.0
 50
0.0
 71
     0
 42
3.5
  3
txt
  4
bigfont
  0
STYLE
  5
73
330
3
100
AcDbSymbolTableRecord
100
AcDbTextStyleTableRecord
  2
SLDTEXTSTYLE0
 70
     0
 40
0.0
 41
0.7
 50
0.0
 71
     0
 42
3.5
  3
TXT
  4
bigfont
  0
ENDTAB
  0
TABLE
  2
VIEW
  5
6
330
0
100
AcDbSymbolTable
 70
     0
  0
ENDTAB
  0
TABLE
  2
UCS
  5
7
330
0
100
AcDbSymbolTable
 70
     0
  0
ENDTAB
  0
TABLE
  2
APPID
  5
9
330
0
100
AcDbSymbolTable
 70
     1
  0
APPID
  5
12
330
9
100
AcDbSymbolTableRecord
100
AcDbRegAppTableRecord
  2
ACAD
 70
     0
  0
ENDTAB
  0
TABLE
  2
DIMSTYLE
  5
A
330
0
100
AcDbSymbolTable
 70
     1
100
AcDbDimStyleTable
  0
DIMSTYLE
105
27
330
A
100
AcDbSymbolTableRecord
100
AcDbDimStyleTableRecord
  2
ISO-25
 70
     0
 41
2.5
 42
0.625
 43
3.75
 44
1.25
 73
     0
 74
     0
 77
     1
 78
     8
140
2.5
141
2.5
143
0.0393700787
147
0.625
171
     3
172
     1
178
     0
271
     2
272
     2
274
     3
278
    44
283
     0
284
     8
340
11
  0
ENDTAB
  0
TABLE
  2
BLOCK_RECORD
  5
1
330
0
100
AcDbSymbolTable
 70
     2
  0
BLOCK_RECORD
  5
1F
330
1
100
AcDbSymbolTableRecord
100
AcDbBlockTableRecord
  2
*Model_Space
340
22
  0
BLOCK_RECORD
  5
1B
330
1
100
AcDbSymbolTableRecord
100
AcDbBlockTableRecord
  2
*Paper_Space
340
1E
  0
BLOCK_RECORD
  5
23
330
1
100
AcDbSymbolTableRecord
100
AcDbBlockTableRecord
  2
*Paper_Space0
340
26
  0
BLOCK_RECORD
  5
152
330
1
100
AcDbSymbolTableRecord
100
AcDbBlockTableRecord
  2
SW_CENTERMARKSYMBOL_0
340
0
102
{BLKREFS
331
15D
102
}
  0
ENDTAB
  0
ENDSEC
  0
SECTION
  2
BLOCKS
  0
BLOCK
  5
20
330
1F
100
AcDbEntity
  8
0
100
AcDbBlockBegin
  2
*Model_Space
 70
     0
 10
0.0
 20
0.0
 30
0.0
  3
*Model_Space
  1

  0
ENDBLK
  5
21
330
1F
100
AcDbEntity
  8
0
100
AcDbBlockEnd
  0
BLOCK
  5
1C
330
1B
100
AcDbEntity
 67
     1
  8
0
100
AcDbBlockBegin
  2
*Paper_Space
 70
     0
 10
0.0
 20
0.0
 30
0.0
  3
*Paper_Space
  1

  0
ENDBLK
  5
1D
330
1B
100
AcDbEntity
 67
     1
  8
0
100
AcDbBlockEnd
  0
BLOCK
  5
24
330
23
100
AcDbEntity
  8
0
100
AcDbBlockBegin
  2
*Paper_Space0
 70
     0
 10
0.0
 20
0.0
 30
0.0
  3
*Paper_Space0
  1

  0
ENDBLK
  5
25
330
23
100
AcDbEntity
  8
0
100
AcDbBlockEnd
  0
BLOCK
  5
153
330
152
100
AcDbEntity
  8
0
100
AcDbBlockBegin
  2
SW_CENTERMARKSYMBOL_0
 70
     0
 10
0.0
 20
0.0
 30
0.0
  3
SW_CENTERMARKSYMBOL_0
  1

  0
LINE
  5
155
330
152
100
AcDbEntity
  8
0
  6
Continuous
 62
     0
370
    18
100
AcDbLine
 10
0.0
 20
0.0
 30
0.0
 11
0.0
 21
2.5
 31
0.0
  0
LINE
  5
156
330
152
100
AcDbEntity
  8
0
  6
Continuous
 62
     0
370
    18
100
AcDbLine
 10
0.0
 20
0.0
 30
0.0
 11
-2.5
 21
0.0
 31
0.0
  0
LINE
  5
157
330
152
100
AcDbEntity
  8
0
  6
Continuous
 62
     0
370
    18
100
AcDbLine
 10
0.0
 20
0.0
 30
0.0
 11
0.0
 21
-2.5
 31
0.0
  0
LINE
  5
158
330
152
100
AcDbEntity
  8
0
  6
Continuous
 62
     0
370
    18
100
AcDbLine
 10
0.0
 20
0.0
 30
0.0
 11
2.5
 21
0.0
 31
0.0
  0
LINE
  5
159
330
152
100
AcDbEntity
  8
0
  6
Continuous
 62
     0
370
    18
100
AcDbLine
 10
0.0
 20
5.0
 30
0.0
 11
0.0
 21
11.85
 31
0.0
  0
LINE
  5
15A
330
152
100
AcDbEntity
  8
0
  6
Continuous
 62
     0
370
    18
100
AcDbLine
 10
-5.0
 20
0.0
 30
0.0
 11
-11.85
 21
0.0
 31
0.0
  0
LINE
  5
15B
330
152
100
AcDbEntity
  8
0
  6
Continuous
 62
     0
370
    18
100
AcDbLine
 10
0.0
 20
-5.0
 30
0.0
 11
0.0
 21
-11.85
 31
0.0
  0
LINE
  5
15C
330
152
100
AcDbEntity
  8
0
  6
Continuous
 62
     0
370
    18
100
AcDbLine
 10
5.0
 20
0.0
 30
0.0
 11
11.85
 21
0.0
 31
0.0
  0
ENDBLK
  5
154
330
152
100
AcDbEntity
  8
0
100
AcDbBlockEnd
  0
ENDSEC
  0
SECTION
  2
ENTITIES
  0
MTEXT
  5
74
330
1F
100
AcDbEntity
  8
0
  6
Continuous
 62
     7
370
     0
100
AcDbMText
 10
192.2098391137
 20
107.7171946204
 30
0.0
 40
4.2333333333
 41
0.0
 71
     1
 72
     1
  1
HS-2310R
  7
SLDTEXTSTYLE0
 73
     1
 44
1.0
  0
LINE
  5
75
330
1F
100
AcDbEntity
  8
0
  6
Continuous
 62
     7
370
    25
100
AcDbLine
 10
167.8393701403
 20
78.114089598
 30
0.0
 11
171.8393701403
 21
78.864089598
 31
0.0
  0
LINE
  5
76
330
1F
100
AcDbEntity
  8
0
  6
Continuous
 62
     7
370
    25
100
AcDbLine
 10
171.8393701403
 20
87.864089598
 30
0.0
 11
167.8393701403
 21
88.614089598
 31
0.0
  0
LINE
  5
77
330
1F
100
AcDbEntity
  8
0
  6
Continuous
 62
     7
370
    25
100
AcDbLine
 10
163.3393701403
 20
78.114089598
 30
0.0
 11
167.8393701403
 21
78.114089598
 31
0.0
  0
LINE
  5
78
330
1F
100
AcDbEntity
  8
0
  6
Continuous
 62
     7
370
    25
100
AcDbLine
 10
167.8393701403
 20
88.614089598
 30
0.0
 11
163.3393701403
 21
88.614089598
 31
0.0
  0
LINE
  5
79
330
1F
100
AcDbEntity
  8
0
  6
Continuous
 62
     7
370
    25
100
AcDbLine
 10
171.8393701403
 20
78.114089598
 30
0.0
 11
175.8393701403
 21
78.864089598
 31
0.0
  0
LINE
  5
7A
330
1F
100
AcDbEntity
  8
0
  6
Continuous
 62
     7
370
    25
100
AcDbLine
 10
175.8393701403
 20
87.864089598
 30
0.0
 11
171.8393701403
 21
88.614089598
 31
0.0
  0
LINE
  5
7B
330
1F
100
AcDbEntity
  8
0
  6
Continuous
 62
     7
370
    25
100
AcDbLine
 10
175.8393701403
 20
78.114089598
 30
0.0
 11
179.8393701403
 21
78.864089598
 31
0.0
  0
LINE
  5
7C
330
1F
100
AcDbEntity
  8
0
  6
Continuous
 62
     7
370
    25
100
AcDbLine
 10
179.8393701403
 20
87.864089598
 30
0.0
 11
175.8393701403
 21
88.614089598
 31
0.0
  0
LINE
  5
7D
330
1F
100
AcDbEntity
  8
0
  6
Continuous
 62
     7
370
    25
100
AcDbLine
 10
183.8393701403
 20
78.114089598
 30
0.0
 11
189.3822272831
 21
78.8069467408
 31
0.0
  0
LINE
  5
7E
330
1F
100
AcDbEntity
  8
0
  6
Continuous
 62
     7
370
    25
100
AcDbLine
 10
189.3822272831
 20
87.9212324551
 30
0.0
 11
183.8393701403
 21
88.614089598
 31
0.0
  0
LINE
  5
7F
330
1F
100
AcDbEntity
  8
0
  6
Continuous
 62
     7
370
    25
100
AcDbLine
 10
179.8393701403
 20
78.114089598
 30
0.0
 11
183.8393701403
 21
78.864089598
 31
0.0
  0
LINE
  5
80
330
1F
100
AcDbEntity
  8
0
  6
Continuous
 62
     7
370
    25
100
AcDbLine
 10
183.8393701403
 20
87.864089598
 30
0.0
 11
179.8393701403
 21
88.614089598
 31
0.0
  0
LINE
  5
81
330
1F
100
AcDbEntity
  8
0
  6
Continuous
 62
     7
370
    25
100
AcDbLine
 10
189.3822272831
 20
78.8069467408
 30
0.0
 11
189.8393701403
 21
79.264089598
 31
0.0
  0
LINE
  5
82
330
1F
100
AcDbEntity
  8
0
  6
Continuous
 62
     7
370
    25
100
AcDbLine
 10
189.8393701403
 20
87.464089598
 30
0.0
 11
189.3822272831
 21
87.9212324551
 31
0.0
  0
LINE
  5
83
330
1F
100
AcDbEntity
  8
0
  6
Continuous
 62
     7
370
    25
100
AcDbLine
 10
125.7871886128
 20
88.614089598
 30
0.0
 11
121.2871886128
 21
88.614089598
 31
0.0
  0
LINE
  5
84
330
1F
100
AcDbEntity
  8
0
  6
Continuous
 62
     7
370
    25
100
AcDbLine
 10
121.2871886128
 20
78.114089598
 30
0.0
 11
125.7871886128
 21
78.114089598
 31
0.0
  0
LINE
  5
85
330
1F
100
AcDbEntity
  8
0
  6
Continuous
 62
     7
370
    25
100
AcDbLine
 10
121.2871886128
 20
88.614089598
 30
0.0
 11
117.2871886128
 21
87.864089598
 31
0.0
  0
LINE
  5
86
330
1F
100
AcDbEntity
  8
0
  6
Continuous
 62
     7
370
    25
100
AcDbLine
 10
117.2871886128
 20
78.864089598
 30
0.0
 11
121.2871886128
 21
78.114089598
 31
0.0
  0
LINE
  5
87
330
1F
100
AcDbEntity
  8
0
  6
Continuous
 62
     7
370
    25
100
AcDbLine
 10
117.2871886128
 20
88.614089598
 30
0.0
 11
113.2871886128
 21
87.864089598
 31
0.0
  0
LINE
  5
88
330
1F
100
AcDbEntity
  8
0
  6
Continuous
 62
     7
370
    25
100
AcDbLine
 10
113.2871886128
 20
78.864089598
 30
0.0
 11
117.2871886128
 21
78.114089598
 31
0.0
  0
LINE
  5
89
330
1F
100
AcDbEntity
  8
0
  6
Continuous
 62
     7
370
    25
100
AcDbLine
 10
113.2871886128
 20
88.614089598
 30
0.0
 11
109.2871886128
 21
87.864089598
 31
0.0
  0
LINE
  5
8A
330
1F
100
AcDbEntity
  8
0
  6
Continuous
 62
     7
370
    25
100
AcDbLine
 10
109.2871886128
 20
78.864089598
 30
0.0
 11
113.2871886128
 21
78.114089598
 31
0.0
  0
LINE
  5
8B
330
1F
100
AcDbEntity
  8
0
  6
Continuous
 62
     7
370
    25
100
AcDbLine
 10
109.2871886128
 20
88.614089598
 30
0.0
 11
105.2871886128
 21
87.864089598
 31
0.0
  0
LINE
  5
8C
330
1F
100
AcDbEntity
  8
0
  6
Continuous
 62
     7
370
    25
100
AcDbLine
 10
105.2871886128
 20
78.864089598
 30
0.0
 11
109.2871886128
 21
78.114089598
 31
0.0
  0
LINE
  5
8D
330
1F
100
AcDbEntity
  8
0
  6
Continuous
 62
     7
370
    25
100
AcDbLine
 10
105.2871886128
 20
88.614089598
 30
0.0
 11
99.74433147
 21
87.9212324551
 31
0.0
  0
LINE
  5
8E
330
1F
100
AcDbEntity
  8
0
  6
Continuous
 62
     7
370
    25
100
AcDbLine
 10
99.74433147
 20
78.8069467408
 30
0.0
 11
105.2871886128
 21
78.114089598
 31
0.0
  0
LINE
  5
8F
330
1F
100
AcDbEntity
  8
0
  6
Continuous
 62
     7
370
    25
100
AcDbLine
 10
99.74433147
 20
87.9212324551
 30
0.0
 11
99.2871886128
 21
87.464089598
 31
0.0
  0
LINE
  5
90
330
1F
100
AcDbEntity
  8
0
  6
Continuous
 62
     7
370
    25
100
AcDbLine
 10
99.2871886128
 20
79.264089598
 30
0.0
 11
99.74433147
 21
78.8069467408
 31
0.0
  0
LINE
  5
91
330
1F
100
AcDbEntity
  8
0
  6
Continuous
 62
     7
370
    25
100
AcDbLine
 10
128.7222969292
 20
94.3337447126
 30
0.0
 11
127.7871886128
 21
92.714089598
 31
0.0
  0
LINE
  5
92
330
1F
100
AcDbEntity
  8
0
  6
Continuous
 62
     7
370
    25
100
AcDbLine
 10
127.7871886128
 20
74.014089598
 30
0.0
 11
128.7222969292
 21
72.3944344834
 31
0.0
  0
LINE
  5
93
330
1F
100
AcDbEntity
  8
0
  6
Continuous
 62
     7
370
    25
100
AcDbLine
 10
136.8520802964
 20
72.3944344834
 30
0.0
 11
137.7871886128
 21
74.014089598
 31
0.0
  0
LINE
  5
94
330
1F
100
AcDbEntity
  8
0
  6
Continuous
 62
     7
370
    25
100
AcDbLine
 10
137.7871886128
 20
92.714089598
 30
0.0
 11
136.8520802964
 21
94.3337447126
 31
0.0
  0
LINE
  5
95
330
1F
100
AcDbEntity
  8
0
  6
Continuous
 62
     7
370
    25
100
AcDbLine
 10
137.7871886128
 20
74.014089598
 30
0.0
 11
139.4871886128
 21
74.014089598
 31
0.0
  0
LINE
  5
96
330
1F
100
AcDbEntity
  8
0
  6
Continuous
 62
     7
370
    25
100
AcDbLine
 10
139.4871886128
 20
92.714089598
 30
0.0
 11
137.7871886128
 21
92.714089598
 31
0.0
  0
ARC
  5
97
330
1F
100
AcDbEntity
  8
0
  6
Continuous
 62
     7
370
    25
100
AcDbCircle
 10
126.0871886128
 20
74.314089598
 30
0.0
 40
0.2999999999999972
100
AcDbArc
 50
180.0
 51
270.0
  0
ARC
  5
98
330
1F
100
AcDbEntity
  8
0
  6
Continuous
 62
     7
370
    25
100
AcDbCircle
 10
126.0871886128
 20
92.414089598
 30
0.0
 40
0.2999999999999972
100
AcDbArc
 50
90.0
 51
180.0
  0
ARC
  5
99
330
1F
100
AcDbEntity
  8
0
  6
Continuous
 62
     7
370
    25
100
AcDbCircle
 10
139.4871886128
 20
92.414089598
 30
0.0
 40
0.2999999999999972
100
AcDbArc
 50
0.0
 51
90.0
  0
ARC
  5
9A
330
1F
100
AcDbEntity
  8
0
  6
Continuous
 62
     7
370
    25
100
AcDbCircle
 10
139.4871886128
 20
74.314089598
 30
0.0
 40
0.2999999999999972
100
AcDbArc
 50
270.0
 51
0.0
  0
LINE
  5
9B
330
1F
100
AcDbEntity
  8
0
  6
Continuous
 62
     7
370
    25
100
AcDbLine
 10
127.7871886128
 20
92.714089598
 30
0.0
 11
126.0871886128
 21
92.714089598
 31
0.0
  0
LINE
  5
9C
330
1F
100
AcDbEntity
  8
0
  6
Continuous
 62
     7
370
    25
100
AcDbLine
 10
126.0871886128
 20
74.014089598
 30
0.0
 11
127.7871886128
 21
74.014089598
 31
0.0
  0
LINE
  5
9D
330
1F
100
AcDbEntity
  8
0
  6
Continuous
 62
     7
370
    25
100
AcDbLine
 10
132.7871886128
 20
72.6944344834
 30
0.0
 11
132.943358728
 21
72.3944344834
 31
0.0
  0
LINE
  5
9E
330
1F
100
AcDbEntity
  8
0
  6
Continuous
 62
     7
370
    25
100
AcDbLine
 10
132.6310184977
 20
72.3944344834
 30
0.0
 11
132.7871886128
 21
72.6944344834
 31
0.0
  0
LINE
  5
9F
330
1F
100
AcDbEntity
  8
0
  6
Continuous
 62
     7
370
    25
100
AcDbLine
 10
132.943358728
 20
94.3337447126
 30
0.0
 11
132.7871886128
 21
94.0337447126
 31
0.0
  0
LINE
  5
A0
330
1F
100
AcDbEntity
  8
0
  6
Continuous
 62
     7
370
    25
100
AcDbLine
 10
132.7871886128
 20
94.0337447126
 30
0.0
 11
132.6310184977
 21
94.3337447126
 31
0.0
  0
LINE
  5
A1
330
1F
100
AcDbEntity
  8
0
  6
Continuous
 62
     7
370
    25
100
AcDbLine
 10
160.4042618239
 20
72.3944344834
 30
0.0
 11
161.3393701403
 21
74.014089598
 31
0.0
  0
LINE
  5
A2
330
1F
100
AcDbEntity
  8
0
  6
Continuous
 62
     7
370
    25
100
AcDbLine
 10
161.3393701403
 20
92.714089598
 30
0.0
 11
160.4042618239
 21
94.3337447126
 31
0.0
  0
LINE
  5
A3
330
1F
100
AcDbEntity
  8
0
  6
Continuous
 62
     7
370
    25
100
AcDbLine
 10
152.2744784567
 20
94.3337447126
 30
0.0
 11
151.3393701403
 21
92.714089598
 31
0.0
  0
LINE
  5
A4
330
1F
100
AcDbEntity
  8
0
  6
Continuous
 62
     7
370
    25
100
AcDbLine
 10
151.3393701403
 20
74.014089598
 30
0.0
 11
152.2744784567
 21
72.3944344834
 31
0.0
  0
LINE
  5
A5
330
1F
100
AcDbEntity
  8
0
  6
Continuous
 62
     7
370
    25
100
AcDbLine
 10
151.3393701403
 20
92.714089598
 30
0.0
 11
149.6393701403
 21
92.714089598
 31
0.0
  0
LINE
  5
A6
330
1F
100
AcDbEntity
  8
0
  6
Continuous
 62
     7
370
    25
100
AcDbLine
 10
149.6393701403
 20
74.014089598
 30
0.0
 11
151.3393701403
 21
74.014089598
 31
0.0
  0
ARC
  5
A7
330
1F
100
AcDbEntity
  8
0
  6
Continuous
 62
     7
370
    25
100
AcDbCircle
 10
163.0393701403
 20
92.414089598
 30
0.0
 40
0.2999999999999972
100
AcDbArc
 50
0.0
 51
90.0
  0
ARC
  5
A8
330
1F
100
AcDbEntity
  8
0
  6
Continuous
 62
     7
370
    25
100
AcDbCircle
 10
163.0393701403
 20
74.314089598
 30
0.0
 40
0.2999999999999972
100
AcDbArc
 50
270.0
 51
0.0
  0
LINE
  5
A9
330
1F
100
AcDbEntity
  8
0
  6
Continuous
 62
     7
370
    25
100
AcDbLine
 10
161.3393701403
 20
74.014089598
 30
0.0
 11
163.0393701403
 21
74.014089598
 31
0.0
  0
LINE
  5
AA
330
1F
100
AcDbEntity
  8
0
  6
Continuous
 62
     7
370
    25
100
AcDbLine
 10
163.0393701403
 20
92.714089598
 30
0.0
 11
161.3393701403
 21
92.714089598
 31
0.0
  0
ARC
  5
AB
330
1F
100
AcDbEntity
  8
0
  6
Continuous
 62
     7
370
    25
100
AcDbCircle
 10
149.6393701403
 20
74.314089598
 30
0.0
 40
0.2999999999999972
100
AcDbArc
 50
180.0
 51
270.0
  0
ARC
  5
AC
330
1F
100
AcDbEntity
  8
0
  6
Continuous
 62
     7
370
    25
100
AcDbCircle
 10
149.6393701403
 20
92.414089598
 30
0.0
 40
0.2999999999999972
100
AcDbArc
 50
90.0
 51
180.0
  0
LINE
  5
AD
330
1F
100
AcDbEntity
  8
0
  6
Continuous
 62
     7
370
    25
100
AcDbLine
 10
156.3393701403
 20
94.0337447126
 30
0.0
 11
156.1832000251
 21
94.3337447126
 31
0.0
  0
LINE
  5
AE
330
1F
100
AcDbEntity
  8
0
  6
Continuous
 62
     7
370
    25
100
AcDbLine
 10
156.4955402554
 20
94.3337447126
 30
0.0
 11
156.3393701403
 21
94.0337447126
 31
0.0
  0
LINE
  5
AF
330
1F
100
AcDbEntity
  8
0
  6
Continuous
 62
     7
370
    25
100
AcDbLine
 10
156.1832000251
 20
72.3944344834
 30
0.0
 11
156.3393701403
 21
72.6944344834
 31
0.0
  0
LINE
  5
B0
330
1F
100
AcDbEntity
  8
0
  6
Continuous
 62
     7
370
    25
100
AcDbLine
 10
156.3393701403
 20
72.6944344834
 30
0.0
 11
156.4955402554
 21
72.3944344834
 31
0.0
  0
LINE
  5
B1
330
1F
100
AcDbEntity
  8
0
  6
Continuous
 62
     7
370
    25
100
AcDbLine
 10
146.6597524307
 20
73.5491350217
 30
0.0
 11
147.5632793765
 21
75.114089598
 31
0.0
  0
LINE
  5
B2
330
1F
100
AcDbEntity
  8
0
  6
Continuous
 62
     7
370
    25
100
AcDbLine
 10
147.5632793765
 20
91.614089598
 30
0.0
 11
146.6597524307
 21
93.1790441742
 31
0.0
  0
LINE
  5
B3
330
1F
100
AcDbEntity
  8
0
  6
Continuous
 62
     7
370
    25
100
AcDbLine
 10
142.4668063224
 20
93.1790441742
 30
0.0
 11
141.5632793765
 21
91.614089598
 31
0.0
  0
LINE
  5
B4
330
1F
100
AcDbEntity
  8
0
  6
Continuous
 62
     7
370
    25
100
AcDbLine
 10
141.5632793765
 20
75.114089598
 30
0.0
 11
142.4668063224
 21
73.5491350217
 31
0.0
  0
LINE
  5
B5
330
1F
100
AcDbEntity
  8
0
  6
Continuous
 62
     7
370
    25
100
AcDbLine
 10
147.5632793765
 20
76.364089598
 30
0.0
 11
149.3393701403
 21
76.364089598
 31
0.0
  0
LINE
  5
B6
330
1F
100
AcDbEntity
  8
0
  6
Continuous
 62
     7
370
    25
100
AcDbLine
 10
149.3393701403
 20
90.364089598
 30
0.0
 11
147.5632793765
 21
90.364089598
 31
0.0
  0
LINE
  5
B7
330
1F
100
AcDbEntity
  8
0
  6
Continuous
 62
     7
370
    25
100
AcDbLine
 10
141.5632793765
 20
90.364089598
 30
0.0
 11
139.7871886128
 21
90.364089598
 31
0.0
  0
LINE
  5
B8
330
1F
100
AcDbEntity
  8
0
  6
Continuous
 62
     7
370
    25
100
AcDbLine
 10
139.7871886128
 20
76.364089598
 30
0.0
 11
141.5632793765
 21
76.364089598
 31
0.0
  0
LINE
  5
B9
330
1F
100
AcDbEntity
  8
0
  6
Continuous
 62
     7
370
    25
100
AcDbLine
 10
144.5632793765
 20
73.8491350217
 30
0.0
 11
144.6436641343
 21
73.5491350217
 31
0.0
  0
LINE
  5
BA
330
1F
100
AcDbEntity
  8
0
  6
Continuous
 62
     7
370
    25
100
AcDbLine
 10
144.4828946188
 20
73.5491350217
 30
0.0
 11
144.5632793765
 21
73.8491350217
 31
0.0
  0
LINE
  5
BB
330
1F
100
AcDbEntity
  8
0
  6
Continuous
 62
     7
370
    25
100
AcDbLine
 10
144.6436641343
 20
93.1790441742
 30
0.0
 11
144.5632793765
 21
92.8790441742
 31
0.0
  0
LINE
  5
BC
330
1F
100
AcDbEntity
  8
0
  6
Continuous
 62
     7
370
    25
100
AcDbLine
 10
144.5632793765
 20
92.8790441742
 30
0.0
 11
144.4828946188
 21
93.1790441742
 31
0.0
  0
LINE
  5
BD
330
1F
100
AcDbEntity
  8
0
  6
Continuous
 62
     7
370
    25
100
AcDbLine
 10
167.8393701403
 20
83.364089598
 30
0.0
 11
167.8393701403
 21
88.614089598
 31
0.0
  0
LINE
  5
BE
330
1F
100
AcDbEntity
  8
0
  6
Continuous
 62
     7
370
    25
100
AcDbLine
 10
167.8393701403
 20
78.114089598
 30
0.0
 11
167.8393701403
 21
83.364089598
 31
0.0
  0
LINE
  5
BF
330
1F
100
AcDbEntity
  8
0
  6
Continuous
 62
     7
370
    25
100
AcDbLine
 10
171.8393701403
 20
83.364089598
 30
0.0
 11
171.8393701403
 21
88.614089598
 31
0.0
  0
LINE
  5
C0
330
1F
100
AcDbEntity
  8
0
  6
Continuous
 62
     7
370
    25
100
AcDbLine
 10
171.8393701403
 20
78.114089598
 30
0.0
 11
171.8393701403
 21
83.364089598
 31
0.0
  0
LINE
  5
C1
330
1F
100
AcDbEntity
  8
0
  6
Continuous
 62
     7
370
    25
100
AcDbLine
 10
175.8393701403
 20
83.364089598
 30
0.0
 11
175.8393701403
 21
88.614089598
 31
0.0
  0
LINE
  5
C2
330
1F
100
AcDbEntity
  8
0
  6
Continuous
 62
     7
370
    25
100
AcDbLine
 10
175.8393701403
 20
78.114089598
 30
0.0
 11
175.8393701403
 21
83.364089598
 31
0.0
  0
LINE
  5
C3
330
1F
100
AcDbEntity
  8
0
  6
Continuous
 62
     7
370
    25
100
AcDbLine
 10
189.3822272831
 20
78.8069467408
 30
0.0
 11
189.3822272831
 21
87.9212324551
 31
0.0
  0
LINE
  5
C4
330
1F
100
AcDbEntity
  8
0
  6
Continuous
 62
     7
370
    25
100
AcDbLine
 10
183.8393701403
 20
83.364089598
 30
0.0
 11
183.8393701403
 21
88.614089598
 31
0.0
  0
LINE
  5
C5
330
1F
100
AcDbEntity
  8
0
  6
Continuous
 62
     7
370
    25
100
AcDbLine
 10
183.8393701403
 20
78.114089598
 30
0.0
 11
183.8393701403
 21
83.364089598
 31
0.0
  0
LINE
  5
C6
330
1F
100
AcDbEntity
  8
0
  6
Continuous
 62
     7
370
    25
100
AcDbLine
 10
179.8393701403
 20
83.364089598
 30
0.0
 11
179.8393701403
 21
88.614089598
 31
0.0
  0
LINE
  5
C7
330
1F
100
AcDbEntity
  8
0
  6
Continuous
 62
     7
370
    25
100
AcDbLine
 10
179.8393701403
 20
78.114089598
 30
0.0
 11
179.8393701403
 21
83.364089598
 31
0.0
  0
LINE
  5
C8
330
1F
100
AcDbEntity
  8
0
  6
Continuous
 62
     7
370
    25
100
AcDbLine
 10
189.8393701403
 20
87.464089598
 30
0.0
 11
189.8393701403
 21
79.264089598
 31
0.0
  0
LINE
  5
C9
330
1F
100
AcDbEntity
  8
0
  6
Continuous
 62
     7
370
    25
100
AcDbLine
 10
121.2871886128
 20
88.614089598
 30
0.0
 11
121.2871886128
 21
78.114089598
 31
0.0
  0
LINE
  5
CA
330
1F
100
AcDbEntity
  8
0
  6
Continuous
 62
     7
370
    25
100
AcDbLine
 10
117.2871886128
 20
88.614089598
 30
0.0
 11
117.2871886128
 21
78.114089598
 31
0.0
  0
LINE
  5
CB
330
1F
100
AcDbEntity
  8
0
  6
Continuous
 62
     7
370
    25
100
AcDbLine
 10
113.2871886128
 20
88.614089598
 30
0.0
 11
113.2871886128
 21
78.114089598
 31
0.0
  0
LINE
  5
CC
330
1F
100
AcDbEntity
  8
0
  6
Continuous
 62
     7
370
    25
100
AcDbLine
 10
109.2871886128
 20
88.614089598
 30
0.0
 11
109.2871886128
 21
78.114089598
 31
0.0
  0
LINE
  5
CD
330
1F
100
AcDbEntity
  8
0
  6
Continuous
 62
     7
370
    25
100
AcDbLine
 10
99.74433147
 20
83.364089598
 30
0.0
 11
99.74433147
 21
78.8069467408
 31
0.0
  0
LINE
  5
CE
330
1F
100
AcDbEntity
  8
0
  6
Continuous
 62
     7
370
    25
100
AcDbLine
 10
99.74433147
 20
87.9212324551
 30
0.0
 11
99.74433147
 21
83.364089598
 31
0.0
  0
LINE
  5
CF
330
1F
100
AcDbEntity
  8
0
  6
Continuous
 62
     7
370
    25
100
AcDbLine
 10
105.2871886128
 20
88.614089598
 30
0.0
 11
105.2871886128
 21
78.114089598
 31
0.0
  0
LINE
  5
D0
330
1F
100
AcDbEntity
  8
0
  6
Continuous
 62
     7
370
    25
100
AcDbLine
 10
99.2871886128
 20
83.364089598
 30
0.0
 11
99.2871886128
 21
87.464089598
 31
0.0
  0
LINE
  5
D1
330
1F
100
AcDbEntity
  8
0
  6
Continuous
 62
     7
370
    25
100
AcDbLine
 10
99.2871886128
 20
79.264089598
 30
0.0
 11
99.2871886128
 21
83.364089598
 31
0.0
  0
LINE
  5
D2
330
1F
100
AcDbEntity
  8
0
  6
Continuous
 62
     7
370
    25
100
AcDbLine
 10
132.7871886128
 20
78.5069772599
 30
0.0
 11
132.943358728
 21
77.8792620407
 31
0.0
  0
LINE
  5
D3
330
1F
100
AcDbEntity
  8
0
  6
Continuous
 62
     7
370
    25
100
AcDbLine
 10
132.943358728
 20
77.8792620407
 30
0.0
 11
132.7871886128
 21
77.565404431
 31
0.0
  0
LINE
  5
D4
330
1F
100
AcDbEntity
  8
0
  6
Continuous
 62
     7
370
    25
100
AcDbLine
 10
132.7871886128
 20
77.565404431
 30
0.0
 11
132.7871886128
 21
78.5069772599
 31
0.0
  0
LINE
  5
D5
330
1F
100
AcDbEntity
  8
0
  6
Continuous
 62
     7
370
    25
100
AcDbLine
 10
128.7222969292
 20
72.3944344834
 30
0.0
 11
132.6310184977
 21
72.3944344834
 31
0.0
  0
SPLINE
  5
D6
330
1F
100
AcDbEntity
  8
0
  6
Continuous
 62
     7
370
    25
100
AcDbSpline
210
0.0
220
0.0
230
1.0
 70
     8
 71
     3
 72
    15
 73
    11
 74
     0
 42
0.000000001
 43
0.00000001
 40
0.0
 40
0.0
 40
0.0
 40
0.0
 40
0.132305694947112
 40
0.2645739819647158
 40
0.399801188407138
 40
0.5350039926534309
 40
0.6501943985256686
 40
0.7654027729264458
 40
0.8826900467077626
 40
1.0
 40
1.0
 40
1.0
 40
1.0
 10
128.7222969292316
 20
77.87926204065481
 30
0.0
 10
128.593130068798
 20
77.64229484582323
 30
0.0
 10
128.3348328683905
 20
77.16842745593758
 30
0.0
 10
128.0569153592556
 20
76.4387135299594
 30
0.0
 10
127.8898120297006
 20
75.69524431730247
 30
0.0
 10
127.8567197360075
 20
74.9787078847923
 30
0.0
 10
127.9425803472474
 20
74.30088399423576
 30
0.0
 10
128.118508800645
 20
73.66118687760802
 30
0.0
 10
128.3765755648248
 20
73.02438204339366
 30
0.0
 10
128.607049047479
 20
72.60443053619909
 30
0.0
 10
128.7222969292316
 20
72.39443448335335
 30
0.0
  0
LINE
  5
D7
330
1F
100
AcDbEntity
  8
0
  6
Continuous
 62
     7
370
    25
100
AcDbLine
 10
128.7222969292
 20
77.8792620407
 30
0.0
 11
132.6310184977
 21
77.8792620407
 31
0.0
  0
LINE
  5
D8
330
1F
100
AcDbEntity
  8
0
  6
Continuous
 62
     7
370
    25
100
AcDbLine
 10
132.7871886128
 20
77.565404431
 30
0.0
 11
132.6310184977
 21
77.8792620407
 31
0.0
  0
LINE
  5
D9
330
1F
100
AcDbEntity
  8
0
  6
Continuous
 62
     7
370
    25
100
AcDbLine
 10
132.943358728
 20
77.8792620407
 30
0.0
 11
136.8520802964
 21
77.8792620407
 31
0.0
  0
SPLINE
  5
DA
330
1F
100
AcDbEntity
  8
0
  6
Continuous
 62
     7
370
    25
100
AcDbSpline
210
0.0
220
0.0
230
1.0
 70
     8
 71
     3
 72
    15
 73
    11
 74
     0
 42
0.000000001
 43
0.00000001
 40
0.0
 40
0.0
 40
0.0
 40
0.0
 40
0.1323056949471119
 40
0.2645739819647158
 40
0.399801188407138
 40
0.5350039926534309
 40
0.6501943985256686
 40
0.7654027729264457
 40
0.8826900467077625
 40
1.0
 40
1.0
 40
1.0
 40
1.0
 10
136.8520802964109
 20
77.87926204065481
 30
0.0
 10
136.9812471568445
 20
77.64229484582323
 30
0.0
 10
137.239544357252
 20
77.16842745593759
 30
0.0
 10
137.5174618663869
 20
76.4387135299594
 30
0.0
 10
137.6845651959418
 20
75.69524431730247
 30
0.0
 10
137.7176574896349
 20
74.9787078847923
 30
0.0
 10
137.6317968783951
 20
74.30088399423576
 30
0.0
 10
137.4558684249974
 20
73.66118687760802
 30
0.0
 10
137.1978016608177
 20
73.02438204339366
 30
0.0
 10
136.9673281781635
 20
72.60443053619909
 30
0.0
 10
136.8520802964109
 20
72.39443448335335
 30
0.0
  0
LINE
  5
DB
330
1F
100
AcDbEntity
  8
0
  6
Continuous
 62
     7
370
    25
100
AcDbLine
 10
132.943358728
 20
72.3944344834
 30
0.0
 11
136.8520802964
 21
72.3944344834
 31
0.0
  0
LINE
  5
DC
330
1F
100
AcDbEntity
  8
0
  6
Continuous
 62
     7
370
    25
100
AcDbLine
 10
132.7871886128
 20
72.708292093
 30
0.0
 11
132.943358728
 21
72.3944344834
 31
0.0
  0
LINE
  5
DD
330
1F
100
AcDbEntity
  8
0
  6
Continuous
 62
     7
370
    25
100
AcDbLine
 10
132.6310184977
 20
72.3944344834
 30
0.0
 11
132.7871886128
 21
72.708292093
 31
0.0
  0
SPLINE
  5
DE
330
1F
100
AcDbEntity
  8
0
  6
Continuous
 62
     7
370
    25
100
AcDbSpline
210
0.0
220
0.0
230
1.0
 70
     8
 71
     3
 72
    14
 73
    10
 74
     0
 42
0.000000001
 43
0.00000001
 40
0.0
 40
0.0
 40
0.0
 40
0.0
 40
0.1859475788974201
 40
0.373555131946709
 40
0.4987919046993183
 40
0.6240284507926851
 40
0.7526037297566678
 40
0.8812143399979503
 40
1.0
 40
1.0
 40
1.0
 40
1.0
 10
128.7222969292316
 20
88.84891715525768
 30
0.0
 10
128.5446206229579
 20
88.1816331938374
 30
0.0
 10
128.1876818748042
 20
86.84110835488917
 30
0.0
 10
127.9253274317923
 20
85.0030466505037
 30
0.0
 10
127.8546639609672
 20
83.37721343753371
 30
0.0
 10
127.9124489195404
 20
81.96971940957671
 30
0.0
 10
128.0910489912354
 20
80.56032371314903
 30
0.0
 10
128.3627287363999
 20
79.1902122381303
 30
0.0
 10
128.6056566977689
 20
78.30452083027501
 30
0.0
 10
128.7222969292316
 20
77.87926204065481
 30
0.0
  0
LINE
  5
DF
330
1F
100
AcDbEntity
  8
0
  6
Continuous
 62
     7
370
    25
100
AcDbLine
 10
128.7222969292
 20
88.8489171553
 30
0.0
 11
132.6310184977
 21
88.8489171553
 31
0.0
  0
LINE
  5
E0
330
1F
100
AcDbEntity
  8
0
  6
Continuous
 62
     7
370
    25
100
AcDbLine
 10
132.7871886128
 20
88.221201936
 30
0.0
 11
132.6310184977
 21
88.8489171553
 31
0.0
  0
LINE
  5
E1
330
1F
100
AcDbEntity
  8
0
  6
Continuous
 62
     7
370
    25
100
AcDbLine
 10
132.943358728
 20
88.8489171553
 30
0.0
 11
132.7871886128
 21
88.221201936
 31
0.0
  0
LINE
  5
E2
330
1F
100
AcDbEntity
  8
0
  6
Continuous
 62
     7
370
    25
100
AcDbLine
 10
132.943358728
 20
88.8489171553
 30
0.0
 11
136.8520802964
 21
88.8489171553
 31
0.0
  0
SPLINE
  5
E3
330
1F
100
AcDbEntity
  8
0
  6
Continuous
 62
     7
370
    25
100
AcDbSpline
210
0.0
220
0.0
230
1.0
 70
     8
 71
     3
 72
    14
 73
    10
 74
     0
 42
0.000000001
 43
0.00000001
 40
0.0
 40
0.0
 40
0.0
 40
0.0
 40
0.18594757889742
 40
0.373555131946709
 40
0.4987919046993184
 40
0.6240284507926851
 40
0.752603729756668
 40
0.8812143399979505
 40
1.0
 40
1.0
 40
1.0
 40
1.0
 10
136.8520802964109
 20
88.84891715525768
 30
0.0
 10
137.0297566026846
 20
88.1816331938374
 30
0.0
 10
137.3866953508383
 20
86.84110835488917
 30
0.0
 10
137.6490497938502
 20
85.00304665050369
 30
0.0
 10
137.7197132646752
 20
83.37721343753371
 30
0.0
 10
137.6619283061021
 20
81.96971940957671
 30
0.0
 10
137.4833282344071
 20
80.56032371314903
 30
0.0
 10
137.2116484892425
 20
79.1902122381303
 30
0.0
 10
136.9687205278735
 20
78.30452083027501
 30
0.0
 10
136.8520802964109
 20
77.87926204065481
 30
0.0
  0
LINE
  5
E4
330
1F
100
AcDbEntity
  8
0
  6
Continuous
 62
     7
370
    25
100
AcDbLine
 10
132.6310184977
 20
77.8792620407
 30
0.0
 11
132.7871886128
 21
78.5069772599
 31
0.0
  0
SPLINE
  5
E5
330
1F
100
AcDbEntity
  8
0
  6
Continuous
 62
     7
370
    25
100
AcDbSpline
210
0.0
220
0.0
230
1.0
 70
     8
 71
     3
 72
    15
 73
    11
 74
     0
 42
0.000000001
 43
0.00000001
 40
0.0
 40
0.0
 40
0.0
 40
0.0
 40
0.1323056949471118
 40
0.2645739819647153
 40
0.3998011884071374
 40
0.5350039926534303
 40
0.6501943985256683
 40
0.7654027729264453
 40
0.8826900467077623
 40
1.0
 40
1.0
 40
1.0
 40
1.0
 10
128.7222969292316
 20
94.33374471255914
 30
0.0
 10
128.593130068798
 20
94.09677751772757
 30
0.0
 10
128.3348328683905
 20
93.62291012784192
 30
0.0
 10
128.0569153592556
 20
92.89319620186374
 30
0.0
 10
127.8898120297006
 20
92.14972698920681
 30
0.0
 10
127.8567197360075
 20
91.43319055669663
 30
0.0
 10
127.9425803472474
 20
90.7553666661401
 30
0.0
 10
128.118508800645
 20
90.11566954951235
 30
0.0
 10
128.3765755648248
 20
89.47886471529799
 30
0.0
 10
128.607049047479
 20
89.05891320810342
 30
0.0
 10
128.7222969292316
 20
88.84891715525768
 30
0.0
  0
LINE
  5
E6
330
1F
100
AcDbEntity
  8
0
  6
Continuous
 62
     7
370
    25
100
AcDbLine
 10
127.7871886128
 20
83.364089598
 30
0.0
 11
127.7871886128
 21
74.014089598
 31
0.0
  0
LINE
  5
E7
330
1F
100
AcDbEntity
  8
0
  6
Continuous
 62
     7
370
    25
100
AcDbLine
 10
127.7871886128
 20
92.714089598
 30
0.0
 11
127.7871886128
 21
83.364089598
 31
0.0
  0
LINE
  5
E8
330
1F
100
AcDbEntity
  8
0
  6
Continuous
 62
     7
370
    25
100
AcDbLine
 10
132.6310184977
 20
88.8489171553
 30
0.0
 11
132.7871886128
 21
89.1627747649
 31
0.0
  0
LINE
  5
E9
330
1F
100
AcDbEntity
  8
0
  6
Continuous
 62
     7
370
    25
100
AcDbLine
 10
132.7871886128
 20
88.221201936
 30
0.0
 11
132.7871886128
 21
89.1627747649
 31
0.0
  0
LINE
  5
EA
330
1F
100
AcDbEntity
  8
0
  6
Continuous
 62
     7
370
    25
100
AcDbLine
 10
132.7871886128
 20
89.1627747649
 30
0.0
 11
132.943358728
 21
88.8489171553
 31
0.0
  0
LINE
  5
EB
330
1F
100
AcDbEntity
  8
0
  6
Continuous
 62
     7
370
    25
100
AcDbLine
 10
128.7222969292
 20
94.3337447126
 30
0.0
 11
132.6310184977
 21
94.3337447126
 31
0.0
  0
LINE
  5
EC
330
1F
100
AcDbEntity
  8
0
  6
Continuous
 62
     7
370
    25
100
AcDbLine
 10
132.7871886128
 20
94.0198871029
 30
0.0
 11
132.6310184977
 21
94.3337447126
 31
0.0
  0
LINE
  5
ED
330
1F
100
AcDbEntity
  8
0
  6
Continuous
 62
     7
370
    25
100
AcDbLine
 10
132.943358728
 20
94.3337447126
 30
0.0
 11
132.7871886128
 21
94.0198871029
 31
0.0
  0
LINE
  5
EE
330
1F
100
AcDbEntity
  8
0
  6
Continuous
 62
     7
370
    25
100
AcDbLine
 10
132.943358728
 20
94.3337447126
 30
0.0
 11
136.8520802964
 21
94.3337447126
 31
0.0
  0
SPLINE
  5
EF
330
1F
100
AcDbEntity
  8
0
  6
Continuous
 62
     7
370
    25
100
AcDbSpline
210
0.0
220
0.0
230
1.0
 70
     8
 71
     3
 72
    15
 73
    11
 74
     0
 42
0.000000001
 43
0.00000001
 40
0.0
 40
0.0
 40
0.0
 40
0.0
 40
0.1323056949471118
 40
0.2645739819647153
 40
0.3998011884071374
 40
0.5350039926534303
 40
0.6501943985256682
 40
0.7654027729264453
 40
0.8826900467077624
 40
1.0
 40
1.0
 40
1.0
 40
1.0
 10
136.8520802964109
 20
94.33374471255914
 30
0.0
 10
136.9812471568445
 20
94.09677751772757
 30
0.0
 10
137.239544357252
 20
93.62291012784192
 30
0.0
 10
137.5174618663869
 20
92.89319620186373
 30
0.0
 10
137.6845651959418
 20
92.14972698920681
 30
0.0
 10
137.7176574896349
 20
91.43319055669663
 30
0.0
 10
137.6317968783951
 20
90.7553666661401
 30
0.0
 10
137.4558684249974
 20
90.11566954951235
 30
0.0
 10
137.1978016608177
 20
89.47886471529799
 30
0.0
 10
136.9673281781635
 20
89.05891320810342
 30
0.0
 10
136.8520802964109
 20
88.84891715525768
 30
0.0
  0
LINE
  5
F0
330
1F
100
AcDbEntity
  8
0
  6
Continuous
 62
     7
370
    25
100
AcDbLine
 10
137.7871886128
 20
83.364089598
 30
0.0
 11
137.7871886128
 21
74.014089598
 31
0.0
  0
LINE
  5
F1
330
1F
100
AcDbEntity
  8
0
  6
Continuous
 62
     7
370
    25
100
AcDbLine
 10
137.7871886128
 20
92.714089598
 30
0.0
 11
137.7871886128
 21
83.364089598
 31
0.0
  0
LINE
  5
F2
330
1F
100
AcDbEntity
  8
0
  6
Continuous
 62
     7
370
    25
100
AcDbLine
 10
125.7871886128
 20
83.364089598
 30
0.0
 11
125.7871886128
 21
92.414089598
 31
0.0
  0
LINE
  5
F3
330
1F
100
AcDbEntity
  8
0
  6
Continuous
 62
     7
370
    25
100
AcDbLine
 10
125.7871886128
 20
74.314089598
 30
0.0
 11
125.7871886128
 21
83.364089598
 31
0.0
  0
LINE
  5
F4
330
1F
100
AcDbEntity
  8
0
  6
Continuous
 62
     7
370
    25
100
AcDbLine
 10
139.7871886128
 20
92.414089598
 30
0.0
 11
139.7871886128
 21
74.314089598
 31
0.0
  0
LINE
  5
F5
330
1F
100
AcDbEntity
  8
0
  6
Continuous
 62
     7
370
    25
100
AcDbLine
 10
132.7871886128
 20
72.6944344834
 30
0.0
 11
132.7871886128
 21
72.708292093
 31
0.0
  0
LINE
  5
F6
330
1F
100
AcDbEntity
  8
0
  6
Continuous
 62
     7
370
    25
100
AcDbLine
 10
132.7871886128
 20
94.0198871029
 30
0.0
 11
132.7871886128
 21
94.0337447126
 31
0.0
  0
SPLINE
  5
F7
330
1F
100
AcDbEntity
  8
0
  6
Continuous
 62
     7
370
    25
100
AcDbSpline
210
0.0
220
0.0
230
1.0
 70
     8
 71
     3
 72
    15
 73
    11
 74
     0
 42
0.000000001
 43
0.00000001
 40
0.0
 40
0.0
 40
0.0
 40
0.0
 40
0.132305694947112
 40
0.2645739819647156
 40
0.3998011884071379
 40
0.5350039926534309
 40
0.6501943985256687
 40
0.7654027729264458
 40
0.8826900467077626
 40
1.0
 40
1.0
 40
1.0
 40
1.0
 10
160.4042618238649
 20
88.84891715525768
 30
0.0
 10
160.5334286842985
 20
89.08588435008924
 30
0.0
 10
160.791725884706
 20
89.5597517399749
 30
0.0
 10
161.0696433938409
 20
90.28946566595307
 30
0.0
 10
161.2367467233958
 20
91.03293487861
 30
0.0
 10
161.2698390170889
 20
91.74947131112019
 30
0.0
 10
161.183978405849
 20
92.42729520167673
 30
0.0
 10
161.0080499524514
 20
93.06699231830449
 30
0.0
 10
160.7499831882717
 20
93.70379715251882
 30
0.0
 10
160.5195097056175
 20
94.1237486597134
 30
0.0
 10
160.4042618238649
 20
94.33374471255914
 30
0.0
  0
SPLINE
  5
F8
330
1F
100
AcDbEntity
  8
0
  6
Continuous
 62
     7
370
    25
100
AcDbSpline
210
0.0
220
0.0
230
1.0
 70
     8
 71
     3
 72
    15
 73
    11
 74
     0
 42
0.000000001
 43
0.00000001
 40
0.0
 40
0.0
 40
0.0
 40
0.0
 40
0.1323056949471119
 40
0.2645739819647155
 40
0.3998011884071376
 40
0.5350039926534306
 40
0.6501943985256684
 40
0.7654027729264454
 40
0.8826900467077623
 40
1.0
 40
1.0
 40
1.0
 40
1.0
 10
160.4042618238649
 20
72.39443448335335
 30
0.0
 10
160.5334286842985
 20
72.63140167818491
 30
0.0
 10
160.791725884706
 20
73.10526906807057
 30
0.0
 10
161.0696433938409
 20
73.83498299404876
 30
0.0
 10
161.2367467233958
 20
74.57845220670566
 30
0.0
 10
161.2698390170889
 20
75.29498863921586
 30
0.0
 10
161.183978405849
 20
75.97281252977238
 30
0.0
 10
161.0080499524514
 20
76.61250964640014
 30
0.0
 10
160.7499831882717
 20
77.24931448061447
 30
0.0
 10
160.5195097056175
 20
77.66926598780906
 30
0.0
 10
160.4042618238649
 20
77.8792620406548
 30
0.0
  0
SPLINE
  5
F9
330
1F
100
AcDbEntity
  8
0
  6
Continuous
 62
     7
370
    25
100
AcDbSpline
210
0.0
220
0.0
230
1.0
 70
     8
 71
     3
 72
    14
 73
    10
 74
     0
 42
0.000000001
 43
0.00000001
 40
0.0
 40
0.0
 40
0.0
 40
0.0
 40
0.1187857262003506
 40
0.2441770919383206
 40
0.3695364010689742
 40
0.4979903680998226
 40
0.6264438955669199
 40
0.8122362427248252
 40
1.0
 40
1.0
 40
1.0
 40
1.0
 10
160.4042618238649
 20
77.8792620406548
 30
0.0
 10
160.5209102759954
 20
78.30451933371468
 30
0.0
 10
160.7606939666074
 20
79.17868235368718
 30
0.0
 10
161.0288383876216
 20
80.52505781747682
 30
0.0
 10
161.2099660722711
 20
81.9219811851564
 30
0.0
 10
161.2728456566135
 20
83.3413215793626
 30
0.0
 10
161.203247573727
 20
84.98447160643765
 30
0.0
 10
160.9402534760318
 20
86.83444526490737
 30
0.0
 10
160.5835531929119
 20
88.17506818453661
 30
0.0
 10
160.4042618238649
 20
88.84891715525768
 30
0.0
  0
LINE
  5
FA
330
1F
100
AcDbEntity
  8
0
  6
Continuous
 62
     7
370
    25
100
AcDbLine
 10
161.3393701403
 20
74.014089598
 30
0.0
 11
161.3393701403
 21
92.714089598
 31
0.0
  0
SPLINE
  5
FB
330
1F
100
AcDbEntity
  8
0
  6
Continuous
 62
     7
370
    25
100
AcDbSpline
210
0.0
220
0.0
230
1.0
 70
     8
 71
     3
 72
    15
 73
    11
 74
     0
 42
0.000000001
 43
0.00000001
 40
0.0
 40
0.0
 40
0.0
 40
0.0
 40
0.1323056949471119
 40
0.2645739819647155
 40
0.3998011884071378
 40
0.5350039926534308
 40
0.6501943985256687
 40
0.7654027729264458
 40
0.8826900467077626
 40
1.0
 40
1.0
 40
1.0
 40
1.0
 10
152.2744784566855
 20
88.84891715525768
 30
0.0
 10
152.1453115962519
 20
89.08588435008924
 30
0.0
 10
151.8870143958445
 20
89.5597517399749
 30
0.0
 10
151.6090968867096
 20
90.28946566595307
 30
0.0
 10
151.4419935571546
 20
91.03293487861
 30
0.0
 10
151.4089012634615
 20
91.74947131112019
 30
0.0
 10
151.4947618747014
 20
92.42729520167673
 30
0.0
 10
151.670690328099
 20
93.06699231830449
 30
0.0
 10
151.9287570922787
 20
93.70379715251882
 30
0.0
 10
152.1592305749329
 20
94.1237486597134
 30
0.0
 10
152.2744784566855
 20
94.33374471255914
 30
0.0
  0
SPLINE
  5
FC
330
1F
100
AcDbEntity
  8
0
  6
Continuous
 62
     7
370
    25
100
AcDbSpline
210
0.0
220
0.0
230
1.0
 70
     8
 71
     3
 72
    14
 73
    10
 74
     0
 42
0.000000001
 43
0.00000001
 40
0.0
 40
0.0
 40
0.0
 40
0.0
 40
0.1187857262003506
 40
0.2441770919383206
 40
0.3695364010689742
 40
0.4979903680998227
 40
0.6264438955669199
 40
0.8122362427248252
 40
0.9999999999999999
 40
0.9999999999999999
 40
0.9999999999999999
 40
0.9999999999999999
 10
152.2744784566855
 20
77.8792620406548
 30
0.0
 10
152.157830004555
 20
78.30451933371468
 30
0.0
 10
151.918046313943
 20
79.17868235368718
 30
0.0
 10
151.6499018929288
 20
80.52505781747682
 30
0.0
 10
151.4687742082794
 20
81.9219811851564
 30
0.0
 10
151.4058946239369
 20
83.3413215793626
 30
0.0
 10
151.4754927068234
 20
84.98447160643765
 30
0.0
 10
151.7384868045187
 20
86.83444526490737
 30
0.0
 10
152.0951870876385
 20
88.17506818453661
 30
0.0
 10
152.2744784566855
 20
88.84891715525768
 30
0.0
  0
SPLINE
  5
FD
330
1F
100
AcDbEntity
  8
0
  6
Continuous
 62
     7
370
    25
100
AcDbSpline
210
0.0
220
0.0
230
1.0
 70
     8
 71
     3
 72
    15
 73
    11
 74
     0
 42
0.000000001
 43
0.00000001
 40
0.0
 40
0.0
 40
0.0
 40
0.0
 40
0.1323056949471119
 40
0.2645739819647155
 40
0.3998011884071376
 40
0.5350039926534306
 40
0.6501943985256684
 40
0.7654027729264454
 40
0.8826900467077623
 40
1.0
 40
1.0
 40
1.0
 40
1.0
 10
152.2744784566855
 20
72.39443448335335
 30
0.0
 10
152.1453115962519
 20
72.63140167818491
 30
0.0
 10
151.8870143958445
 20
73.10526906807057
 30
0.0
 10
151.6090968867096
 20
73.83498299404876
 30
0.0
 10
151.4419935571546
 20
74.57845220670566
 30
0.0
 10
151.4089012634615
 20
75.29498863921586
 30
0.0
 10
151.4947618747014
 20
75.97281252977238
 30
0.0
 10
151.670690328099
 20
76.61250964640014
 30
0.0
 10
151.9287570922788
 20
77.24931448061447
 30
0.0
 10
152.1592305749329
 20
77.66926598780906
 30
0.0
 10
152.2744784566855
 20
77.8792620406548
 30
0.0
  0
LINE
  5
FE
330
1F
100
AcDbEntity
  8
0
  6
Continuous
 62
     7
370
    25
100
AcDbLine
 10
151.3393701403
 20
74.014089598
 30
0.0
 11
151.3393701403
 21
92.714089598
 31
0.0
  0
LINE
  5
FF
330
1F
100
AcDbEntity
  8
0
  6
Continuous
 62
     7
370
    25
100
AcDbLine
 10
160.4042618239
 20
94.3337447126
 30
0.0
 11
156.4955402554
 21
94.3337447126
 31
0.0
  0
LINE
  5
100
330
1F
100
AcDbEntity
  8
0
  6
Continuous
 62
     7
370
    25
100
AcDbLine
 10
160.4042618239
 20
88.8489171553
 30
0.0
 11
156.4955402554
 21
88.8489171553
 31
0.0
  0
LINE
  5
101
330
1F
100
AcDbEntity
  8
0
  6
Continuous
 62
     7
370
    25
100
AcDbLine
 10
156.3393701403
 20
89.1627747649
 30
0.0
 11
156.4955402554
 21
88.8489171553
 31
0.0
  0
LINE
  5
102
330
1F
100
AcDbEntity
  8
0
  6
Continuous
 62
     7
370
    25
100
AcDbLine
 10
156.1832000251
 20
88.8489171553
 30
0.0
 11
156.3393701403
 21
89.1627747649
 31
0.0
  0
LINE
  5
103
330
1F
100
AcDbEntity
  8
0
  6
Continuous
 62
     7
370
    25
100
AcDbLine
 10
156.1832000251
 20
88.8489171553
 30
0.0
 11
152.2744784567
 21
88.8489171553
 31
0.0
  0
LINE
  5
104
330
1F
100
AcDbEntity
  8
0
  6
Continuous
 62
     7
370
    25
100
AcDbLine
 10
156.1832000251
 20
94.3337447126
 30
0.0
 11
152.2744784567
 21
94.3337447126
 31
0.0
  0
LINE
  5
105
330
1F
100
AcDbEntity
  8
0
  6
Continuous
 62
     7
370
    25
100
AcDbLine
 10
156.3393701403
 20
94.0198871029
 30
0.0
 11
156.1832000251
 21
94.3337447126
 31
0.0
  0
LINE
  5
106
330
1F
100
AcDbEntity
  8
0
  6
Continuous
 62
     7
370
    25
100
AcDbLine
 10
156.4955402554
 20
94.3337447126
 30
0.0
 11
156.3393701403
 21
94.0198871029
 31
0.0
  0
LINE
  5
107
330
1F
100
AcDbEntity
  8
0
  6
Continuous
 62
     7
370
    25
100
AcDbLine
 10
156.3393701403
 20
88.221201936
 30
0.0
 11
156.1832000251
 21
88.8489171553
 31
0.0
  0
LINE
  5
108
330
1F
100
AcDbEntity
  8
0
  6
Continuous
 62
     7
370
    25
100
AcDbLine
 10
156.3393701403
 20
89.1627747649
 30
0.0
 11
156.3393701403
 21
88.221201936
 31
0.0
  0
LINE
  5
109
330
1F
100
AcDbEntity
  8
0
  6
Continuous
 62
     7
370
    25
100
AcDbLine
 10
160.4042618239
 20
77.8792620407
 30
0.0
 11
156.4955402554
 21
77.8792620407
 31
0.0
  0
LINE
  5
10A
330
1F
100
AcDbEntity
  8
0
  6
Continuous
 62
     7
370
    25
100
AcDbLine
 10
156.3393701403
 20
78.5069772599
 30
0.0
 11
156.4955402554
 21
77.8792620407
 31
0.0
  0
LINE
  5
10B
330
1F
100
AcDbEntity
  8
0
  6
Continuous
 62
     7
370
    25
100
AcDbLine
 10
156.1832000251
 20
77.8792620407
 30
0.0
 11
156.3393701403
 21
78.5069772599
 31
0.0
  0
LINE
  5
10C
330
1F
100
AcDbEntity
  8
0
  6
Continuous
 62
     7
370
    25
100
AcDbLine
 10
156.1832000251
 20
77.8792620407
 30
0.0
 11
152.2744784567
 21
77.8792620407
 31
0.0
  0
LINE
  5
10D
330
1F
100
AcDbEntity
  8
0
  6
Continuous
 62
     7
370
    25
100
AcDbLine
 10
156.4955402554
 20
88.8489171553
 30
0.0
 11
156.3393701403
 21
88.221201936
 31
0.0
  0
LINE
  5
10E
330
1F
100
AcDbEntity
  8
0
  6
Continuous
 62
     7
370
    25
100
AcDbLine
 10
156.4955402554
 20
77.8792620407
 30
0.0
 11
156.3393701403
 21
77.565404431
 31
0.0
  0
LINE
  5
10F
330
1F
100
AcDbEntity
  8
0
  6
Continuous
 62
     7
370
    25
100
AcDbLine
 10
156.3393701403
 20
78.5069772599
 30
0.0
 11
156.3393701403
 21
77.565404431
 31
0.0
  0
LINE
  5
110
330
1F
100
AcDbEntity
  8
0
  6
Continuous
 62
     7
370
    25
100
AcDbLine
 10
156.3393701403
 20
77.565404431
 30
0.0
 11
156.1832000251
 21
77.8792620407
 31
0.0
  0
LINE
  5
111
330
1F
100
AcDbEntity
  8
0
  6
Continuous
 62
     7
370
    25
100
AcDbLine
 10
160.4042618239
 20
72.3944344834
 30
0.0
 11
156.4955402554
 21
72.3944344834
 31
0.0
  0
LINE
  5
112
330
1F
100
AcDbEntity
  8
0
  6
Continuous
 62
     7
370
    25
100
AcDbLine
 10
156.3393701403
 20
72.708292093
 30
0.0
 11
156.4955402554
 21
72.3944344834
 31
0.0
  0
LINE
  5
113
330
1F
100
AcDbEntity
  8
0
  6
Continuous
 62
     7
370
    25
100
AcDbLine
 10
156.1832000251
 20
72.3944344834
 30
0.0
 11
156.3393701403
 21
72.708292093
 31
0.0
  0
LINE
  5
114
330
1F
100
AcDbEntity
  8
0
  6
Continuous
 62
     7
370
    25
100
AcDbLine
 10
156.1832000251
 20
72.3944344834
 30
0.0
 11
152.2744784567
 21
72.3944344834
 31
0.0
  0
LINE
  5
115
330
1F
100
AcDbEntity
  8
0
  6
Continuous
 62
     7
370
    25
100
AcDbLine
 10
163.3393701403
 20
92.414089598
 30
0.0
 11
163.3393701403
 21
74.314089598
 31
0.0
  0
LINE
  5
116
330
1F
100
AcDbEntity
  8
0
  6
Continuous
 62
     7
370
    25
100
AcDbLine
 10
149.3393701403
 20
83.364089598
 30
0.0
 11
149.3393701403
 21
92.414089598
 31
0.0
  0
LINE
  5
117
330
1F
100
AcDbEntity
  8
0
  6
Continuous
 62
     7
370
    25
100
AcDbLine
 10
149.3393701403
 20
74.314089598
 30
0.0
 11
149.3393701403
 21
83.364089598
 31
0.0
  0
LINE
  5
118
330
1F
100
AcDbEntity
  8
0
  6
Continuous
 62
     7
370
    25
100
AcDbLine
 10
156.3393701403
 20
94.0337447126
 30
0.0
 11
156.3393701403
 21
94.0198871029
 31
0.0
  0
LINE
  5
119
330
1F
100
AcDbEntity
  8
0
  6
Continuous
 62
     7
370
    25
100
AcDbLine
 10
156.3393701403
 20
72.708292093
 30
0.0
 11
156.3393701403
 21
72.6944344834
 31
0.0
  0
LINE
  5
11A
330
1F
100
AcDbEntity
  8
0
  6
Continuous
 62
     7
370
    25
100
AcDbLine
 10
142.4668063224
 20
78.4566123098
 30
0.0
 11
144.4828946188
 21
78.4566123098
 31
0.0
  0
SPLINE
  5
11B
330
1F
100
AcDbEntity
  8
0
  6
Continuous
 62
     7
370
    25
100
AcDbSpline
210
0.0
220
0.0
230
1.0
 70
     8
 71
     3
 72
    16
 73
    12
 74
     0
 42
0.000000001
 43
0.00000001
 40
0.0
 40
0.0
 40
0.0
 40
0.0
 40
0.25
 40
0.25
 40
0.5
 40
0.5
 40
0.625
 40
0.625
 40
0.75
 40
0.75
 40
1.0
 40
1.0
 40
1.0
 40
1.0
 10
142.4668063224005
 20
78.45661230984449
 30
0.0
 10
142.2360478451735
 20
79.2559831235132
 30
0.0
 10
142.042942800243
 20
80.07330040409603
 30
0.0
 10
141.7788910186808
 20
81.71114238635454
 30
0.0
 10
141.7075119857928
 20
82.53540136018607
 30
0.0
 10
141.7076695996037
 20
83.78122759601315
 30
0.0
 10
141.7254579475456
 20
84.1988648660091
 30
0.0
 10
141.7957142854463
 20
85.03378015739061
 30
0.0
 10
141.8476996283224
 20
85.44683518382408
 30
0.0
 10
142.0471325298129
 20
86.67464532791705
 30
0.0
 10
142.2377589041337
 20
87.47812335450708
 30
0.0
 10
142.4668063224005
 20
88.27156688606816
 30
0.0
  0
LINE
  5
11C
330
1F
100
AcDbEntity
  8
0
  6
Continuous
 62
     7
370
    25
100
AcDbLine
 10
142.4668063224
 20
88.2715668861
 30
0.0
 11
144.4828946188
 21
88.2715668861
 31
0.0
  0
SPLINE
  5
11D
330
1F
100
AcDbEntity
  8
0
  6
Continuous
 62
     7
370
    25
100
AcDbSpline
210
0.0
220
0.0
230
1.0
 70
     8
 71
     3
 72
     8
 73
     4
 74
     0
 42
0.000000001
 43
0.00000001
 40
0.0
 40
0.0
 40
0.0
 40
0.0
 40
1.0
 40
1.0
 40
1.0
 40
1.0
 10
144.5632793765482
 20
87.64011118204583
 30
0.0
 10
144.5379053459639
 20
87.85083025023013
 30
0.0
 10
144.5110639892469
 20
88.06130784275899
 30
0.0
 10
144.4828946188189
 20
88.27156688606816
 30
0.0
  0
SPLINE
  5
11E
330
1F
100
AcDbEntity
  8
0
  6
Continuous
 62
     7
370
    25
100
AcDbSpline
210
0.0
220
0.0
230
1.0
 70
     8
 71
     3
 72
     8
 73
     4
 74
     0
 42
0.000000001
 43
0.00000001
 40
0.0
 40
0.0
 40
0.0
 40
0.0
 40
1.0
 40
1.0
 40
1.0
 40
1.0
 10
144.6436641342776
 20
88.27156688606816
 30
0.0
 10
144.6154809823854
 20
88.06120497651024
 30
0.0
 10
144.5886405865873
 20
87.85072378179402
 30
0.0
 10
144.5632793765482
 20
87.64011118204583
 30
0.0
  0
LINE
  5
11F
330
1F
100
AcDbEntity
  8
0
  6
Continuous
 62
     7
370
    25
100
AcDbLine
 10
144.6436641343
 20
88.2715668861
 30
0.0
 11
146.6597524307
 21
88.2715668861
 31
0.0
  0
SPLINE
  5
120
330
1F
100
AcDbEntity
  8
0
  6
Continuous
 62
     7
370
    25
100
AcDbSpline
210
0.0
220
0.0
230
1.0
 70
     8
 71
     3
 72
    16
 73
    12
 74
     0
 42
0.000000001
 43
0.00000001
 40
0.0
 40
0.0
 40
0.0
 40
0.0
 40
0.25
 40
0.25
 40
0.5
 40
0.5
 40
0.625
 40
0.625
 40
0.75
 40
0.75
 40
1.0
 40
1.0
 40
1.0
 40
1.0
 10
146.659752430696
 20
78.45661230984449
 30
0.0
 10
146.890510907923
 20
79.2559831235132
 30
0.0
 10
147.0836159528535
 20
80.07330040409603
 30
0.0
 10
147.3476677344157
 20
81.71114238635454
 30
0.0
 10
147.4190467673036
 20
82.53540136018607
 30
0.0
 10
147.4188891534927
 20
83.78122759601315
 30
0.0
 10
147.4011008055508
 20
84.1988648660091
 30
0.0
 10
147.3308444676502
 20
85.03378015739061
 30
0.0
 10
147.2788591247741
 20
85.44683518382408
 30
0.0
 10
147.0794262232835
 20
86.67464532791705
 30
0.0
 10
146.8887998489627
 20
87.47812335450708
 30
0.0
 10
146.659752430696
 20
88.27156688606816
 30
0.0
  0
LINE
  5
121
330
1F
100
AcDbEntity
  8
0
  6
Continuous
 62
     7
370
    25
100
AcDbLine
 10
144.6436641343
 20
78.4566123098
 30
0.0
 11
146.6597524307
 21
78.4566123098
 31
0.0
  0
SPLINE
  5
122
330
1F
100
AcDbEntity
  8
0
  6
Continuous
 62
     7
370
    25
100
AcDbSpline
210
0.0
220
0.0
230
1.0
 70
     8
 71
     3
 72
     8
 73
     4
 74
     0
 42
0.000000001
 43
0.00000001
 40
0.0
 40
0.0
 40
0.0
 40
0.0
 40
1.0
 40
1.0
 40
1.0
 40
1.0
 10
144.5632793765482
 20
79.08806801386683
 30
0.0
 10
144.5886534071326
 20
78.87734894568253
 30
0.0
 10
144.6154947638495
 20
78.66687135315367
 30
0.0
 10
144.6436641342776
 20
78.4566123098445
 30
0.0
  0
SPLINE
  5
123
330
1F
100
AcDbEntity
  8
0
  6
Continuous
 62
     7
370
    25
100
AcDbSpline
210
0.0
220
0.0
230
1.0
 70
     8
 71
     3
 72
     8
 73
     4
 74
     0
 42
0.000000001
 43
0.00000001
 40
0.0
 40
0.0
 40
0.0
 40
0.0
 40
1.0
 40
1.0
 40
1.0
 40
1.0
 10
144.4828946188189
 20
78.4566123098445
 30
0.0
 10
144.511077770711
 20
78.66697421940243
 30
0.0
 10
144.5379181665092
 20
78.87745541411866
 30
0.0
 10
144.5632793765482
 20
79.08806801386683
 30
0.0
  0
SPLINE
  5
124
330
1F
100
AcDbEntity
  8
0
  6
Continuous
 62
     7
370
    25
100
AcDbSpline
210
0.0
220
0.0
230
1.0
 70
     8
 71
     3
 72
     8
 73
     4
 74
     0
 42
0.000000001
 43
0.00000001
 40
0.0
 40
0.0
 40
0.0
 40
0.0
 40
1.0
 40
1.0
 40
1.0
 40
1.0
 10
144.5632793765482
 20
88.58729473807934
 30
0.0
 10
144.5886540097074
 20
88.48193270194065
 30
0.0
 10
144.6154954109142
 20
88.37669399284465
 30
0.0
 10
144.6436641342776
 20
88.27156688606816
 30
0.0
  0
LINE
  5
125
330
1F
100
AcDbEntity
  8
0
  6
Continuous
 62
     7
370
    25
100
AcDbLine
 10
144.5632793765
 20
87.640111182
 30
0.0
 11
144.5632793765
 21
88.5872947381
 31
0.0
  0
LINE
  5
126
330
1F
100
AcDbEntity
  8
0
  6
Continuous
 62
     7
370
    25
100
AcDbLine
 10
142.4668063224
 20
73.5491350217
 30
0.0
 11
144.4828946188
 21
73.5491350217
 31
0.0
  0
SPLINE
  5
127
330
1F
100
AcDbEntity
  8
0
  6
Continuous
 62
     7
370
    25
100
AcDbSpline
210
0.0
220
0.0
230
1.0
 70
     8
 71
     3
 72
    16
 73
    12
 74
     0
 42
0.000000001
 43
0.00000001
 40
0.0
 40
0.0
 40
0.0
 40
0.0
 40
0.2499999999999998
 40
0.2499999999999998
 40
0.4999999999999996
 40
0.4999999999999996
 40
0.6249999999999997
 40
0.6249999999999997
 40
0.7499999999999998
 40
0.7499999999999998
 40
1.0
 40
1.0
 40
1.0
 40
1.0
 10
142.4668063224001
 20
73.54913502173258
 30
0.0
 10
142.2354915687175
 20
73.94978392765117
 30
0.0
 10
142.044846275387
 20
74.35335391733602
 30
0.0
 10
141.7807406189797
 20
75.16891070367713
 30
0.0
 10
141.7081514276657
 20
75.58096007224044
 30
0.0
 10
141.7073541815748
 20
76.20679744029006
 30
0.0
 10
141.7250994381982
 20
76.41639142375318
 30
0.0
 10
141.794296521728
 20
76.83099044112943
 30
0.0
 10
141.8456781277903
 20
77.0368999531516
 30
0.0
 10
142.0440861265269
 20
77.65096255120477
 30
0.0
 10
142.2352032282309
 20
78.05546398355295
 30
0.0
 10
142.4668063224003
 20
78.45661230984452
 30
0.0
  0
SPLINE
  5
128
330
1F
100
AcDbEntity
  8
0
  6
Continuous
 62
     7
370
    25
100
AcDbSpline
210
0.0
220
0.0
230
1.0
 70
     8
 71
     3
 72
     8
 73
     4
 74
     0
 42
0.000000001
 43
0.00000001
 40
0.0
 40
0.0
 40
0.0
 40
0.0
 40
1.0
 40
1.0
 40
1.0
 40
1.0
 10
144.5632793765482
 20
78.14088445783334
 30
0.0
 10
144.537904743389
 20
78.24624649397202
 30
0.0
 10
144.5110633421823
 20
78.35148520306801
 30
0.0
 10
144.4828946188189
 20
78.4566123098445
 30
0.0
  0
SPLINE
  5
129
330
1F
100
AcDbEntity
  8
0
  6
Continuous
 62
     7
370
    25
100
AcDbSpline
210
0.0
220
0.0
230
1.0
 70
     8
 71
     3
 72
     8
 73
     4
 74
     0
 42
0.000000001
 43
0.00000001
 40
0.0
 40
0.0
 40
0.0
 40
0.0
 40
1.0
 40
1.0
 40
1.0
 40
1.0
 10
144.6436641342776
 20
78.4566123098445
 30
0.0
 10
144.6154828284544
 20
78.35143824468881
 30
0.0
 10
144.5886423024596
 20
78.24619788245315
 30
0.0
 10
144.5632793765482
 20
78.14088445783334
 30
0.0
  0
SPLINE
  5
12A
330
1F
100
AcDbEntity
  8
0
  6
Continuous
 62
     7
370
    25
100
AcDbSpline
210
0.0
220
0.0
230
1.0
 70
     8
 71
     3
 72
    16
 73
    12
 74
     0
 42
0.000000001
 43
0.00000001
 40
0.0
 40
0.0
 40
0.0
 40
0.0
 40
0.2499999999999998
 40
0.2499999999999998
 40
0.4999999999999996
 40
0.4999999999999996
 40
0.6249999999999997
 40
0.6249999999999997
 40
0.7499999999999998
 40
0.7499999999999998
 40
1.0
 40
1.0
 40
1.0
 40
1.0
 10
146.6597524306964
 20
73.54913502173258
 30
0.0
 10
146.891067184379
 20
73.94978392765117
 30
0.0
 10
147.0817124777095
 20
74.35335391733602
 30
0.0
 10
147.3458181341168
 20
75.16891070367713
 30
0.0
 10
147.4184073254307
 20
75.58096007224044
 30
0.0
 10
147.4192045715217
 20
76.20679744029006
 30
0.0
 10
147.4014593148982
 20
76.41639142375318
 30
0.0
 10
147.3322622313684
 20
76.83099044112943
 30
0.0
 10
147.2808806253061
 20
77.0368999531516
 30
0.0
 10
147.0824726265695
 20
77.65096255120477
 30
0.0
 10
146.8913555248656
 20
78.05546398355295
 30
0.0
 10
146.6597524306962
 20
78.45661230984452
 30
0.0
  0
LINE
  5
12B
330
1F
100
AcDbEntity
  8
0
  6
Continuous
 62
     7
370
    25
100
AcDbLine
 10
144.6436641343
 20
73.5491350217
 30
0.0
 11
146.6597524307
 21
73.5491350217
 31
0.0
  0
SPLINE
  5
12C
330
1F
100
AcDbEntity
  8
0
  6
Continuous
 62
     7
370
    25
100
AcDbSpline
210
0.0
220
0.0
230
1.0
 70
     8
 71
     3
 72
     8
 73
     4
 74
     0
 42
0.000000001
 43
0.00000001
 40
0.0
 40
0.0
 40
0.0
 40
0.0
 40
1.0
 40
1.0
 40
1.0
 40
1.0
 10
144.5632793765482
 20
73.86486287374377
 30
0.0
 10
144.5886540097074
 20
73.75950083760507
 30
0.0
 10
144.6154954109142
 20
73.65426212850909
 30
0.0
 10
144.6436641342776
 20
73.54913502173261
 30
0.0
  0
SPLINE
  5
12D
330
1F
100
AcDbEntity
  8
0
  6
Continuous
 62
     7
370
    25
100
AcDbSpline
210
0.0
220
0.0
230
1.0
 70
     8
 71
     3
 72
     8
 73
     4
 74
     0
 42
0.000000001
 43
0.00000001
 40
0.0
 40
0.0
 40
0.0
 40
0.0
 40
1.0
 40
1.0
 40
1.0
 40
1.0
 10
144.4828946188189
 20
73.54913502173261
 30
0.0
 10
144.5110759246421
 20
73.65430908688829
 30
0.0
 10
144.5379164506368
 20
73.75954944912395
 30
0.0
 10
144.5632793765482
 20
73.86486287374377
 30
0.0
  0
SPLINE
  5
12E
330
1F
100
AcDbEntity
  8
0
  6
Continuous
 62
     7
370
    25
100
AcDbSpline
210
0.0
220
0.0
230
1.0
 70
     8
 71
     3
 72
    16
 73
    12
 74
     0
 42
0.000000001
 43
0.00000001
 40
0.0
 40
0.0
 40
0.0
 40
0.0
 40
0.2500000000000003
 40
0.2500000000000003
 40
0.5000000000000006
 40
0.5000000000000006
 40
0.6250000000000006
 40
0.6250000000000006
 40
0.7500000000000004
 40
0.7500000000000004
 40
1.0
 40
1.0
 40
1.0
 40
1.0
 10
146.6597524306964
 20
88.27156688606813
 30
0.0
 10
146.891067184379
 20
88.67221579198672
 30
0.0
 10
147.0817124777094
 20
89.07578578167157
 30
0.0
 10
147.3458181341167
 20
89.89134256801262
 30
0.0
 10
147.4184073254307
 20
90.30339193657593
 30
0.0
 10
147.4192045715217
 20
90.92922930462554
 30
0.0
 10
147.4014593148982
 20
91.13882328808864
 30
0.0
 10
147.3322622313684
 20
91.55342230546488
 30
0.0
 10
147.2808806253061
 20
91.75933181748704
 30
0.0
 10
147.0824726265695
 20
92.37339441554019
 30
0.0
 10
146.8913555248656
 20
92.77789584788836
 30
0.0
 10
146.6597524306962
 20
93.17904417417991
 30
0.0
  0
LINE
  5
12F
330
1F
100
AcDbEntity
  8
0
  6
Continuous
 62
     7
370
    25
100
AcDbLine
 10
147.5632793765
 20
83.364089598
 30
0.0
 11
147.5632793765
 21
91.614089598
 31
0.0
  0
LINE
  5
130
330
1F
100
AcDbEntity
  8
0
  6
Continuous
 62
     7
370
    25
100
AcDbLine
 10
147.5632793765
 20
75.114089598
 30
0.0
 11
147.5632793765
 21
83.364089598
 31
0.0
  0
LINE
  5
131
330
1F
100
AcDbEntity
  8
0
  6
Continuous
 62
     7
370
    25
100
AcDbLine
 10
144.5632793765
 20
78.1408844578
 30
0.0
 11
144.5632793765
 21
79.0880680139
 31
0.0
  0
SPLINE
  5
132
330
1F
100
AcDbEntity
  8
0
  6
Continuous
 62
     7
370
    25
100
AcDbSpline
210
0.0
220
0.0
230
1.0
 70
     8
 71
     3
 72
    16
 73
    12
 74
     0
 42
0.000000001
 43
0.00000001
 40
0.0
 40
0.0
 40
0.0
 40
0.0
 40
0.2500000000000003
 40
0.2500000000000003
 40
0.5000000000000006
 40
0.5000000000000006
 40
0.6250000000000006
 40
0.6250000000000006
 40
0.7500000000000004
 40
0.7500000000000004
 40
1.0
 40
1.0
 40
1.0
 40
1.0
 10
142.4668063224001
 20
88.27156688606813
 30
0.0
 10
142.2354915687175
 20
88.67221579198672
 30
0.0
 10
142.044846275387
 20
89.07578578167157
 30
0.0
 10
141.7807406189797
 20
89.89134256801262
 30
0.0
 10
141.7081514276657
 20
90.30339193657593
 30
0.0
 10
141.7073541815748
 20
90.92922930462554
 30
0.0
 10
141.7250994381982
 20
91.13882328808864
 30
0.0
 10
141.794296521728
 20
91.55342230546488
 30
0.0
 10
141.8456781277903
 20
91.75933181748704
 30
0.0
 10
142.0440861265269
 20
92.37339441554019
 30
0.0
 10
142.2352032282309
 20
92.77789584788836
 30
0.0
 10
142.4668063224003
 20
93.17904417417991
 30
0.0
  0
LINE
  5
133
330
1F
100
AcDbEntity
  8
0
  6
Continuous
 62
     7
370
    25
100
AcDbLine
 10
141.5632793765
 20
83.364089598
 30
0.0
 11
141.5632793765
 21
91.614089598
 31
0.0
  0
LINE
  5
134
330
1F
100
AcDbEntity
  8
0
  6
Continuous
 62
     7
370
    25
100
AcDbLine
 10
141.5632793765
 20
75.114089598
 30
0.0
 11
141.5632793765
 21
83.364089598
 31
0.0
  0
SPLINE
  5
135
330
1F
100
AcDbEntity
  8
0
  6
Continuous
 62
     7
370
    25
100
AcDbSpline
210
0.0
220
0.0
230
1.0
 70
     8
 71
     3
 72
     8
 73
     4
 74
     0
 42
0.000000001
 43
0.00000001
 40
0.0
 40
0.0
 40
0.0
 40
0.0
 40
1.0
 40
1.0
 40
1.0
 40
1.0
 10
144.4828946188189
 20
88.27156688606816
 30
0.0
 10
144.5110759246421
 20
88.37674095122387
 30
0.0
 10
144.5379164506368
 20
88.48198131345953
 30
0.0
 10
144.5632793765482
 20
88.58729473807934
 30
0.0
  0
LINE
  5
136
330
1F
100
AcDbEntity
  8
0
  6
Continuous
 62
     7
370
    25
100
AcDbLine
 10
142.4668063224
 20
93.1790441742
 30
0.0
 11
144.4828946188
 21
93.1790441742
 31
0.0
  0
SPLINE
  5
137
330
1F
100
AcDbEntity
  8
0
  6
Continuous
 62
     7
370
    25
100
AcDbSpline
210
0.0
220
0.0
230
1.0
 70
     8
 71
     3
 72
     8
 73
     4
 74
     0
 42
0.000000001
 43
0.00000001
 40
0.0
 40
0.0
 40
0.0
 40
0.0
 40
1.0
 40
1.0
 40
1.0
 40
1.0
 10
144.5632793765482
 20
92.86331632216873
 30
0.0
 10
144.537904743389
 20
92.96867835830741
 30
0.0
 10
144.5110633421823
 20
93.0739170674034
 30
0.0
 10
144.4828946188189
 20
93.17904417417988
 30
0.0
  0
SPLINE
  5
138
330
1F
100
AcDbEntity
  8
0
  6
Continuous
 62
     7
370
    25
100
AcDbSpline
210
0.0
220
0.0
230
1.0
 70
     8
 71
     3
 72
     8
 73
     4
 74
     0
 42
0.000000001
 43
0.00000001
 40
0.0
 40
0.0
 40
0.0
 40
0.0
 40
1.0
 40
1.0
 40
1.0
 40
1.0
 10
144.6436641342776
 20
93.17904417417988
 30
0.0
 10
144.6154828284544
 20
93.0738701090242
 30
0.0
 10
144.5886423024596
 20
92.96862974678854
 30
0.0
 10
144.5632793765482
 20
92.86331632216873
 30
0.0
  0
LINE
  5
139
330
1F
100
AcDbEntity
  8
0
  6
Continuous
 62
     7
370
    25
100
AcDbLine
 10
144.6436641343
 20
93.1790441742
 30
0.0
 11
146.6597524307
 21
93.1790441742
 31
0.0
  0
LINE
  5
13A
330
1F
100
AcDbEntity
  8
0
  6
Continuous
 62
     7
370
    25
100
AcDbLine
 10
144.5632793765
 20
73.8491350217
 30
0.0
 11
144.5632793765
 21
73.8648628737
 31
0.0
  0
LINE
  5
13B
330
1F
100
AcDbEntity
  8
0
  6
Continuous
 62
     7
370
    25
100
AcDbLine
 10
144.5632793765
 20
92.8633163222
 30
0.0
 11
144.5632793765
 21
92.8790441742
 31
0.0
  0
LINE
  5
13C
330
1F
100
AcDbEntity
  8
0
  6
Continuous
 62
     8
370
    25
100
AcDbLine
 10
139.4871886128
 20
74.014089598
 30
0.0
 11
139.4871886128
 21
92.714089598
 31
0.0
  0
LINE
  5
13D
330
1F
100
AcDbEntity
  8
0
  6
Continuous
 62
     8
370
    25
100
AcDbLine
 10
126.0871886128
 20
83.364089598
 30
0.0
 11
126.0871886128
 21
74.014089598
 31
0.0
  0
LINE
  5
13E
330
1F
100
AcDbEntity
  8
0
  6
Continuous
 62
     8
370
    25
100
AcDbLine
 10
126.0871886128
 20
92.714089598
 30
0.0
 11
126.0871886128
 21
83.364089598
 31
0.0
  0
LINE
  5
13F
330
1F
100
AcDbEntity
  8
0
  6
Continuous
 62
     8
370
    25
100
AcDbLine
 10
149.6393701403
 20
83.364089598
 30
0.0
 11
149.6393701403
 21
74.014089598
 31
0.0
  0
LINE
  5
140
330
1F
100
AcDbEntity
  8
0
  6
Continuous
 62
     8
370
    25
100
AcDbLine
 10
149.6393701403
 20
92.714089598
 30
0.0
 11
149.6393701403
 21
83.364089598
 31
0.0
  0
LINE
  5
141
330
1F
100
AcDbEntity
  8
0
  6
Continuous
 62
     8
370
    25
100
AcDbLine
 10
163.0393701403
 20
74.014089598
 30
0.0
 11
163.0393701403
 21
92.714089598
 31
0.0
  0
LINE
  5
142
330
1F
100
AcDbEntity
  8
0
  6
CENTERX2
 62
     7
370
    18
100
AcDbLine
 10
191.7393701403
 20
83.364089598
 30
0.0
 11
97.1802211981
 21
83.364089598
 31
0.0
  0
CIRCLE
  5
143
330
1F
100
AcDbEntity
  8
0
  6
Continuous
 62
     7
370
    25
100
AcDbCircle
 10
218.2886277457
 20
83.364089598
 30
0.0
 40
4.55714285714285
  0
CIRCLE
  5
144
330
1F
100
AcDbEntity
  8
0
  6
Continuous
 62
     7
370
    25
100
AcDbCircle
 10
218.2886277457
 20
83.364089598
 30
0.0
 40
4.099999999999994
  0
CIRCLE
  5
145
330
1F
100
AcDbEntity
  8
0
  6
Continuous
 62
     7
370
    25
100
AcDbCircle
 10
218.2886277457
 20
83.364089598
 30
0.0
 40
3.599999999999994
  0
CIRCLE
  5
146
330
1F
100
AcDbEntity
  8
0
  6
Continuous
 62
     7
370
    25
100
AcDbCircle
 10
218.2886277457
 20
83.364089598
 30
0.0
 40
3.5
  0
CIRCLE
  5
147
330
1F
100
AcDbEntity
  8
0
  6
Continuous
 62
     7
370
    25
100
AcDbCircle
 10
218.2886277457
 20
83.364089598
 30
0.0
 40
5.25
  0
CIRCLE
  5
148
330
1F
100
AcDbEntity
  8
0
  6
Continuous
 62
     7
370
    25
100
AcDbCircle
 10
218.2886277457
 20
83.364089598
 30
0.0
 40
9.050000000000011
  0
CIRCLE
  5
149
330
1F
100
AcDbEntity
  8
0
  6
Continuous
 62
     7
370
    25
100
AcDbCircle
 10
218.2886277457
 20
83.364089598
 30
0.0
 40
9.349999999999994
  0
CIRCLE
  5
14A
330
1F
100
AcDbEntity
  8
0
  6
Continuous
 62
     7
370
    25
100
AcDbCircle
 10
218.2886277457
 20
83.364089598
 30
0.0
 40
5.599999999999994
  0
CIRCLE
  5
14B
330
1F
100
AcDbEntity
  8
0
  6
Continuous
 62
     7
370
    25
100
AcDbCircle
 10
218.2886277457
 20
83.364089598
 30
0.0
 40
5.5
  0
SPLINE
  5
14C
330
1F
100
AcDbEntity
  8
0
  6
Continuous
 62
     7
370
    25
100
AcDbSpline
210
0.0
220
0.0
230
1.0
 70
    24
 71
     3
 72
    15
 73
    11
 74
     0
 42
0.000000001
 43
0.00000001
 40
0.0
 40
0.0
 40
0.0
 40
0.0
 40
0.1323056949471119
 40
0.2645739819647156
 40
0.3998011884071378
 40
0.5350039926534307
 40
0.6501943985256686
 40
0.7654027729264457
 40
0.8826900467077625
 40
1.0
 40
1.0
 40
1.0
 40
1.0
 10
208.7886277456647
 20
88.84891715525768
 30
0.0
 10
209.19906696684
 20
89.08588435008924
 30
0.0
 10
210.019829362172
 20
89.5597517399749
 30
0.0
 10
211.2837309569567
 20
90.28946566595309
 30
0.0
 10
212.5714574071418
 20
91.03293487861
 30
0.0
 10
213.8125349137235
 20
91.74947131112019
 30
0.0
 10
214.9865603307515
 20
92.42729520167673
 30
0.0
 10
216.0945482382061
 20
93.06699231830449
 30
0.0
 10
217.1975265655708
 20
93.70379715251883
 30
0.0
 10
217.9249039127469
 20
94.1237486597134
 30
0.0
 10
218.2886277456647
 20
94.33374471255914
 30
0.0
  0
SPLINE
  5
14D
330
1F
100
AcDbEntity
  8
0
  6
Continuous
 62
     7
370
    25
100
AcDbSpline
210
0.0
220
0.0
230
1.0
 70
    24
 71
     3
 72
    15
 73
    11
 74
     0
 42
0.000000001
 43
0.00000001
 40
0.0
 40
0.0
 40
0.0
 40
0.0
 40
0.1323056949471118
 40
0.2645739819647153
 40
0.3998011884071374
 40
0.53500399265343
 40
0.6501943985256678
 40
0.7654027729264451
 40
0.8826900467077623
 40
1.0
 40
1.0
 40
1.0
 40
1.0
 10
218.2886277456647
 20
94.33374471255914
 30
0.0
 10
218.69906696684
 20
94.09677751772757
 30
0.0
 10
219.519829362172
 20
93.62291012784192
 30
0.0
 10
220.7837309569568
 20
92.89319620186374
 30
0.0
 10
222.0714574071418
 20
92.14972698920681
 30
0.0
 10
223.3125349137235
 20
91.43319055669664
 30
0.0
 10
224.4865603307515
 20
90.7553666661401
 30
0.0
 10
225.5945482382061
 20
90.11566954951235
 30
0.0
 10
226.6975265655708
 20
89.478864715298
 30
0.0
 10
227.4249039127469
 20
89.05891320810343
 30
0.0
 10
227.7886277456647
 20
88.8489171552577
 30
0.0
  0
SPLINE
  5
14E
330
1F
100
AcDbEntity
  8
0
  6
Continuous
 62
     7
370
    25
100
AcDbSpline
210
0.0
220
0.0
230
1.0
 70
    24
 71
     3
 72
    14
 73
    10
 74
     0
 42
0.000000001
 43
0.00000001
 40
0.0
 40
0.0
 40
0.0
 40
0.0
 40
0.1859475788974199
 40
0.373555131946709
 40
0.4987919046993183
 40
0.624028450792685
 40
0.7526037297566679
 40
0.8812143399979505
 40
1.0
 40
1.0
 40
1.0
 40
1.0
 10
227.7886277456647
 20
88.8489171552577
 30
0.0
 10
227.7886277456647
 20
88.18163319383741
 30
0.0
 10
227.7886277456647
 20
86.84110835488919
 30
0.0
 10
227.7886277456647
 20
85.0030466505037
 30
0.0
 10
227.7886277456647
 20
83.37721343753371
 30
0.0
 10
227.7886277456647
 20
81.96971940957671
 30
0.0
 10
227.7886277456647
 20
80.56032371314903
 30
0.0
 10
227.7886277456647
 20
79.1902122381303
 30
0.0
 10
227.7886277456647
 20
78.30452083027502
 30
0.0
 10
227.7886277456647
 20
77.87926204065481
 30
0.0
  0
SPLINE
  5
14F
330
1F
100
AcDbEntity
  8
0
  6
Continuous
 62
     7
370
    25
100
AcDbSpline
210
0.0
220
0.0
230
1.0
 70
    24
 71
     3
 72
    15
 73
    11
 74
     0
 42
0.000000001
 43
0.00000001
 40
0.0
 40
0.0
 40
0.0
 40
0.0
 40
0.1323056949471121
 40
0.2645739819647158
 40
0.399801188407138
 40
0.5350039926534308
 40
0.6501943985256686
 40
0.7654027729264458
 40
0.8826900467077626
 40
1.0
 40
1.0
 40
1.0
 40
1.0
 10
227.7886277456647
 20
77.87926204065481
 30
0.0
 10
227.3781885244893
 20
77.64229484582323
 30
0.0
 10
226.5574261291573
 20
77.16842745593758
 30
0.0
 10
225.2935245343726
 20
76.4387135299594
 30
0.0
 10
224.0057980841875
 20
75.69524431730247
 30
0.0
 10
222.7647205776057
 20
74.9787078847923
 30
0.0
 10
221.5906951605778
 20
74.30088399423576
 30
0.0
 10
220.4827072531232
 20
73.661186877608
 30
0.0
 10
219.3797289257585
 20
73.02438204339366
 30
0.0
 10
218.6523515785824
 20
72.60443053619909
 30
0.0
 10
218.2886277456647
 20
72.39443448335335
 30
0.0
  0
SPLINE
  5
150
330
1F
100
AcDbEntity
  8
0
  6
Continuous
 62
     7
370
    25
100
AcDbSpline
210
0.0
220
0.0
230
1.0
 70
    24
 71
     3
 72
    15
 73
    11
 74
     0
 42
0.000000001
 43
0.00000001
 40
0.0
 40
0.0
 40
0.0
 40
0.0
 40
0.1323056949471118
 40
0.2645739819647155
 40
0.3998011884071375
 40
0.5350039926534303
 40
0.6501943985256682
 40
0.7654027729264453
 40
0.8826900467077624
 40
1.0
 40
1.0
 40
1.0
 40
1.0
 10
218.2886277456647
 20
72.39443448335335
 30
0.0
 10
217.8781885244893
 20
72.63140167818491
 30
0.0
 10
217.0574261291573
 20
73.10526906807057
 30
0.0
 10
215.7935245343726
 20
73.83498299404874
 30
0.0
 10
214.5057980841875
 20
74.57845220670566
 30
0.0
 10
213.2647205776058
 20
75.29498863921584
 30
0.0
 10
212.0906951605778
 20
75.97281252977238
 30
0.0
 10
210.9827072531232
 20
76.61250964640013
 30
0.0
 10
209.8797289257585
 20
77.24931448061447
 30
0.0
 10
209.1523515785824
 20
77.66926598780906
 30
0.0
 10
208.7886277456647
 20
77.8792620406548
 30
0.0
  0
SPLINE
  5
151
330
1F
100
AcDbEntity
  8
0
  6
Continuous
 62
     7
370
    25
100
AcDbSpline
210
0.0
220
0.0
230
1.0
 70
    24
 71
     3
 72
    14
 73
    10
 74
     0
 42
0.000000001
 43
0.00000001
 40
0.0
 40
0.0
 40
0.0
 40
0.0
 40
0.1187857262003506
 40
0.2441770919383207
 40
0.3695364010689743
 40
0.4979903680998227
 40
0.6264438955669199
 40
0.8122362427248252
 40
1.0
 40
1.0
 40
1.0
 40
1.0
 10
208.7886277456647
 20
77.8792620406548
 30
0.0
 10
208.7886277456647
 20
78.30451933371467
 30
0.0
 10
208.7886277456647
 20
79.17868235368718
 30
0.0
 10
208.7886277456647
 20
80.52505781747682
 30
0.0
 10
208.7886277456647
 20
81.9219811851564
 30
0.0
 10
208.7886277456647
 20
83.3413215793626
 30
0.0
 10
208.7886277456647
 20
84.98447160643765
 30
0.0
 10
208.7886277456647
 20
86.83444526490737
 30
0.0
 10
208.7886277456647
 20
88.17506818453661
 30
0.0
 10
208.7886277456647
 20
88.84891715525768
 30
0.0
  0
INSERT
  5
15D
330
1F
100
AcDbEntity
  8
0
  6
Continuous
 62
     7
370
    18
100
AcDbBlockReference
  2
SW_CENTERMARKSYMBOL_0
 10
218.2886277457
 20
83.364089598
 30
0.0
  0
LINE
  5
15E
330
1F
100
AcDbEntity
  8
0
  6
Continuous
 62
     7
370
    25
100
AcDbLine
 10
167.8393701403
 20
115.9879593337
 30
0.0
 11
171.8393701403
 21
116.7379593337
 31
0.0
  0
LINE
  5
15F
330
1F
100
AcDbEntity
  8
0
  6
Continuous
 62
     7
370
    25
100
AcDbLine
 10
171.8393701403
 20
125.7379593337
 30
0.0
 11
167.8393701403
 21
126.4879593337
 31
0.0
  0
LINE
  5
160
330
1F
100
AcDbEntity
  8
0
  6
Continuous
 62
     7
370
    25
100
AcDbLine
 10
163.3393701403
 20
115.9879593337
 30
0.0
 11
167.8393701403
 21
115.9879593337
 31
0.0
  0
LINE
  5
161
330
1F
100
AcDbEntity
  8
0
  6
Continuous
 62
     7
370
    25
100
AcDbLine
 10
167.8393701403
 20
126.4879593337
 30
0.0
 11
163.3393701403
 21
126.4879593337
 31
0.0
  0
LINE
  5
162
330
1F
100
AcDbEntity
  8
0
  6
Continuous
 62
     7
370
    25
100
AcDbLine
 10
171.8393701403
 20
115.9879593337
 30
0.0
 11
175.8393701403
 21
116.7379593337
 31
0.0
  0
LINE
  5
163
330
1F
100
AcDbEntity
  8
0
  6
Continuous
 62
     7
370
    25
100
AcDbLine
 10
175.8393701403
 20
125.7379593337
 30
0.0
 11
171.8393701403
 21
126.4879593337
 31
0.0
  0
LINE
  5
164
330
1F
100
AcDbEntity
  8
0
  6
Continuous
 62
     7
370
    25
100
AcDbLine
 10
175.8393701403
 20
115.9879593337
 30
0.0
 11
179.8393701403
 21
116.7379593337
 31
0.0
  0
LINE
  5
165
330
1F
100
AcDbEntity
  8
0
  6
Continuous
 62
     7
370
    25
100
AcDbLine
 10
179.8393701403
 20
125.7379593337
 30
0.0
 11
175.8393701403
 21
126.4879593337
 31
0.0
  0
LINE
  5
166
330
1F
100
AcDbEntity
  8
0
  6
Continuous
 62
     7
370
    25
100
AcDbLine
 10
183.8393701403
 20
115.9879593337
 30
0.0
 11
189.3822272831
 21
116.6808164766
 31
0.0
  0
LINE
  5
167
330
1F
100
AcDbEntity
  8
0
  6
Continuous
 62
     7
370
    25
100
AcDbLine
 10
189.3822272831
 20
125.7951021909
 30
0.0
 11
183.8393701403
 21
126.4879593337
 31
0.0
  0
LINE
  5
168
330
1F
100
AcDbEntity
  8
0
  6
Continuous
 62
     7
370
    25
100
AcDbLine
 10
179.8393701403
 20
115.9879593337
 30
0.0
 11
183.8393701403
 21
116.7379593337
 31
0.0
  0
LINE
  5
169
330
1F
100
AcDbEntity
  8
0
  6
Continuous
 62
     7
370
    25
100
AcDbLine
 10
183.8393701403
 20
125.7379593337
 30
0.0
 11
179.8393701403
 21
126.4879593337
 31
0.0
  0
LINE
  5
16A
330
1F
100
AcDbEntity
  8
0
  6
Continuous
 62
     7
370
    25
100
AcDbLine
 10
189.3822272831
 20
116.6808164766
 30
0.0
 11
189.8393701403
 21
117.1379593337
 31
0.0
  0
LINE
  5
16B
330
1F
100
AcDbEntity
  8
0
  6
Continuous
 62
     7
370
    25
100
AcDbLine
 10
189.8393701403
 20
125.3379593337
 30
0.0
 11
189.3822272831
 21
125.7951021909
 31
0.0
  0
LINE
  5
16C
330
1F
100
AcDbEntity
  8
0
  6
Continuous
 62
     7
370
    25
100
AcDbLine
 10
121.2871886128
 20
126.4879593337
 30
0.0
 11
117.2871886128
 21
125.7379593337
 31
0.0
  0
LINE
  5
16D
330
1F
100
AcDbEntity
  8
0
  6
Continuous
 62
     7
370
    25
100
AcDbLine
 10
117.2871886128
 20
116.7379593337
 30
0.0
 11
121.2871886128
 21
115.9879593337
 31
0.0
  0
LINE
  5
16E
330
1F
100
AcDbEntity
  8
0
  6
Continuous
 62
     7
370
    25
100
AcDbLine
 10
125.7871886128
 20
126.4879593337
 30
0.0
 11
121.2871886128
 21
126.4879593337
 31
0.0
  0
LINE
  5
16F
330
1F
100
AcDbEntity
  8
0
  6
Continuous
 62
     7
370
    25
100
AcDbLine
 10
121.2871886128
 20
115.9879593337
 30
0.0
 11
125.7871886128
 21
115.9879593337
 31
0.0
  0
LINE
  5
170
330
1F
100
AcDbEntity
  8
0
  6
Continuous
 62
     7
370
    25
100
AcDbLine
 10
113.2871886128
 20
126.4879593337
 30
0.0
 11
109.2871886128
 21
125.7379593337
 31
0.0
  0
LINE
  5
171
330
1F
100
AcDbEntity
  8
0
  6
Continuous
 62
     7
370
    25
100
AcDbLine
 10
109.2871886128
 20
116.7379593337
 30
0.0
 11
113.2871886128
 21
115.9879593337
 31
0.0
  0
LINE
  5
172
330
1F
100
AcDbEntity
  8
0
  6
Continuous
 62
     7
370
    25
100
AcDbLine
 10
117.2871886128
 20
126.4879593337
 30
0.0
 11
113.2871886128
 21
125.7379593337
 31
0.0
  0
LINE
  5
173
330
1F
100
AcDbEntity
  8
0
  6
Continuous
 62
     7
370
    25
100
AcDbLine
 10
113.2871886128
 20
116.7379593337
 30
0.0
 11
117.2871886128
 21
115.9879593337
 31
0.0
  0
LINE
  5
174
330
1F
100
AcDbEntity
  8
0
  6
Continuous
 62
     7
370
    25
100
AcDbLine
 10
105.2871886128
 20
126.4879593337
 30
0.0
 11
99.74433147
 21
125.7951021909
 31
0.0
  0
LINE
  5
175
330
1F
100
AcDbEntity
  8
0
  6
Continuous
 62
     7
370
    25
100
AcDbLine
 10
99.74433147
 20
116.6808164766
 30
0.0
 11
105.2871886128
 21
115.9879593337
 31
0.0
  0
LINE
  5
176
330
1F
100
AcDbEntity
  8
0
  6
Continuous
 62
     7
370
    25
100
AcDbLine
 10
109.2871886128
 20
126.4879593337
 30
0.0
 11
105.2871886128
 21
125.7379593337
 31
0.0
  0
LINE
  5
177
330
1F
100
AcDbEntity
  8
0
  6
Continuous
 62
     7
370
    25
100
AcDbLine
 10
105.2871886128
 20
116.7379593337
 30
0.0
 11
109.2871886128
 21
115.9879593337
 31
0.0
  0
LINE
  5
178
330
1F
100
AcDbEntity
  8
0
  6
Continuous
 62
     7
370
    25
100
AcDbLine
 10
99.74433147
 20
125.7951021909
 30
0.0
 11
99.2871886128
 21
125.3379593337
 31
0.0
  0
LINE
  5
179
330
1F
100
AcDbEntity
  8
0
  6
Continuous
 62
     7
370
    25
100
AcDbLine
 10
99.2871886128
 20
117.1379593337
 30
0.0
 11
99.74433147
 21
116.6808164766
 31
0.0
  0
LINE
  5
17A
330
1F
100
AcDbEntity
  8
0
  6
Continuous
 62
     7
370
    25
100
AcDbLine
 10
137.7005860724
 20
111.7379593337
 30
0.0
 11
137.7871886128
 21
111.8879593337
 31
0.0
  0
LINE
  5
17B
330
1F
100
AcDbEntity
  8
0
  6
Continuous
 62
     7
370
    25
100
AcDbLine
 10
137.7871886128
 20
130.5879593337
 30
0.0
 11
137.7005860724
 21
130.7379593337
 31
0.0
  0
LINE
  5
17C
330
1F
100
AcDbEntity
  8
0
  6
Continuous
 62
     7
370
    25
100
AcDbLine
 10
127.8737911532
 20
130.7379593337
 30
0.0
 11
127.7871886128
 21
130.5879593337
 31
0.0
  0
LINE
  5
17D
330
1F
100
AcDbEntity
  8
0
  6
Continuous
 62
     7
370
    25
100
AcDbLine
 10
127.7871886128
 20
111.8879593337
 30
0.0
 11
127.8737911532
 21
111.7379593337
 31
0.0
  0
ARC
  5
17E
330
1F
100
AcDbEntity
  8
0
  6
Continuous
 62
     7
370
    25
100
AcDbCircle
 10
126.0871886128
 20
112.1879593337
 30
0.0
 40
0.2999999999999972
100
AcDbArc
 50
180.0
 51
270.0
  0
ARC
  5
17F
330
1F
100
AcDbEntity
  8
0
  6
Continuous
 62
     7
370
    25
100
AcDbCircle
 10
126.0871886128
 20
130.2879593337
 30
0.0
 40
0.2999999999999829
100
AcDbArc
 50
90.0
 51
180.0
  0
LINE
  5
180
330
1F
100
AcDbEntity
  8
0
  6
Continuous
 62
     7
370
    25
100
AcDbLine
 10
137.7871886128
 20
111.8879593337
 30
0.0
 11
139.4871886128
 21
111.8879593337
 31
0.0
  0
LINE
  5
181
330
1F
100
AcDbEntity
  8
0
  6
Continuous
 62
     7
370
    25
100
AcDbLine
 10
139.4871886128
 20
130.5879593337
 30
0.0
 11
137.7871886128
 21
130.5879593337
 31
0.0
  0
ARC
  5
182
330
1F
100
AcDbEntity
  8
0
  6
Continuous
 62
     7
370
    25
100
AcDbCircle
 10
139.4871886128
 20
130.2879593337
 30
0.0
 40
0.2999999999999829
100
AcDbArc
 50
0.0
 51
90.0
  0
ARC
  5
183
330
1F
100
AcDbEntity
  8
0
  6
Continuous
 62
     7
370
    25
100
AcDbCircle
 10
139.4871886128
 20
112.1879593337
 30
0.0
 40
0.2999999999999972
100
AcDbArc
 50
270.0
 51
0.0
  0
LINE
  5
184
330
1F
100
AcDbEntity
  8
0
  6
Continuous
 62
     7
370
    25
100
AcDbLine
 10
127.7871886128
 20
130.5879593337
 30
0.0
 11
126.0871886128
 21
130.5879593337
 31
0.0
  0
LINE
  5
185
330
1F
100
AcDbEntity
  8
0
  6
Continuous
 62
     7
370
    25
100
AcDbLine
 10
126.0871886128
 20
111.8879593337
 30
0.0
 11
127.7871886128
 21
111.8879593337
 31
0.0
  0
LINE
  5
186
330
1F
100
AcDbEntity
  8
0
  6
Continuous
 62
     7
370
    25
100
AcDbLine
 10
151.4259726807
 20
130.7379593337
 30
0.0
 11
151.3393701403
 21
130.5879593337
 31
0.0
  0
LINE
  5
187
330
1F
100
AcDbEntity
  8
0
  6
Continuous
 62
     7
370
    25
100
AcDbLine
 10
151.3393701403
 20
111.8879593337
 30
0.0
 11
151.4259726807
 21
111.7379593337
 31
0.0
  0
LINE
  5
188
330
1F
100
AcDbEntity
  8
0
  6
Continuous
 62
     7
370
    25
100
AcDbLine
 10
161.2527675999
 20
111.7379593337
 30
0.0
 11
161.3393701403
 21
111.8879593337
 31
0.0
  0
LINE
  5
189
330
1F
100
AcDbEntity
  8
0
  6
Continuous
 62
     7
370
    25
100
AcDbLine
 10
161.3393701403
 20
130.5879593337
 30
0.0
 11
161.2527675999
 21
130.7379593337
 31
0.0
  0
ARC
  5
18A
330
1F
100
AcDbEntity
  8
0
  6
Continuous
 62
     7
370
    25
100
AcDbCircle
 10
163.0393701403
 20
130.2879593337
 30
0.0
 40
0.2999999999999829
100
AcDbArc
 50
0.0
 51
90.0
  0
ARC
  5
18B
330
1F
100
AcDbEntity
  8
0
  6
Continuous
 62
     7
370
    25
100
AcDbCircle
 10
163.0393701403
 20
112.1879593337
 30
0.0
 40
0.2999999999999972
100
AcDbArc
 50
270.0
 51
0.0
  0
LINE
  5
18C
330
1F
100
AcDbEntity
  8
0
  6
Continuous
 62
     7
370
    25
100
AcDbLine
 10
151.3393701403
 20
130.5879593337
 30
0.0
 11
149.6393701403
 21
130.5879593337
 31
0.0
  0
LINE
  5
18D
330
1F
100
AcDbEntity
  8
0
  6
Continuous
 62
     7
370
    25
100
AcDbLine
 10
149.6393701403
 20
111.8879593337
 30
0.0
 11
151.3393701403
 21
111.8879593337
 31
0.0
  0
ARC
  5
18E
330
1F
100
AcDbEntity
  8
0
  6
Continuous
 62
     7
370
    25
100
AcDbCircle
 10
149.6393701403
 20
112.1879593337
 30
0.0
 40
0.2999999999999972
100
AcDbArc
 50
180.0
 51
270.0
  0
ARC
  5
18F
330
1F
100
AcDbEntity
  8
0
  6
Continuous
 62
     7
370
    25
100
AcDbCircle
 10
149.6393701403
 20
130.2879593337
 30
0.0
 40
0.2999999999999829
100
AcDbArc
 50
90.0
 51
180.0
  0
LINE
  5
190
330
1F
100
AcDbEntity
  8
0
  6
Continuous
 62
     7
370
    25
100
AcDbLine
 10
161.3393701403
 20
111.8879593337
 30
0.0
 11
163.0393701403
 21
111.8879593337
 31
0.0
  0
LINE
  5
191
330
1F
100
AcDbEntity
  8
0
  6
Continuous
 62
     7
370
    25
100
AcDbLine
 10
163.0393701403
 20
130.5879593337
 30
0.0
 11
161.3393701403
 21
130.5879593337
 31
0.0
  0
LINE
  5
192
330
1F
100
AcDbEntity
  8
0
  6
Continuous
 62
     7
370
    25
100
AcDbLine
 10
147.4189418093
 20
112.7379593337
 30
0.0
 11
147.5632793765
 21
112.9879593337
 31
0.0
  0
LINE
  5
193
330
1F
100
AcDbEntity
  8
0
  6
Continuous
 62
     7
370
    25
100
AcDbLine
 10
147.5632793765
 20
129.4879593337
 30
0.0
 11
147.4189418093
 21
129.7379593337
 31
0.0
  0
LINE
  5
194
330
1F
100
AcDbEntity
  8
0
  6
Continuous
 62
     7
370
    25
100
AcDbLine
 10
141.7076169438
 20
129.7379593337
 30
0.0
 11
141.5632793765
 21
129.4879593337
 31
0.0
  0
LINE
  5
195
330
1F
100
AcDbEntity
  8
0
  6
Continuous
 62
     7
370
    25
100
AcDbLine
 10
141.5632793765
 20
112.9879593337
 30
0.0
 11
141.7076169438
 21
112.7379593337
 31
0.0
  0
LINE
  5
196
330
1F
100
AcDbEntity
  8
0
  6
Continuous
 62
     7
370
    25
100
AcDbLine
 10
141.5632793765
 20
128.2379593337
 30
0.0
 11
139.7871886128
 21
128.2379593337
 31
0.0
  0
LINE
  5
197
330
1F
100
AcDbEntity
  8
0
  6
Continuous
 62
     7
370
    25
100
AcDbLine
 10
139.7871886128
 20
114.2379593337
 30
0.0
 11
141.5632793765
 21
114.2379593337
 31
0.0
  0
LINE
  5
198
330
1F
100
AcDbEntity
  8
0
  6
Continuous
 62
     7
370
    25
100
AcDbLine
 10
147.5632793765
 20
114.2379593337
 30
0.0
 11
149.3393701403
 21
114.2379593337
 31
0.0
  0
LINE
  5
199
330
1F
100
AcDbEntity
  8
0
  6
Continuous
 62
     7
370
    25
100
AcDbLine
 10
149.3393701403
 20
128.2379593337
 30
0.0
 11
147.5632793765
 21
128.2379593337
 31
0.0
  0
LINE
  5
19A
330
1F
100
AcDbEntity
  8
0
  6
Continuous
 62
     7
370
    25
100
AcDbLine
 10
167.8393701403
 20
115.9879593337
 30
0.0
 11
167.8393701403
 21
126.4879593337
 31
0.0
  0
LINE
  5
19B
330
1F
100
AcDbEntity
  8
0
  6
Continuous
 62
     7
370
    25
100
AcDbLine
 10
171.8393701403
 20
115.9879593337
 30
0.0
 11
171.8393701403
 21
126.4879593337
 31
0.0
  0
LINE
  5
19C
330
1F
100
AcDbEntity
  8
0
  6
Continuous
 62
     7
370
    25
100
AcDbLine
 10
175.8393701403
 20
115.9879593337
 30
0.0
 11
175.8393701403
 21
126.4879593337
 31
0.0
  0
LINE
  5
19D
330
1F
100
AcDbEntity
  8
0
  6
Continuous
 62
     7
370
    25
100
AcDbLine
 10
183.8393701403
 20
115.9879593337
 30
0.0
 11
183.8393701403
 21
126.4879593337
 31
0.0
  0
LINE
  5
19E
330
1F
100
AcDbEntity
  8
0
  6
Continuous
 62
     7
370
    25
100
AcDbLine
 10
189.3822272831
 20
116.6808164766
 30
0.0
 11
189.3822272831
 21
125.7951021909
 31
0.0
  0
LINE
  5
19F
330
1F
100
AcDbEntity
  8
0
  6
Continuous
 62
     7
370
    25
100
AcDbLine
 10
179.8393701403
 20
115.9879593337
 30
0.0
 11
179.8393701403
 21
126.4879593337
 31
0.0
  0
LINE
  5
1A0
330
1F
100
AcDbEntity
  8
0
  6
Continuous
 62
     7
370
    25
100
AcDbLine
 10
189.8393701403
 20
125.3379593337
 30
0.0
 11
189.8393701403
 21
117.1379593337
 31
0.0
  0
LINE
  5
1A1
330
1F
100
AcDbEntity
  8
0
  6
Continuous
 62
     7
370
    25
100
AcDbLine
 10
121.2871886128
 20
126.4879593337
 30
0.0
 11
121.2871886128
 21
115.9879593337
 31
0.0
  0
LINE
  5
1A2
330
1F
100
AcDbEntity
  8
0
  6
Continuous
 62
     7
370
    25
100
AcDbLine
 10
113.2871886128
 20
126.4879593337
 30
0.0
 11
113.2871886128
 21
115.9879593337
 31
0.0
  0
LINE
  5
1A3
330
1F
100
AcDbEntity
  8
0
  6
Continuous
 62
     7
370
    25
100
AcDbLine
 10
117.2871886128
 20
126.4879593337
 30
0.0
 11
117.2871886128
 21
115.9879593337
 31
0.0
  0
LINE
  5
1A4
330
1F
100
AcDbEntity
  8
0
  6
Continuous
 62
     7
370
    25
100
AcDbLine
 10
105.2871886128
 20
126.4879593337
 30
0.0
 11
105.2871886128
 21
115.9879593337
 31
0.0
  0
LINE
  5
1A5
330
1F
100
AcDbEntity
  8
0
  6
Continuous
 62
     7
370
    25
100
AcDbLine
 10
99.74433147
 20
125.7951021909
 30
0.0
 11
99.74433147
 21
116.6808164766
 31
0.0
  0
LINE
  5
1A6
330
1F
100
AcDbEntity
  8
0
  6
Continuous
 62
     7
370
    25
100
AcDbLine
 10
109.2871886128
 20
126.4879593337
 30
0.0
 11
109.2871886128
 21
115.9879593337
 31
0.0
  0
LINE
  5
1A7
330
1F
100
AcDbEntity
  8
0
  6
Continuous
 62
     7
370
    25
100
AcDbLine
 10
99.2871886128
 20
117.1379593337
 30
0.0
 11
99.2871886128
 21
125.3379593337
 31
0.0
  0
LINE
  5
1A8
330
1F
100
AcDbEntity
  8
0
  6
Continuous
 62
     7
370
    25
100
AcDbLine
 10
128.7222969292
 20
121.2379593337
 30
0.0
 11
132.6310184977
 21
121.2379593337
 31
0.0
  0
SPLINE
  5
1A9
330
1F
100
AcDbEntity
  8
0
  6
Continuous
 62
     7
370
    25
100
AcDbSpline
210
0.0
220
0.0
230
1.0
 70
     8
 71
     3
 72
    15
 73
    11
 74
     0
 42
0.000000001
 43
0.00000001
 40
0.0
 40
0.0
 40
0.0
 40
0.0
 40
0.1323056949471119
 40
0.2645739819647155
 40
0.3998011884071377
 40
0.5350039926534307
 40
0.6501943985256686
 40
0.7654027729264457
 40
0.8826900467077625
 40
1.0
 40
1.0
 40
1.0
 40
1.0
 10
128.7222969292316
 20
130.7379593337118
 30
0.0
 10
128.593130068798
 20
130.3275201125365
 30
0.0
 10
128.3348328683905
 20
129.5067577172045
 30
0.0
 10
128.0569153592556
 20
128.2428561224197
 30
0.0
 10
127.8898120297006
 20
126.9551296722347
 30
0.0
 10
127.8567197360075
 20
125.7140521656529
 30
0.0
 10
127.9425803472474
 20
124.540026748625
 30
0.0
 10
128.118508800645
 20
123.4320388411704
 30
0.0
 10
128.3765755648248
 20
122.3290605138057
 30
0.0
 10
128.607049047479
 20
121.6016831666295
 30
0.0
 10
128.7222969292316
 20
121.2379593337118
 30
0.0
  0
LINE
  5
1AA
330
1F
100
AcDbEntity
  8
0
  6
Continuous
 62
     7
370
    25
100
AcDbLine
 10
128.7222969292
 20
130.7379593337
 30
0.0
 11
132.6310184977
 21
130.7379593337
 31
0.0
  0
LINE
  5
1AB
330
1F
100
AcDbEntity
  8
0
  6
Continuous
 62
     7
370
    25
100
AcDbLine
 10
132.7871886128
 20
130.1943420075
 30
0.0
 11
132.6310184977
 21
130.7379593337
 31
0.0
  0
LINE
  5
1AC
330
1F
100
AcDbEntity
  8
0
  6
Continuous
 62
     7
370
    25
100
AcDbLine
 10
132.943358728
 20
130.7379593337
 30
0.0
 11
132.7871886128
 21
130.1943420075
 31
0.0
  0
LINE
  5
1AD
330
1F
100
AcDbEntity
  8
0
  6
Continuous
 62
     7
370
    25
100
AcDbLine
 10
132.943358728
 20
130.7379593337
 30
0.0
 11
136.8520802964
 21
130.7379593337
 31
0.0
  0
SPLINE
  5
1AE
330
1F
100
AcDbEntity
  8
0
  6
Continuous
 62
     7
370
    25
100
AcDbSpline
210
0.0
220
0.0
230
1.0
 70
     8
 71
     3
 72
    15
 73
    11
 74
     0
 42
0.000000001
 43
0.00000001
 40
0.0
 40
0.0
 40
0.0
 40
0.0
 40
0.1323056949471119
 40
0.2645739819647156
 40
0.3998011884071377
 40
0.5350039926534308
 40
0.6501943985256687
 40
0.7654027729264458
 40
0.8826900467077626
 40
1.0
 40
1.0
 40
1.0
 40
1.0
 10
136.8520802964109
 20
130.7379593337118
 30
0.0
 10
136.9812471568445
 20
130.3275201125365
 30
0.0
 10
137.239544357252
 20
129.5067577172045
 30
0.0
 10
137.5174618663869
 20
128.2428561224197
 30
0.0
 10
137.6845651959418
 20
126.9551296722347
 30
0.0
 10
137.7176574896349
 20
125.7140521656529
 30
0.0
 10
137.6317968783951
 20
124.540026748625
 30
0.0
 10
137.4558684249974
 20
123.4320388411704
 30
0.0
 10
137.1978016608177
 20
122.3290605138057
 30
0.0
 10
136.9673281781635
 20
121.6016831666295
 30
0.0
 10
136.8520802964109
 20
121.2379593337118
 30
0.0
  0
LINE
  5
1AF
330
1F
100
AcDbEntity
  8
0
  6
Continuous
 62
     7
370
    25
100
AcDbLine
 10
132.943358728
 20
121.2379593337
 30
0.0
 11
136.8520802964
 21
121.2379593337
 31
0.0
  0
LINE
  5
1B0
330
1F
100
AcDbEntity
  8
0
  6
Continuous
 62
     7
370
    25
100
AcDbLine
 10
132.7871886128
 20
121.7815766599
 30
0.0
 11
132.943358728
 21
121.2379593337
 31
0.0
  0
LINE
  5
1B1
330
1F
100
AcDbEntity
  8
0
  6
Continuous
 62
     7
370
    25
100
AcDbLine
 10
132.6310184977
 20
121.2379593337
 30
0.0
 11
132.7871886128
 21
121.7815766599
 31
0.0
  0
SPLINE
  5
1B2
330
1F
100
AcDbEntity
  8
0
  6
Continuous
 62
     7
370
    25
100
AcDbSpline
210
0.0
220
0.0
230
1.0
 70
    24
 71
     3
 72
    10
 73
     6
 74
     0
 42
0.000000001
 43
0.00000001
 40
0.0
 40
0.0
 40
0.0
 40
0.0
 40
0.2528745545864978
 40
0.6244658322486112
 40
1.0
 40
1.0
 40
1.0
 40
1.0
 10
137.6994055474364
 20
130.7379593337118
 30
0.0
 10
137.6875984394431
 20
130.7379593337118
 30
0.0
 10
137.6584411541974
 20
130.7379593337118
 30
0.0
 10
137.3856103565614
 20
130.7379593337118
 30
0.0
 10
137.0305482530021
 20
130.7379593337118
 30
0.0
 10
136.8520802964109
 20
130.7379593337118
 30
0.0
  0
SPLINE
  5
1B3
330
1F
100
AcDbEntity
  8
0
  6
Continuous
 62
     7
370
    25
100
AcDbSpline
210
0.0
220
0.0
230
1.0
 70
    24
 71
     3
 72
    11
 73
     7
 74
     0
 42
0.000000001
 43
0.00000001
 40
0.0
 40
0.0
 40
0.0
 40
0.0
 40
0.3719466537681473
 40
0.7472137155501577
 40
0.9968436509740263
 40
1.0
 40
1.0
 40
1.0
 40
1.0
 10
136.8520802964109
 20
111.7379593337118
 30
0.0
 10
137.0310947849735
 20
111.7379593337118
 30
0.0
 10
137.3907218438031
 20
111.7379593337118
 30
0.0
 10
137.6348171659393
 20
111.7379593337118
 30
0.0
 10
137.7196194876676
 20
111.7379593337118
 30
0.0
 10
137.7000971641882
 20
111.7379593337118
 30
0.0
 10
137.6998534038638
 20
111.7379593337118
 30
0.0
  0
SPLINE
  5
1B4
330
1F
100
AcDbEntity
  8
0
  6
Continuous
 62
     7
370
    25
100
AcDbSpline
210
0.0
220
0.0
230
1.0
 70
     8
 71
     3
 72
    15
 73
    11
 74
     0
 42
0.000000001
 43
0.00000001
 40
0.0
 40
0.0
 40
0.0
 40
0.0
 40
0.1323056949471117
 40
0.2645739819647153
 40
0.3998011884071372
 40
0.53500399265343
 40
0.6501943985256678
 40
0.7654027729264451
 40
0.8826900467077623
 40
1.0
 40
1.0
 40
1.0
 40
1.0
 10
136.8520802964109
 20
121.2379593337118
 30
0.0
 10
136.9812471568445
 20
120.8275201125365
 30
0.0
 10
137.239544357252
 20
120.0067577172045
 30
0.0
 10
137.5174618663869
 20
118.7428561224197
 30
0.0
 10
137.6845651959418
 20
117.4551296722347
 30
0.0
 10
137.7176574896349
 20
116.2140521656529
 30
0.0
 10
137.6317968783951
 20
115.040026748625
 30
0.0
 10
137.4558684249974
 20
113.9320388411704
 30
0.0
 10
137.1978016608177
 20
112.8290605138057
 30
0.0
 10
136.9673281781635
 20
112.1016831666295
 30
0.0
 10
136.8520802964109
 20
111.7379593337118
 30
0.0
  0
LINE
  5
1B5
330
1F
100
AcDbEntity
  8
0
  6
Continuous
 62
     7
370
    25
100
AcDbLine
 10
137.7871886128
 20
130.5879593337
 30
0.0
 11
137.7871886128
 21
111.8879593337
 31
0.0
  0
SPLINE
  5
1B6
330
1F
100
AcDbEntity
  8
0
  6
Continuous
 62
     7
370
    25
100
AcDbSpline
210
0.0
220
0.0
230
1.0
 70
     8
 71
     3
 72
    15
 73
    11
 74
     0
 42
0.000000001
 43
0.00000001
 40
0.0
 40
0.0
 40
0.0
 40
0.0
 40
0.1323056949471117
 40
0.2645739819647153
 40
0.3998011884071372
 40
0.53500399265343
 40
0.6501943985256678
 40
0.7654027729264451
 40
0.8826900467077623
 40
1.0
 40
1.0
 40
1.0
 40
1.0
 10
128.7222969292316
 20
121.2379593337118
 30
0.0
 10
128.593130068798
 20
120.8275201125365
 30
0.0
 10
128.3348328683905
 20
120.0067577172045
 30
0.0
 10
128.0569153592556
 20
118.7428561224197
 30
0.0
 10
127.8898120297006
 20
117.4551296722347
 30
0.0
 10
127.8567197360075
 20
116.2140521656529
 30
0.0
 10
127.9425803472474
 20
115.040026748625
 30
0.0
 10
128.118508800645
 20
113.9320388411704
 30
0.0
 10
128.3765755648248
 20
112.8290605138057
 30
0.0
 10
128.607049047479
 20
112.1016831666295
 30
0.0
 10
128.7222969292316
 20
111.7379593337118
 30
0.0
  0
SPLINE
  5
1B7
330
1F
100
AcDbEntity
  8
0
  6
Continuous
 62
     7
370
    25
100
AcDbSpline
210
0.0
220
0.0
230
1.0
 70
    24
 71
     3
 72
    11
 73
     7
 74
     0
 42
0.000000001
 43
0.00000001
 40
0.0
 40
0.0
 40
0.0
 40
0.0
 40
0.3719466537681475
 40
0.7472137155501577
 40
0.9968436509740263
 40
1.0
 40
1.0
 40
1.0
 40
1.0
 10
128.7222969292316
 20
111.7379593337118
 30
0.0
 10
128.543282440669
 20
111.7379593337118
 30
0.0
 10
128.1836553818393
 20
111.7379593337118
 30
0.0
 10
127.9395600597033
 20
111.7379593337118
 30
0.0
 10
127.8547577379747
 20
111.7379593337118
 30
0.0
 10
127.8742800614542
 20
111.7379593337118
 30
0.0
 10
127.8745238217786
 20
111.7379593337118
 30
0.0
  0
SPLINE
  5
1B8
330
1F
100
AcDbEntity
  8
0
  6
Continuous
 62
     7
370
    25
100
AcDbSpline
210
0.0
220
0.0
230
1.0
 70
    24
 71
     3
 72
    10
 73
     6
 74
     0
 42
0.000000001
 43
0.00000001
 40
0.0
 40
0.0
 40
0.0
 40
0.0
 40
0.2528745545864978
 40
0.6244658322486111
 40
1.0
 40
1.0
 40
1.0
 40
1.0
 10
127.8749716782061
 20
130.7379593337118
 30
0.0
 10
127.8867787861994
 20
130.7379593337118
 30
0.0
 10
127.9159360714451
 20
130.7379593337118
 30
0.0
 10
128.188766869081
 20
130.7379593337118
 30
0.0
 10
128.5438289726404
 20
130.7379593337118
 30
0.0
 10
128.7222969292316
 20
130.7379593337118
 30
0.0
  0
LINE
  5
1B9
330
1F
100
AcDbEntity
  8
0
  6
Continuous
 62
     7
370
    25
100
AcDbLine
 10
127.7871886128
 20
130.5879593337
 30
0.0
 11
127.7871886128
 21
111.8879593337
 31
0.0
  0
LINE
  5
1BA
330
1F
100
AcDbEntity
  8
0
  6
Continuous
 62
     7
370
    25
100
AcDbLine
 10
132.7871886128
 20
120.6943420075
 30
0.0
 11
132.6310184977
 21
121.2379593337
 31
0.0
  0
LINE
  5
1BB
330
1F
100
AcDbEntity
  8
0
  6
Continuous
 62
     7
370
    25
100
AcDbLine
 10
132.7871886128
 20
120.6943420075
 30
0.0
 11
132.7871886128
 21
121.7815766599
 31
0.0
  0
LINE
  5
1BC
330
1F
100
AcDbEntity
  8
0
  6
Continuous
 62
     7
370
    25
100
AcDbLine
 10
128.7222969292
 20
111.7379593337
 30
0.0
 11
132.6310184977
 21
111.7379593337
 31
0.0
  0
LINE
  5
1BD
330
1F
100
AcDbEntity
  8
0
  6
Continuous
 62
     7
370
    25
100
AcDbLine
 10
132.943358728
 20
121.2379593337
 30
0.0
 11
132.7871886128
 21
120.6943420075
 31
0.0
  0
LINE
  5
1BE
330
1F
100
AcDbEntity
  8
0
  6
Continuous
 62
     7
370
    25
100
AcDbLine
 10
132.943358728
 20
111.7379593337
 30
0.0
 11
136.8520802964
 21
111.7379593337
 31
0.0
  0
LINE
  5
1BF
330
1F
100
AcDbEntity
  8
0
  6
Continuous
 62
     7
370
    25
100
AcDbLine
 10
132.7871886128
 20
112.2815766599
 30
0.0
 11
132.943358728
 21
111.7379593337
 31
0.0
  0
LINE
  5
1C0
330
1F
100
AcDbEntity
  8
0
  6
Continuous
 62
     7
370
    25
100
AcDbLine
 10
132.6310184977
 20
111.7379593337
 30
0.0
 11
132.7871886128
 21
112.2815766599
 31
0.0
  0
LINE
  5
1C1
330
1F
100
AcDbEntity
  8
0
  6
Continuous
 62
     7
370
    25
100
AcDbLine
 10
125.7871886128
 20
112.1879593337
 30
0.0
 11
125.7871886128
 21
130.2879593337
 31
0.0
  0
LINE
  5
1C2
330
1F
100
AcDbEntity
  8
0
  6
Continuous
 62
     7
370
    25
100
AcDbLine
 10
139.7871886128
 20
130.2879593337
 30
0.0
 11
139.7871886128
 21
112.1879593337
 31
0.0
  0
LINE
  5
1C3
330
1F
100
AcDbEntity
  8
0
  6
Continuous
 62
     7
370
    25
100
AcDbLine
 10
132.6310184977
 20
130.7379593337
 30
0.0
 11
132.7871886128
 21
130.7379593337
 31
0.0
  0
LINE
  5
1C4
330
1F
100
AcDbEntity
  8
0
  6
Continuous
 62
     7
370
    25
100
AcDbLine
 10
132.7871886128
 20
130.1943420075
 30
0.0
 11
132.7871886128
 21
130.7379593337
 31
0.0
  0
LINE
  5
1C5
330
1F
100
AcDbEntity
  8
0
  6
Continuous
 62
     7
370
    25
100
AcDbLine
 10
132.7871886128
 20
130.7379593337
 30
0.0
 11
132.943358728
 21
130.7379593337
 31
0.0
  0
LINE
  5
1C6
330
1F
100
AcDbEntity
  8
0
  6
Continuous
 62
     7
370
    25
100
AcDbLine
 10
132.7871886128
 20
111.7379593337
 30
0.0
 11
132.7871886128
 21
112.2815766599
 31
0.0
  0
LINE
  5
1C7
330
1F
100
AcDbEntity
  8
0
  6
Continuous
 62
     7
370
    25
100
AcDbLine
 10
132.7871886128
 20
111.7379593337
 30
0.0
 11
132.6310184977
 21
111.7379593337
 31
0.0
  0
LINE
  5
1C8
330
1F
100
AcDbEntity
  8
0
  6
Continuous
 62
     7
370
    25
100
AcDbLine
 10
132.943358728
 20
111.7379593337
 30
0.0
 11
132.7871886128
 21
111.7379593337
 31
0.0
  0
LINE
  5
1C9
330
1F
100
AcDbEntity
  8
0
  6
Continuous
 62
     7
370
    25
100
AcDbLine
 10
160.4042618239
 20
130.7379593337
 30
0.0
 11
156.4955402554
 21
130.7379593337
 31
0.0
  0
SPLINE
  5
1CA
330
1F
100
AcDbEntity
  8
0
  6
Continuous
 62
     7
370
    25
100
AcDbSpline
210
0.0
220
0.0
230
1.0
 70
     8
 71
     3
 72
    15
 73
    11
 74
     0
 42
0.000000001
 43
0.00000001
 40
0.0
 40
0.0
 40
0.0
 40
0.0
 40
0.1323056949471118
 40
0.2645739819647154
 40
0.3998011884071374
 40
0.5350039926534301
 40
0.650194398525668
 40
0.7654027729264451
 40
0.8826900467077623
 40
1.0
 40
1.0
 40
1.0
 40
1.0
 10
160.4042618238649
 20
121.2379593337118
 30
0.0
 10
160.5334286842985
 20
121.6483985548871
 30
0.0
 10
160.791725884706
 20
122.4691609502191
 30
0.0
 10
161.0696433938409
 20
123.7330625450039
 30
0.0
 10
161.2367467233958
 20
125.0207889951889
 30
0.0
 10
161.2698390170889
 20
126.2618665017707
 30
0.0
 10
161.183978405849
 20
127.4358919187986
 30
0.0
 10
161.0080499524514
 20
128.5438798262532
 30
0.0
 10
160.7499831882717
 20
129.646858153618
 30
0.0
 10
160.5195097056175
 20
130.3742355007941
 30
0.0
 10
160.4042618238649
 20
130.7379593337118
 30
0.0
  0
LINE
  5
1CB
330
1F
100
AcDbEntity
  8
0
  6
Continuous
 62
     7
370
    25
100
AcDbLine
 10
160.4042618239
 20
121.2379593337
 30
0.0
 11
156.4955402554
 21
121.2379593337
 31
0.0
  0
LINE
  5
1CC
330
1F
100
AcDbEntity
  8
0
  6
Continuous
 62
     7
370
    25
100
AcDbLine
 10
156.3393701403
 20
121.7815766599
 30
0.0
 11
156.4955402554
 21
121.2379593337
 31
0.0
  0
LINE
  5
1CD
330
1F
100
AcDbEntity
  8
0
  6
Continuous
 62
     7
370
    25
100
AcDbLine
 10
156.1832000251
 20
121.2379593337
 30
0.0
 11
156.3393701403
 21
121.7815766599
 31
0.0
  0
LINE
  5
1CE
330
1F
100
AcDbEntity
  8
0
  6
Continuous
 62
     7
370
    25
100
AcDbLine
 10
156.1832000251
 20
121.2379593337
 30
0.0
 11
152.2744784567
 21
121.2379593337
 31
0.0
  0
SPLINE
  5
1CF
330
1F
100
AcDbEntity
  8
0
  6
Continuous
 62
     7
370
    25
100
AcDbSpline
210
0.0
220
0.0
230
1.0
 70
     8
 71
     3
 72
    15
 73
    11
 74
     0
 42
0.000000001
 43
0.00000001
 40
0.0
 40
0.0
 40
0.0
 40
0.0
 40
0.1323056949471117
 40
0.2645739819647153
 40
0.3998011884071372
 40
0.5350039926534299
 40
0.6501943985256678
 40
0.7654027729264451
 40
0.8826900467077623
 40
1.0
 40
1.0
 40
1.0
 40
1.0
 10
152.2744784566855
 20
121.2379593337118
 30
0.0
 10
152.1453115962519
 20
121.6483985548871
 30
0.0
 10
151.8870143958445
 20
122.4691609502191
 30
0.0
 10
151.6090968867096
 20
123.7330625450039
 30
0.0
 10
151.4419935571546
 20
125.0207889951889
 30
0.0
 10
151.4089012634615
 20
126.2618665017707
 30
0.0
 10
151.4947618747014
 20
127.4358919187986
 30
0.0
 10
151.670690328099
 20
128.5438798262532
 30
0.0
 10
151.9287570922787
 20
129.646858153618
 30
0.0
 10
152.1592305749329
 20
130.3742355007941
 30
0.0
 10
152.2744784566855
 20
130.7379593337118
 30
0.0
  0
LINE
  5
1D0
330
1F
100
AcDbEntity
  8
0
  6
Continuous
 62
     7
370
    25
100
AcDbLine
 10
156.1832000251
 20
130.7379593337
 30
0.0
 11
152.2744784567
 21
130.7379593337
 31
0.0
  0
LINE
  5
1D1
330
1F
100
AcDbEntity
  8
0
  6
Continuous
 62
     7
370
    25
100
AcDbLine
 10
156.3393701403
 20
130.1943420075
 30
0.0
 11
156.1832000251
 21
130.7379593337
 31
0.0
  0
LINE
  5
1D2
330
1F
100
AcDbEntity
  8
0
  6
Continuous
 62
     7
370
    25
100
AcDbLine
 10
156.4955402554
 20
130.7379593337
 30
0.0
 11
156.3393701403
 21
130.1943420075
 31
0.0
  0
SPLINE
  5
1D3
330
1F
100
AcDbEntity
  8
0
  6
Continuous
 62
     7
370
    25
100
AcDbSpline
210
0.0
220
0.0
230
1.0
 70
     8
 71
     3
 72
    15
 73
    11
 74
     0
 42
0.000000001
 43
0.00000001
 40
0.0
 40
0.0
 40
0.0
 40
0.0
 40
0.132305694947112
 40
0.2645739819647155
 40
0.3998011884071377
 40
0.5350039926534307
 40
0.6501943985256687
 40
0.7654027729264458
 40
0.8826900467077626
 40
1.0
 40
1.0
 40
1.0
 40
1.0
 10
152.2744784566855
 20
111.7379593337118
 30
0.0
 10
152.1453115962519
 20
112.1483985548872
 30
0.0
 10
151.8870143958445
 20
112.9691609502191
 30
0.0
 10
151.6090968867096
 20
114.2330625450039
 30
0.0
 10
151.4419935571546
 20
115.5207889951889
 30
0.0
 10
151.4089012634615
 20
116.7618665017707
 30
0.0
 10
151.4947618747014
 20
117.9358919187986
 30
0.0
 10
151.670690328099
 20
119.0438798262532
 30
0.0
 10
151.9287570922788
 20
120.1468581536179
 30
0.0
 10
152.1592305749329
 20
120.8742355007941
 30
0.0
 10
152.2744784566855
 20
121.2379593337118
 30
0.0
  0
SPLINE
  5
1D4
330
1F
100
AcDbEntity
  8
0
  6
Continuous
 62
     7
370
    25
100
AcDbSpline
210
0.0
220
0.0
230
1.0
 70
    24
 71
     3
 72
    10
 73
     6
 74
     0
 42
0.000000001
 43
0.00000001
 40
0.0
 40
0.0
 40
0.0
 40
0.0
 40
0.2528745545864886
 40
0.6244658322486066
 40
0.9999999999999999
 40
0.9999999999999999
 40
0.9999999999999999
 40
0.9999999999999999
 10
151.4271532056601
 20
111.7379593337118
 30
0.0
 10
151.4389603136533
 20
111.7379593337118
 30
0.0
 10
151.4681175988991
 20
111.7379593337118
 30
0.0
 10
151.740948396535
 20
111.7379593337118
 30
0.0
 10
152.0960105000944
 20
111.7379593337118
 30
0.0
 10
152.2744784566855
 20
111.7379593337118
 30
0.0
  0
SPLINE
  5
1D5
330
1F
100
AcDbEntity
  8
0
  6
Continuous
 62
     7
370
    25
100
AcDbSpline
210
0.0
220
0.0
230
1.0
 70
    24
 71
     3
 72
    11
 73
     7
 74
     0
 42
0.000000001
 43
0.00000001
 40
0.0
 40
0.0
 40
0.0
 40
0.0
 40
0.3719466537681427
 40
0.7472137155501486
 40
0.9968436509740141
 40
1.0
 40
1.0
 40
1.0
 40
1.0
 10
152.2744784566855
 20
130.7379593337118
 30
0.0
 10
152.095463968123
 20
130.7379593337118
 30
0.0
 10
151.7358369092933
 20
130.7379593337118
 30
0.0
 10
151.4917415871572
 20
130.7379593337118
 30
0.0
 10
151.4069392654288
 20
130.7379593337118
 30
0.0
 10
151.4264615889082
 20
130.7379593337118
 30
0.0
 10
151.4267053492326
 20
130.7379593337118
 30
0.0
  0
LINE
  5
1D6
330
1F
100
AcDbEntity
  8
0
  6
Continuous
 62
     7
370
    25
100
AcDbLine
 10
151.3393701403
 20
111.8879593337
 30
0.0
 11
151.3393701403
 21
130.5879593337
 31
0.0
  0
SPLINE
  5
1D7
330
1F
100
AcDbEntity
  8
0
  6
Continuous
 62
     7
370
    25
100
AcDbSpline
210
0.0
220
0.0
230
1.0
 70
     8
 71
     3
 72
    15
 73
    11
 74
     0
 42
0.000000001
 43
0.00000001
 40
0.0
 40
0.0
 40
0.0
 40
0.0
 40
0.1323056949471119
 40
0.2645739819647155
 40
0.3998011884071377
 40
0.5350039926534307
 40
0.6501943985256686
 40
0.7654027729264457
 40
0.8826900467077625
 40
1.0
 40
1.0
 40
1.0
 40
1.0
 10
160.4042618238649
 20
111.7379593337118
 30
0.0
 10
160.5334286842985
 20
112.1483985548872
 30
0.0
 10
160.791725884706
 20
112.9691609502191
 30
0.0
 10
161.0696433938409
 20
114.2330625450039
 30
0.0
 10
161.2367467233958
 20
115.520788995189
 30
0.0
 10
161.2698390170889
 20
116.7618665017707
 30
0.0
 10
161.183978405849
 20
117.9358919187986
 30
0.0
 10
161.0080499524514
 20
119.0438798262532
 30
0.0
 10
160.7499831882717
 20
120.1468581536179
 30
0.0
 10
160.5195097056175
 20
120.8742355007941
 30
0.0
 10
160.4042618238649
 20
121.2379593337118
 30
0.0
  0
SPLINE
  5
1D8
330
1F
100
AcDbEntity
  8
0
  6
Continuous
 62
     7
370
    25
100
AcDbSpline
210
0.0
220
0.0
230
1.0
 70
    24
 71
     3
 72
    11
 73
     7
 74
     0
 42
0.000000001
 43
0.00000001
 40
0.0
 40
0.0
 40
0.0
 40
0.0
 40
0.3719466537681427
 40
0.7472137155501486
 40
0.9968436509740141
 40
1.0
 40
1.0
 40
1.0
 40
1.0
 10
160.4042618238649
 20
130.7379593337118
 30
0.0
 10
160.5832763124275
 20
130.7379593337118
 30
0.0
 10
160.9429033712571
 20
130.7379593337118
 30
0.0
 10
161.1869986933932
 20
130.7379593337118
 30
0.0
 10
161.2718010151217
 20
130.7379593337118
 30
0.0
 10
161.2522786916422
 20
130.7379593337118
 30
0.0
 10
161.2520349313178
 20
130.7379593337118
 30
0.0
  0
SPLINE
  5
1D9
330
1F
100
AcDbEntity
  8
0
  6
Continuous
 62
     7
370
    25
100
AcDbSpline
210
0.0
220
0.0
230
1.0
 70
    24
 71
     3
 72
    10
 73
     6
 74
     0
 42
0.000000001
 43
0.00000001
 40
0.0
 40
0.0
 40
0.0
 40
0.0
 40
0.2528745545864886
 40
0.6244658322486064
 40
0.9999999999999999
 40
0.9999999999999999
 40
0.9999999999999999
 40
0.9999999999999999
 10
161.2515870748904
 20
111.7379593337118
 30
0.0
 10
161.2397799668971
 20
111.7379593337118
 30
0.0
 10
161.2106226816514
 20
111.7379593337118
 30
0.0
 10
160.9377918840154
 20
111.7379593337118
 30
0.0
 10
160.5827297804561
 20
111.7379593337118
 30
0.0
 10
160.4042618238649
 20
111.7379593337118
 30
0.0
  0
LINE
  5
1DA
330
1F
100
AcDbEntity
  8
0
  6
Continuous
 62
     7
370
    25
100
AcDbLine
 10
161.3393701403
 20
111.8879593337
 30
0.0
 11
161.3393701403
 21
130.5879593337
 31
0.0
  0
LINE
  5
1DB
330
1F
100
AcDbEntity
  8
0
  6
Continuous
 62
     7
370
    25
100
AcDbLine
 10
156.4955402554
 20
121.2379593337
 30
0.0
 11
156.3393701403
 21
120.6943420075
 31
0.0
  0
LINE
  5
1DC
330
1F
100
AcDbEntity
  8
0
  6
Continuous
 62
     7
370
    25
100
AcDbLine
 10
156.3393701403
 20
121.7815766599
 30
0.0
 11
156.3393701403
 21
120.6943420075
 31
0.0
  0
LINE
  5
1DD
330
1F
100
AcDbEntity
  8
0
  6
Continuous
 62
     7
370
    25
100
AcDbLine
 10
160.4042618239
 20
111.7379593337
 30
0.0
 11
156.4955402554
 21
111.7379593337
 31
0.0
  0
LINE
  5
1DE
330
1F
100
AcDbEntity
  8
0
  6
Continuous
 62
     7
370
    25
100
AcDbLine
 10
156.3393701403
 20
112.2815766599
 30
0.0
 11
156.4955402554
 21
111.7379593337
 31
0.0
  0
LINE
  5
1DF
330
1F
100
AcDbEntity
  8
0
  6
Continuous
 62
     7
370
    25
100
AcDbLine
 10
156.1832000251
 20
111.7379593337
 30
0.0
 11
156.3393701403
 21
112.2815766599
 31
0.0
  0
LINE
  5
1E0
330
1F
100
AcDbEntity
  8
0
  6
Continuous
 62
     7
370
    25
100
AcDbLine
 10
156.1832000251
 20
111.7379593337
 30
0.0
 11
152.2744784567
 21
111.7379593337
 31
0.0
  0
LINE
  5
1E1
330
1F
100
AcDbEntity
  8
0
  6
Continuous
 62
     7
370
    25
100
AcDbLine
 10
156.3393701403
 20
120.6943420075
 30
0.0
 11
156.1832000251
 21
121.2379593337
 31
0.0
  0
LINE
  5
1E2
330
1F
100
AcDbEntity
  8
0
  6
Continuous
 62
     7
370
    25
100
AcDbLine
 10
163.3393701403
 20
130.2879593337
 30
0.0
 11
163.3393701403
 21
112.1879593337
 31
0.0
  0
LINE
  5
1E3
330
1F
100
AcDbEntity
  8
0
  6
Continuous
 62
     7
370
    25
100
AcDbLine
 10
149.3393701403
 20
112.1879593337
 30
0.0
 11
149.3393701403
 21
130.2879593337
 31
0.0
  0
LINE
  5
1E4
330
1F
100
AcDbEntity
  8
0
  6
Continuous
 62
     7
370
    25
100
AcDbLine
 10
156.1832000251
 20
130.7379593337
 30
0.0
 11
156.3393701403
 21
130.7379593337
 31
0.0
  0
LINE
  5
1E5
330
1F
100
AcDbEntity
  8
0
  6
Continuous
 62
     7
370
    25
100
AcDbLine
 10
156.3393701403
 20
130.7379593337
 30
0.0
 11
156.3393701403
 21
130.1943420075
 31
0.0
  0
LINE
  5
1E6
330
1F
100
AcDbEntity
  8
0
  6
Continuous
 62
     7
370
    25
100
AcDbLine
 10
156.3393701403
 20
130.7379593337
 30
0.0
 11
156.4955402554
 21
130.7379593337
 31
0.0
  0
LINE
  5
1E7
330
1F
100
AcDbEntity
  8
0
  6
Continuous
 62
     7
370
    25
100
AcDbLine
 10
156.4955402554
 20
111.7379593337
 30
0.0
 11
156.3393701403
 21
111.7379593337
 31
0.0
  0
LINE
  5
1E8
330
1F
100
AcDbEntity
  8
0
  6
Continuous
 62
     7
370
    25
100
AcDbLine
 10
156.3393701403
 20
112.2815766599
 30
0.0
 11
156.3393701403
 21
111.7379593337
 31
0.0
  0
LINE
  5
1E9
330
1F
100
AcDbEntity
  8
0
  6
Continuous
 62
     7
370
    25
100
AcDbLine
 10
156.3393701403
 20
111.7379593337
 30
0.0
 11
156.1832000251
 21
111.7379593337
 31
0.0
  0
LINE
  5
1EA
330
1F
100
AcDbEntity
  8
0
  6
Continuous
 62
     7
370
    25
100
AcDbLine
 10
142.4668063224
 20
121.2379593337
 30
0.0
 11
144.4828946188
 21
121.2379593337
 31
0.0
  0
SPLINE
  5
1EB
330
1F
100
AcDbEntity
  8
0
  6
Continuous
 62
     7
370
    25
100
AcDbSpline
210
0.0
220
0.0
230
1.0
 70
     8
 71
     3
 72
    16
 73
    12
 74
     0
 42
0.000000001
 43
0.00000001
 40
0.0
 40
0.0
 40
0.0
 40
0.0
 40
0.25
 40
0.25
 40
0.5
 40
0.5
 40
0.625
 40
0.625
 40
0.75
 40
0.75
 40
1.0
 40
1.0
 40
1.0
 40
1.0
 10
142.4668063224001
 20
121.2379593337118
 30
0.0
 10
142.2354915687175
 20
121.9319035947596
 30
0.0
 10
142.044846275387
 20
122.6309073213039
 30
0.0
 10
141.7807406189797
 20
124.0434931117042
 30
0.0
 10
141.7081514276657
 20
124.7571835532826
 30
0.0
 10
141.7073541815748
 20
125.8411656720197
 30
0.0
 10
141.7250994381982
 20
126.2041931003385
 30
0.0
 10
141.794296521728
 20
126.9222996632023
 30
0.0
 10
141.8456781277903
 20
127.2789453997864
 30
0.0
 10
142.0440861265269
 20
128.3425330186422
 30
0.0
 10
142.2352032282309
 20
129.0431500512037
 30
0.0
 10
142.4668063224003
 20
129.7379593337118
 30
0.0
  0
LINE
  5
1EC
330
1F
100
AcDbEntity
  8
0
  6
Continuous
 62
     7
370
    25
100
AcDbLine
 10
142.4668063224
 20
129.7379593337
 30
0.0
 11
144.4828946188
 21
129.7379593337
 31
0.0
  0
SPLINE
  5
1ED
330
1F
100
AcDbEntity
  8
0
  6
Continuous
 62
     7
370
    25
100
AcDbSpline
210
0.0
220
0.0
230
1.0
 70
     8
 71
     3
 72
     8
 73
     4
 74
     0
 42
0.000000001
 43
0.00000001
 40
0.0
 40
0.0
 40
0.0
 40
0.0
 40
1.0
 40
1.0
 40
1.0
 40
1.0
 10
144.5632793765482
 20
129.1911026526639
 30
0.0
 10
144.537904743389
 20
129.373595052445
 30
0.0
 10
144.5110633421823
 20
129.5558738435222
 30
0.0
 10
144.4828946188189
 20
129.7379593337118
 30
0.0
  0
SPLINE
  5
1EE
330
1F
100
AcDbEntity
  8
0
  6
Continuous
 62
     7
370
    25
100
AcDbSpline
210
0.0
220
0.0
230
1.0
 70
     8
 71
     3
 72
     8
 73
     4
 74
     0
 42
0.000000001
 43
0.00000001
 40
0.0
 40
0.0
 40
0.0
 40
0.0
 40
1.0
 40
1.0
 40
1.0
 40
1.0
 10
144.6436641342776
 20
129.7379593337118
 30
0.0
 10
144.6154828284544
 20
129.5557925092236
 30
0.0
 10
144.5886423024596
 20
129.3735108548245
 30
0.0
 10
144.5632793765482
 20
129.1911026526639
 30
0.0
  0
LINE
  5
1EF
330
1F
100
AcDbEntity
  8
0
  6
Continuous
 62
     7
370
    25
100
AcDbLine
 10
144.6436641343
 20
129.7379593337
 30
0.0
 11
146.6597524307
 21
129.7379593337
 31
0.0
  0
SPLINE
  5
1F0
330
1F
100
AcDbEntity
  8
0
  6
Continuous
 62
     7
370
    25
100
AcDbSpline
210
0.0
220
0.0
230
1.0
 70
     8
 71
     3
 72
    16
 73
    12
 74
     0
 42
0.000000001
 43
0.00000001
 40
0.0
 40
0.0
 40
0.0
 40
0.0
 40
0.25
 40
0.25
 40
0.5
 40
0.5
 40
0.625
 40
0.625
 40
0.75
 40
0.75
 40
1.0
 40
1.0
 40
1.0
 40
1.0
 10
146.6597524306964
 20
121.2379593337118
 30
0.0
 10
146.891067184379
 20
121.9319035947596
 30
0.0
 10
147.0817124777095
 20
122.6309073213039
 30
0.0
 10
147.3458181341168
 20
124.0434931117042
 30
0.0
 10
147.4184073254307
 20
124.7571835532826
 30
0.0
 10
147.4192045715217
 20
125.8411656720197
 30
0.0
 10
147.4014593148982
 20
126.2041931003385
 30
0.0
 10
147.3322622313684
 20
126.9222996632023
 30
0.0
 10
147.2808806253061
 20
127.2789453997864
 30
0.0
 10
147.0824726265695
 20
128.3425330186422
 30
0.0
 10
146.8913555248656
 20
129.0431500512037
 30
0.0
 10
146.6597524306962
 20
129.7379593337118
 30
0.0
  0
LINE
  5
1F1
330
1F
100
AcDbEntity
  8
0
  6
Continuous
 62
     7
370
    25
100
AcDbLine
 10
144.6436641343
 20
121.2379593337
 30
0.0
 11
146.6597524307
 21
121.2379593337
 31
0.0
  0
SPLINE
  5
1F2
330
1F
100
AcDbEntity
  8
0
  6
Continuous
 62
     7
370
    25
100
AcDbSpline
210
0.0
220
0.0
230
1.0
 70
     8
 71
     3
 72
     8
 73
     4
 74
     0
 42
0.000000001
 43
0.00000001
 40
0.0
 40
0.0
 40
0.0
 40
0.0
 40
1.0
 40
1.0
 40
1.0
 40
1.0
 10
144.5632793765482
 20
121.7848160147597
 30
0.0
 10
144.5886540097074
 20
121.6023236149786
 30
0.0
 10
144.6154954109142
 20
121.4200448239014
 30
0.0
 10
144.6436641342776
 20
121.2379593337118
 30
0.0
  0
SPLINE
  5
1F3
330
1F
100
AcDbEntity
  8
0
  6
Continuous
 62
     7
370
    25
100
AcDbSpline
210
0.0
220
0.0
230
1.0
 70
     8
 71
     3
 72
     8
 73
     4
 74
     0
 42
0.000000001
 43
0.00000001
 40
0.0
 40
0.0
 40
0.0
 40
0.0
 40
1.0
 40
1.0
 40
1.0
 40
1.0
 10
144.4828946188189
 20
121.2379593337118
 30
0.0
 10
144.5110759246421
 20
121.4201261582
 30
0.0
 10
144.5379164506368
 20
121.6024078125992
 30
0.0
 10
144.5632793765482
 20
121.7848160147597
 30
0.0
  0
SPLINE
  5
1F4
330
1F
100
AcDbEntity
  8
0
  6
Continuous
 62
     7
370
    25
100
AcDbSpline
210
0.0
220
0.0
230
1.0
 70
     8
 71
     3
 72
    16
 73
    12
 74
     0
 42
0.000000001
 43
0.00000001
 40
0.0
 40
0.0
 40
0.0
 40
0.0
 40
0.2500000000000003
 40
0.2500000000000003
 40
0.5000000000000006
 40
0.5000000000000006
 40
0.6250000000000006
 40
0.6250000000000006
 40
0.7500000000000004
 40
0.7500000000000004
 40
1.0
 40
1.0
 40
1.0
 40
1.0
 10
146.6597524306964
 20
112.7379593337118
 30
0.0
 10
146.891067184379
 20
113.4319035947597
 30
0.0
 10
147.0817124777094
 20
114.1309073213039
 30
0.0
 10
147.3458181341167
 20
115.5434931117042
 30
0.0
 10
147.4184073254307
 20
116.2571835532826
 30
0.0
 10
147.4192045715217
 20
117.3411656720197
 30
0.0
 10
147.4014593148982
 20
117.7041931003385
 30
0.0
 10
147.3322622313684
 20
118.4222996632023
 30
0.0
 10
147.2808806253061
 20
118.7789453997864
 30
0.0
 10
147.0824726265695
 20
119.8425330186422
 30
0.0
 10
146.8913555248656
 20
120.5431500512037
 30
0.0
 10
146.6597524306962
 20
121.2379593337118
 30
0.0
  0
SPLINE
  5
1F5
330
1F
100
AcDbEntity
  8
0
  6
Continuous
 62
     7
370
    25
100
AcDbSpline
210
0.0
220
0.0
230
1.0
 70
    24
 71
     3
 72
    10
 73
     6
 74
     0
 42
0.000000001
 43
0.00000001
 40
0.0
 40
0.0
 40
0.0
 40
0.0
 40
0.3820053574440567
 40
0.7676550797535555
 40
1.0
 40
1.0
 40
1.0
 40
1.0
 10
146.659752430696
 20
129.7379593337118
 30
0.0
 10
146.8218703713957
 20
129.7379593337118
 30
0.0
 10
147.1476528722747
 20
129.7379593337118
 30
0.0
 10
147.3864388672205
 20
129.7379593337118
 30
0.0
 10
147.4074290203303
 20
129.7379593337118
 30
0.0
 10
147.415320602416
 20
129.7379593337118
 30
0.0
  0
SPLINE
  5
1F6
330
1F
100
AcDbEntity
  8
0
  6
Continuous
 62
     7
370
    25
100
AcDbSpline
210
0.0
220
0.0
230
1.0
 70
    24
 71
     3
 72
    10
 73
     6
 74
     0
 42
0.000000001
 43
0.00000001
 40
0.0
 40
0.0
 40
0.0
 40
0.0
 40
0.2323405967881781
 40
0.6140009961588938
 40
1.0
 40
1.0
 40
1.0
 40
1.0
 10
147.4137017338913
 20
112.7379593337118
 30
0.0
 10
147.4064649668309
 20
112.7379593337118
 30
0.0
 10
147.3873405337983
 20
112.7379593337118
 30
0.0
 10
147.1487576423357
 20
112.7379593337118
 30
0.0
 10
146.8233671743776
 20
112.7379593337119
 30
0.0
 10
146.659752430696
 20
112.7379593337119
 30
0.0
  0
LINE
  5
1F7
330
1F
100
AcDbEntity
  8
0
  6
Continuous
 62
     7
370
    25
100
AcDbLine
 10
147.5632793765
 20
112.9879593337
 30
0.0
 11
147.5632793765
 21
129.4879593337
 31
0.0
  0
SPLINE
  5
1F8
330
1F
100
AcDbEntity
  8
0
  6
Continuous
 62
     7
370
    25
100
AcDbSpline
210
0.0
220
0.0
230
1.0
 70
    24
 71
     3
 72
    10
 73
     6
 74
     0
 42
0.000000001
 43
0.00000001
 40
0.0
 40
0.0
 40
0.0
 40
0.0
 40
0.2323405967881781
 40
0.6140009961588938
 40
1.0
 40
1.0
 40
1.0
 40
1.0
 10
141.7128570192051
 20
112.7379593337118
 30
0.0
 10
141.7200937862655
 20
112.7379593337118
 30
0.0
 10
141.7392182192982
 20
112.7379593337118
 30
0.0
 10
141.9778011107607
 20
112.7379593337118
 30
0.0
 10
142.3031915787189
 20
112.7379593337119
 30
0.0
 10
142.4668063224005
 20
112.7379593337119
 30
0.0
  0
SPLINE
  5
1F9
330
1F
100
AcDbEntity
  8
0
  6
Continuous
 62
     7
370
    25
100
AcDbSpline
210
0.0
220
0.0
230
1.0
 70
    24
 71
     3
 72
    10
 73
     6
 74
     0
 42
0.000000001
 43
0.00000001
 40
0.0
 40
0.0
 40
0.0
 40
0.0
 40
0.3820053574440567
 40
0.7676550797535555
 40
1.0
 40
1.0
 40
1.0
 40
1.0
 10
142.4668063224005
 20
129.7379593337118
 30
0.0
 10
142.3046883817008
 20
129.7379593337118
 30
0.0
 10
141.9789058808217
 20
129.7379593337118
 30
0.0
 10
141.740119885876
 20
129.7379593337118
 30
0.0
 10
141.7191297327662
 20
129.7379593337118
 30
0.0
 10
141.7112381506805
 20
129.7379593337118
 30
0.0
  0
SPLINE
  5
1FA
330
1F
100
AcDbEntity
  8
0
  6
Continuous
 62
     7
370
    25
100
AcDbSpline
210
0.0
220
0.0
230
1.0
 70
     8
 71
     3
 72
    16
 73
    12
 74
     0
 42
0.000000001
 43
0.00000001
 40
0.0
 40
0.0
 40
0.0
 40
0.0
 40
0.2500000000000003
 40
0.2500000000000003
 40
0.5000000000000006
 40
0.5000000000000006
 40
0.6250000000000006
 40
0.6250000000000006
 40
0.7500000000000004
 40
0.7500000000000004
 40
1.0
 40
1.0
 40
1.0
 40
1.0
 10
142.4668063224001
 20
112.7379593337118
 30
0.0
 10
142.2354915687175
 20
113.4319035947597
 30
0.0
 10
142.044846275387
 20
114.1309073213039
 30
0.0
 10
141.7807406189797
 20
115.5434931117042
 30
0.0
 10
141.7081514276657
 20
116.2571835532826
 30
0.0
 10
141.7073541815748
 20
117.3411656720197
 30
0.0
 10
141.7250994381982
 20
117.7041931003385
 30
0.0
 10
141.794296521728
 20
118.4222996632023
 30
0.0
 10
141.8456781277903
 20
118.7789453997864
 30
0.0
 10
142.0440861265269
 20
119.8425330186422
 30
0.0
 10
142.2352032282309
 20
120.5431500512037
 30
0.0
 10
142.4668063224003
 20
121.2379593337118
 30
0.0
  0
LINE
  5
1FB
330
1F
100
AcDbEntity
  8
0
  6
Continuous
 62
     7
370
    25
100
AcDbLine
 10
141.5632793765
 20
112.9879593337
 30
0.0
 11
141.5632793765
 21
129.4879593337
 31
0.0
  0
SPLINE
  5
1FC
330
1F
100
AcDbEntity
  8
0
  6
Continuous
 62
     7
370
    25
100
AcDbSpline
210
0.0
220
0.0
230
1.0
 70
     8
 71
     3
 72
     8
 73
     4
 74
     0
 42
0.000000001
 43
0.00000001
 40
0.0
 40
0.0
 40
0.0
 40
0.0
 40
1.0
 40
1.0
 40
1.0
 40
1.0
 10
144.6436641342776
 20
121.2379593337118
 30
0.0
 10
144.6154828284544
 20
121.0557925092236
 30
0.0
 10
144.5886423024596
 20
120.8735108548245
 30
0.0
 10
144.5632793765482
 20
120.6911026526639
 30
0.0
  0
LINE
  5
1FD
330
1F
100
AcDbEntity
  8
0
  6
Continuous
 62
     7
370
    25
100
AcDbLine
 10
144.5632793765
 20
120.6911026527
 30
0.0
 11
144.5632793765
 21
121.7848160148
 31
0.0
  0
SPLINE
  5
1FE
330
1F
100
AcDbEntity
  8
0
  6
Continuous
 62
     7
370
    25
100
AcDbSpline
210
0.0
220
0.0
230
1.0
 70
     8
 71
     3
 72
     8
 73
     4
 74
     0
 42
0.000000001
 43
0.00000001
 40
0.0
 40
0.0
 40
0.0
 40
0.0
 40
1.0
 40
1.0
 40
1.0
 40
1.0
 10
144.5632793765482
 20
120.6911026526639
 30
0.0
 10
144.537904743389
 20
120.873595052445
 30
0.0
 10
144.5110633421823
 20
121.0558738435222
 30
0.0
 10
144.4828946188189
 20
121.2379593337118
 30
0.0
  0
LINE
  5
1FF
330
1F
100
AcDbEntity
  8
0
  6
Continuous
 62
     7
370
    25
100
AcDbLine
 10
142.4668063224
 20
112.7379593337
 30
0.0
 11
144.4828946188
 21
112.7379593337
 31
0.0
  0
LINE
  5
200
330
1F
100
AcDbEntity
  8
0
  6
Continuous
 62
     7
370
    25
100
AcDbLine
 10
144.6436641343
 20
112.7379593337
 30
0.0
 11
146.6597524307
 21
112.7379593337
 31
0.0
  0
SPLINE
  5
201
330
1F
100
AcDbEntity
  8
0
  6
Continuous
 62
     7
370
    25
100
AcDbSpline
210
0.0
220
0.0
230
1.0
 70
     8
 71
     3
 72
     8
 73
     4
 74
     0
 42
0.000000001
 43
0.00000001
 40
0.0
 40
0.0
 40
0.0
 40
0.0
 40
1.0
 40
1.0
 40
1.0
 40
1.0
 10
144.5632793765482
 20
113.2848160147598
 30
0.0
 10
144.5886540097074
 20
113.1023236149787
 30
0.0
 10
144.6154954109142
 20
112.9200448239015
 30
0.0
 10
144.6436641342776
 20
112.7379593337119
 30
0.0
  0
SPLINE
  5
202
330
1F
100
AcDbEntity
  8
0
  6
Continuous
 62
     7
370
    25
100
AcDbSpline
210
0.0
220
0.0
230
1.0
 70
     8
 71
     3
 72
     8
 73
     4
 74
     0
 42
0.000000001
 43
0.00000001
 40
0.0
 40
0.0
 40
0.0
 40
0.0
 40
1.0
 40
1.0
 40
1.0
 40
1.0
 10
144.4828946188189
 20
112.7379593337119
 30
0.0
 10
144.5110759246421
 20
112.9201261582001
 30
0.0
 10
144.5379164506368
 20
113.1024078125992
 30
0.0
 10
144.5632793765482
 20
113.2848160147598
 30
0.0
  0
LINE
  5
203
330
1F
100
AcDbEntity
  8
0
  6
Continuous
 62
     7
370
    25
100
AcDbLine
 10
144.5632793765
 20
112.7379593337
 30
0.0
 11
144.5632793765
 21
113.2848160148
 31
0.0
  0
SPLINE
  5
204
330
1F
100
AcDbEntity
  8
0
  6
Continuous
 62
     7
370
    25
100
AcDbSpline
210
0.0
220
0.0
230
1.0
 70
    24
 71
     3
 72
     8
 73
     4
 74
     0
 42
0.000000001
 43
0.00000001
 40
0.0
 40
0.0
 40
0.0
 40
0.0
 40
1.0
 40
1.0
 40
1.0
 40
1.0
 10
144.5632793765482
 20
112.7379593337119
 30
0.0
 10
144.5379053459639
 20
112.7379593337119
 30
0.0
 10
144.5110639892469
 20
112.7379593337119
 30
0.0
 10
144.4828946188189
 20
112.7379593337119
 30
0.0
  0
SPLINE
  5
205
330
1F
100
AcDbEntity
  8
0
  6
Continuous
 62
     7
370
    25
100
AcDbSpline
210
0.0
220
0.0
230
1.0
 70
    24
 71
     3
 72
     8
 73
     4
 74
     0
 42
0.000000001
 43
0.00000001
 40
0.0
 40
0.0
 40
0.0
 40
0.0
 40
1.0
 40
1.0
 40
1.0
 40
1.0
 10
144.6436641342776
 20
112.7379593337119
 30
0.0
 10
144.6154809823854
 20
112.7379593337119
 30
0.0
 10
144.5886405865873
 20
112.7379593337119
 30
0.0
 10
144.5632793765482
 20
112.7379593337119
 30
0.0
  0
LINE
  5
206
330
1F
100
AcDbEntity
  8
0
  6
Continuous
 62
     7
370
    25
100
AcDbLine
 10
144.5632793765
 20
129.1911026527
 30
0.0
 11
144.5632793765
 21
129.7379593337
 31
0.0
  0
SPLINE
  5
207
330
1F
100
AcDbEntity
  8
0
  6
Continuous
 62
     7
370
    25
100
AcDbSpline
210
0.0
220
0.0
230
1.0
 70
    24
 71
     3
 72
     8
 73
     4
 74
     0
 42
0.000000001
 43
0.00000001
 40
0.0
 40
0.0
 40
0.0
 40
0.0
 40
1.0
 40
1.0
 40
1.0
 40
1.0
 10
144.5632793765482
 20
129.7379593337118
 30
0.0
 10
144.5886534071326
 20
129.7379593337118
 30
0.0
 10
144.6154947638495
 20
129.7379593337118
 30
0.0
 10
144.6436641342776
 20
129.7379593337118
 30
0.0
  0
SPLINE
  5
208
330
1F
100
AcDbEntity
  8
0
  6
Continuous
 62
     7
370
    25
100
AcDbSpline
210
0.0
220
0.0
230
1.0
 70
    24
 71
     3
 72
     8
 73
     4
 74
     0
 42
0.000000001
 43
0.00000001
 40
0.0
 40
0.0
 40
0.0
 40
0.0
 40
1.0
 40
1.0
 40
1.0
 40
1.0
 10
144.4828946188189
 20
129.7379593337118
 30
0.0
 10
144.511077770711
 20
129.7379593337118
 30
0.0
 10
144.5379181665092
 20
129.7379593337118
 30
0.0
 10
144.5632793765482
 20
129.7379593337118
 30
0.0
  0
LINE
  5
209
330
1F
100
AcDbEntity
  8
0
  6
Continuous
 62
     8
370
    25
100
AcDbLine
 10
126.0871886128
 20
130.5879593337
 30
0.0
 11
126.0871886128
 21
111.8879593337
 31
0.0
  0
LINE
  5
20A
330
1F
100
AcDbEntity
  8
0
  6
Continuous
 62
     8
370
    25
100
AcDbLine
 10
139.4871886128
 20
111.8879593337
 30
0.0
 11
139.4871886128
 21
130.5879593337
 31
0.0
  0
LINE
  5
20B
330
1F
100
AcDbEntity
  8
0
  6
Continuous
 62
     8
370
    25
100
AcDbLine
 10
163.0393701403
 20
111.8879593337
 30
0.0
 11
163.0393701403
 21
130.5879593337
 31
0.0
  0
LINE
  5
20C
330
1F
100
AcDbEntity
  8
0
  6
Continuous
 62
     8
370
    25
100
AcDbLine
 10
149.6393701403
 20
130.5879593337
 30
0.0
 11
149.6393701403
 21
111.8879593337
 31
0.0
  0
LINE
  5
20D
330
1F
100
AcDbEntity
  8
0
  6
CENTERX2
 62
     7
370
    18
100
AcDbLine
 10
191.7393701403
 20
121.2379593337
 30
0.0
 11
97.2648078584
 21
121.2379593337
 31
0.0
  0
ENDSEC
  0
SECTION
  2
OBJECTS
  0
DICTIONARY
  5
C
330
0
100
AcDbDictionary
281
     1
  3
ACAD_GROUP
350
D
  3
ACAD_LAYOUT
350
1A
  3
ACAD_MLINESTYLE
350
17
  3
ACAD_PLOTSETTINGS
350
19
  3
ACAD_PLOTSTYLENAME
350
E
  3
ACAD_SCALELIST
350
47
  0
DICTIONARY
  5
D
102
{ACAD_REACTORS
330
C
102
}
330
C
100
AcDbDictionary
281
     1
  0
DICTIONARY
  5
1A
102
{ACAD_REACTORS
330
C
102
}
330
C
100
AcDbDictionary
281
     1
  3
Layout1
350
1E
  3
Layout2
350
26
  3
Model
350
22
  0
DICTIONARY
  5
17
102
{ACAD_REACTORS
330
C
102
}
330
C
100
AcDbDictionary
281
     1
  3
Standard
350
18
  0
DICTIONARY
  5
19
102
{ACAD_REACTORS
330
C
102
}
330
C
100
AcDbDictionary
281
     1
  0
ACDBDICTIONARYWDFLT
  5
E
102
{ACAD_REACTORS
330
C
102
}
330
C
100
AcDbDictionary
281
     1
  3
Normal
350
F
100
AcDbDictionaryWithDefault
340
F
  0
DICTIONARY
  5
47
102
{ACAD_REACTORS
330
C
102
}
330
C
100
AcDbDictionary
281
     1
  3
A0
350
48
  3
A1
350
49
  3
A2
350
4A
  3
A3
350
4B
  3
A4
350
4C
  3
A5
350
4D
  3
A6
350
4E
  3
A7
350
4F
  3
A8
350
50
  3
A9
350
51
  3
B0
350
52
  3
B1
350
53
  3
B2
350
54
  3
B3
350
55
  3
B4
350
56
  3
B5
350
57
  3
B6
350
58
  3
B7
350
59
  3
B8
350
5A
  3
B9
350
5B
  3
C0
350
5C
  3
C1
350
5D
  3
C2
350
5E
  3
C3
350
5F
  3
C4
350
60
  3
C5
350
61
  3
C6
350
62
  3
C7
350
63
  3
C8
350
64
  3
C9
350
65
  3
D0
350
66
  3
D1
350
67
  3
D2
350
68
  0
LAYOUT
  5
1E
102
{ACAD_REACTORS
330
1A
102
}
330
1A
100
AcDbPlotSettings
  1

  2
none_device
  4

  6

 40
0.0
 41
0.0
 42
0.0
 43
0.0
 44
0.0
 45
0.0
 46
0.0
 47
0.0
 48
0.0
 49
0.0
140
0.0
141
0.0
142
1.0
143
1.0
 70
   688
 72
     1
 73
     0
 74
     5
  7

 75
    16
147
1.0
148
0.0
149
0.0
100
AcDbLayout
  1
Layout1
 70
     1
 71
     1
 10
0.0
 20
0.0
 11
420.0
 21
297.0
 12
0.0
 22
0.0
 32
0.0
 14
1.0000000000E+20
 24
1.0000000000E+20
 34
1.0000000000E+20
 15
-1.0000000000E+20
 25
-1.0000000000E+20
 35
-1.0000000000E+20
146
0.0
 13
0.0
 23
0.0
 33
0.0
 16
1.0
 26
0.0
 36
0.0
 17
0.0
 27
1.0
 37
0.0
 76
     0
330
1B
  0
LAYOUT
  5
26
102
{ACAD_REACTORS
330
1A
102
}
330
1A
100
AcDbPlotSettings
  1

  2
none_device
  4

  6

 40
0.0
 41
0.0
 42
0.0
 43
0.0
 44
0.0
 45
0.0
 46
0.0
 47
0.0
 48
0.0
 49
0.0
140
0.0
141
0.0
142
1.0
143
1.0
 70
   688
 72
     1
 73
     0
 74
     5
  7

 75
    16
147
1.0
148
0.0
149
0.0
100
AcDbLayout
  1
Layout2
 70
     1
 71
     2
 10
0.0
 20
0.0
 11
0.0
 21
0.0
 12
0.0
 22
0.0
 32
0.0
 14
0.0
 24
0.0
 34
0.0
 15
0.0
 25
0.0
 35
0.0
146
0.0
 13
0.0
 23
0.0
 33
0.0
 16
1.0
 26
0.0
 36
0.0
 17
0.0
 27
1.0
 37
0.0
 76
     0
330
23
  0
LAYOUT
  5
22
102
{ACAD_REACTORS
330
1A
102
}
330
1A
100
AcDbPlotSettings
  1

  2
none_device
  4
Letter_(8.50_x_11.00_Inches)
  6

 40
6.35
 41
6.35
 42
6.35000508
 43
6.35000508
 44
215.9
 45
279.4
 46
0.0
 47
0.0
 48
0.0
 49
0.0
140
0.0
141
0.0
142
1.0
143
1.0
 70
  1712
 72
     1
 73
     0
 74
     0
  7

 75
     0
147
1.0
148
0.0
149
0.0
100
AcDbLayout
  1
Model
 70
     1
 71
     0
 10
0.0
 20
0.0
 11
431.8
 21
279.4
 12
0.0
 22
0.0
 32
0.0
 14
0.0
 24
0.0
 34
0.0
 15
431.8
 25
279.4
 35
0.0
146
0.0
 13
0.0
 23
0.0
 33
0.0
 16
1.0
 26
0.0
 36
0.0
 17
0.0
 27
1.0
 37
0.0
 76
     0
330
1F
331
29
  0
MLINESTYLE
  5
18
102
{ACAD_REACTORS
330
17
102
}
330
17
100
AcDbMlineStyle
  2
Standard
 70
     0
  3

 62
   256
 51
90.0
 52
90.0
 71
     2
 49
0.5
 62
   256
  6
BYLAYER
 49
-0.5
 62
   256
  6
BYLAYER
  0
ACDBPLACEHOLDER
  5
F
102
{ACAD_REACTORS
330
E
102
}
330
E
  0
SCALE
  5
48
102
{ACAD_REACTORS
330
47
102
}
330
47
100
AcDbScale
 70
     0
300
1:1
140
1.0
141
1.0
290
     1
  0
SCALE
  5
49
102
{ACAD_REACTORS
330
47
102
}
330
47
100
AcDbScale
 70
     0
300
1:2
140
1.0
141
2.0
290
     0
  0
SCALE
  5
4A
102
{ACAD_REACTORS
330
47
102
}
330
47
100
AcDbScale
 70
     0
300
1:4
140
1.0
141
4.0
290
     0
  0
SCALE
  5
4B
102
{ACAD_REACTORS
330
47
102
}
330
47
100
AcDbScale
 70
     0
300
1:5
140
1.0
141
5.0
290
     0
  0
SCALE
  5
4C
102
{ACAD_REACTORS
330
47
102
}
330
47
100
AcDbScale
 70
     0
300
1:8
140
1.0
141
8.0
290
     0
  0
SCALE
  5
4D
102
{ACAD_REACTORS
330
47
102
}
330
47
100
AcDbScale
 70
     0
300
1:10
140
1.0
141
10.0
290
     0
  0
SCALE
  5
4E
102
{ACAD_REACTORS
330
47
102
}
330
47
100
AcDbScale
 70
     0
300
1:16
140
1.0
141
16.0
290
     0
  0
SCALE
  5
4F
102
{ACAD_REACTORS
330
47
102
}
330
47
100
AcDbScale
 70
     0
300
1:20
140
1.0
141
20.0
290
     0
  0
SCALE
  5
50
102
{ACAD_REACTORS
330
47
102
}
330
47
100
AcDbScale
 70
     0
300
1:30
140
1.0
141
30.0
290
     0
  0
SCALE
  5
51
102
{ACAD_REACTORS
330
47
102
}
330
47
100
AcDbScale
 70
     0
300
1:40
140
1.0
141
40.0
290
     0
  0
SCALE
  5
52
102
{ACAD_REACTORS
330
47
102
}
330
47
100
AcDbScale
 70
     0
300
1:50
140
1.0
141
50.0
290
     0
  0
SCALE
  5
53
102
{ACAD_REACTORS
330
47
102
}
330
47
100
AcDbScale
 70
     0
300
1:100
140
1.0
141
100.0
290
     0
  0
SCALE
  5
54
102
{ACAD_REACTORS
330
47
102
}
330
47
100
AcDbScale
 70
     0
300
2:1
140
2.0
141
1.0
290
     0
  0
SCALE
  5
55
102
{ACAD_REACTORS
330
47
102
}
330
47
100
AcDbScale
 70
     0
300
4:1
140
4.0
141
1.0
290
     0
  0
SCALE
  5
56
102
{ACAD_REACTORS
330
47
102
}
330
47
100
AcDbScale
 70
     0
300
8:1
140
8.0
141
1.0
290
     0
  0
SCALE
  5
57
102
{ACAD_REACTORS
330
47
102
}
330
47
100
AcDbScale
 70
     0
300
10:1
140
10.0
141
1.0
290
     0
  0
SCALE
  5
58
102
{ACAD_REACTORS
330
47
102
}
330
47
100
AcDbScale
 70
     0
300
100:1
140
100.0
141
1.0
290
     0
  0
SCALE
  5
59
102
{ACAD_REACTORS
330
47
102
}
330
47
100
AcDbScale
 70
     0
300
1/128" = 1'-0"
140
0.0078125
141
12.0
290
     0
  0
SCALE
  5
5A
102
{ACAD_REACTORS
330
47
102
}
330
47
100
AcDbScale
 70
     0
300
1/64" = 1'-0"
140
0.015625
141
12.0
290
     0
  0
SCALE
  5
5B
102
{ACAD_REACTORS
330
47
102
}
330
47
100
AcDbScale
 70
     0
300
1/32" = 1'-0"
140
0.03125
141
12.0
290
     0
  0
SCALE
  5
5C
102
{ACAD_REACTORS
330
47
102
}
330
47
100
AcDbScale
 70
     0
300
1/16" = 1'-0"
140
0.0625
141
12.0
290
     0
  0
SCALE
  5
5D
102
{ACAD_REACTORS
330
47
102
}
330
47
100
AcDbScale
 70
     0
300
3/32" = 1'-0"
140
0.09375
141
12.0
290
     0
  0
SCALE
  5
5E
102
{ACAD_REACTORS
330
47
102
}
330
47
100
AcDbScale
 70
     0
300
1/8" = 1'-0"
140
0.125
141
12.0
290
     0
  0
SCALE
  5
5F
102
{ACAD_REACTORS
330
47
102
}
330
47
100
AcDbScale
 70
     0
300
3/16" = 1'-0"
140
0.1875
141
12.0
290
     0
  0
SCALE
  5
60
102
{ACAD_REACTORS
330
47
102
}
330
47
100
AcDbScale
 70
     0
300
1/4" = 1'-0"
140
0.25
141
12.0
290
     0
  0
SCALE
  5
61
102
{ACAD_REACTORS
330
47
102
}
330
47
100
AcDbScale
 70
     0
300
3/8" = 1'-0"
140
0.375
141
12.0
290
     0
  0
SCALE
  5
62
102
{ACAD_REACTORS
330
47
102
}
330
47
100
AcDbScale
 70
     0
300
1/2" = 1'-0"
140
0.5
141
12.0
290
     0
  0
SCALE
  5
63
102
{ACAD_REACTORS
330
47
102
}
330
47
100
AcDbScale
 70
     0
300
3/4" = 1'-0"
140
0.75
141
12.0
290
     0
  0
SCALE
  5
64
102
{ACAD_REACTORS
330
47
102
}
330
47
100
AcDbScale
 70
     0
300
1" = 1'-0"
140
1.0
141
12.0
290
     0
  0
SCALE
  5
65
102
{ACAD_REACTORS
330
47
102
}
330
47
100
AcDbScale
 70
     0
300
1-1/2" = 1'-0"
140
1.5
141
12.0
290
     0
  0
SCALE
  5
66
102
{ACAD_REACTORS
330
47
102
}
330
47
100
AcDbScale
 70
     0
300
3" = 1'-0"
140
3.0
141
12.0
290
     0
  0
SCALE
  5
67
102
{ACAD_REACTORS
330
47
102
}
330
47
100
AcDbScale
 70
     0
300
6" = 1'-0"
140
6.0
141
12.0
290
     0
  0
SCALE
  5
68
102
{ACAD_REACTORS
330
47
102
}
330
47
100
AcDbScale
 70
     0
300
1'-0" = 1'-0"
140
12.0
141
12.0
290
     0
  0
ENDSEC
  0
EOF
