  0
SECTION
  2
HEADER
  9
$ACADVER
  1
AC1015
  9
$ACADMAINTVER
 70
     6
  9
$DWGCODEPAGE
  3
DOS932
  9
$INSBASE
 10
0.0
 20
0.0
 30
0.0
  9
$EXTMIN
 10
0.0
 20
0.0
 30
0.0
  9
$EXTMAX
 10
431.8
 20
279.4
 30
0.0
  9
$LIMMIN
 10
0.0
 20
0.0
  9
$LIMMAX
 10
431.8
 20
279.4
  9
$ORTHOMODE
 70
     0
  9
$REGENMODE
 70
     1
  9
$FILLMODE
 70
     1
  9
$QTEXTMODE
 70
     0
  9
$MIRRTEXT
 70
     1
  9
$LTSCALE
 40
1.0
  9
$ATTMODE
 70
     1
  9
$TEXTSIZE
 40
3.5
  9
$TRACEWID
 40
1.0
  9
$TEXTSTYLE
  7
Standard
  9
$CLAYER
  8
0
  9
$CELTYPE
  6
ByLayer
  9
$CECOLOR
 62
   256
  9
$CELTSCALE
 40
1.0
  9
$DISPSILH
 70
     0
  9
$DIMSCALE
 40
1.0
  9
$DIMASZ
 40
3.302
  9
$DIMEXO
 40
1.0
  9
$DIMDLI
 40
3.75
  9
$DIMRND
 40
0.0
  9
$DIMDLE
 40
0.0
  9
$DIMEXE
 40
1.0
  9
$DIMTP
 40
0.0
  9
$DIMTM
 40
0.0
  9
$DIMTXT
 40
3.5
  9
$DIMCEN
 40
2.5
  9
$DIMTSZ
 40
0.0
  9
$DIMTOL
 70
     0
  9
$DIMLIM
 70
     0
  9
$DIMTIH
 70
     1
  9
$DIMTOH
 70
     1
  9
$DIMSE1
 70
     0
  9
$DIMSE2
 70
     0
  9
$DIMTAD
 70
     1
  9
$DIMZIN
 70
     1
  9
$DIMBLK
  1

  9
$DIMASO
 70
     1
  9
$DIMSHO
 70
     1
  9
$DIMPOST
  1

  9
$DIMAPOST
  1

  9
$DIMALT
 70
     0
  9
$DIMALTD
 70
     3
  9
$DIMALTF
 40
0.0393700787
  9
$DIMLFAC
 40
1.0
  9
$DIMTOFL
 70
     1
  9
$DIMTVP
 40
0.0
  9
$DIMTIX
 70
     0
  9
$DIMSOXD
 70
     0
  9
$DIMSAH
 70
     0
  9
$DIMBLK1
  1

  9
$DIMBLK2
  1

  9
$DIMSTYLE
  2
ISO-25
  9
$DIMCLRD
 70
     0
  9
$DIMCLRE
 70
     0
  9
$DIMCLRT
 70
     0
  9
$DIMTFAC
 40
1.0
  9
$DIMGAP
 40
1.524
  9
$DIMJUST
 70
     0
  9
$DIMSD1
 70
     0
  9
$DIMSD2
 70
     0
  9
$DIMTOLJ
 70
     0
  9
$DIMTZIN
 70
     1
  9
$DIMALTZ
 70
     0
  9
$DIMALTTZ
 70
     0
  9
$DIMUPT
 70
     0
  9
$DIMDEC
 70
     2
  9
$DIMTDEC
 70
     2
  9
$DIMALTU
 70
     2
  9
$DIMALTTD
 70
     3
  9
$DIMTXSTY
  7
Standard
  9
$DIMAUNIT
 70
     0
  9
$DIMADEC
 70
     2
  9
$DIMALTRND
 40
0.0
  9
$DIMAZIN
 70
     0
  9
$DIMDSEP
 70
    44
  9
$DIMATFIT
 70
     3
  9
$DIMFRAC
 70
     0
  9
$DIMLDRBLK
  1

  9
$DIMLUNIT
 70
     2
  9
$DIMLWD
 70
    -2
  9
$DIMLWE
 70
    -2
  9
$DIMTMOVE
 70
     0
  9
$LUNITS
 70
     2
  9
$LUPREC
 70
     2
  9
$SKETCHINC
 40
1.0
  9
$FILLETRAD
 40
10.0
  9
$AUNITS
 70
     0
  9
$AUPREC
 70
     2
  9
$MENU
  1
.
  9
$ELEVATION
 40
0.0
  9
$PELEVATION
 40
0.0
  9
$THICKNESS
 40
0.0
  9
$LIMCHECK
 70
     0
  9
$CHAMFERA
 40
0.0
  9
$CHAMFERB
 40
0.0
  9
$CHAMFERC
 40
0.0
  9
$CHAMFERD
 40
0.0
  9
$SKPOLY
 70
     0
  9
$TDCREATE
 40
2459486.643313646
  9
$TDUCREATE
 40
2459486.268313646
  9
$TDUPDATE
 40
2459486.643314236
  9
$TDUUPDATE
 40
2459486.268314236
  9
$TDINDWG
 40
0.0000000116
  9
$TDUSRTIMER
 40
0.0000000116
  9
$USRTIMER
 70
     1
  9
$ANGBASE
 50
0.0
  9
$ANGDIR
 70
     0
  9
$PDMODE
 70
     0
  9
$PDSIZE
 40
-1.0
  9
$PLINEWID
 40
0.0
  9
$SPLFRAME
 70
     0
  9
$SPLINETYPE
 70
     6
  9
$SPLINESEGS
 70
     8
  9
$HANDSEED
  5
243
  9
$SURFTAB1
 70
     6
  9
$SURFTAB2
 70
     6
  9
$SURFTYPE
 70
     6
  9
$SURFU
 70
     6
  9
$SURFV
 70
     6
  9
$UCSBASE
  2

  9
$UCSNAME
  2

  9
$UCSORG
 10
0.0
 20
0.0
 30
0.0
  9
$UCSXDIR
 10
1.0
 20
0.0
 30
0.0
  9
$UCSYDIR
 10
0.0
 20
1.0
 30
0.0
  9
$UCSORTHOREF
  2

  9
$UCSORTHOVIEW
 70
     0
  9
$UCSORGTOP
 10
0.0
 20
0.0
 30
0.0
  9
$UCSORGBOTTOM
 10
0.0
 20
0.0
 30
0.0
  9
$UCSORGLEFT
 10
0.0
 20
0.0
 30
0.0
  9
$UCSORGRIGHT
 10
0.0
 20
0.0
 30
0.0
  9
$UCSORGFRONT
 10
0.0
 20
0.0
 30
0.0
  9
$UCSORGBACK
 10
0.0
 20
0.0
 30
0.0
  9
$PUCSBASE
  2

  9
$PUCSNAME
  2

  9
$PUCSORG
 10
0.0
 20
0.0
 30
0.0
  9
$PUCSXDIR
 10
1.0
 20
0.0
 30
0.0
  9
$PUCSYDIR
 10
0.0
 20
1.0
 30
0.0
  9
$PUCSORTHOREF
  2

  9
$PUCSORTHOVIEW
 70
     0
  9
$PUCSORGTOP
 10
0.0
 20
0.0
 30
0.0
  9
$PUCSORGBOTTOM
 10
0.0
 20
0.0
 30
0.0
  9
$PUCSORGLEFT
 10
0.0
 20
0.0
 30
0.0
  9
$PUCSORGRIGHT
 10
0.0
 20
0.0
 30
0.0
  9
$PUCSORGFRONT
 10
0.0
 20
0.0
 30
0.0
  9
$PUCSORGBACK
 10
0.0
 20
0.0
 30
0.0
  9
$USERI1
 70
     0
  9
$USERI2
 70
     0
  9
$USERI3
 70
     0
  9
$USERI4
 70
     0
  9
$USERI5
 70
     0
  9
$USERR1
 40
0.0
  9
$USERR2
 40
0.0
  9
$USERR3
 40
0.0
  9
$USERR4
 40
0.0
  9
$USERR5
 40
0.0
  9
$WORLDVIEW
 70
     1
  9
$SHADEDGE
 70
     3
  9
$SHADEDIF
 70
    70
  9
$TILEMODE
 70
     1
  9
$MAXACTVP
 70
    64
  9
$PINSBASE
 10
0.0
 20
0.0
 30
0.0
  9
$PLIMCHECK
 70
     0
  9
$PEXTMIN
 10
1.0000000000E+20
 20
1.0000000000E+20
 30
1.0000000000E+20
  9
$PEXTMAX
 10
-1.0000000000E+20
 20
-1.0000000000E+20
 30
-1.0000000000E+20
  9
$PLIMMIN
 10
0.0
 20
0.0
  9
$PLIMMAX
 10
420.0
 20
297.0
  9
$UNITMODE
 70
     0
  9
$VISRETAIN
 70
     1
  9
$PLINEGEN
 70
     0
  9
$PSLTSCALE
 70
     1
  9
$TREEDEPTH
 70
  3020
  9
$CMLSTYLE
  2
Standard
  9
$CMLJUST
 70
     0
  9
$CMLSCALE
 40
20.0
  9
$PROXYGRAPHICS
 70
     1
  9
$MEASUREMENT
 70
     1
  9
$CELWEIGHT
370
    -1
  9
$ENDCAPS
280
     0
  9
$JOINSTYLE
280
     0
  9
$LWDISPLAY
290
     1
  9
$INSUNITS
 70
     4
  9
$HYPERLINKBASE
  1

  9
$STYLESHEET
  1

  9
$XEDIT
290
     1
  9
$CEPSNTYPE
380
     0
  9
$PSTYLEMODE
290
     1
  9
$FINGERPRINTGUID
  2
{C07EE547-9E08-4288-A9B1-A2D38B6444E2}
  9
$VERSIONGUID
  2
{FAEB1C32-E019-11D5-929B-00C0DF256EC4}
  9
$EXTNAMES
290
     1
  9
$PSVPSCALE
 40
0.0
  9
$OLESTARTUP
290
     0
  0
ENDSEC
  0
SECTION
  2
CLASSES
  0
CLASS
  1
ACDBDICTIONARYWDFLT
  2
AcDbDictionaryWithDefault
  3
ObjectDBX Classes
 90
        0
280
     0
281
     0
  0
CLASS
  1
VISUALSTYLE
  2
AcDbVisualStyle
  3
ObjectDBX Classes
 90
     4095
280
     0
281
     0
  0
CLASS
  1
MATERIAL
  2
AcDbMaterial
  3
ObjectDBX Classes
 90
     1153
280
     0
281
     0
  0
CLASS
  1
SCALE
  2
AcDbScale
  3
ObjectDBX Classes
 90
     1153
280
     0
281
     0
  0
CLASS
  1
TABLESTYLE
  2
AcDbTableStyle
  3
ObjectDBX Classes
 90
     4095
280
     0
281
     0
  0
CLASS
  1
MLEADERSTYLE
  2
AcDbMLeaderStyle
  3
ACDB_MLEADERSTYLE_CLASS
 90
     4095
280
     0
281
     0
  0
CLASS
  1
SUN
  2
AcDbSun
  3
SCENEOE
 90
     1153
280
     0
281
     0
  0
CLASS
  1
ACDBPLACEHOLDER
  2
AcDbPlaceHolder
  3
ObjectDBX Classes
 90
        0
280
     0
281
     0
  0
CLASS
  1
LAYOUT
  2
AcDbLayout
  3
ObjectDBX Classes
 90
        0
280
     0
281
     0
  0
ENDSEC
  0
SECTION
  2
TABLES
  0
TABLE
  2
VPORT
  5
8
330
0
100
AcDbSymbolTable
 70
     1
  0
VPORT
  5
29
330
8
100
AcDbSymbolTableRecord
100
AcDbViewportTableRecord
  2
*Active
 70
     0
 10
0.0
 20
0.0
 11
1.0
 21
1.0
 12
215.9
 22
139.7
 13
0.0
 23
0.0
 14
10.0
 24
10.0
 15
10.0
 25
10.0
 16
0.0
 26
0.0
 36
1.0
 17
0.0
 27
0.0
 37
0.0
 40
279.4
 41
1.5454545455
 42
50.0
 43
0.0
 44
0.0
 50
0.0
 51
0.0
 71
     0
 72
  2000
 73
     1
 74
     3
 75
     0
 76
     0
 77
     0
 78
     0
281
     0
 65
     1
110
0.0
120
0.0
130
0.0
111
1.0
121
0.0
131
0.0
112
0.0
122
1.0
132
0.0
 79
     0
146
0.0
  0
ENDTAB
  0
TABLE
  2
LTYPE
  5
5
330
0
100
AcDbSymbolTable
 70
     6
  0
LTYPE
  5
14
330
5
100
AcDbSymbolTableRecord
100
AcDbLinetypeTableRecord
  2
ByBlock
 70
     0
  3

 72
    65
 73
     0
 40
0.0
  0
LTYPE
  5
15
330
5
100
AcDbSymbolTableRecord
100
AcDbLinetypeTableRecord
  2
ByLayer
 70
     0
  3

 72
    65
 73
     0
 40
0.0
  0
LTYPE
  5
16
330
5
100
AcDbSymbolTableRecord
100
AcDbLinetypeTableRecord
  2
Continuous
 70
     0
  3
Solid line
 72
    65
 73
     0
 40
0.0
  0
LTYPE
  5
6E
330
5
100
AcDbSymbolTableRecord
100
AcDbLinetypeTableRecord
  2
HIDDEN
 70
     0
  3
Hidden __ __ __ __ __ __ __ __ __ __ __ __ __ __
 72
    65
 73
     2
 40
1.905
 49
1.27
 74
     0
 49
-0.635
 74
     0
  0
LTYPE
  5
6F
330
5
100
AcDbSymbolTableRecord
100
AcDbLinetypeTableRecord
  2
PHANTOM
 70
     0
  3
Phantom ______  __  __  ______  __  __  ______
 72
    65
 73
     6
 40
12.7
 49
6.35
 74
     0
 49
-1.27
 74
     0
 49
1.27
 74
     0
 49
-1.27
 74
     0
 49
1.27
 74
     0
 49
-1.27
 74
     0
  0
LTYPE
  5
70
330
5
100
AcDbSymbolTableRecord
100
AcDbLinetypeTableRecord
  2
CENTER
 70
     0
  3
Center ____ _ ____ _ ____ _ ____ _ ____ _ ____
 72
    65
 73
     4
 40
10.16
 49
6.35
 74
     0
 49
-1.27
 74
     0
 49
1.27
 74
     0
 49
-1.27
 74
     0
  0
LTYPE
  5
71
330
5
100
AcDbSymbolTableRecord
100
AcDbLinetypeTableRecord
  2
CENTERX2
 70
     0
  3
Center (2x) ________  __  ________  __  _____
 72
    65
 73
     4
 40
20.32
 49
12.7
 74
     0
 49
-2.54
 74
     0
 49
2.54
 74
     0
 49
-2.54
 74
     0
  0
LTYPE
  5
72
330
5
100
AcDbSymbolTableRecord
100
AcDbLinetypeTableRecord
  2
DOT2
 70
     0
  3
Dot (.5x) ........................................
 72
    65
 73
     2
 40
0.635
 49
0.0
 74
     0
 49
-0.635
 74
     0
  0
ENDTAB
  0
TABLE
  2
LAYER
  5
2
330
0
100
AcDbSymbolTable
 70
     1
  0
LAYER
  5
10
330
2
100
AcDbSymbolTableRecord
100
AcDbLayerTableRecord
  2
0
 70
     0
 62
     7
  6
Continuous
370
    -3
390
F
  0
ENDTAB
  0
TABLE
  2
STYLE
  5
3
330
0
100
AcDbSymbolTable
 70
     2
  0
STYLE
  5
11
330
3
100
AcDbSymbolTableRecord
100
AcDbTextStyleTableRecord
  2
Standard
 70
     0
 40
0.0
 41
1.0
 50
0.0
 71
     0
 42
3.5
  3
txt
  4
bigfont
  0
STYLE
  5
73
330
3
100
AcDbSymbolTableRecord
100
AcDbTextStyleTableRecord
  2
SLDTEXTSTYLE0
 70
     0
 40
0.0
 41
0.7
 50
0.0
 71
     0
 42
3.5
  3
TXT
  4
bigfont
  0
ENDTAB
  0
TABLE
  2
VIEW
  5
6
330
0
100
AcDbSymbolTable
 70
     0
  0
ENDTAB
  0
TABLE
  2
UCS
  5
7
330
0
100
AcDbSymbolTable
 70
     0
  0
ENDTAB
  0
TABLE
  2
APPID
  5
9
330
0
100
AcDbSymbolTable
 70
     1
  0
APPID
  5
12
330
9
100
AcDbSymbolTableRecord
100
AcDbRegAppTableRecord
  2
ACAD
 70
     0
  0
ENDTAB
  0
TABLE
  2
DIMSTYLE
  5
A
330
0
100
AcDbSymbolTable
 70
     1
100
AcDbDimStyleTable
  0
DIMSTYLE
105
27
330
A
100
AcDbSymbolTableRecord
100
AcDbDimStyleTableRecord
  2
ISO-25
 70
     0
 41
2.5
 42
0.625
 43
3.75
 44
1.25
 73
     0
 74
     0
 77
     1
 78
     8
140
2.5
141
2.5
143
0.0393700787
147
0.625
171
     3
172
     1
178
     0
271
     2
272
     2
274
     3
278
    44
283
     0
284
     8
340
11
  0
ENDTAB
  0
TABLE
  2
BLOCK_RECORD
  5
1
330
0
100
AcDbSymbolTable
 70
     2
  0
BLOCK_RECORD
  5
1F
330
1
100
AcDbSymbolTableRecord
100
AcDbBlockTableRecord
  2
*Model_Space
340
22
  0
BLOCK_RECORD
  5
1B
330
1
100
AcDbSymbolTableRecord
100
AcDbBlockTableRecord
  2
*Paper_Space
340
1E
  0
BLOCK_RECORD
  5
23
330
1
100
AcDbSymbolTableRecord
100
AcDbBlockTableRecord
  2
*Paper_Space0
340
26
  0
BLOCK_RECORD
  5
16F
330
1
100
AcDbSymbolTableRecord
100
AcDbBlockTableRecord
  2
SW_CENTERMARKSYMBOL_0
340
0
102
{BLKREFS
331
17A
102
}
  0
ENDTAB
  0
ENDSEC
  0
SECTION
  2
BLOCKS
  0
BLOCK
  5
20
330
1F
100
AcDbEntity
  8
0
100
AcDbBlockBegin
  2
*Model_Space
 70
     0
 10
0.0
 20
0.0
 30
0.0
  3
*Model_Space
  1

  0
ENDBLK
  5
21
330
1F
100
AcDbEntity
  8
0
100
AcDbBlockEnd
  0
BLOCK
  5
1C
330
1B
100
AcDbEntity
 67
     1
  8
0
100
AcDbBlockBegin
  2
*Paper_Space
 70
     0
 10
0.0
 20
0.0
 30
0.0
  3
*Paper_Space
  1

  0
ENDBLK
  5
1D
330
1B
100
AcDbEntity
 67
     1
  8
0
100
AcDbBlockEnd
  0
BLOCK
  5
24
330
23
100
AcDbEntity
  8
0
100
AcDbBlockBegin
  2
*Paper_Space0
 70
     0
 10
0.0
 20
0.0
 30
0.0
  3
*Paper_Space0
  1

  0
ENDBLK
  5
25
330
23
100
AcDbEntity
  8
0
100
AcDbBlockEnd
  0
BLOCK
  5
170
330
16F
100
AcDbEntity
  8
0
100
AcDbBlockBegin
  2
SW_CENTERMARKSYMBOL_0
 70
     0
 10
0.0
 20
0.0
 30
0.0
  3
SW_CENTERMARKSYMBOL_0
  1

  0
LINE
  5
172
330
16F
100
AcDbEntity
  8
0
  6
Continuous
 62
     0
370
    18
100
AcDbLine
 10
0.0
 20
0.0
 30
0.0
 11
0.0
 21
2.5
 31
0.0
  0
LINE
  5
173
330
16F
100
AcDbEntity
  8
0
  6
Continuous
 62
     0
370
    18
100
AcDbLine
 10
0.0
 20
0.0
 30
0.0
 11
-2.5
 21
0.0
 31
0.0
  0
LINE
  5
174
330
16F
100
AcDbEntity
  8
0
  6
Continuous
 62
     0
370
    18
100
AcDbLine
 10
0.0
 20
0.0
 30
0.0
 11
0.0
 21
-2.5
 31
0.0
  0
LINE
  5
175
330
16F
100
AcDbEntity
  8
0
  6
Continuous
 62
     0
370
    18
100
AcDbLine
 10
0.0
 20
0.0
 30
0.0
 11
2.5
 21
0.0
 31
0.0
  0
LINE
  5
176
330
16F
100
AcDbEntity
  8
0
  6
Continuous
 62
     0
370
    18
100
AcDbLine
 10
0.0
 20
5.0
 30
0.0
 11
0.0
 21
10.35
 31
0.0
  0
LINE
  5
177
330
16F
100
AcDbEntity
  8
0
  6
Continuous
 62
     0
370
    18
100
AcDbLine
 10
-5.0
 20
0.0
 30
0.0
 11
-10.35
 21
0.0
 31
0.0
  0
LINE
  5
178
330
16F
100
AcDbEntity
  8
0
  6
Continuous
 62
     0
370
    18
100
AcDbLine
 10
0.0
 20
-5.0
 30
0.0
 11
0.0
 21
-10.35
 31
0.0
  0
LINE
  5
179
330
16F
100
AcDbEntity
  8
0
  6
Continuous
 62
     0
370
    18
100
AcDbLine
 10
5.0
 20
0.0
 30
0.0
 11
10.35
 21
0.0
 31
0.0
  0
ENDBLK
  5
171
330
16F
100
AcDbEntity
  8
0
100
AcDbBlockEnd
  0
ENDSEC
  0
SECTION
  2
ENTITIES
  0
MTEXT
  5
74
330
1F
100
AcDbEntity
  8
0
  6
Continuous
 62
     7
370
     0
100
AcDbMText
 10
192.2098391137
 20
107.7171946204
 30
0.0
 40
4.2333333333
 41
0.0
 71
     1
 72
     1
  1
HS-2208R
  7
SLDTEXTSTYLE0
 73
     1
 44
1.0
  0
LINE
  5
75
330
1F
100
AcDbEntity
  8
0
  6
Continuous
 62
     7
370
    25
100
AcDbLine
 10
165.8227075832
 20
79.0260647399
 30
0.0
 11
166.295912664
 21
79.0260647399
 31
0.0
  0
LINE
  5
76
330
1F
100
AcDbEntity
  8
0
  6
Continuous
 62
     7
370
    25
100
AcDbLine
 10
166.295912664
 20
88.0260647399
 30
0.0
 11
165.8227075832
 21
88.0260647399
 31
0.0
  0
LINE
  5
77
330
1F
100
AcDbEntity
  8
0
  6
Continuous
 62
     7
370
    25
100
AcDbLine
 10
165.8227075832
 20
88.0260647399
 30
0.0
 11
165.795912664
 21
87.9260647399
 31
0.0
  0
LINE
  5
78
330
1F
100
AcDbEntity
  8
0
  6
Continuous
 62
     7
370
    25
100
AcDbLine
 10
165.795912664
 20
79.1260647399
 30
0.0
 11
165.8227075832
 21
79.0260647399
 31
0.0
  0
LINE
  5
79
330
1F
100
AcDbEntity
  8
0
  6
Continuous
 62
     7
370
    25
100
AcDbLine
 10
170.295912664
 20
79.5260647399
 30
0.0
 11
174.295912664
 21
80.1760647399
 31
0.0
  0
LINE
  5
7A
330
1F
100
AcDbEntity
  8
0
  6
Continuous
 62
     7
370
    25
100
AcDbLine
 10
174.295912664
 20
86.8760647399
 30
0.0
 11
170.295912664
 21
87.5260647399
 31
0.0
  0
LINE
  5
7B
330
1F
100
AcDbEntity
  8
0
  6
Continuous
 62
     7
370
    25
100
AcDbLine
 10
166.295912664
 20
79.5260647399
 30
0.0
 11
170.295912664
 21
79.5260647399
 31
0.0
  0
LINE
  5
7C
330
1F
100
AcDbEntity
  8
0
  6
Continuous
 62
     7
370
    25
100
AcDbLine
 10
170.295912664
 20
87.5260647399
 30
0.0
 11
166.295912664
 21
87.5260647399
 31
0.0
  0
LINE
  5
7D
330
1F
100
AcDbEntity
  8
0
  6
Continuous
 62
     7
370
    25
100
AcDbLine
 10
182.295912664
 20
79.5260647399
 30
0.0
 11
186.295912664
 21
80.1760647399
 31
0.0
  0
LINE
  5
7E
330
1F
100
AcDbEntity
  8
0
  6
Continuous
 62
     7
370
    25
100
AcDbLine
 10
186.295912664
 20
86.8760647399
 30
0.0
 11
182.295912664
 21
87.5260647399
 31
0.0
  0
LINE
  5
7F
330
1F
100
AcDbEntity
  8
0
  6
Continuous
 62
     7
370
    25
100
AcDbLine
 10
186.295912664
 20
79.5260647399
 30
0.0
 11
191.0898046999
 21
80.0926156169
 31
0.0
  0
LINE
  5
80
330
1F
100
AcDbEntity
  8
0
  6
Continuous
 62
     7
370
    25
100
AcDbLine
 10
191.0898046999
 20
86.9595138629
 30
0.0
 11
186.295912664
 21
87.5260647399
 31
0.0
  0
LINE
  5
81
330
1F
100
AcDbEntity
  8
0
  6
Continuous
 62
     7
370
    25
100
AcDbLine
 10
178.295912664
 20
79.5260647399
 30
0.0
 11
182.295912664
 21
80.1760647399
 31
0.0
  0
LINE
  5
82
330
1F
100
AcDbEntity
  8
0
  6
Continuous
 62
     7
370
    25
100
AcDbLine
 10
182.295912664
 20
86.8760647399
 30
0.0
 11
178.295912664
 21
87.5260647399
 31
0.0
  0
LINE
  5
83
330
1F
100
AcDbEntity
  8
0
  6
Continuous
 62
     7
370
    25
100
AcDbLine
 10
174.295912664
 20
79.5260647399
 30
0.0
 11
178.295912664
 21
80.1760647399
 31
0.0
  0
LINE
  5
84
330
1F
100
AcDbEntity
  8
0
  6
Continuous
 62
     7
370
    25
100
AcDbLine
 10
178.295912664
 20
86.8760647399
 30
0.0
 11
174.295912664
 21
87.5260647399
 31
0.0
  0
ARC
  5
85
330
1F
100
AcDbEntity
  8
0
  6
Continuous
 62
     7
370
    25
100
AcDbCircle
 10
190.995912664
 20
80.8870866897
 30
0.0
 40
0.8000000000000114
100
AcDbArc
 50
276.7400560979
 51
0.0
  0
ARC
  5
86
330
1F
100
AcDbEntity
  8
0
  6
Continuous
 62
     7
370
    25
100
AcDbCircle
 10
190.995912664
 20
86.1650427901
 30
0.0
 40
0.8000000000000114
100
AcDbArc
 50
0.0
 51
83.2599439021
  0
LINE
  5
87
330
1F
100
AcDbEntity
  8
0
  6
Continuous
 62
     7
370
    25
100
AcDbLine
 10
128.2605479081
 20
79.0260647399
 30
0.0
 11
128.2873428273
 21
79.1260647399
 31
0.0
  0
LINE
  5
88
330
1F
100
AcDbEntity
  8
0
  6
Continuous
 62
     7
370
    25
100
AcDbLine
 10
128.2873428273
 20
87.9260647399
 30
0.0
 11
128.2605479081
 21
88.0260647399
 31
0.0
  0
LINE
  5
89
330
1F
100
AcDbEntity
  8
0
  6
Continuous
 62
     7
370
    25
100
AcDbLine
 10
128.2605479081
 20
88.0260647399
 30
0.0
 11
127.7873428273
 21
88.0260647399
 31
0.0
  0
LINE
  5
8A
330
1F
100
AcDbEntity
  8
0
  6
Continuous
 62
     7
370
    25
100
AcDbLine
 10
127.7873428273
 20
79.0260647399
 30
0.0
 11
128.2605479081
 21
79.0260647399
 31
0.0
  0
LINE
  5
8B
330
1F
100
AcDbEntity
  8
0
  6
Continuous
 62
     7
370
    25
100
AcDbLine
 10
123.7873428273
 20
87.5260647399
 30
0.0
 11
119.7873428273
 21
86.8760647399
 31
0.0
  0
LINE
  5
8C
330
1F
100
AcDbEntity
  8
0
  6
Continuous
 62
     7
370
    25
100
AcDbLine
 10
119.7873428273
 20
80.1760647399
 30
0.0
 11
123.7873428273
 21
79.5260647399
 31
0.0
  0
LINE
  5
8D
330
1F
100
AcDbEntity
  8
0
  6
Continuous
 62
     7
370
    25
100
AcDbLine
 10
127.7873428273
 20
87.5260647399
 30
0.0
 11
123.7873428273
 21
87.5260647399
 31
0.0
  0
LINE
  5
8E
330
1F
100
AcDbEntity
  8
0
  6
Continuous
 62
     7
370
    25
100
AcDbLine
 10
123.7873428273
 20
79.5260647399
 30
0.0
 11
127.7873428273
 21
79.5260647399
 31
0.0
  0
LINE
  5
8F
330
1F
100
AcDbEntity
  8
0
  6
Continuous
 62
     7
370
    25
100
AcDbLine
 10
107.7873428273
 20
87.5260647399
 30
0.0
 11
102.9934507915
 21
86.9595138629
 31
0.0
  0
LINE
  5
90
330
1F
100
AcDbEntity
  8
0
  6
Continuous
 62
     7
370
    25
100
AcDbLine
 10
102.9934507915
 20
80.0926156169
 30
0.0
 11
107.7873428273
 21
79.5260647399
 31
0.0
  0
LINE
  5
91
330
1F
100
AcDbEntity
  8
0
  6
Continuous
 62
     7
370
    25
100
AcDbLine
 10
111.7873428273
 20
87.5260647399
 30
0.0
 11
107.7873428273
 21
86.8760647399
 31
0.0
  0
LINE
  5
92
330
1F
100
AcDbEntity
  8
0
  6
Continuous
 62
     7
370
    25
100
AcDbLine
 10
107.7873428273
 20
80.1760647399
 30
0.0
 11
111.7873428273
 21
79.5260647399
 31
0.0
  0
LINE
  5
93
330
1F
100
AcDbEntity
  8
0
  6
Continuous
 62
     7
370
    25
100
AcDbLine
 10
115.7873428273
 20
87.5260647399
 30
0.0
 11
111.7873428273
 21
86.8760647399
 31
0.0
  0
LINE
  5
94
330
1F
100
AcDbEntity
  8
0
  6
Continuous
 62
     7
370
    25
100
AcDbLine
 10
111.7873428273
 20
80.1760647399
 30
0.0
 11
115.7873428273
 21
79.5260647399
 31
0.0
  0
LINE
  5
95
330
1F
100
AcDbEntity
  8
0
  6
Continuous
 62
     7
370
    25
100
AcDbLine
 10
119.7873428273
 20
87.5260647399
 30
0.0
 11
115.7873428273
 21
86.8760647399
 31
0.0
  0
LINE
  5
96
330
1F
100
AcDbEntity
  8
0
  6
Continuous
 62
     7
370
    25
100
AcDbLine
 10
115.7873428273
 20
80.1760647399
 30
0.0
 11
119.7873428273
 21
79.5260647399
 31
0.0
  0
ARC
  5
97
330
1F
100
AcDbEntity
  8
0
  6
Continuous
 62
     7
370
    25
100
AcDbCircle
 10
103.0873428273
 20
86.1650427901
 30
0.0
 40
0.8000000000000114
100
AcDbArc
 50
96.7400560979
 51
180.0
  0
ARC
  5
98
330
1F
100
AcDbEntity
  8
0
  6
Continuous
 62
     7
370
    25
100
AcDbCircle
 10
103.0873428273
 20
80.8870866897
 30
0.0
 40
0.8000000000000114
100
AcDbArc
 50
180.0
 51
263.2599439021
  0
LINE
  5
99
330
1F
100
AcDbEntity
  8
0
  6
Continuous
 62
     7
370
    25
100
AcDbLine
 10
155.5970463842
 20
92.7636690469
 30
0.0
 11
154.795912664
 21
91.3760647399
 31
0.0
  0
LINE
  5
9A
330
1F
100
AcDbEntity
  8
0
  6
Continuous
 62
     7
370
    25
100
AcDbLine
 10
154.795912664
 20
75.6760647399
 30
0.0
 11
155.5970463842
 21
74.2884604329
 31
0.0
  0
LINE
  5
9B
330
1F
100
AcDbEntity
  8
0
  6
Continuous
 62
     7
370
    25
100
AcDbLine
 10
162.9947789438
 20
74.2884604329
 30
0.0
 11
163.795912664
 21
75.6760647399
 31
0.0
  0
LINE
  5
9C
330
1F
100
AcDbEntity
  8
0
  6
Continuous
 62
     7
370
    25
100
AcDbLine
 10
163.795912664
 20
91.3760647399
 30
0.0
 11
162.9947789438
 21
92.7636690469
 31
0.0
  0
ARC
  5
9D
330
1F
100
AcDbEntity
  8
0
  6
Continuous
 62
     7
370
    25
100
AcDbCircle
 10
153.095912664
 20
75.9760647399
 30
0.0
 40
0.2999999999999829
100
AcDbArc
 50
180.0
 51
270.0
  0
ARC
  5
9E
330
1F
100
AcDbEntity
  8
0
  6
Continuous
 62
     7
370
    25
100
AcDbCircle
 10
153.095912664
 20
91.0760647399
 30
0.0
 40
0.2999999999999972
100
AcDbArc
 50
90.0
 51
180.0
  0
LINE
  5
9F
330
1F
100
AcDbEntity
  8
0
  6
Continuous
 62
     7
370
    25
100
AcDbLine
 10
154.795912664
 20
91.3760647399
 30
0.0
 11
153.095912664
 21
91.3760647399
 31
0.0
  0
LINE
  5
A0
330
1F
100
AcDbEntity
  8
0
  6
Continuous
 62
     7
370
    25
100
AcDbLine
 10
153.095912664
 20
75.6760647399
 30
0.0
 11
154.795912664
 21
75.6760647399
 31
0.0
  0
ARC
  5
A1
330
1F
100
AcDbEntity
  8
0
  6
Continuous
 62
     7
370
    25
100
AcDbCircle
 10
165.495912664
 20
91.0760647399
 30
0.0
 40
0.2999999999999972
100
AcDbArc
 50
0.0
 51
90.0
  0
ARC
  5
A2
330
1F
100
AcDbEntity
  8
0
  6
Continuous
 62
     7
370
    25
100
AcDbCircle
 10
165.495912664
 20
75.9760647399
 30
0.0
 40
0.2999999999999829
100
AcDbArc
 50
270.0
 51
0.0
  0
LINE
  5
A3
330
1F
100
AcDbEntity
  8
0
  6
Continuous
 62
     7
370
    25
100
AcDbLine
 10
163.795912664
 20
75.6760647399
 30
0.0
 11
165.495912664
 21
75.6760647399
 31
0.0
  0
LINE
  5
A4
330
1F
100
AcDbEntity
  8
0
  6
Continuous
 62
     7
370
    25
100
AcDbLine
 10
165.495912664
 20
91.3760647399
 30
0.0
 11
163.795912664
 21
91.3760647399
 31
0.0
  0
LINE
  5
A5
330
1F
100
AcDbEntity
  8
0
  6
Continuous
 62
     7
370
    25
100
AcDbLine
 10
159.295912664
 20
74.4884604329
 30
0.0
 11
159.3495025025
 21
74.2884604329
 31
0.0
  0
LINE
  5
A6
330
1F
100
AcDbEntity
  8
0
  6
Continuous
 62
     7
370
    25
100
AcDbLine
 10
159.2423228255
 20
74.2884604329
 30
0.0
 11
159.295912664
 21
74.4884604329
 31
0.0
  0
LINE
  5
A7
330
1F
100
AcDbEntity
  8
0
  6
Continuous
 62
     7
370
    25
100
AcDbLine
 10
159.3495025025
 20
92.7636690469
 30
0.0
 11
159.295912664
 21
92.5636690469
 31
0.0
  0
LINE
  5
A8
330
1F
100
AcDbEntity
  8
0
  6
Continuous
 62
     7
370
    25
100
AcDbLine
 10
159.295912664
 20
92.5636690469
 30
0.0
 11
159.2423228255
 21
92.7636690469
 31
0.0
  0
LINE
  5
A9
330
1F
100
AcDbEntity
  8
0
  6
Continuous
 62
     7
370
    25
100
AcDbLine
 10
138.4862091071
 20
74.2884604329
 30
0.0
 11
139.2873428273
 21
75.6760647399
 31
0.0
  0
LINE
  5
AA
330
1F
100
AcDbEntity
  8
0
  6
Continuous
 62
     7
370
    25
100
AcDbLine
 10
139.2873428273
 20
91.3760647399
 30
0.0
 11
138.4862091071
 21
92.7636690469
 31
0.0
  0
LINE
  5
AB
330
1F
100
AcDbEntity
  8
0
  6
Continuous
 62
     7
370
    25
100
AcDbLine
 10
131.0884765475
 20
92.7636690469
 30
0.0
 11
130.2873428273
 21
91.3760647399
 31
0.0
  0
LINE
  5
AC
330
1F
100
AcDbEntity
  8
0
  6
Continuous
 62
     7
370
    25
100
AcDbLine
 10
130.2873428273
 20
75.6760647399
 30
0.0
 11
131.0884765475
 21
74.2884604329
 31
0.0
  0
ARC
  5
AD
330
1F
100
AcDbEntity
  8
0
  6
Continuous
 62
     7
370
    25
100
AcDbCircle
 10
140.9873428273
 20
91.0760647399
 30
0.0
 40
0.3000000000000114
100
AcDbArc
 50
0.0
 51
90.0
  0
ARC
  5
AE
330
1F
100
AcDbEntity
  8
0
  6
Continuous
 62
     7
370
    25
100
AcDbCircle
 10
140.9873428273
 20
75.9760647399
 30
0.0
 40
0.3000000000000114
100
AcDbArc
 50
270.0
 51
0.0
  0
ARC
  5
AF
330
1F
100
AcDbEntity
  8
0
  6
Continuous
 62
     7
370
    25
100
AcDbCircle
 10
128.5873428273
 20
75.9760647399
 30
0.0
 40
0.3000000000000114
100
AcDbArc
 50
180.0
 51
270.0
  0
ARC
  5
B0
330
1F
100
AcDbEntity
  8
0
  6
Continuous
 62
     7
370
    25
100
AcDbCircle
 10
128.5873428273
 20
91.0760647399
 30
0.0
 40
0.3000000000000114
100
AcDbArc
 50
90.0
 51
180.0
  0
LINE
  5
B1
330
1F
100
AcDbEntity
  8
0
  6
Continuous
 62
     7
370
    25
100
AcDbLine
 10
130.2873428273
 20
91.3760647399
 30
0.0
 11
128.5873428273
 21
91.3760647399
 31
0.0
  0
LINE
  5
B2
330
1F
100
AcDbEntity
  8
0
  6
Continuous
 62
     7
370
    25
100
AcDbLine
 10
128.5873428273
 20
75.6760647399
 30
0.0
 11
130.2873428273
 21
75.6760647399
 31
0.0
  0
LINE
  5
B3
330
1F
100
AcDbEntity
  8
0
  6
Continuous
 62
     7
370
    25
100
AcDbLine
 10
139.2873428273
 20
75.6760647399
 30
0.0
 11
140.9873428273
 21
75.6760647399
 31
0.0
  0
LINE
  5
B4
330
1F
100
AcDbEntity
  8
0
  6
Continuous
 62
     7
370
    25
100
AcDbLine
 10
140.9873428273
 20
91.3760647399
 30
0.0
 11
139.2873428273
 21
91.3760647399
 31
0.0
  0
LINE
  5
B5
330
1F
100
AcDbEntity
  8
0
  6
Continuous
 62
     7
370
    25
100
AcDbLine
 10
134.8409326658
 20
92.7636690469
 30
0.0
 11
134.7873428273
 21
92.5636690469
 31
0.0
  0
LINE
  5
B6
330
1F
100
AcDbEntity
  8
0
  6
Continuous
 62
     7
370
    25
100
AcDbLine
 10
134.7873428273
 20
92.5636690469
 30
0.0
 11
134.7337529889
 21
92.7636690469
 31
0.0
  0
LINE
  5
B7
330
1F
100
AcDbEntity
  8
0
  6
Continuous
 62
     7
370
    25
100
AcDbLine
 10
134.7873428273
 20
74.4884604329
 30
0.0
 11
134.8409326658
 21
74.2884604329
 31
0.0
  0
LINE
  5
B8
330
1F
100
AcDbEntity
  8
0
  6
Continuous
 62
     7
370
    25
100
AcDbLine
 10
134.7337529889
 20
74.2884604329
 30
0.0
 11
134.7873428273
 21
74.4884604329
 31
0.0
  0
LINE
  5
B9
330
1F
100
AcDbEntity
  8
0
  6
Continuous
 62
     7
370
    25
100
AcDbLine
 10
145.3111800953
 20
91.6089685085
 30
0.0
 11
144.5416277457
 21
90.2760647399
 31
0.0
  0
LINE
  5
BA
330
1F
100
AcDbEntity
  8
0
  6
Continuous
 62
     7
370
    25
100
AcDbLine
 10
144.5416277457
 20
76.7760647399
 30
0.0
 11
145.3111800953
 21
75.4431609712
 31
0.0
  0
LINE
  5
BB
330
1F
100
AcDbEntity
  8
0
  6
Continuous
 62
     7
370
    25
100
AcDbLine
 10
148.772075396
 20
75.4431609712
 30
0.0
 11
149.5416277457
 21
76.7760647399
 31
0.0
  0
LINE
  5
BC
330
1F
100
AcDbEntity
  8
0
  6
Continuous
 62
     7
370
    25
100
AcDbLine
 10
149.5416277457
 20
90.2760647399
 30
0.0
 11
148.772075396
 21
91.6089685085
 31
0.0
  0
LINE
  5
BD
330
1F
100
AcDbEntity
  8
0
  6
Continuous
 62
     7
370
    25
100
AcDbLine
 10
141.5416277457
 20
90.1045647399
 30
0.0
 11
141.2873428273
 21
90.1045647399
 31
0.0
  0
LINE
  5
BE
330
1F
100
AcDbEntity
  8
0
  6
Continuous
 62
     7
370
    25
100
AcDbLine
 10
141.2873428273
 20
76.9475647399
 30
0.0
 11
141.5416277457
 21
76.9475647399
 31
0.0
  0
LINE
  5
BF
330
1F
100
AcDbEntity
  8
0
  6
Continuous
 62
     7
370
    25
100
AcDbLine
 10
152.5416277457
 20
90.1045647399
 30
0.0
 11
151.5416277457
 21
89.1045647399
 31
0.0
  0
LINE
  5
C0
330
1F
100
AcDbEntity
  8
0
  6
Continuous
 62
     7
370
    25
100
AcDbLine
 10
151.5416277457
 20
77.9475647399
 30
0.0
 11
152.5416277457
 21
76.9475647399
 31
0.0
  0
LINE
  5
C1
330
1F
100
AcDbEntity
  8
0
  6
Continuous
 62
     7
370
    25
100
AcDbLine
 10
141.5416277457
 20
76.9475647399
 30
0.0
 11
142.5416277457
 21
77.9475647399
 31
0.0
  0
LINE
  5
C2
330
1F
100
AcDbEntity
  8
0
  6
Continuous
 62
     7
370
    25
100
AcDbLine
 10
142.5416277457
 20
89.1045647399
 30
0.0
 11
141.5416277457
 21
90.1045647399
 31
0.0
  0
LINE
  5
C3
330
1F
100
AcDbEntity
  8
0
  6
Continuous
 62
     7
370
    25
100
AcDbLine
 10
152.5416277457
 20
76.9475647399
 30
0.0
 11
152.795912664
 21
76.9475647399
 31
0.0
  0
LINE
  5
C4
330
1F
100
AcDbEntity
  8
0
  6
Continuous
 62
     7
370
    25
100
AcDbLine
 10
152.795912664
 20
90.1045647399
 30
0.0
 11
152.5416277457
 21
90.1045647399
 31
0.0
  0
LINE
  5
C5
330
1F
100
AcDbEntity
  8
0
  6
Continuous
 62
     7
370
    25
100
AcDbLine
 10
149.5416277457
 20
78.0260647399
 30
0.0
 11
151.5416277457
 21
78.0260647399
 31
0.0
  0
LINE
  5
C6
330
1F
100
AcDbEntity
  8
0
  6
Continuous
 62
     7
370
    25
100
AcDbLine
 10
151.5416277457
 20
89.0260647399
 30
0.0
 11
149.5416277457
 21
89.0260647399
 31
0.0
  0
LINE
  5
C7
330
1F
100
AcDbEntity
  8
0
  6
Continuous
 62
     7
370
    25
100
AcDbLine
 10
144.5416277457
 20
89.0260647399
 30
0.0
 11
142.5416277457
 21
89.0260647399
 31
0.0
  0
LINE
  5
C8
330
1F
100
AcDbEntity
  8
0
  6
Continuous
 62
     7
370
    25
100
AcDbLine
 10
142.5416277457
 20
78.0260647399
 30
0.0
 11
144.5416277457
 21
78.0260647399
 31
0.0
  0
LINE
  5
C9
330
1F
100
AcDbEntity
  8
0
  6
Continuous
 62
     7
370
    25
100
AcDbLine
 10
147.0416277457
 20
75.7431609712
 30
0.0
 11
147.1220125034
 21
75.4431609712
 31
0.0
  0
LINE
  5
CA
330
1F
100
AcDbEntity
  8
0
  6
Continuous
 62
     7
370
    25
100
AcDbLine
 10
146.9612429879
 20
75.4431609712
 30
0.0
 11
147.0416277457
 21
75.7431609712
 31
0.0
  0
LINE
  5
CB
330
1F
100
AcDbEntity
  8
0
  6
Continuous
 62
     7
370
    25
100
AcDbLine
 10
147.0416277457
 20
91.3089685085
 30
0.0
 11
146.9612429879
 21
91.6089685085
 31
0.0
  0
LINE
  5
CC
330
1F
100
AcDbEntity
  8
0
  6
Continuous
 62
     7
370
    25
100
AcDbLine
 10
147.1220125034
 20
91.6089685085
 30
0.0
 11
147.0416277457
 21
91.3089685085
 31
0.0
  0
LINE
  5
CD
330
1F
100
AcDbEntity
  8
0
  6
Continuous
 62
     7
370
    25
100
AcDbLine
 10
165.8227075832
 20
83.5260647399
 30
0.0
 11
165.8227075832
 21
88.0260647399
 31
0.0
  0
LINE
  5
CE
330
1F
100
AcDbEntity
  8
0
  6
Continuous
 62
     7
370
    25
100
AcDbLine
 10
165.8227075832
 20
79.0260647399
 30
0.0
 11
165.8227075832
 21
83.5260647399
 31
0.0
  0
LINE
  5
CF
330
1F
100
AcDbEntity
  8
0
  6
Continuous
 62
     7
370
    25
100
AcDbLine
 10
166.295912664
 20
88.0260647399
 30
0.0
 11
166.295912664
 21
79.0260647399
 31
0.0
  0
LINE
  5
D0
330
1F
100
AcDbEntity
  8
0
  6
Continuous
 62
     7
370
    25
100
AcDbLine
 10
170.295912664
 20
83.5260647399
 30
0.0
 11
170.295912664
 21
87.5260647399
 31
0.0
  0
LINE
  5
D1
330
1F
100
AcDbEntity
  8
0
  6
Continuous
 62
     7
370
    25
100
AcDbLine
 10
170.295912664
 20
79.5260647399
 30
0.0
 11
170.295912664
 21
83.5260647399
 31
0.0
  0
LINE
  5
D2
330
1F
100
AcDbEntity
  8
0
  6
Continuous
 62
     7
370
    25
100
AcDbLine
 10
182.295912664
 20
83.5260647399
 30
0.0
 11
182.295912664
 21
87.5260647399
 31
0.0
  0
LINE
  5
D3
330
1F
100
AcDbEntity
  8
0
  6
Continuous
 62
     7
370
    25
100
AcDbLine
 10
182.295912664
 20
79.5260647399
 30
0.0
 11
182.295912664
 21
83.5260647399
 31
0.0
  0
LINE
  5
D4
330
1F
100
AcDbEntity
  8
0
  6
Continuous
 62
     7
370
    25
100
AcDbLine
 10
186.295912664
 20
83.5260647399
 30
0.0
 11
186.295912664
 21
87.5260647399
 31
0.0
  0
LINE
  5
D5
330
1F
100
AcDbEntity
  8
0
  6
Continuous
 62
     7
370
    25
100
AcDbLine
 10
186.295912664
 20
79.5260647399
 30
0.0
 11
186.295912664
 21
83.5260647399
 31
0.0
  0
LINE
  5
D6
330
1F
100
AcDbEntity
  8
0
  6
Continuous
 62
     7
370
    25
100
AcDbLine
 10
178.295912664
 20
83.5260647399
 30
0.0
 11
178.295912664
 21
87.5260647399
 31
0.0
  0
LINE
  5
D7
330
1F
100
AcDbEntity
  8
0
  6
Continuous
 62
     7
370
    25
100
AcDbLine
 10
178.295912664
 20
79.5260647399
 30
0.0
 11
178.295912664
 21
83.5260647399
 31
0.0
  0
LINE
  5
D8
330
1F
100
AcDbEntity
  8
0
  6
Continuous
 62
     7
370
    25
100
AcDbLine
 10
174.295912664
 20
83.5260647399
 30
0.0
 11
174.295912664
 21
87.5260647399
 31
0.0
  0
LINE
  5
D9
330
1F
100
AcDbEntity
  8
0
  6
Continuous
 62
     7
370
    25
100
AcDbLine
 10
174.295912664
 20
79.5260647399
 30
0.0
 11
174.295912664
 21
83.5260647399
 31
0.0
  0
LINE
  5
DA
330
1F
100
AcDbEntity
  8
0
  6
Continuous
 62
     7
370
    25
100
AcDbLine
 10
191.795912664
 20
83.5260647399
 30
0.0
 11
191.795912664
 21
80.8870866897
 31
0.0
  0
LINE
  5
DB
330
1F
100
AcDbEntity
  8
0
  6
Continuous
 62
     7
370
    25
100
AcDbLine
 10
191.795912664
 20
86.1650427901
 30
0.0
 11
191.795912664
 21
83.5260647399
 31
0.0
  0
LINE
  5
DC
330
1F
100
AcDbEntity
  8
0
  6
Continuous
 62
     7
370
    25
100
AcDbLine
 10
128.2605479081
 20
88.0260647399
 30
0.0
 11
128.2605479081
 21
79.0260647399
 31
0.0
  0
LINE
  5
DD
330
1F
100
AcDbEntity
  8
0
  6
Continuous
 62
     7
370
    25
100
AcDbLine
 10
127.7873428273
 20
83.5260647399
 30
0.0
 11
127.7873428273
 21
88.0260647399
 31
0.0
  0
LINE
  5
DE
330
1F
100
AcDbEntity
  8
0
  6
Continuous
 62
     7
370
    25
100
AcDbLine
 10
127.7873428273
 20
79.0260647399
 30
0.0
 11
127.7873428273
 21
83.5260647399
 31
0.0
  0
LINE
  5
DF
330
1F
100
AcDbEntity
  8
0
  6
Continuous
 62
     7
370
    25
100
AcDbLine
 10
123.7873428273
 20
87.5260647399
 30
0.0
 11
123.7873428273
 21
79.5260647399
 31
0.0
  0
LINE
  5
E0
330
1F
100
AcDbEntity
  8
0
  6
Continuous
 62
     7
370
    25
100
AcDbLine
 10
107.7873428273
 20
87.5260647399
 30
0.0
 11
107.7873428273
 21
79.5260647399
 31
0.0
  0
LINE
  5
E1
330
1F
100
AcDbEntity
  8
0
  6
Continuous
 62
     7
370
    25
100
AcDbLine
 10
111.7873428273
 20
87.5260647399
 30
0.0
 11
111.7873428273
 21
79.5260647399
 31
0.0
  0
LINE
  5
E2
330
1F
100
AcDbEntity
  8
0
  6
Continuous
 62
     7
370
    25
100
AcDbLine
 10
115.7873428273
 20
87.5260647399
 30
0.0
 11
115.7873428273
 21
79.5260647399
 31
0.0
  0
LINE
  5
E3
330
1F
100
AcDbEntity
  8
0
  6
Continuous
 62
     7
370
    25
100
AcDbLine
 10
119.7873428273
 20
87.5260647399
 30
0.0
 11
119.7873428273
 21
79.5260647399
 31
0.0
  0
LINE
  5
E4
330
1F
100
AcDbEntity
  8
0
  6
Continuous
 62
     7
370
    25
100
AcDbLine
 10
102.2873428273
 20
80.8870866897
 30
0.0
 11
102.2873428273
 21
86.1650427901
 31
0.0
  0
LINE
  5
E5
330
1F
100
AcDbEntity
  8
0
  6
Continuous
 62
     7
370
    25
100
AcDbLine
 10
159.295912664
 20
88.3519899432
 30
0.0
 11
159.3495025025
 21
88.1448668934
 31
0.0
  0
LINE
  5
E6
330
1F
100
AcDbEntity
  8
0
  6
Continuous
 62
     7
370
    25
100
AcDbLine
 10
159.3495025025
 20
88.1448668934
 30
0.0
 11
159.295912664
 21
87.7306207938
 31
0.0
  0
LINE
  5
E7
330
1F
100
AcDbEntity
  8
0
  6
Continuous
 62
     7
370
    25
100
AcDbLine
 10
159.295912664
 20
87.7306207938
 30
0.0
 11
159.295912664
 21
88.3519899432
 31
0.0
  0
SPLINE
  5
E8
330
1F
100
AcDbEntity
  8
0
  6
Continuous
 62
     7
370
    25
100
AcDbSpline
210
0.0
220
0.0
230
1.0
 70
     8
 71
     3
 72
    14
 73
    10
 74
     0
 42
0.000000001
 43
0.00000001
 40
0.0
 40
0.0
 40
0.0
 40
0.0
 40
0.1052068357133045
 40
0.2313210752448397
 40
0.3574023224982446
 40
0.4865716879238012
 40
0.6157381069695573
 40
0.8067800019191284
 40
0.9999999999999999
 40
0.9999999999999999
 40
0.9999999999999999
 40
0.9999999999999999
 10
155.5970463841839
 20
78.90726258636745
 30
0.0
 10
155.5096050610424
 20
79.22429003671886
 30
0.0
 10
155.3173454920442
 20
79.92134674601157
 30
0.0
 10
155.0912128971579
 20
81.01627175918286
 30
0.0
 10
154.9288077198524
 20
82.1981057877028
 30
0.0
 10
154.865992713565
 20
83.39958781763885
 30
0.0
 10
154.914933468214
 20
84.80456964854567
 30
0.0
 10
155.1337127279295
 20
86.39929608525993
 30
0.0
 10
155.4420193096552
 20
87.56081535275479
 30
0.0
 10
155.5970463841839
 20
88.1448668934015
 30
0.0
  0
SPLINE
  5
E9
330
1F
100
AcDbEntity
  8
0
  6
Continuous
 62
     7
370
    25
100
AcDbSpline
210
0.0
220
0.0
230
1.0
 70
     8
 71
     3
 72
    15
 73
    11
 74
     0
 42
0.000000001
 43
0.00000001
 40
0.0
 40
0.0
 40
0.0
 40
0.0
 40
0.13230496641634
 40
0.2645725257576541
 40
0.3997989469058928
 40
0.5350009659368333
 40
0.6501921044151404
 40
0.765401211680801
 40
0.8826892657702317
 40
1.0
 40
1.0
 40
1.0
 40
1.0
 10
155.5970463841839
 20
74.28846043285037
 30
0.0
 10
155.4882748566407
 20
74.4880106509195
 30
0.0
 10
155.2707625549326
 20
74.88705466748276
 30
0.0
 10
155.036727362137
 20
75.50154708297728
 30
0.0
 10
154.896008106188
 20
76.1276227549842
 30
0.0
 10
154.8681388224645
 20
76.73102050817525
 30
0.0
 10
154.9404406208189
 20
77.30182071019135
 30
0.0
 10
155.088590600798
 20
77.8405165915052
 30
0.0
 10
155.3059107595026
 20
78.37677688477878
 30
0.0
 10
155.4999949215112
 20
78.73042262278533
 30
0.0
 10
155.5970463841839
 20
78.90726258636745
 30
0.0
  0
SPLINE
  5
EA
330
1F
100
AcDbEntity
  8
0
  6
Continuous
 62
     7
370
    25
100
AcDbSpline
210
0.0
220
0.0
230
1.0
 70
     8
 71
     3
 72
    15
 73
    11
 74
     0
 42
0.000000001
 43
0.00000001
 40
0.0
 40
0.0
 40
0.0
 40
0.0
 40
0.1323049664163416
 40
0.2645725257576573
 40
0.3997989469058977
 40
0.5350009659368399
 40
0.6501921044151454
 40
0.7654012116808045
 40
0.8826892657702334
 40
1.0
 40
1.0
 40
1.0
 40
1.0
 10
155.5970463841839
 20
88.1448668934015
 30
0.0
 10
155.4882748566407
 20
88.34441711147062
 30
0.0
 10
155.2707625549326
 20
88.74346112803386
 30
0.0
 10
155.036727362137
 20
89.35795354352837
 30
0.0
 10
154.896008106188
 20
89.98402921553527
 30
0.0
 10
154.8681388224645
 20
90.58742696872632
 30
0.0
 10
154.940440620819
 20
91.15822717074239
 30
0.0
 10
155.088590600798
 20
91.6969230520562
 30
0.0
 10
155.3059107595026
 20
92.23318334532976
 30
0.0
 10
155.4999949215112
 20
92.5868290833363
 30
0.0
 10
155.5970463841839
 20
92.76366904691841
 30
0.0
  0
LINE
  5
EB
330
1F
100
AcDbEntity
  8
0
  6
Continuous
 62
     7
370
    25
100
AcDbLine
 10
154.795912664
 20
83.5260647399
 30
0.0
 11
154.795912664
 21
91.3760647399
 31
0.0
  0
LINE
  5
EC
330
1F
100
AcDbEntity
  8
0
  6
Continuous
 62
     7
370
    25
100
AcDbLine
 10
154.795912664
 20
75.6760647399
 30
0.0
 11
154.795912664
 21
83.5260647399
 31
0.0
  0
SPLINE
  5
ED
330
1F
100
AcDbEntity
  8
0
  6
Continuous
 62
     7
370
    25
100
AcDbSpline
210
0.0
220
0.0
230
1.0
 70
     8
 71
     3
 72
    15
 73
    11
 74
     0
 42
0.000000001
 43
0.00000001
 40
0.0
 40
0.0
 40
0.0
 40
0.0
 40
0.1323049664163416
 40
0.2645725257576573
 40
0.3997989469058977
 40
0.5350009659368399
 40
0.6501921044151454
 40
0.7654012116808045
 40
0.8826892657702333
 40
1.0
 40
1.0
 40
1.0
 40
1.0
 10
162.9947789437943
 20
88.1448668934015
 30
0.0
 10
163.1035504713375
 20
88.34441711147062
 30
0.0
 10
163.3210627730456
 20
88.74346112803387
 30
0.0
 10
163.5550979658411
 20
89.35795354352837
 30
0.0
 10
163.6958172217902
 20
89.98402921553527
 30
0.0
 10
163.7236865055137
 20
90.58742696872632
 30
0.0
 10
163.6513847071592
 20
91.15822717074239
 30
0.0
 10
163.5032347271801
 20
91.6969230520562
 30
0.0
 10
163.2859145684755
 20
92.23318334532976
 30
0.0
 10
163.0918304064669
 20
92.5868290833363
 30
0.0
 10
162.9947789437943
 20
92.76366904691841
 30
0.0
  0
SPLINE
  5
EE
330
1F
100
AcDbEntity
  8
0
  6
Continuous
 62
     7
370
    25
100
AcDbSpline
210
0.0
220
0.0
230
1.0
 70
     8
 71
     3
 72
    15
 73
    11
 74
     0
 42
0.000000001
 43
0.00000001
 40
0.0
 40
0.0
 40
0.0
 40
0.0
 40
0.13230496641634
 40
0.264572525757654
 40
0.3997989469058927
 40
0.5350009659368333
 40
0.6501921044151404
 40
0.765401211680801
 40
0.8826892657702317
 40
1.0
 40
1.0
 40
1.0
 40
1.0
 10
162.9947789437943
 20
74.28846043285037
 30
0.0
 10
163.1035504713375
 20
74.4880106509195
 30
0.0
 10
163.3210627730456
 20
74.88705466748276
 30
0.0
 10
163.5550979658412
 20
75.50154708297728
 30
0.0
 10
163.6958172217902
 20
76.1276227549842
 30
0.0
 10
163.7236865055137
 20
76.73102050817525
 30
0.0
 10
163.6513847071593
 20
77.30182071019135
 30
0.0
 10
163.5032347271802
 20
77.8405165915052
 30
0.0
 10
163.2859145684755
 20
78.37677688477878
 30
0.0
 10
163.0918304064669
 20
78.73042262278533
 30
0.0
 10
162.9947789437943
 20
78.90726258636745
 30
0.0
  0
SPLINE
  5
EF
330
1F
100
AcDbEntity
  8
0
  6
Continuous
 62
     7
370
    25
100
AcDbSpline
210
0.0
220
0.0
230
1.0
 70
     8
 71
     3
 72
    14
 73
    10
 74
     0
 42
0.000000001
 43
0.00000001
 40
0.0
 40
0.0
 40
0.0
 40
0.0
 40
0.1052068357133045
 40
0.2313210752448397
 40
0.3574023224982446
 40
0.4865716879238012
 40
0.6157381069695573
 40
0.8067800019191284
 40
0.9999999999999999
 40
0.9999999999999999
 40
0.9999999999999999
 40
0.9999999999999999
 10
162.9947789437943
 20
78.90726258636745
 30
0.0
 10
163.0822202669358
 20
79.22429003671886
 30
0.0
 10
163.274479835934
 20
79.92134674601157
 30
0.0
 10
163.5006124308203
 20
81.01627175918286
 30
0.0
 10
163.6630176081258
 20
82.1981057877028
 30
0.0
 10
163.7258326144132
 20
83.39958781763885
 30
0.0
 10
163.6768918597642
 20
84.80456964854567
 30
0.0
 10
163.4581126000487
 20
86.39929608525993
 30
0.0
 10
163.149806018323
 20
87.56081535275479
 30
0.0
 10
162.9947789437943
 20
88.1448668934015
 30
0.0
  0
LINE
  5
F0
330
1F
100
AcDbEntity
  8
0
  6
Continuous
 62
     7
370
    25
100
AcDbLine
 10
163.795912664
 20
83.5260647399
 30
0.0
 11
163.795912664
 21
91.3760647399
 31
0.0
  0
LINE
  5
F1
330
1F
100
AcDbEntity
  8
0
  6
Continuous
 62
     7
370
    25
100
AcDbLine
 10
163.795912664
 20
75.6760647399
 30
0.0
 11
163.795912664
 21
83.5260647399
 31
0.0
  0
LINE
  5
F2
330
1F
100
AcDbEntity
  8
0
  6
Continuous
 62
     7
370
    25
100
AcDbLine
 10
159.2423228255
 20
88.1448668934
 30
0.0
 11
159.295912664
 21
88.3519899432
 31
0.0
  0
LINE
  5
F3
330
1F
100
AcDbEntity
  8
0
  6
Continuous
 62
     7
370
    25
100
AcDbLine
 10
159.295912664
 20
87.7306207938
 30
0.0
 11
159.2423228255
 21
88.1448668934
 31
0.0
  0
LINE
  5
F4
330
1F
100
AcDbEntity
  8
0
  6
Continuous
 62
     7
370
    25
100
AcDbLine
 10
155.5970463842
 20
74.2884604329
 30
0.0
 11
159.2423228255
 21
74.2884604329
 31
0.0
  0
LINE
  5
F5
330
1F
100
AcDbEntity
  8
0
  6
Continuous
 62
     7
370
    25
100
AcDbLine
 10
155.5970463842
 20
78.9072625864
 30
0.0
 11
159.2423228255
 21
78.9072625864
 31
0.0
  0
LINE
  5
F6
330
1F
100
AcDbEntity
  8
0
  6
Continuous
 62
     7
370
    25
100
AcDbLine
 10
159.295912664
 20
78.7001395366
 30
0.0
 11
159.2423228255
 21
78.9072625864
 31
0.0
  0
LINE
  5
F7
330
1F
100
AcDbEntity
  8
0
  6
Continuous
 62
     7
370
    25
100
AcDbLine
 10
159.3495025025
 20
78.9072625864
 30
0.0
 11
159.295912664
 21
78.7001395366
 31
0.0
  0
LINE
  5
F8
330
1F
100
AcDbEntity
  8
0
  6
Continuous
 62
     7
370
    25
100
AcDbLine
 10
159.3495025025
 20
78.9072625864
 30
0.0
 11
162.9947789438
 21
78.9072625864
 31
0.0
  0
LINE
  5
F9
330
1F
100
AcDbEntity
  8
0
  6
Continuous
 62
     7
370
    25
100
AcDbLine
 10
159.3495025025
 20
74.2884604329
 30
0.0
 11
162.9947789438
 21
74.2884604329
 31
0.0
  0
LINE
  5
FA
330
1F
100
AcDbEntity
  8
0
  6
Continuous
 62
     7
370
    25
100
AcDbLine
 10
159.295912664
 20
74.4955834827
 30
0.0
 11
159.3495025025
 21
74.2884604329
 31
0.0
  0
LINE
  5
FB
330
1F
100
AcDbEntity
  8
0
  6
Continuous
 62
     7
370
    25
100
AcDbLine
 10
159.2423228255
 20
74.2884604329
 30
0.0
 11
159.295912664
 21
74.4955834827
 31
0.0
  0
LINE
  5
FC
330
1F
100
AcDbEntity
  8
0
  6
Continuous
 62
     7
370
    25
100
AcDbLine
 10
159.2423228255
 20
78.9072625864
 30
0.0
 11
159.295912664
 21
79.321508686
 31
0.0
  0
LINE
  5
FD
330
1F
100
AcDbEntity
  8
0
  6
Continuous
 62
     7
370
    25
100
AcDbLine
 10
159.295912664
 20
78.7001395366
 30
0.0
 11
159.295912664
 21
79.321508686
 31
0.0
  0
LINE
  5
FE
330
1F
100
AcDbEntity
  8
0
  6
Continuous
 62
     7
370
    25
100
AcDbLine
 10
155.5970463842
 20
88.1448668934
 30
0.0
 11
159.2423228255
 21
88.1448668934
 31
0.0
  0
LINE
  5
FF
330
1F
100
AcDbEntity
  8
0
  6
Continuous
 62
     7
370
    25
100
AcDbLine
 10
159.3495025025
 20
88.1448668934
 30
0.0
 11
162.9947789438
 21
88.1448668934
 31
0.0
  0
LINE
  5
100
330
1F
100
AcDbEntity
  8
0
  6
Continuous
 62
     7
370
    25
100
AcDbLine
 10
159.295912664
 20
79.321508686
 30
0.0
 11
159.3495025025
 21
78.9072625864
 31
0.0
  0
LINE
  5
101
330
1F
100
AcDbEntity
  8
0
  6
Continuous
 62
     7
370
    25
100
AcDbLine
 10
155.5970463842
 20
92.7636690469
 30
0.0
 11
159.2423228255
 21
92.7636690469
 31
0.0
  0
LINE
  5
102
330
1F
100
AcDbEntity
  8
0
  6
Continuous
 62
     7
370
    25
100
AcDbLine
 10
159.295912664
 20
92.5565459971
 30
0.0
 11
159.2423228255
 21
92.7636690469
 31
0.0
  0
LINE
  5
103
330
1F
100
AcDbEntity
  8
0
  6
Continuous
 62
     7
370
    25
100
AcDbLine
 10
159.3495025025
 20
92.7636690469
 30
0.0
 11
159.295912664
 21
92.5565459971
 31
0.0
  0
LINE
  5
104
330
1F
100
AcDbEntity
  8
0
  6
Continuous
 62
     7
370
    25
100
AcDbLine
 10
159.3495025025
 20
92.7636690469
 30
0.0
 11
162.9947789438
 21
92.7636690469
 31
0.0
  0
LINE
  5
105
330
1F
100
AcDbEntity
  8
0
  6
Continuous
 62
     7
370
    25
100
AcDbLine
 10
152.795912664
 20
83.5260647399
 30
0.0
 11
152.795912664
 21
91.0760647399
 31
0.0
  0
LINE
  5
106
330
1F
100
AcDbEntity
  8
0
  6
Continuous
 62
     7
370
    25
100
AcDbLine
 10
152.795912664
 20
75.9760647399
 30
0.0
 11
152.795912664
 21
83.5260647399
 31
0.0
  0
LINE
  5
107
330
1F
100
AcDbEntity
  8
0
  6
Continuous
 62
     7
370
    25
100
AcDbLine
 10
165.795912664
 20
91.0760647399
 30
0.0
 11
165.795912664
 21
75.9760647399
 31
0.0
  0
LINE
  5
108
330
1F
100
AcDbEntity
  8
0
  6
Continuous
 62
     7
370
    25
100
AcDbLine
 10
159.295912664
 20
74.4884604329
 30
0.0
 11
159.295912664
 21
74.4955834827
 31
0.0
  0
LINE
  5
109
330
1F
100
AcDbEntity
  8
0
  6
Continuous
 62
     7
370
    25
100
AcDbLine
 10
159.295912664
 20
92.5565459971
 30
0.0
 11
159.295912664
 21
92.5636690469
 31
0.0
  0
SPLINE
  5
10A
330
1F
100
AcDbEntity
  8
0
  6
Continuous
 62
     7
370
    25
100
AcDbSpline
210
0.0
220
0.0
230
1.0
 70
     8
 71
     3
 72
    15
 73
    11
 74
     0
 42
0.000000001
 43
0.00000001
 40
0.0
 40
0.0
 40
0.0
 40
0.0
 40
0.13230496641634
 40
0.264572525757654
 40
0.3997989469058927
 40
0.5350009659368332
 40
0.6501921044151403
 40
0.7654012116808009
 40
0.8826892657702315
 40
1.0
 40
1.0
 40
1.0
 40
1.0
 10
138.4862091071456
 20
78.90726258636734
 30
0.0
 10
138.5949806346888
 20
78.70771236829822
 30
0.0
 10
138.8124929363968
 20
78.30866835173497
 30
0.0
 10
139.0465281291924
 20
77.69417593624047
 30
0.0
 10
139.1872473851415
 20
77.06810026423355
 30
0.0
 10
139.215116668865
 20
76.4647025110425
 30
0.0
 10
139.1428148705105
 20
75.89390230902643
 30
0.0
 10
138.9946648905315
 20
75.3552064277126
 30
0.0
 10
138.7773447318268
 20
74.81894613443903
 30
0.0
 10
138.5832605698182
 20
74.46530039643248
 30
0.0
 10
138.4862091071456
 20
74.28846043285037
 30
0.0
  0
SPLINE
  5
10B
330
1F
100
AcDbEntity
  8
0
  6
Continuous
 62
     7
370
    25
100
AcDbSpline
210
0.0
220
0.0
230
1.0
 70
     8
 71
     3
 72
    14
 73
    10
 74
     0
 42
0.000000001
 43
0.00000001
 40
0.0
 40
0.0
 40
0.0
 40
0.0
 40
0.1912156890565411
 40
0.3842607734904396
 40
0.5102055247845747
 40
0.6361523096967547
 40
0.765454570798929
 40
0.8947932191925944
 40
1.0
 40
1.0
 40
1.0
 40
1.0
 10
138.4862091071456
 20
88.14486689340139
 30
0.0
 10
138.6397416624927
 20
87.5669193681992
 30
0.0
 10
138.9482756471502
 20
86.40549498839631
 30
0.0
 10
139.1666915111736
 20
84.82082492877109
 30
0.0
 10
139.2166939205814
 20
83.42986561863277
 30
0.0
 10
139.1582642760791
 20
82.23833910812341
 30
0.0
 10
138.9978847221711
 20
81.04597304637602
 30
0.0
 10
138.7685722373495
 20
79.9310664785366
 30
0.0
 10
138.5736449355886
 20
79.22429102209269
 30
0.0
 10
138.4862091071456
 20
78.90726258636734
 30
0.0
  0
SPLINE
  5
10C
330
1F
100
AcDbEntity
  8
0
  6
Continuous
 62
     7
370
    25
100
AcDbSpline
210
0.0
220
0.0
230
1.0
 70
     8
 71
     3
 72
    15
 73
    11
 74
     0
 42
0.000000001
 43
0.00000001
 40
0.0
 40
0.0
 40
0.0
 40
0.0
 40
0.13230496641634
 40
0.264572525757654
 40
0.3997989469058927
 40
0.5350009659368332
 40
0.6501921044151404
 40
0.7654012116808012
 40
0.8826892657702319
 40
1.0
 40
1.0
 40
1.0
 40
1.0
 10
138.4862091071456
 20
92.76366904691841
 30
0.0
 10
138.5949806346888
 20
92.56411882884927
 30
0.0
 10
138.8124929363969
 20
92.16507481228604
 30
0.0
 10
139.0465281291924
 20
91.55058239679151
 30
0.0
 10
139.1872473851415
 20
90.92450672478459
 30
0.0
 10
139.215116668865
 20
90.32110897159355
 30
0.0
 10
139.1428148705105
 20
89.75030876957746
 30
0.0
 10
138.9946648905315
 20
89.21161288826362
 30
0.0
 10
138.7773447318268
 20
88.67535259499004
 30
0.0
 10
138.5832605698182
 20
88.3217068569835
 30
0.0
 10
138.4862091071456
 20
88.14486689340139
 30
0.0
  0
LINE
  5
10D
330
1F
100
AcDbEntity
  8
0
  6
Continuous
 62
     7
370
    25
100
AcDbLine
 10
139.2873428273
 20
91.3760647399
 30
0.0
 11
139.2873428273
 21
75.6760647399
 31
0.0
  0
LINE
  5
10E
330
1F
100
AcDbEntity
  8
0
  6
Continuous
 62
     7
370
    25
100
AcDbLine
 10
138.4862091071
 20
92.7636690469
 30
0.0
 11
134.8409326658
 21
92.7636690469
 31
0.0
  0
LINE
  5
10F
330
1F
100
AcDbEntity
  8
0
  6
Continuous
 62
     7
370
    25
100
AcDbLine
 10
138.4862091071
 20
88.1448668934
 30
0.0
 11
134.8409326658
 21
88.1448668934
 31
0.0
  0
LINE
  5
110
330
1F
100
AcDbEntity
  8
0
  6
Continuous
 62
     7
370
    25
100
AcDbLine
 10
134.7873428273
 20
88.3519899432
 30
0.0
 11
134.8409326658
 21
88.1448668934
 31
0.0
  0
LINE
  5
111
330
1F
100
AcDbEntity
  8
0
  6
Continuous
 62
     7
370
    25
100
AcDbLine
 10
134.7337529889
 20
88.1448668934
 30
0.0
 11
134.7873428273
 21
88.3519899432
 31
0.0
  0
LINE
  5
112
330
1F
100
AcDbEntity
  8
0
  6
Continuous
 62
     7
370
    25
100
AcDbLine
 10
134.7337529889
 20
88.1448668934
 30
0.0
 11
131.0884765475
 21
88.1448668934
 31
0.0
  0
SPLINE
  5
113
330
1F
100
AcDbEntity
  8
0
  6
Continuous
 62
     7
370
    25
100
AcDbSpline
210
0.0
220
0.0
230
1.0
 70
     8
 71
     3
 72
    15
 73
    11
 74
     0
 42
0.000000001
 43
0.00000001
 40
0.0
 40
0.0
 40
0.0
 40
0.0
 40
0.13230496641634
 40
0.264572525757654
 40
0.3997989469058927
 40
0.5350009659368332
 40
0.6501921044151404
 40
0.7654012116808012
 40
0.8826892657702319
 40
1.0
 40
1.0
 40
1.0
 40
1.0
 10
131.0884765475352
 20
92.76366904691841
 30
0.0
 10
130.9797050199919
 20
92.56411882884927
 30
0.0
 10
130.7621927182839
 20
92.16507481228604
 30
0.0
 10
130.5281575254883
 20
91.55058239679151
 30
0.0
 10
130.3874382695393
 20
90.92450672478459
 30
0.0
 10
130.3595689858157
 20
90.32110897159355
 30
0.0
 10
130.4318707841702
 20
89.75030876957746
 30
0.0
 10
130.5800207641493
 20
89.21161288826362
 30
0.0
 10
130.7973409228539
 20
88.67535259499004
 30
0.0
 10
130.9914250848625
 20
88.3217068569835
 30
0.0
 10
131.0884765475352
 20
88.14486689340139
 30
0.0
  0
LINE
  5
114
330
1F
100
AcDbEntity
  8
0
  6
Continuous
 62
     7
370
    25
100
AcDbLine
 10
134.7337529889
 20
92.7636690469
 30
0.0
 11
131.0884765475
 21
92.7636690469
 31
0.0
  0
LINE
  5
115
330
1F
100
AcDbEntity
  8
0
  6
Continuous
 62
     7
370
    25
100
AcDbLine
 10
134.7873428273
 20
92.5565459971
 30
0.0
 11
134.7337529889
 21
92.7636690469
 31
0.0
  0
LINE
  5
116
330
1F
100
AcDbEntity
  8
0
  6
Continuous
 62
     7
370
    25
100
AcDbLine
 10
134.8409326658
 20
92.7636690469
 30
0.0
 11
134.7873428273
 21
92.5565459971
 31
0.0
  0
SPLINE
  5
117
330
1F
100
AcDbEntity
  8
0
  6
Continuous
 62
     7
370
    25
100
AcDbSpline
210
0.0
220
0.0
230
1.0
 70
     8
 71
     3
 72
    14
 73
    10
 74
     0
 42
0.000000001
 43
0.00000001
 40
0.0
 40
0.0
 40
0.0
 40
0.0
 40
0.1912156890565411
 40
0.3842607734904397
 40
0.5102055247845747
 40
0.6361523096967547
 40
0.765454570798929
 40
0.8947932191925944
 40
1.0
 40
1.0
 40
1.0
 40
1.0
 10
131.0884765475352
 20
88.14486689340139
 30
0.0
 10
130.934943992188
 20
87.5669193681992
 30
0.0
 10
130.6264100075306
 20
86.40549498839631
 30
0.0
 10
130.4079941435071
 20
84.82082492877109
 30
0.0
 10
130.3579917340993
 20
83.42986561863277
 30
0.0
 10
130.4164213786016
 20
82.23833910812341
 30
0.0
 10
130.5768009325097
 20
81.04597304637602
 30
0.0
 10
130.8061134173313
 20
79.9310664785366
 30
0.0
 10
131.0010407190921
 20
79.22429102209269
 30
0.0
 10
131.0884765475352
 20
78.90726258636734
 30
0.0
  0
SPLINE
  5
118
330
1F
100
AcDbEntity
  8
0
  6
Continuous
 62
     7
370
    25
100
AcDbSpline
210
0.0
220
0.0
230
1.0
 70
     8
 71
     3
 72
    15
 73
    11
 74
     0
 42
0.000000001
 43
0.00000001
 40
0.0
 40
0.0
 40
0.0
 40
0.0
 40
0.13230496641634
 40
0.2645725257576541
 40
0.3997989469058927
 40
0.5350009659368333
 40
0.6501921044151404
 40
0.765401211680801
 40
0.8826892657702317
 40
1.0
 40
1.0
 40
1.0
 40
1.0
 10
131.0884765475352
 20
78.90726258636734
 30
0.0
 10
130.9797050199919
 20
78.70771236829822
 30
0.0
 10
130.7621927182839
 20
78.30866835173497
 30
0.0
 10
130.5281575254883
 20
77.69417593624047
 30
0.0
 10
130.3874382695393
 20
77.06810026423355
 30
0.0
 10
130.3595689858157
 20
76.4647025110425
 30
0.0
 10
130.4318707841702
 20
75.89390230902643
 30
0.0
 10
130.5800207641493
 20
75.3552064277126
 30
0.0
 10
130.7973409228539
 20
74.81894613443905
 30
0.0
 10
130.9914250848625
 20
74.46530039643248
 30
0.0
 10
131.0884765475352
 20
74.28846043285037
 30
0.0
  0
LINE
  5
119
330
1F
100
AcDbEntity
  8
0
  6
Continuous
 62
     7
370
    25
100
AcDbLine
 10
130.2873428273
 20
91.3760647399
 30
0.0
 11
130.2873428273
 21
75.6760647399
 31
0.0
  0
LINE
  5
11A
330
1F
100
AcDbEntity
  8
0
  6
Continuous
 62
     7
370
    25
100
AcDbLine
 10
138.4862091071
 20
78.9072625864
 30
0.0
 11
134.8409326658
 21
78.9072625864
 31
0.0
  0
LINE
  5
11B
330
1F
100
AcDbEntity
  8
0
  6
Continuous
 62
     7
370
    25
100
AcDbLine
 10
134.7873428273
 20
79.321508686
 30
0.0
 11
134.8409326658
 21
78.9072625864
 31
0.0
  0
LINE
  5
11C
330
1F
100
AcDbEntity
  8
0
  6
Continuous
 62
     7
370
    25
100
AcDbLine
 10
134.7337529889
 20
78.9072625864
 30
0.0
 11
134.7873428273
 21
79.321508686
 31
0.0
  0
LINE
  5
11D
330
1F
100
AcDbEntity
  8
0
  6
Continuous
 62
     7
370
    25
100
AcDbLine
 10
134.7337529889
 20
78.9072625864
 30
0.0
 11
131.0884765475
 21
78.9072625864
 31
0.0
  0
LINE
  5
11E
330
1F
100
AcDbEntity
  8
0
  6
Continuous
 62
     7
370
    25
100
AcDbLine
 10
134.7873428273
 20
87.7306207938
 30
0.0
 11
134.7337529889
 21
88.1448668934
 31
0.0
  0
LINE
  5
11F
330
1F
100
AcDbEntity
  8
0
  6
Continuous
 62
     7
370
    25
100
AcDbLine
 10
134.8409326658
 20
88.1448668934
 30
0.0
 11
134.7873428273
 21
87.7306207938
 31
0.0
  0
LINE
  5
120
330
1F
100
AcDbEntity
  8
0
  6
Continuous
 62
     7
370
    25
100
AcDbLine
 10
134.7873428273
 20
79.321508686
 30
0.0
 11
134.7873428273
 21
78.7001395366
 31
0.0
  0
LINE
  5
121
330
1F
100
AcDbEntity
  8
0
  6
Continuous
 62
     7
370
    25
100
AcDbLine
 10
134.7873428273
 20
78.7001395366
 30
0.0
 11
134.7337529889
 21
78.9072625864
 31
0.0
  0
LINE
  5
122
330
1F
100
AcDbEntity
  8
0
  6
Continuous
 62
     7
370
    25
100
AcDbLine
 10
134.8409326658
 20
78.9072625864
 30
0.0
 11
134.7873428273
 21
78.7001395366
 31
0.0
  0
LINE
  5
123
330
1F
100
AcDbEntity
  8
0
  6
Continuous
 62
     7
370
    25
100
AcDbLine
 10
134.7873428273
 20
88.3519899432
 30
0.0
 11
134.7873428273
 21
87.7306207938
 31
0.0
  0
LINE
  5
124
330
1F
100
AcDbEntity
  8
0
  6
Continuous
 62
     7
370
    25
100
AcDbLine
 10
138.4862091071
 20
74.2884604329
 30
0.0
 11
134.8409326658
 21
74.2884604329
 31
0.0
  0
LINE
  5
125
330
1F
100
AcDbEntity
  8
0
  6
Continuous
 62
     7
370
    25
100
AcDbLine
 10
134.7873428273
 20
74.4955834827
 30
0.0
 11
134.8409326658
 21
74.2884604329
 31
0.0
  0
LINE
  5
126
330
1F
100
AcDbEntity
  8
0
  6
Continuous
 62
     7
370
    25
100
AcDbLine
 10
134.7337529889
 20
74.2884604329
 30
0.0
 11
134.7873428273
 21
74.4955834827
 31
0.0
  0
LINE
  5
127
330
1F
100
AcDbEntity
  8
0
  6
Continuous
 62
     7
370
    25
100
AcDbLine
 10
134.7337529889
 20
74.2884604329
 30
0.0
 11
131.0884765475
 21
74.2884604329
 31
0.0
  0
LINE
  5
128
330
1F
100
AcDbEntity
  8
0
  6
Continuous
 62
     7
370
    25
100
AcDbLine
 10
141.2873428273
 20
91.0760647399
 30
0.0
 11
141.2873428273
 21
75.9760647399
 31
0.0
  0
LINE
  5
129
330
1F
100
AcDbEntity
  8
0
  6
Continuous
 62
     7
370
    25
100
AcDbLine
 10
128.2873428273
 20
83.5260647399
 30
0.0
 11
128.2873428273
 21
91.0760647399
 31
0.0
  0
LINE
  5
12A
330
1F
100
AcDbEntity
  8
0
  6
Continuous
 62
     7
370
    25
100
AcDbLine
 10
128.2873428273
 20
75.9760647399
 30
0.0
 11
128.2873428273
 21
83.5260647399
 31
0.0
  0
LINE
  5
12B
330
1F
100
AcDbEntity
  8
0
  6
Continuous
 62
     7
370
    25
100
AcDbLine
 10
134.7873428273
 20
92.5636690469
 30
0.0
 11
134.7873428273
 21
92.5565459971
 31
0.0
  0
LINE
  5
12C
330
1F
100
AcDbEntity
  8
0
  6
Continuous
 62
     7
370
    25
100
AcDbLine
 10
134.7873428273
 20
74.4955834827
 30
0.0
 11
134.7873428273
 21
74.4884604329
 31
0.0
  0
LINE
  5
12D
330
1F
100
AcDbEntity
  8
0
  6
Continuous
 62
     7
370
    25
100
AcDbLine
 10
145.3111800953
 20
79.4846128556
 30
0.0
 11
146.9612429879
 21
79.4846128556
 31
0.0
  0
SPLINE
  5
12E
330
1F
100
AcDbEntity
  8
0
  6
Continuous
 62
     7
370
    25
100
AcDbSpline
210
0.0
220
0.0
230
1.0
 70
     8
 71
     3
 72
    14
 73
    10
 74
     0
 42
0.000000001
 43
0.00000001
 40
0.0
 40
0.0
 40
0.0
 40
0.0
 40
0.2500000000000001
 40
0.2500000000000001
 40
0.5000000000000001
 40
0.5000000000000001
 40
0.7500000000000001
 40
0.7500000000000001
 40
1.0
 40
1.0
 40
1.0
 40
1.0
 10
145.3111800953014
 20
79.48461285555706
 30
0.0
 10
145.121108289708
 20
80.14304090430534
 30
0.0
 10
144.9621133621698
 20
80.81603184157451
 30
0.0
 10
144.7446772673778
 20
82.16470466064595
 30
0.0
 10
144.6858757224399
 20
82.84353094209133
 30
0.0
 10
144.6860551118968
 20
84.2117777617782
 30
0.0
 10
144.7466067387004
 20
84.90440440634109
 30
0.0
 10
144.9655691785877
 20
86.25239561585623
 30
0.0
 10
145.1225447421978
 20
86.91406459285346
 30
0.0
 10
145.3111800953014
 20
87.56751662421185
 30
0.0
  0
LINE
  5
12F
330
1F
100
AcDbEntity
  8
0
  6
Continuous
 62
     7
370
    25
100
AcDbLine
 10
145.3111800953
 20
87.5675166242
 30
0.0
 11
146.9612429879
 21
87.5675166242
 31
0.0
  0
SPLINE
  5
130
330
1F
100
AcDbEntity
  8
0
  6
Continuous
 62
     7
370
    25
100
AcDbSpline
210
0.0
220
0.0
230
1.0
 70
     8
 71
     3
 72
     8
 73
     4
 74
     0
 42
0.000000001
 43
0.00000001
 40
0.0
 40
0.0
 40
0.0
 40
0.0
 40
1.0
 40
1.0
 40
1.0
 40
1.0
 10
147.0416277456647
 20
86.9280628398458
 30
0.0
 10
147.0166280736705
 20
87.1415095434361
 30
0.0
 10
146.9897618328835
 20
87.35464906757271
 30
0.0
 10
146.9612429879354
 20
87.56751662421185
 30
0.0
  0
SPLINE
  5
131
330
1F
100
AcDbEntity
  8
0
  6
Continuous
 62
     7
370
    25
100
AcDbSpline
210
0.0
220
0.0
230
1.0
 70
     8
 71
     3
 72
     8
 73
     4
 74
     0
 42
0.000000001
 43
0.00000001
 40
0.0
 40
0.0
 40
0.0
 40
0.0
 40
1.0
 40
1.0
 40
1.0
 40
1.0
 10
147.1220125033941
 20
87.56751662421185
 30
0.0
 10
147.0934763730784
 20
87.35452004783309
 30
0.0
 10
147.066611657895
 20
87.14137498688413
 30
0.0
 10
147.0416277456647
 20
86.9280628398458
 30
0.0
  0
LINE
  5
132
330
1F
100
AcDbEntity
  8
0
  6
Continuous
 62
     7
370
    25
100
AcDbLine
 10
147.1220125034
 20
87.5675166242
 30
0.0
 11
148.772075396
 21
87.5675166242
 31
0.0
  0
SPLINE
  5
133
330
1F
100
AcDbEntity
  8
0
  6
Continuous
 62
     7
370
    25
100
AcDbSpline
210
0.0
220
0.0
230
1.0
 70
     8
 71
     3
 72
    14
 73
    10
 74
     0
 42
0.000000001
 43
0.00000001
 40
0.0
 40
0.0
 40
0.0
 40
0.0
 40
0.25
 40
0.25
 40
0.5
 40
0.5
 40
0.75
 40
0.75
 40
1.0
 40
1.0
 40
1.0
 40
1.0
 10
148.772075396028
 20
79.48461285555679
 30
0.0
 10
148.9621472016214
 20
80.14304090430507
 30
0.0
 10
149.1211421291596
 20
80.81603184157427
 30
0.0
 10
149.3385782239517
 20
82.16470466064577
 30
0.0
 10
149.3973797688896
 20
82.84353094209116
 30
0.0
 10
149.3972003794327
 20
84.21177776177807
 30
0.0
 10
149.3366487526291
 20
84.90440440634099
 30
0.0
 10
149.1176863127417
 20
86.25239561585619
 30
0.0
 10
148.9607107491317
 20
86.91406459285344
 30
0.0
 10
148.772075396028
 20
87.56751662421185
 30
0.0
  0
LINE
  5
134
330
1F
100
AcDbEntity
  8
0
  6
Continuous
 62
     7
370
    25
100
AcDbLine
 10
147.1220125034
 20
79.4846128556
 30
0.0
 11
148.772075396
 21
79.4846128556
 31
0.0
  0
SPLINE
  5
135
330
1F
100
AcDbEntity
  8
0
  6
Continuous
 62
     7
370
    25
100
AcDbSpline
210
0.0
220
0.0
230
1.0
 70
     8
 71
     3
 72
     8
 73
     4
 74
     0
 42
0.000000001
 43
0.00000001
 40
0.0
 40
0.0
 40
0.0
 40
0.0
 40
1.0
 40
1.0
 40
1.0
 40
1.0
 10
147.0416277456647
 20
80.12406663992313
 30
0.0
 10
147.066627417659
 20
79.91061993633282
 30
0.0
 10
147.093493658446
 20
79.69748041219621
 30
0.0
 10
147.1220125033941
 20
79.48461285555706
 30
0.0
  0
SPLINE
  5
136
330
1F
100
AcDbEntity
  8
0
  6
Continuous
 62
     7
370
    25
100
AcDbSpline
210
0.0
220
0.0
230
1.0
 70
     8
 71
     3
 72
     8
 73
     4
 74
     0
 42
0.000000001
 43
0.00000001
 40
0.0
 40
0.0
 40
0.0
 40
0.0
 40
1.0
 40
1.0
 40
1.0
 40
1.0
 10
146.9612429879354
 20
79.48461285555706
 30
0.0
 10
146.989779118251
 20
79.69760943193583
 30
0.0
 10
147.0166438334345
 20
79.9107544928848
 30
0.0
 10
147.0416277456647
 20
80.12406663992313
 30
0.0
  0
LINE
  5
137
330
1F
100
AcDbEntity
  8
0
  6
Continuous
 62
     7
370
    25
100
AcDbLine
 10
145.3111800953
 20
75.4431609712
 30
0.0
 11
146.9612429879
 21
75.4431609712
 31
0.0
  0
SPLINE
  5
138
330
1F
100
AcDbEntity
  8
0
  6
Continuous
 62
     7
370
    25
100
AcDbSpline
210
0.0
220
0.0
230
1.0
 70
     8
 71
     3
 72
    16
 73
    12
 74
     0
 42
0.000000001
 43
0.00000001
 40
0.0
 40
0.0
 40
0.0
 40
0.0
 40
0.2499999999999998
 40
0.2499999999999998
 40
0.4999999999999997
 40
0.4999999999999997
 40
0.6249999999999997
 40
0.6249999999999997
 40
0.7499999999999997
 40
0.7499999999999997
 40
1.0
 40
1.0
 40
1.0
 40
1.0
 10
145.3111800953009
 20
75.44316097122957
 30
0.0
 10
145.1206856243162
 20
75.77310707353618
 30
0.0
 10
144.9636836111031
 20
76.1054588148459
 30
0.0
 10
144.746184800265
 20
76.77709390911964
 30
0.0
 10
144.686405439195
 20
77.11642879289012
 30
0.0
 10
144.685748938341
 20
77.63182455916032
 30
0.0
 10
144.7003627048245
 20
77.80443131966081
 30
0.0
 10
144.7573485627013
 20
78.14586573217935
 30
0.0
 10
144.7996628319605
 20
78.31543823492333
 30
0.0
 10
144.9630576518507
 20
78.82113673447483
 30
0.0
 10
145.1204481791642
 20
79.15425548618283
 30
0.0
 10
145.3111800953012
 20
79.48461285555709
 30
0.0
  0
SPLINE
  5
139
330
1F
100
AcDbEntity
  8
0
  6
Continuous
 62
     7
370
    25
100
AcDbSpline
210
0.0
220
0.0
230
1.0
 70
     8
 71
     3
 72
     8
 73
     4
 74
     0
 42
0.000000001
 43
0.00000001
 40
0.0
 40
0.0
 40
0.0
 40
0.0
 40
1.0
 40
1.0
 40
1.0
 40
1.0
 10
147.0416277456647
 20
79.16488596337403
 30
0.0
 10
147.016627332742
 20
79.27161247818549
 30
0.0
 10
146.9897610212818
 20
79.37818210617628
 30
0.0
 10
146.9612429879354
 20
79.48461285555706
 30
0.0
  0
SPLINE
  5
13A
330
1F
100
AcDbEntity
  8
0
  6
Continuous
 62
     7
370
    25
100
AcDbSpline
210
0.0
220
0.0
230
1.0
 70
     8
 71
     3
 72
     8
 73
     4
 74
     0
 42
0.000000001
 43
0.00000001
 40
0.0
 40
0.0
 40
0.0
 40
0.0
 40
1.0
 40
1.0
 40
1.0
 40
1.0
 10
147.1220125033941
 20
79.48461285555706
 30
0.0
 10
147.093478688556
 20
79.37812320884754
 30
0.0
 10
147.0666137667492
 20
79.27155103957075
 30
0.0
 10
147.0416277456647
 20
79.16488596337403
 30
0.0
  0
SPLINE
  5
13B
330
1F
100
AcDbEntity
  8
0
  6
Continuous
 62
     7
370
    25
100
AcDbSpline
210
0.0
220
0.0
230
1.0
 70
     8
 71
     3
 72
    16
 73
    12
 74
     0
 42
0.000000001
 43
0.00000001
 40
0.0
 40
0.0
 40
0.0
 40
0.0
 40
0.2500000000000001
 40
0.2500000000000001
 40
0.5000000000000001
 40
0.5000000000000001
 40
0.6250000000000001
 40
0.6250000000000001
 40
0.7500000000000002
 40
0.7500000000000002
 40
1.0
 40
1.0
 40
1.0
 40
1.0
 10
148.7720753960286
 20
75.44316097122957
 30
0.0
 10
148.9625698670133
 20
75.77310707353618
 30
0.0
 10
149.1195718802264
 20
76.10545881484587
 30
0.0
 10
149.3370706910644
 20
76.7770939091196
 30
0.0
 10
149.3968500521345
 20
77.11642879289006
 30
0.0
 10
149.3975065529885
 20
77.63182455916025
 30
0.0
 10
149.382892786505
 20
77.80443131966074
 30
0.0
 10
149.3259069286281
 20
78.14586573217926
 30
0.0
 10
149.2835926593689
 20
78.31543823492323
 30
0.0
 10
149.1201978394788
 20
78.82113673447472
 30
0.0
 10
148.9628073121654
 20
79.15425548618272
 30
0.0
 10
148.7720753960284
 20
79.48461285555697
 30
0.0
  0
LINE
  5
13C
330
1F
100
AcDbEntity
  8
0
  6
Continuous
 62
     7
370
    25
100
AcDbLine
 10
147.1220125034
 20
75.4431609712
 30
0.0
 11
148.772075396
 21
75.4431609712
 31
0.0
  0
SPLINE
  5
13D
330
1F
100
AcDbEntity
  8
0
  6
Continuous
 62
     7
370
    25
100
AcDbSpline
210
0.0
220
0.0
230
1.0
 70
     8
 71
     3
 72
     8
 73
     4
 74
     0
 42
0.000000001
 43
0.00000001
 40
0.0
 40
0.0
 40
0.0
 40
0.0
 40
1.0
 40
1.0
 40
1.0
 40
1.0
 10
147.0416277456647
 20
75.76288786341264
 30
0.0
 10
147.0666281585874
 20
75.6561613486012
 30
0.0
 10
147.0934944700477
 20
75.54959172061041
 30
0.0
 10
147.1220125033941
 20
75.44316097122962
 30
0.0
  0
SPLINE
  5
13E
330
1F
100
AcDbEntity
  8
0
  6
Continuous
 62
     7
370
    25
100
AcDbSpline
210
0.0
220
0.0
230
1.0
 70
     8
 71
     3
 72
     8
 73
     4
 74
     0
 42
0.000000001
 43
0.00000001
 40
0.0
 40
0.0
 40
0.0
 40
0.0
 40
1.0
 40
1.0
 40
1.0
 40
1.0
 10
146.9612429879354
 20
75.44316097122962
 30
0.0
 10
146.9897768027735
 20
75.54965061793915
 30
0.0
 10
147.0166417245803
 20
75.65622278721594
 30
0.0
 10
147.0416277456647
 20
75.76288786341264
 30
0.0
  0
LINE
  5
13F
330
1F
100
AcDbEntity
  8
0
  6
Continuous
 62
     7
370
    25
100
AcDbLine
 10
147.0416277457
 20
79.1648859634
 30
0.0
 11
147.0416277457
 21
80.1240666399
 31
0.0
  0
SPLINE
  5
140
330
1F
100
AcDbEntity
  8
0
  6
Continuous
 62
     7
370
    25
100
AcDbSpline
210
0.0
220
0.0
230
1.0
 70
     8
 71
     3
 72
     8
 73
     4
 74
     0
 42
0.000000001
 43
0.00000001
 40
0.0
 40
0.0
 40
0.0
 40
0.0
 40
1.0
 40
1.0
 40
1.0
 40
1.0
 10
146.9612429879354
 20
87.56751662421185
 30
0.0
 10
146.9897768027735
 20
87.67400627092138
 30
0.0
 10
147.0166417245803
 20
87.78057844019817
 30
0.0
 10
147.0416277456647
 20
87.88724351639488
 30
0.0
  0
LINE
  5
141
330
1F
100
AcDbEntity
  8
0
  6
Continuous
 62
     7
370
    25
100
AcDbLine
 10
147.0416277457
 20
86.9280628398
 30
0.0
 11
147.0416277457
 21
87.8872435164
 31
0.0
  0
SPLINE
  5
142
330
1F
100
AcDbEntity
  8
0
  6
Continuous
 62
     7
370
    25
100
AcDbSpline
210
0.0
220
0.0
230
1.0
 70
     8
 71
     3
 72
    16
 73
    12
 74
     0
 42
0.000000001
 43
0.00000001
 40
0.0
 40
0.0
 40
0.0
 40
0.0
 40
0.2499999999999999
 40
0.2499999999999999
 40
0.4999999999999998
 40
0.4999999999999998
 40
0.6249999999999998
 40
0.6249999999999998
 40
0.7499999999999999
 40
0.7499999999999999
 40
1.0
 40
1.0
 40
1.0
 40
1.0
 10
145.3111800953009
 20
87.56751662421182
 30
0.0
 10
145.1206856243162
 20
87.89746272651841
 30
0.0
 10
144.9636836111031
 20
88.2298144678281
 30
0.0
 10
144.746184800265
 20
88.90144956210182
 30
0.0
 10
144.686405439195
 20
89.2407844458723
 30
0.0
 10
144.685748938341
 20
89.75618021214247
 30
0.0
 10
144.7003627048245
 20
89.92878697264295
 30
0.0
 10
144.7573485627013
 20
90.27022138516146
 30
0.0
 10
144.7996628319606
 20
90.43979388790547
 30
0.0
 10
144.9630576518507
 20
90.94549238745694
 30
0.0
 10
145.1204481791642
 20
91.27861113916494
 30
0.0
 10
145.3111800953012
 20
91.60896850853916
 30
0.0
  0
LINE
  5
143
330
1F
100
AcDbEntity
  8
0
  6
Continuous
 62
     7
370
    25
100
AcDbLine
 10
144.5416277457
 20
83.5260647399
 30
0.0
 11
144.5416277457
 21
90.2760647399
 31
0.0
  0
LINE
  5
144
330
1F
100
AcDbEntity
  8
0
  6
Continuous
 62
     7
370
    25
100
AcDbLine
 10
144.5416277457
 20
76.7760647399
 30
0.0
 11
144.5416277457
 21
83.5260647399
 31
0.0
  0
SPLINE
  5
145
330
1F
100
AcDbEntity
  8
0
  6
Continuous
 62
     7
370
    25
100
AcDbSpline
210
0.0
220
0.0
230
1.0
 70
     8
 71
     3
 72
    16
 73
    12
 74
     0
 42
0.000000001
 43
0.00000001
 40
0.0
 40
0.0
 40
0.0
 40
0.0
 40
0.2499999999999999
 40
0.2499999999999999
 40
0.4999999999999998
 40
0.4999999999999998
 40
0.6249999999999998
 40
0.6249999999999998
 40
0.7499999999999999
 40
0.7499999999999999
 40
1.0
 40
1.0
 40
1.0
 40
1.0
 10
148.7720753960286
 20
87.56751662421182
 30
0.0
 10
148.9625698670133
 20
87.89746272651841
 30
0.0
 10
149.1195718802264
 20
88.2298144678281
 30
0.0
 10
149.3370706910644
 20
88.90144956210182
 30
0.0
 10
149.3968500521345
 20
89.2407844458723
 30
0.0
 10
149.3975065529884
 20
89.75618021214247
 30
0.0
 10
149.382892786505
 20
89.92878697264295
 30
0.0
 10
149.3259069286281
 20
90.27022138516146
 30
0.0
 10
149.2835926593689
 20
90.43979388790547
 30
0.0
 10
149.1201978394787
 20
90.94549238745694
 30
0.0
 10
148.9628073121653
 20
91.27861113916494
 30
0.0
 10
148.7720753960283
 20
91.60896850853916
 30
0.0
  0
LINE
  5
146
330
1F
100
AcDbEntity
  8
0
  6
Continuous
 62
     7
370
    25
100
AcDbLine
 10
149.5416277457
 20
83.5260647399
 30
0.0
 11
149.5416277457
 21
90.2760647399
 31
0.0
  0
LINE
  5
147
330
1F
100
AcDbEntity
  8
0
  6
Continuous
 62
     7
370
    25
100
AcDbLine
 10
149.5416277457
 20
76.7760647399
 30
0.0
 11
149.5416277457
 21
83.5260647399
 31
0.0
  0
SPLINE
  5
148
330
1F
100
AcDbEntity
  8
0
  6
Continuous
 62
     7
370
    25
100
AcDbSpline
210
0.0
220
0.0
230
1.0
 70
     8
 71
     3
 72
     8
 73
     4
 74
     0
 42
0.000000001
 43
0.00000001
 40
0.0
 40
0.0
 40
0.0
 40
0.0
 40
1.0
 40
1.0
 40
1.0
 40
1.0
 10
147.0416277456647
 20
87.88724351639488
 30
0.0
 10
147.0666281585874
 20
87.78051700158343
 30
0.0
 10
147.0934944700477
 20
87.67394737359263
 30
0.0
 10
147.1220125033941
 20
87.56751662421185
 30
0.0
  0
LINE
  5
149
330
1F
100
AcDbEntity
  8
0
  6
Continuous
 62
     7
370
    25
100
AcDbLine
 10
145.3111800953
 20
91.6089685085
 30
0.0
 11
146.9612429879
 21
91.6089685085
 31
0.0
  0
SPLINE
  5
14A
330
1F
100
AcDbEntity
  8
0
  6
Continuous
 62
     7
370
    25
100
AcDbSpline
210
0.0
220
0.0
230
1.0
 70
     8
 71
     3
 72
     8
 73
     4
 74
     0
 42
0.000000001
 43
0.00000001
 40
0.0
 40
0.0
 40
0.0
 40
0.0
 40
1.0
 40
1.0
 40
1.0
 40
1.0
 10
147.0416277456647
 20
91.28924161635612
 30
0.0
 10
147.016627332742
 20
91.39596813116756
 30
0.0
 10
146.9897610212818
 20
91.50253775915837
 30
0.0
 10
146.9612429879354
 20
91.60896850853915
 30
0.0
  0
SPLINE
  5
14B
330
1F
100
AcDbEntity
  8
0
  6
Continuous
 62
     7
370
    25
100
AcDbSpline
210
0.0
220
0.0
230
1.0
 70
     8
 71
     3
 72
     8
 73
     4
 74
     0
 42
0.000000001
 43
0.00000001
 40
0.0
 40
0.0
 40
0.0
 40
0.0
 40
1.0
 40
1.0
 40
1.0
 40
1.0
 10
147.1220125033941
 20
91.60896850853915
 30
0.0
 10
147.093478688556
 20
91.50247886182962
 30
0.0
 10
147.0666137667492
 20
91.39590669255283
 30
0.0
 10
147.0416277456647
 20
91.28924161635612
 30
0.0
  0
LINE
  5
14C
330
1F
100
AcDbEntity
  8
0
  6
Continuous
 62
     7
370
    25
100
AcDbLine
 10
147.1220125034
 20
91.6089685085
 30
0.0
 11
148.772075396
 21
91.6089685085
 31
0.0
  0
LINE
  5
14D
330
1F
100
AcDbEntity
  8
0
  6
Continuous
 62
     7
370
    25
100
AcDbLine
 10
141.5416277457
 20
83.5260647399
 30
0.0
 11
141.5416277457
 21
90.1045647399
 31
0.0
  0
LINE
  5
14E
330
1F
100
AcDbEntity
  8
0
  6
Continuous
 62
     7
370
    25
100
AcDbLine
 10
141.5416277457
 20
76.9475647399
 30
0.0
 11
141.5416277457
 21
83.5260647399
 31
0.0
  0
LINE
  5
14F
330
1F
100
AcDbEntity
  8
0
  6
Continuous
 62
     7
370
    25
100
AcDbLine
 10
151.5416277457
 20
77.9475647399
 30
0.0
 11
151.5416277457
 21
89.1045647399
 31
0.0
  0
LINE
  5
150
330
1F
100
AcDbEntity
  8
0
  6
Continuous
 62
     7
370
    25
100
AcDbLine
 10
152.5416277457
 20
90.1045647399
 30
0.0
 11
152.5416277457
 21
76.9475647399
 31
0.0
  0
LINE
  5
151
330
1F
100
AcDbEntity
  8
0
  6
Continuous
 62
     7
370
    25
100
AcDbLine
 10
142.5416277457
 20
83.5260647399
 30
0.0
 11
142.5416277457
 21
77.9475647399
 31
0.0
  0
LINE
  5
152
330
1F
100
AcDbEntity
  8
0
  6
Continuous
 62
     7
370
    25
100
AcDbLine
 10
142.5416277457
 20
89.1045647399
 30
0.0
 11
142.5416277457
 21
83.5260647399
 31
0.0
  0
LINE
  5
153
330
1F
100
AcDbEntity
  8
0
  6
Continuous
 62
     7
370
    25
100
AcDbLine
 10
147.0416277457
 20
75.7431609712
 30
0.0
 11
147.0416277457
 21
75.7628878634
 31
0.0
  0
LINE
  5
154
330
1F
100
AcDbEntity
  8
0
  6
Continuous
 62
     7
370
    25
100
AcDbLine
 10
147.0416277457
 20
91.2892416164
 30
0.0
 11
147.0416277457
 21
91.3089685085
 31
0.0
  0
LINE
  5
155
330
1F
100
AcDbEntity
  8
0
  6
Continuous
 62
     8
370
    25
100
AcDbLine
 10
191.0898046999
 20
80.0926156169
 30
0.0
 11
191.0898046999
 21
86.9595138629
 31
0.0
  0
LINE
  5
156
330
1F
100
AcDbEntity
  8
0
  6
Continuous
 62
     8
370
    25
100
AcDbLine
 10
102.9934507915
 20
83.5260647399
 30
0.0
 11
102.9934507915
 21
80.0926156169
 31
0.0
  0
LINE
  5
157
330
1F
100
AcDbEntity
  8
0
  6
Continuous
 62
     8
370
    25
100
AcDbLine
 10
102.9934507915
 20
86.9595138629
 30
0.0
 11
102.9934507915
 21
83.5260647399
 31
0.0
  0
LINE
  5
158
330
1F
100
AcDbEntity
  8
0
  6
Continuous
 62
     8
370
    25
100
AcDbLine
 10
153.095912664
 20
83.5260647399
 30
0.0
 11
153.095912664
 21
75.6760647399
 31
0.0
  0
LINE
  5
159
330
1F
100
AcDbEntity
  8
0
  6
Continuous
 62
     8
370
    25
100
AcDbLine
 10
153.095912664
 20
91.3760647399
 30
0.0
 11
153.095912664
 21
83.5260647399
 31
0.0
  0
LINE
  5
15A
330
1F
100
AcDbEntity
  8
0
  6
Continuous
 62
     8
370
    25
100
AcDbLine
 10
165.495912664
 20
75.6760647399
 30
0.0
 11
165.495912664
 21
91.3760647399
 31
0.0
  0
LINE
  5
15B
330
1F
100
AcDbEntity
  8
0
  6
Continuous
 62
     8
370
    25
100
AcDbLine
 10
140.9873428273
 20
75.6760647399
 30
0.0
 11
140.9873428273
 21
91.3760647399
 31
0.0
  0
LINE
  5
15C
330
1F
100
AcDbEntity
  8
0
  6
Continuous
 62
     8
370
    25
100
AcDbLine
 10
128.5873428273
 20
83.5260647399
 30
0.0
 11
128.5873428273
 21
75.6760647399
 31
0.0
  0
LINE
  5
15D
330
1F
100
AcDbEntity
  8
0
  6
Continuous
 62
     8
370
    25
100
AcDbLine
 10
128.5873428273
 20
91.3760647399
 30
0.0
 11
128.5873428273
 21
83.5260647399
 31
0.0
  0
LINE
  5
15E
330
1F
100
AcDbEntity
  8
0
  6
CENTERX2
 62
     7
370
    18
100
AcDbLine
 10
100.5836410368
 20
83.5260647399
 30
0.0
 11
193.795912664
 21
83.5260647399
 31
0.0
  0
CIRCLE
  5
15F
330
1F
100
AcDbEntity
  8
0
  6
Continuous
 62
     7
370
    25
100
AcDbCircle
 10
216.229465896
 20
83.5260647399
 30
0.0
 40
3.433449123032062
  0
CIRCLE
  5
160
330
1F
100
AcDbEntity
  8
0
  6
Continuous
 62
     7
370
    25
100
AcDbCircle
 10
216.229465896
 20
83.5260647399
 30
0.0
 40
2.638978050180526
  0
CIRCLE
  5
161
330
1F
100
AcDbEntity
  8
0
  6
Continuous
 62
     7
370
    25
100
AcDbCircle
 10
216.229465896
 20
83.5260647399
 30
0.0
 40
2.44999999999996
  0
CIRCLE
  5
162
330
1F
100
AcDbEntity
  8
0
  6
Continuous
 62
     7
370
    25
100
AcDbCircle
 10
216.229465896
 20
83.5260647399
 30
0.0
 40
2.25
  0
CIRCLE
  5
163
330
1F
100
AcDbEntity
  8
0
  6
Continuous
 62
     7
370
    25
100
AcDbCircle
 10
216.229465896
 20
83.5260647399
 30
0.0
 40
4.0
  0
CIRCLE
  5
164
330
1F
100
AcDbEntity
  8
0
  6
Continuous
 62
     7
370
    25
100
AcDbCircle
 10
216.229465896
 20
83.5260647399
 30
0.0
 40
4.500000000000028
  0
CIRCLE
  5
165
330
1F
100
AcDbEntity
  8
0
  6
Continuous
 62
     7
370
    25
100
AcDbCircle
 10
216.229465896
 20
83.5260647399
 30
0.0
 40
4.849999999999994
  0
CIRCLE
  5
166
330
1F
100
AcDbEntity
  8
0
  6
Continuous
 62
     7
370
    25
100
AcDbCircle
 10
216.229465896
 20
83.5260647399
 30
0.0
 40
7.550000000000011
  0
CIRCLE
  5
167
330
1F
100
AcDbEntity
  8
0
  6
Continuous
 62
     7
370
    25
100
AcDbCircle
 10
216.229465896
 20
83.5260647399
 30
0.0
 40
7.850000000000023
  0
CIRCLE
  5
168
330
1F
100
AcDbEntity
  8
0
  6
Continuous
 62
     7
370
    25
100
AcDbCircle
 10
216.229465896
 20
83.5260647399
 30
0.0
 40
4.750000000000028
  0
SPLINE
  5
169
330
1F
100
AcDbEntity
  8
0
  6
Continuous
 62
     7
370
    25
100
AcDbSpline
210
0.0
220
0.0
230
1.0
 70
    24
 71
     3
 72
    15
 73
    11
 74
     0
 42
0.000000001
 43
0.00000001
 40
0.0
 40
0.0
 40
0.0
 40
0.0
 40
0.1323049664163417
 40
0.2645725257576575
 40
0.3997989469058978
 40
0.53500096593684
 40
0.6501921044151455
 40
0.7654012116808045
 40
0.8826892657702334
 40
1.0
 40
1.0
 40
1.0
 40
1.0
 10
208.2294658959538
 20
88.1448668934015
 30
0.0
 10
208.575097012311
 20
88.34441711147062
 30
0.0
 10
209.2662615234549
 20
88.74346112803386
 30
0.0
 10
210.3305936079571
 20
89.35795354352837
 30
0.0
 10
211.414988481256
 20
89.98402921553527
 30
0.0
 10
212.4601040469557
 20
90.58742696872632
 30
0.0
 10
213.4487589978181
 20
91.15822717074239
 30
0.0
 10
214.3818076340818
 20
91.69692305205622
 30
0.0
 10
215.3106377081134
 20
92.23318334532976
 30
0.0
 10
215.9231700942209
 20
92.5868290833363
 30
0.0
 10
216.2294658959538
 20
92.76366904691841
 30
0.0
  0
SPLINE
  5
16A
330
1F
100
AcDbEntity
  8
0
  6
Continuous
 62
     7
370
    25
100
AcDbSpline
210
0.0
220
0.0
230
1.0
 70
    24
 71
     3
 72
    15
 73
    11
 74
     0
 42
0.000000001
 43
0.00000001
 40
0.0
 40
0.0
 40
0.0
 40
0.0
 40
0.1323049664163399
 40
0.264572525757654
 40
0.3997989469058927
 40
0.5350009659368332
 40
0.6501921044151404
 40
0.7654012116808012
 40
0.8826892657702317
 40
1.0
 40
1.0
 40
1.0
 40
1.0
 10
216.2294658959538
 20
92.76366904691841
 30
0.0
 10
216.5750970123109
 20
92.56411882884927
 30
0.0
 10
217.2662615234549
 20
92.16507481228604
 30
0.0
 10
218.3305936079571
 20
91.55058239679153
 30
0.0
 10
219.4149884812559
 20
90.92450672478459
 30
0.0
 10
220.4601040469557
 20
90.32110897159355
 30
0.0
 10
221.4487589978181
 20
89.75030876957746
 30
0.0
 10
222.3818076340818
 20
89.21161288826362
 30
0.0
 10
223.3106377081134
 20
88.67535259499004
 30
0.0
 10
223.9231700942209
 20
88.3217068569835
 30
0.0
 10
224.2294658959538
 20
88.14486689340139
 30
0.0
  0
SPLINE
  5
16B
330
1F
100
AcDbEntity
  8
0
  6
Continuous
 62
     7
370
    25
100
AcDbSpline
210
0.0
220
0.0
230
1.0
 70
    24
 71
     3
 72
    14
 73
    10
 74
     0
 42
0.000000001
 43
0.00000001
 40
0.0
 40
0.0
 40
0.0
 40
0.0
 40
0.1912156890565411
 40
0.3842607734904397
 40
0.5102055247845748
 40
0.6361523096967548
 40
0.7654545707989291
 40
0.8947932191925945
 40
1.0
 40
1.0
 40
1.0
 40
1.0
 10
224.2294658959538
 20
88.14486689340139
 30
0.0
 10
224.2294658959538
 20
87.5669193681992
 30
0.0
 10
224.2294658959538
 20
86.40549498839631
 30
0.0
 10
224.2294658959538
 20
84.82082492877109
 30
0.0
 10
224.2294658959538
 20
83.42986561863277
 30
0.0
 10
224.2294658959538
 20
82.23833910812341
 30
0.0
 10
224.2294658959538
 20
81.04597304637602
 30
0.0
 10
224.2294658959538
 20
79.9310664785366
 30
0.0
 10
224.2294658959538
 20
79.22429102209269
 30
0.0
 10
224.2294658959538
 20
78.90726258636734
 30
0.0
  0
SPLINE
  5
16C
330
1F
100
AcDbEntity
  8
0
  6
Continuous
 62
     7
370
    25
100
AcDbSpline
210
0.0
220
0.0
230
1.0
 70
    24
 71
     3
 72
    15
 73
    11
 74
     0
 42
0.000000001
 43
0.00000001
 40
0.0
 40
0.0
 40
0.0
 40
0.0
 40
0.1323049664163399
 40
0.264572525757654
 40
0.3997989469058927
 40
0.5350009659368332
 40
0.6501921044151404
 40
0.7654012116808009
 40
0.8826892657702315
 40
1.0
 40
1.0
 40
1.0
 40
1.0
 10
224.2294658959538
 20
78.90726258636734
 30
0.0
 10
223.8838347795966
 20
78.70771236829822
 30
0.0
 10
223.1926702684526
 20
78.30866835173497
 30
0.0
 10
222.1283381839504
 20
77.69417593624047
 30
0.0
 10
221.0439433106516
 20
77.06810026423355
 30
0.0
 10
219.9988277449518
 20
76.4647025110425
 30
0.0
 10
219.0101727940894
 20
75.89390230902643
 30
0.0
 10
218.0771241578257
 20
75.3552064277126
 30
0.0
 10
217.1482940837941
 20
74.81894613443903
 30
0.0
 10
216.5357616976866
 20
74.46530039643248
 30
0.0
 10
216.2294658959537
 20
74.28846043285037
 30
0.0
  0
SPLINE
  5
16D
330
1F
100
AcDbEntity
  8
0
  6
Continuous
 62
     7
370
    25
100
AcDbSpline
210
0.0
220
0.0
230
1.0
 70
    24
 71
     3
 72
    15
 73
    11
 74
     0
 42
0.000000001
 43
0.00000001
 40
0.0
 40
0.0
 40
0.0
 40
0.0
 40
0.13230496641634
 40
0.2645725257576541
 40
0.3997989469058927
 40
0.5350009659368333
 40
0.6501921044151405
 40
0.7654012116808012
 40
0.8826892657702317
 40
1.0
 40
1.0
 40
1.0
 40
1.0
 10
216.2294658959537
 20
74.28846043285037
 30
0.0
 10
215.8838347795965
 20
74.4880106509195
 30
0.0
 10
215.1926702684526
 20
74.88705466748276
 30
0.0
 10
214.1283381839504
 20
75.50154708297727
 30
0.0
 10
213.0439433106516
 20
76.12762275498419
 30
0.0
 10
211.9988277449518
 20
76.73102050817525
 30
0.0
 10
211.0101727940894
 20
77.30182071019135
 30
0.0
 10
210.0771241578257
 20
77.84051659150519
 30
0.0
 10
209.1482940837941
 20
78.37677688477878
 30
0.0
 10
208.5357616976866
 20
78.73042262278533
 30
0.0
 10
208.2294658959537
 20
78.90726258636745
 30
0.0
  0
SPLINE
  5
16E
330
1F
100
AcDbEntity
  8
0
  6
Continuous
 62
     7
370
    25
100
AcDbSpline
210
0.0
220
0.0
230
1.0
 70
    24
 71
     3
 72
    14
 73
    10
 74
     0
 42
0.000000001
 43
0.00000001
 40
0.0
 40
0.0
 40
0.0
 40
0.0
 40
0.1052068357133045
 40
0.2313210752448398
 40
0.3574023224982446
 40
0.4865716879238012
 40
0.6157381069695574
 40
0.8067800019191284
 40
1.0
 40
1.0
 40
1.0
 40
1.0
 10
208.2294658959537
 20
78.90726258636745
 30
0.0
 10
208.2294658959537
 20
79.22429003671886
 30
0.0
 10
208.2294658959537
 20
79.92134674601157
 30
0.0
 10
208.2294658959537
 20
81.01627175918286
 30
0.0
 10
208.2294658959538
 20
82.1981057877028
 30
0.0
 10
208.2294658959538
 20
83.39958781763885
 30
0.0
 10
208.2294658959538
 20
84.80456964854567
 30
0.0
 10
208.2294658959538
 20
86.39929608525993
 30
0.0
 10
208.2294658959538
 20
87.56081535275479
 30
0.0
 10
208.2294658959538
 20
88.1448668934015
 30
0.0
  0
INSERT
  5
17A
330
1F
100
AcDbEntity
  8
0
  6
Continuous
 62
     7
370
    18
100
AcDbBlockReference
  2
SW_CENTERMARKSYMBOL_0
 10
216.229465896
 20
83.5260647399
 30
0.0
  0
LINE
  5
17B
330
1F
100
AcDbEntity
  8
0
  6
Continuous
 62
     7
370
    25
100
AcDbLine
 10
165.8227075832
 20
127.8349858824
 30
0.0
 11
165.795912664
 21
127.7349858824
 31
0.0
  0
LINE
  5
17C
330
1F
100
AcDbEntity
  8
0
  6
Continuous
 62
     7
370
    25
100
AcDbLine
 10
165.795912664
 20
118.9349858824
 30
0.0
 11
165.8227075832
 21
118.8349858824
 31
0.0
  0
LINE
  5
17D
330
1F
100
AcDbEntity
  8
0
  6
Continuous
 62
     7
370
    25
100
AcDbLine
 10
165.8227075832
 20
118.8349858824
 30
0.0
 11
166.295912664
 21
118.8349858824
 31
0.0
  0
LINE
  5
17E
330
1F
100
AcDbEntity
  8
0
  6
Continuous
 62
     7
370
    25
100
AcDbLine
 10
166.295912664
 20
127.8349858824
 30
0.0
 11
165.8227075832
 21
127.8349858824
 31
0.0
  0
LINE
  5
17F
330
1F
100
AcDbEntity
  8
0
  6
Continuous
 62
     7
370
    25
100
AcDbLine
 10
170.295912664
 20
119.3349858824
 30
0.0
 11
174.295912664
 21
119.9849858824
 31
0.0
  0
LINE
  5
180
330
1F
100
AcDbEntity
  8
0
  6
Continuous
 62
     7
370
    25
100
AcDbLine
 10
174.295912664
 20
126.6849858824
 30
0.0
 11
170.295912664
 21
127.3349858824
 31
0.0
  0
LINE
  5
181
330
1F
100
AcDbEntity
  8
0
  6
Continuous
 62
     7
370
    25
100
AcDbLine
 10
166.295912664
 20
119.3349858824
 30
0.0
 11
170.295912664
 21
119.3349858824
 31
0.0
  0
LINE
  5
182
330
1F
100
AcDbEntity
  8
0
  6
Continuous
 62
     7
370
    25
100
AcDbLine
 10
170.295912664
 20
127.3349858824
 30
0.0
 11
166.295912664
 21
127.3349858824
 31
0.0
  0
LINE
  5
183
330
1F
100
AcDbEntity
  8
0
  6
Continuous
 62
     7
370
    25
100
AcDbLine
 10
178.295912664
 20
119.3349858824
 30
0.0
 11
182.295912664
 21
119.9849858824
 31
0.0
  0
LINE
  5
184
330
1F
100
AcDbEntity
  8
0
  6
Continuous
 62
     7
370
    25
100
AcDbLine
 10
182.295912664
 20
126.6849858824
 30
0.0
 11
178.295912664
 21
127.3349858824
 31
0.0
  0
LINE
  5
185
330
1F
100
AcDbEntity
  8
0
  6
Continuous
 62
     7
370
    25
100
AcDbLine
 10
174.295912664
 20
119.3349858824
 30
0.0
 11
178.295912664
 21
119.9849858824
 31
0.0
  0
LINE
  5
186
330
1F
100
AcDbEntity
  8
0
  6
Continuous
 62
     7
370
    25
100
AcDbLine
 10
178.295912664
 20
126.6849858824
 30
0.0
 11
174.295912664
 21
127.3349858824
 31
0.0
  0
LINE
  5
187
330
1F
100
AcDbEntity
  8
0
  6
Continuous
 62
     7
370
    25
100
AcDbLine
 10
186.295912664
 20
119.3349858824
 30
0.0
 11
191.0898046999
 21
119.9015367594
 31
0.0
  0
LINE
  5
188
330
1F
100
AcDbEntity
  8
0
  6
Continuous
 62
     7
370
    25
100
AcDbLine
 10
191.0898046999
 20
126.7684350054
 30
0.0
 11
186.295912664
 21
127.3349858824
 31
0.0
  0
LINE
  5
189
330
1F
100
AcDbEntity
  8
0
  6
Continuous
 62
     7
370
    25
100
AcDbLine
 10
182.295912664
 20
119.3349858824
 30
0.0
 11
186.295912664
 21
119.9849858824
 31
0.0
  0
LINE
  5
18A
330
1F
100
AcDbEntity
  8
0
  6
Continuous
 62
     7
370
    25
100
AcDbLine
 10
186.295912664
 20
126.6849858824
 30
0.0
 11
182.295912664
 21
127.3349858824
 31
0.0
  0
ARC
  5
18B
330
1F
100
AcDbEntity
  8
0
  6
Continuous
 62
     7
370
    25
100
AcDbCircle
 10
190.995912664
 20
120.6960078322
 30
0.0
 40
0.8000000000000114
100
AcDbArc
 50
276.7400560979
 51
0.0
  0
ARC
  5
18C
330
1F
100
AcDbEntity
  8
0
  6
Continuous
 62
     7
370
    25
100
AcDbCircle
 10
190.995912664
 20
125.9739639326
 30
0.0
 40
0.8000000000000114
100
AcDbArc
 50
0.0
 51
83.2599439021
  0
LINE
  5
18D
330
1F
100
AcDbEntity
  8
0
  6
Continuous
 62
     7
370
    25
100
AcDbLine
 10
128.2605479081
 20
127.8349858824
 30
0.0
 11
127.7873428273
 21
127.8349858824
 31
0.0
  0
LINE
  5
18E
330
1F
100
AcDbEntity
  8
0
  6
Continuous
 62
     7
370
    25
100
AcDbLine
 10
127.7873428273
 20
118.8349858824
 30
0.0
 11
128.2605479081
 21
118.8349858824
 31
0.0
  0
LINE
  5
18F
330
1F
100
AcDbEntity
  8
0
  6
Continuous
 62
     7
370
    25
100
AcDbLine
 10
128.2605479081
 20
118.8349858824
 30
0.0
 11
128.2873428273
 21
118.9349858824
 31
0.0
  0
LINE
  5
190
330
1F
100
AcDbEntity
  8
0
  6
Continuous
 62
     7
370
    25
100
AcDbLine
 10
128.2873428273
 20
127.7349858824
 30
0.0
 11
128.2605479081
 21
127.8349858824
 31
0.0
  0
LINE
  5
191
330
1F
100
AcDbEntity
  8
0
  6
Continuous
 62
     7
370
    25
100
AcDbLine
 10
123.7873428273
 20
127.3349858824
 30
0.0
 11
119.7873428273
 21
126.6849858824
 31
0.0
  0
LINE
  5
192
330
1F
100
AcDbEntity
  8
0
  6
Continuous
 62
     7
370
    25
100
AcDbLine
 10
119.7873428273
 20
119.9849858824
 30
0.0
 11
123.7873428273
 21
119.3349858824
 31
0.0
  0
LINE
  5
193
330
1F
100
AcDbEntity
  8
0
  6
Continuous
 62
     7
370
    25
100
AcDbLine
 10
127.7873428273
 20
127.3349858824
 30
0.0
 11
123.7873428273
 21
127.3349858824
 31
0.0
  0
LINE
  5
194
330
1F
100
AcDbEntity
  8
0
  6
Continuous
 62
     7
370
    25
100
AcDbLine
 10
123.7873428273
 20
119.3349858824
 30
0.0
 11
127.7873428273
 21
119.3349858824
 31
0.0
  0
LINE
  5
195
330
1F
100
AcDbEntity
  8
0
  6
Continuous
 62
     7
370
    25
100
AcDbLine
 10
115.7873428273
 20
127.3349858824
 30
0.0
 11
111.7873428273
 21
126.6849858824
 31
0.0
  0
LINE
  5
196
330
1F
100
AcDbEntity
  8
0
  6
Continuous
 62
     7
370
    25
100
AcDbLine
 10
111.7873428273
 20
119.9849858824
 30
0.0
 11
115.7873428273
 21
119.3349858824
 31
0.0
  0
LINE
  5
197
330
1F
100
AcDbEntity
  8
0
  6
Continuous
 62
     7
370
    25
100
AcDbLine
 10
119.7873428273
 20
127.3349858824
 30
0.0
 11
115.7873428273
 21
126.6849858824
 31
0.0
  0
LINE
  5
198
330
1F
100
AcDbEntity
  8
0
  6
Continuous
 62
     7
370
    25
100
AcDbLine
 10
115.7873428273
 20
119.9849858824
 30
0.0
 11
119.7873428273
 21
119.3349858824
 31
0.0
  0
LINE
  5
199
330
1F
100
AcDbEntity
  8
0
  6
Continuous
 62
     7
370
    25
100
AcDbLine
 10
111.7873428273
 20
127.3349858824
 30
0.0
 11
107.7873428273
 21
126.6849858824
 31
0.0
  0
LINE
  5
19A
330
1F
100
AcDbEntity
  8
0
  6
Continuous
 62
     7
370
    25
100
AcDbLine
 10
107.7873428273
 20
119.9849858824
 30
0.0
 11
111.7873428273
 21
119.3349858824
 31
0.0
  0
LINE
  5
19B
330
1F
100
AcDbEntity
  8
0
  6
Continuous
 62
     7
370
    25
100
AcDbLine
 10
107.7873428273
 20
127.3349858824
 30
0.0
 11
102.9934507915
 21
126.7684350054
 31
0.0
  0
LINE
  5
19C
330
1F
100
AcDbEntity
  8
0
  6
Continuous
 62
     7
370
    25
100
AcDbLine
 10
102.9934507915
 20
119.9015367594
 30
0.0
 11
107.7873428273
 21
119.3349858824
 31
0.0
  0
ARC
  5
19D
330
1F
100
AcDbEntity
  8
0
  6
Continuous
 62
     7
370
    25
100
AcDbCircle
 10
103.0873428273
 20
125.9739639326
 30
0.0
 40
0.8000000000000009
100
AcDbArc
 50
96.7400560979
 51
180.0
  0
ARC
  5
19E
330
1F
100
AcDbEntity
  8
0
  6
Continuous
 62
     7
370
    25
100
AcDbCircle
 10
103.0873428273
 20
120.6960078322
 30
0.0
 40
0.8000000000000009
100
AcDbArc
 50
180.0
 51
263.2599439021
  0
LINE
  5
19F
330
1F
100
AcDbEntity
  8
0
  6
Continuous
 62
     7
370
    25
100
AcDbLine
 10
163.7093101236
 20
115.3349858824
 30
0.0
 11
163.795912664
 21
115.4849858824
 31
0.0
  0
LINE
  5
1A0
330
1F
100
AcDbEntity
  8
0
  6
Continuous
 62
     7
370
    25
100
AcDbLine
 10
163.795912664
 20
131.1849858824
 30
0.0
 11
163.7093101236
 21
131.3349858824
 31
0.0
  0
LINE
  5
1A1
330
1F
100
AcDbEntity
  8
0
  6
Continuous
 62
     7
370
    25
100
AcDbLine
 10
154.8825152044
 20
131.3349858824
 30
0.0
 11
154.795912664
 21
131.1849858824
 31
0.0
  0
LINE
  5
1A2
330
1F
100
AcDbEntity
  8
0
  6
Continuous
 62
     7
370
    25
100
AcDbLine
 10
154.795912664
 20
115.4849858824
 30
0.0
 11
154.8825152044
 21
115.3349858824
 31
0.0
  0
LINE
  5
1A3
330
1F
100
AcDbEntity
  8
0
  6
Continuous
 62
     7
370
    25
100
AcDbLine
 10
154.795912664
 20
131.1849858824
 30
0.0
 11
153.095912664
 21
131.1849858824
 31
0.0
  0
LINE
  5
1A4
330
1F
100
AcDbEntity
  8
0
  6
Continuous
 62
     7
370
    25
100
AcDbLine
 10
153.095912664
 20
115.4849858824
 30
0.0
 11
154.795912664
 21
115.4849858824
 31
0.0
  0
LINE
  5
1A5
330
1F
100
AcDbEntity
  8
0
  6
Continuous
 62
     7
370
    25
100
AcDbLine
 10
163.795912664
 20
115.4849858824
 30
0.0
 11
165.495912664
 21
115.4849858824
 31
0.0
  0
LINE
  5
1A6
330
1F
100
AcDbEntity
  8
0
  6
Continuous
 62
     7
370
    25
100
AcDbLine
 10
165.495912664
 20
131.1849858824
 30
0.0
 11
163.795912664
 21
131.1849858824
 31
0.0
  0
ARC
  5
1A7
330
1F
100
AcDbEntity
  8
0
  6
Continuous
 62
     7
370
    25
100
AcDbCircle
 10
165.495912664
 20
130.8849858824
 30
0.0
 40
0.3000000000000114
100
AcDbArc
 50
0.0
 51
90.0
  0
ARC
  5
1A8
330
1F
100
AcDbEntity
  8
0
  6
Continuous
 62
     7
370
    25
100
AcDbCircle
 10
165.495912664
 20
115.7849858824
 30
0.0
 40
0.2999999999999972
100
AcDbArc
 50
270.0
 51
0.0
  0
ARC
  5
1A9
330
1F
100
AcDbEntity
  8
0
  6
Continuous
 62
     7
370
    25
100
AcDbCircle
 10
153.095912664
 20
115.7849858824
 30
0.0
 40
0.2999999999999972
100
AcDbArc
 50
180.0
 51
270.0
  0
ARC
  5
1AA
330
1F
100
AcDbEntity
  8
0
  6
Continuous
 62
     7
370
    25
100
AcDbCircle
 10
153.095912664
 20
130.8849858824
 30
0.0
 40
0.3000000000000114
100
AcDbArc
 50
90.0
 51
180.0
  0
LINE
  5
1AB
330
1F
100
AcDbEntity
  8
0
  6
Continuous
 62
     7
370
    25
100
AcDbLine
 10
130.3739453677
 20
131.3349858824
 30
0.0
 11
130.2873428273
 21
131.1849858824
 31
0.0
  0
LINE
  5
1AC
330
1F
100
AcDbEntity
  8
0
  6
Continuous
 62
     7
370
    25
100
AcDbLine
 10
130.2873428273
 20
115.4849858824
 30
0.0
 11
130.3739453677
 21
115.3349858824
 31
0.0
  0
LINE
  5
1AD
330
1F
100
AcDbEntity
  8
0
  6
Continuous
 62
     7
370
    25
100
AcDbLine
 10
139.200740287
 20
115.3349858824
 30
0.0
 11
139.2873428273
 21
115.4849858824
 31
0.0
  0
LINE
  5
1AE
330
1F
100
AcDbEntity
  8
0
  6
Continuous
 62
     7
370
    25
100
AcDbLine
 10
139.2873428273
 20
131.1849858824
 30
0.0
 11
139.200740287
 21
131.3349858824
 31
0.0
  0
LINE
  5
1AF
330
1F
100
AcDbEntity
  8
0
  6
Continuous
 62
     7
370
    25
100
AcDbLine
 10
130.2873428273
 20
131.1849858824
 30
0.0
 11
128.5873428273
 21
131.1849858824
 31
0.0
  0
LINE
  5
1B0
330
1F
100
AcDbEntity
  8
0
  6
Continuous
 62
     7
370
    25
100
AcDbLine
 10
128.5873428273
 20
115.4849858824
 30
0.0
 11
130.2873428273
 21
115.4849858824
 31
0.0
  0
ARC
  5
1B1
330
1F
100
AcDbEntity
  8
0
  6
Continuous
 62
     7
370
    25
100
AcDbCircle
 10
140.9873428273
 20
130.8849858824
 30
0.0
 40
0.3000000000000114
100
AcDbArc
 50
0.0
 51
90.0
  0
ARC
  5
1B2
330
1F
100
AcDbEntity
  8
0
  6
Continuous
 62
     7
370
    25
100
AcDbCircle
 10
140.9873428273
 20
115.7849858824
 30
0.0
 40
0.3000000000000114
100
AcDbArc
 50
270.0
 51
0.0
  0
LINE
  5
1B3
330
1F
100
AcDbEntity
  8
0
  6
Continuous
 62
     7
370
    25
100
AcDbLine
 10
139.2873428273
 20
115.4849858824
 30
0.0
 11
140.9873428273
 21
115.4849858824
 31
0.0
  0
LINE
  5
1B4
330
1F
100
AcDbEntity
  8
0
  6
Continuous
 62
     7
370
    25
100
AcDbLine
 10
140.9873428273
 20
131.1849858824
 30
0.0
 11
139.2873428273
 21
131.1849858824
 31
0.0
  0
ARC
  5
1B5
330
1F
100
AcDbEntity
  8
0
  6
Continuous
 62
     7
370
    25
100
AcDbCircle
 10
128.5873428273
 20
115.7849858824
 30
0.0
 40
0.3000000000000114
100
AcDbArc
 50
180.0
 51
270.0
  0
ARC
  5
1B6
330
1F
100
AcDbEntity
  8
0
  6
Continuous
 62
     7
370
    25
100
AcDbCircle
 10
128.5873428273
 20
130.8849858824
 30
0.0
 40
0.3000000000000114
100
AcDbArc
 50
90.0
 51
180.0
  0
LINE
  5
1B7
330
1F
100
AcDbEntity
  8
0
  6
Continuous
 62
     7
370
    25
100
AcDbLine
 10
149.3972901784
 20
116.3349858824
 30
0.0
 11
149.5416277457
 21
116.5849858824
 31
0.0
  0
LINE
  5
1B8
330
1F
100
AcDbEntity
  8
0
  6
Continuous
 62
     7
370
    25
100
AcDbLine
 10
149.5416277457
 20
130.0849858824
 30
0.0
 11
149.3972901784
 21
130.3349858824
 31
0.0
  0
LINE
  5
1B9
330
1F
100
AcDbEntity
  8
0
  6
Continuous
 62
     7
370
    25
100
AcDbLine
 10
144.685965313
 20
130.3349858824
 30
0.0
 11
144.5416277457
 21
130.0849858824
 31
0.0
  0
LINE
  5
1BA
330
1F
100
AcDbEntity
  8
0
  6
Continuous
 62
     7
370
    25
100
AcDbLine
 10
144.5416277457
 20
116.5849858824
 30
0.0
 11
144.685965313
 21
116.3349858824
 31
0.0
  0
LINE
  5
1BB
330
1F
100
AcDbEntity
  8
0
  6
Continuous
 62
     7
370
    25
100
AcDbLine
 10
141.5416277457
 20
116.7564858824
 30
0.0
 11
142.5416277457
 21
117.7564858824
 31
0.0
  0
LINE
  5
1BC
330
1F
100
AcDbEntity
  8
0
  6
Continuous
 62
     7
370
    25
100
AcDbLine
 10
142.5416277457
 20
128.9134858824
 30
0.0
 11
141.5416277457
 21
129.9134858824
 31
0.0
  0
LINE
  5
1BD
330
1F
100
AcDbEntity
  8
0
  6
Continuous
 62
     7
370
    25
100
AcDbLine
 10
152.5416277457
 20
116.7564858824
 30
0.0
 11
152.795912664
 21
116.7564858824
 31
0.0
  0
LINE
  5
1BE
330
1F
100
AcDbEntity
  8
0
  6
Continuous
 62
     7
370
    25
100
AcDbLine
 10
152.795912664
 20
129.9134858824
 30
0.0
 11
152.5416277457
 21
129.9134858824
 31
0.0
  0
LINE
  5
1BF
330
1F
100
AcDbEntity
  8
0
  6
Continuous
 62
     7
370
    25
100
AcDbLine
 10
152.5416277457
 20
129.9134858824
 30
0.0
 11
151.5416277457
 21
128.9134858824
 31
0.0
  0
LINE
  5
1C0
330
1F
100
AcDbEntity
  8
0
  6
Continuous
 62
     7
370
    25
100
AcDbLine
 10
151.5416277457
 20
117.7564858824
 30
0.0
 11
152.5416277457
 21
116.7564858824
 31
0.0
  0
LINE
  5
1C1
330
1F
100
AcDbEntity
  8
0
  6
Continuous
 62
     7
370
    25
100
AcDbLine
 10
141.5416277457
 20
129.9134858824
 30
0.0
 11
141.2873428273
 21
129.9134858824
 31
0.0
  0
LINE
  5
1C2
330
1F
100
AcDbEntity
  8
0
  6
Continuous
 62
     7
370
    25
100
AcDbLine
 10
141.2873428273
 20
116.7564858824
 30
0.0
 11
141.5416277457
 21
116.7564858824
 31
0.0
  0
LINE
  5
1C3
330
1F
100
AcDbEntity
  8
0
  6
Continuous
 62
     7
370
    25
100
AcDbLine
 10
144.5416277457
 20
128.8349858824
 30
0.0
 11
142.5416277457
 21
128.8349858824
 31
0.0
  0
LINE
  5
1C4
330
1F
100
AcDbEntity
  8
0
  6
Continuous
 62
     7
370
    25
100
AcDbLine
 10
142.5416277457
 20
117.8349858824
 30
0.0
 11
144.5416277457
 21
117.8349858824
 31
0.0
  0
LINE
  5
1C5
330
1F
100
AcDbEntity
  8
0
  6
Continuous
 62
     7
370
    25
100
AcDbLine
 10
149.5416277457
 20
117.8349858824
 30
0.0
 11
151.5416277457
 21
117.8349858824
 31
0.0
  0
LINE
  5
1C6
330
1F
100
AcDbEntity
  8
0
  6
Continuous
 62
     7
370
    25
100
AcDbLine
 10
151.5416277457
 20
128.8349858824
 30
0.0
 11
149.5416277457
 21
128.8349858824
 31
0.0
  0
LINE
  5
1C7
330
1F
100
AcDbEntity
  8
0
  6
Continuous
 62
     7
370
    25
100
AcDbLine
 10
165.8227075832
 20
118.8349858824
 30
0.0
 11
165.8227075832
 21
127.8349858824
 31
0.0
  0
LINE
  5
1C8
330
1F
100
AcDbEntity
  8
0
  6
Continuous
 62
     7
370
    25
100
AcDbLine
 10
166.295912664
 20
127.8349858824
 30
0.0
 11
166.295912664
 21
118.8349858824
 31
0.0
  0
LINE
  5
1C9
330
1F
100
AcDbEntity
  8
0
  6
Continuous
 62
     7
370
    25
100
AcDbLine
 10
170.295912664
 20
119.3349858824
 30
0.0
 11
170.295912664
 21
127.3349858824
 31
0.0
  0
LINE
  5
1CA
330
1F
100
AcDbEntity
  8
0
  6
Continuous
 62
     7
370
    25
100
AcDbLine
 10
178.295912664
 20
119.3349858824
 30
0.0
 11
178.295912664
 21
127.3349858824
 31
0.0
  0
LINE
  5
1CB
330
1F
100
AcDbEntity
  8
0
  6
Continuous
 62
     7
370
    25
100
AcDbLine
 10
174.295912664
 20
119.3349858824
 30
0.0
 11
174.295912664
 21
127.3349858824
 31
0.0
  0
LINE
  5
1CC
330
1F
100
AcDbEntity
  8
0
  6
Continuous
 62
     7
370
    25
100
AcDbLine
 10
186.295912664
 20
119.3349858824
 30
0.0
 11
186.295912664
 21
127.3349858824
 31
0.0
  0
LINE
  5
1CD
330
1F
100
AcDbEntity
  8
0
  6
Continuous
 62
     7
370
    25
100
AcDbLine
 10
182.295912664
 20
119.3349858824
 30
0.0
 11
182.295912664
 21
127.3349858824
 31
0.0
  0
LINE
  5
1CE
330
1F
100
AcDbEntity
  8
0
  6
Continuous
 62
     7
370
    25
100
AcDbLine
 10
191.795912664
 20
120.6960078322
 30
0.0
 11
191.795912664
 21
125.9739639326
 31
0.0
  0
LINE
  5
1CF
330
1F
100
AcDbEntity
  8
0
  6
Continuous
 62
     7
370
    25
100
AcDbLine
 10
128.2605479081
 20
127.8349858824
 30
0.0
 11
128.2605479081
 21
118.8349858824
 31
0.0
  0
LINE
  5
1D0
330
1F
100
AcDbEntity
  8
0
  6
Continuous
 62
     7
370
    25
100
AcDbLine
 10
127.7873428273
 20
118.8349858824
 30
0.0
 11
127.7873428273
 21
127.8349858824
 31
0.0
  0
LINE
  5
1D1
330
1F
100
AcDbEntity
  8
0
  6
Continuous
 62
     7
370
    25
100
AcDbLine
 10
123.7873428273
 20
127.3349858824
 30
0.0
 11
123.7873428273
 21
119.3349858824
 31
0.0
  0
LINE
  5
1D2
330
1F
100
AcDbEntity
  8
0
  6
Continuous
 62
     7
370
    25
100
AcDbLine
 10
115.7873428273
 20
127.3349858824
 30
0.0
 11
115.7873428273
 21
119.3349858824
 31
0.0
  0
LINE
  5
1D3
330
1F
100
AcDbEntity
  8
0
  6
Continuous
 62
     7
370
    25
100
AcDbLine
 10
119.7873428273
 20
127.3349858824
 30
0.0
 11
119.7873428273
 21
119.3349858824
 31
0.0
  0
LINE
  5
1D4
330
1F
100
AcDbEntity
  8
0
  6
Continuous
 62
     7
370
    25
100
AcDbLine
 10
111.7873428273
 20
127.3349858824
 30
0.0
 11
111.7873428273
 21
119.3349858824
 31
0.0
  0
LINE
  5
1D5
330
1F
100
AcDbEntity
  8
0
  6
Continuous
 62
     7
370
    25
100
AcDbLine
 10
107.7873428273
 20
127.3349858824
 30
0.0
 11
107.7873428273
 21
119.3349858824
 31
0.0
  0
LINE
  5
1D6
330
1F
100
AcDbEntity
  8
0
  6
Continuous
 62
     7
370
    25
100
AcDbLine
 10
102.2873428273
 20
125.9739639326
 30
0.0
 11
102.2873428273
 21
120.6960078322
 31
0.0
  0
SPLINE
  5
1D7
330
1F
100
AcDbEntity
  8
0
  6
Continuous
 62
     7
370
    25
100
AcDbSpline
210
0.0
220
0.0
230
1.0
 70
     8
 71
     3
 72
    15
 73
    11
 74
     0
 42
0.000000001
 43
0.00000001
 40
0.0
 40
0.0
 40
0.0
 40
0.0
 40
0.1323049664163419
 40
0.2645725257576577
 40
0.399798946905898
 40
0.5350009659368402
 40
0.6501921044151457
 40
0.7654012116808047
 40
0.8826892657702335
 40
1.0
 40
1.0
 40
1.0
 40
1.0
 10
162.9947789437943
 20
115.3349858823997
 30
0.0
 10
163.1035504713375
 20
115.6806169987569
 30
0.0
 10
163.3210627730456
 20
116.3717815099008
 30
0.0
 10
163.5550979658412
 20
117.436113594403
 30
0.0
 10
163.6958172217902
 20
118.5205084677018
 30
0.0
 10
163.7236865055137
 20
119.5656240334016
 30
0.0
 10
163.6513847071592
 20
120.5542789842641
 30
0.0
 10
163.5032347271801
 20
121.4873276205277
 30
0.0
 10
163.2859145684755
 20
122.4161576945593
 30
0.0
 10
163.0918304064669
 20
123.0286900806668
 30
0.0
 10
162.9947789437943
 20
123.3349858823997
 30
0.0
  0
SPLINE
  5
1D8
330
1F
100
AcDbEntity
  8
0
  6
Continuous
 62
     7
370
    25
100
AcDbSpline
210
0.0
220
0.0
230
1.0
 70
     8
 71
     3
 72
    15
 73
    11
 74
     0
 42
0.000000001
 43
0.00000001
 40
0.0
 40
0.0
 40
0.0
 40
0.0
 40
0.13230496641634
 40
0.264572525757654
 40
0.3997989469058927
 40
0.5350009659368332
 40
0.6501921044151406
 40
0.7654012116808014
 40
0.8826892657702319
 40
1.0
 40
1.0
 40
1.0
 40
1.0
 10
162.9947789437943
 20
123.3349858823997
 30
0.0
 10
163.1035504713375
 20
123.6806169987569
 30
0.0
 10
163.3210627730456
 20
124.3717815099008
 30
0.0
 10
163.5550979658412
 20
125.436113594403
 30
0.0
 10
163.6958172217902
 20
126.5205084677018
 30
0.0
 10
163.7236865055137
 20
127.5656240334016
 30
0.0
 10
163.6513847071593
 20
128.554278984264
 30
0.0
 10
163.5032347271802
 20
129.4873276205277
 30
0.0
 10
163.2859145684755
 20
130.4161576945593
 30
0.0
 10
163.0918304064669
 20
131.0286900806668
 30
0.0
 10
162.9947789437943
 20
131.3349858823997
 30
0.0
  0
SPLINE
  5
1D9
330
1F
100
AcDbEntity
  8
0
  6
Continuous
 62
     7
370
    25
100
AcDbSpline
210
0.0
220
0.0
230
1.0
 70
    24
 71
     3
 72
    10
 73
     6
 74
     0
 42
0.000000001
 43
0.00000001
 40
0.0
 40
0.0
 40
0.0
 40
0.0
 40
0.3824415361703795
 40
0.7685419602794609
 40
1.0
 40
1.0
 40
1.0
 40
1.0
 10
162.9947789437943
 20
131.3349858823997
 30
0.0
 10
163.1475145283845
 20
131.3349858823997
 30
0.0
 10
163.4544469467636
 20
131.3349858823997
 30
0.0
 10
163.6789675249371
 20
131.3349858823997
 30
0.0
 10
163.6984428098218
 20
131.3349858823997
 30
0.0
 10
163.7057420560089
 20
131.3349858823997
 30
0.0
  0
SPLINE
  5
1DA
330
1F
100
AcDbEntity
  8
0
  6
Continuous
 62
     7
370
    25
100
AcDbSpline
210
0.0
220
0.0
230
1.0
 70
    24
 71
     3
 72
    10
 73
     6
 74
     0
 42
0.000000001
 43
0.00000001
 40
0.0
 40
0.0
 40
0.0
 40
0.0
 40
0.2314536293865608
 40
0.6135486475542216
 40
1.0
 40
1.0
 40
1.0
 40
1.0
 10
163.704223813895
 20
115.3349858823997
 30
0.0
 10
163.6975384171054
 20
115.3349858823997
 30
0.0
 10
163.679816438973
 20
115.3349858823997
 30
0.0
 10
163.4554903156237
 20
115.3349858823997
 30
0.0
 10
163.1489286266691
 20
115.3349858823997
 30
0.0
 10
162.9947789437943
 20
115.3349858823997
 30
0.0
  0
LINE
  5
1DB
330
1F
100
AcDbEntity
  8
0
  6
Continuous
 62
     7
370
    25
100
AcDbLine
 10
163.795912664
 20
115.4849858824
 30
0.0
 11
163.795912664
 21
131.1849858824
 31
0.0
  0
LINE
  5
1DC
330
1F
100
AcDbEntity
  8
0
  6
Continuous
 62
     7
370
    25
100
AcDbLine
 10
155.5970463842
 20
123.3349858824
 30
0.0
 11
159.2423228255
 21
123.3349858824
 31
0.0
  0
SPLINE
  5
1DD
330
1F
100
AcDbEntity
  8
0
  6
Continuous
 62
     7
370
    25
100
AcDbSpline
210
0.0
220
0.0
230
1.0
 70
     8
 71
     3
 72
    15
 73
    11
 74
     0
 42
0.000000001
 43
0.00000001
 40
0.0
 40
0.0
 40
0.0
 40
0.0
 40
0.13230496641634
 40
0.264572525757654
 40
0.3997989469058927
 40
0.5350009659368332
 40
0.6501921044151406
 40
0.7654012116808014
 40
0.8826892657702319
 40
1.0
 40
1.0
 40
1.0
 40
1.0
 10
155.5970463841839
 20
123.3349858823997
 30
0.0
 10
155.4882748566407
 20
123.6806169987569
 30
0.0
 10
155.2707625549326
 20
124.3717815099008
 30
0.0
 10
155.036727362137
 20
125.436113594403
 30
0.0
 10
154.896008106188
 20
126.5205084677018
 30
0.0
 10
154.8681388224645
 20
127.5656240334016
 30
0.0
 10
154.9404406208189
 20
128.554278984264
 30
0.0
 10
155.088590600798
 20
129.4873276205277
 30
0.0
 10
155.3059107595026
 20
130.4161576945593
 30
0.0
 10
155.4999949215112
 20
131.0286900806668
 30
0.0
 10
155.5970463841839
 20
131.3349858823997
 30
0.0
  0
LINE
  5
1DE
330
1F
100
AcDbEntity
  8
0
  6
Continuous
 62
     7
370
    25
100
AcDbLine
 10
155.5970463842
 20
131.3349858824
 30
0.0
 11
159.2423228255
 21
131.3349858824
 31
0.0
  0
LINE
  5
1DF
330
1F
100
AcDbEntity
  8
0
  6
Continuous
 62
     7
370
    25
100
AcDbLine
 10
159.295912664
 20
130.9762382367
 30
0.0
 11
159.2423228255
 21
131.3349858824
 31
0.0
  0
LINE
  5
1E0
330
1F
100
AcDbEntity
  8
0
  6
Continuous
 62
     7
370
    25
100
AcDbLine
 10
159.3495025025
 20
131.3349858824
 30
0.0
 11
159.295912664
 21
130.9762382367
 31
0.0
  0
LINE
  5
1E1
330
1F
100
AcDbEntity
  8
0
  6
Continuous
 62
     7
370
    25
100
AcDbLine
 10
159.3495025025
 20
131.3349858824
 30
0.0
 11
162.9947789438
 21
131.3349858824
 31
0.0
  0
LINE
  5
1E2
330
1F
100
AcDbEntity
  8
0
  6
Continuous
 62
     7
370
    25
100
AcDbLine
 10
159.3495025025
 20
123.3349858824
 30
0.0
 11
162.9947789438
 21
123.3349858824
 31
0.0
  0
LINE
  5
1E3
330
1F
100
AcDbEntity
  8
0
  6
Continuous
 62
     7
370
    25
100
AcDbLine
 10
159.295912664
 20
123.6937335281
 30
0.0
 11
159.3495025025
 21
123.3349858824
 31
0.0
  0
LINE
  5
1E4
330
1F
100
AcDbEntity
  8
0
  6
Continuous
 62
     7
370
    25
100
AcDbLine
 10
159.2423228255
 20
123.3349858824
 30
0.0
 11
159.295912664
 21
123.6937335281
 31
0.0
  0
SPLINE
  5
1E5
330
1F
100
AcDbEntity
  8
0
  6
Continuous
 62
     7
370
    25
100
AcDbSpline
210
0.0
220
0.0
230
1.0
 70
    24
 71
     3
 72
    10
 73
     6
 74
     0
 42
0.000000001
 43
0.00000001
 40
0.0
 40
0.0
 40
0.0
 40
0.0
 40
0.2314536293865608
 40
0.6135486475542216
 40
1.0
 40
1.0
 40
1.0
 40
1.0
 10
154.8876015140832
 20
115.3349858823997
 30
0.0
 10
154.8942869108728
 20
115.3349858823997
 30
0.0
 10
154.9120088890052
 20
115.3349858823997
 30
0.0
 10
155.1363350123544
 20
115.3349858823997
 30
0.0
 10
155.4428967013091
 20
115.3349858823997
 30
0.0
 10
155.5970463841839
 20
115.3349858823997
 30
0.0
  0
SPLINE
  5
1E6
330
1F
100
AcDbEntity
  8
0
  6
Continuous
 62
     7
370
    25
100
AcDbSpline
210
0.0
220
0.0
230
1.0
 70
    24
 71
     3
 72
    10
 73
     6
 74
     0
 42
0.000000001
 43
0.00000001
 40
0.0
 40
0.0
 40
0.0
 40
0.0
 40
0.3824415361703794
 40
0.7685419602794608
 40
1.0
 40
1.0
 40
1.0
 40
1.0
 10
155.5970463841839
 20
131.3349858823997
 30
0.0
 10
155.4443107995937
 20
131.3349858823997
 30
0.0
 10
155.1373783812146
 20
131.3349858823997
 30
0.0
 10
154.9128578030411
 20
131.3349858823997
 30
0.0
 10
154.8933825181564
 20
131.3349858823997
 30
0.0
 10
154.8860832719693
 20
131.3349858823997
 30
0.0
  0
SPLINE
  5
1E7
330
1F
100
AcDbEntity
  8
0
  6
Continuous
 62
     7
370
    25
100
AcDbSpline
210
0.0
220
0.0
230
1.0
 70
     8
 71
     3
 72
    15
 73
    11
 74
     0
 42
0.000000001
 43
0.00000001
 40
0.0
 40
0.0
 40
0.0
 40
0.0
 40
0.1323049664163418
 40
0.2645725257576576
 40
0.3997989469058979
 40
0.5350009659368401
 40
0.6501921044151456
 40
0.7654012116808045
 40
0.8826892657702334
 40
1.0
 40
1.0
 40
1.0
 40
1.0
 10
155.5970463841839
 20
115.3349858823997
 30
0.0
 10
155.4882748566407
 20
115.6806169987569
 30
0.0
 10
155.2707625549326
 20
116.3717815099008
 30
0.0
 10
155.036727362137
 20
117.436113594403
 30
0.0
 10
154.896008106188
 20
118.5205084677018
 30
0.0
 10
154.8681388224645
 20
119.5656240334016
 30
0.0
 10
154.940440620819
 20
120.5542789842641
 30
0.0
 10
155.088590600798
 20
121.4873276205277
 30
0.0
 10
155.3059107595026
 20
122.4161576945593
 30
0.0
 10
155.4999949215112
 20
123.0286900806668
 30
0.0
 10
155.5970463841839
 20
123.3349858823997
 30
0.0
  0
LINE
  5
1E8
330
1F
100
AcDbEntity
  8
0
  6
Continuous
 62
     7
370
    25
100
AcDbLine
 10
154.795912664
 20
115.4849858824
 30
0.0
 11
154.795912664
 21
131.1849858824
 31
0.0
  0
LINE
  5
1E9
330
1F
100
AcDbEntity
  8
0
  6
Continuous
 62
     7
370
    25
100
AcDbLine
 10
159.3495025025
 20
123.3349858824
 30
0.0
 11
159.295912664
 21
122.9762382367
 31
0.0
  0
LINE
  5
1EA
330
1F
100
AcDbEntity
  8
0
  6
Continuous
 62
     7
370
    25
100
AcDbLine
 10
159.295912664
 20
122.9762382367
 30
0.0
 11
159.295912664
 21
123.6937335281
 31
0.0
  0
LINE
  5
1EB
330
1F
100
AcDbEntity
  8
0
  6
Continuous
 62
     7
370
    25
100
AcDbLine
 10
159.295912664
 20
122.9762382367
 30
0.0
 11
159.2423228255
 21
123.3349858824
 31
0.0
  0
LINE
  5
1EC
330
1F
100
AcDbEntity
  8
0
  6
Continuous
 62
     7
370
    25
100
AcDbLine
 10
155.5970463842
 20
115.3349858824
 30
0.0
 11
159.2423228255
 21
115.3349858824
 31
0.0
  0
LINE
  5
1ED
330
1F
100
AcDbEntity
  8
0
  6
Continuous
 62
     7
370
    25
100
AcDbLine
 10
159.3495025025
 20
115.3349858824
 30
0.0
 11
162.9947789438
 21
115.3349858824
 31
0.0
  0
LINE
  5
1EE
330
1F
100
AcDbEntity
  8
0
  6
Continuous
 62
     7
370
    25
100
AcDbLine
 10
159.295912664
 20
115.6937335281
 30
0.0
 11
159.3495025025
 21
115.3349858824
 31
0.0
  0
LINE
  5
1EF
330
1F
100
AcDbEntity
  8
0
  6
Continuous
 62
     7
370
    25
100
AcDbLine
 10
159.2423228255
 20
115.3349858824
 30
0.0
 11
159.295912664
 21
115.6937335281
 31
0.0
  0
LINE
  5
1F0
330
1F
100
AcDbEntity
  8
0
  6
Continuous
 62
     7
370
    25
100
AcDbLine
 10
165.795912664
 20
130.8849858824
 30
0.0
 11
165.795912664
 21
115.7849858901
 31
0.0
  0
LINE
  5
1F1
330
1F
100
AcDbEntity
  8
0
  6
Continuous
 62
     7
370
    25
100
AcDbLine
 10
152.795912664
 20
115.7849858824
 30
0.0
 11
152.795912664
 21
130.8849858747
 31
0.0
  0
LINE
  5
1F2
330
1F
100
AcDbEntity
  8
0
  6
Continuous
 62
     7
370
    25
100
AcDbLine
 10
159.295912664
 20
115.3349858824
 30
0.0
 11
159.295912664
 21
115.6937335281
 31
0.0
  0
LINE
  5
1F3
330
1F
100
AcDbEntity
  8
0
  6
Continuous
 62
     7
370
    25
100
AcDbLine
 10
159.295912664
 20
115.3349858824
 30
0.0
 11
159.2423228255
 21
115.3349858824
 31
0.0
  0
LINE
  5
1F4
330
1F
100
AcDbEntity
  8
0
  6
Continuous
 62
     7
370
    25
100
AcDbLine
 10
159.3495025025
 20
115.3349858824
 30
0.0
 11
159.295912664
 21
115.3349858824
 31
0.0
  0
LINE
  5
1F5
330
1F
100
AcDbEntity
  8
0
  6
Continuous
 62
     7
370
    25
100
AcDbLine
 10
159.295912664
 20
130.9762382367
 30
0.0
 11
159.295912664
 21
131.3349858824
 31
0.0
  0
LINE
  5
1F6
330
1F
100
AcDbEntity
  8
0
  6
Continuous
 62
     7
370
    25
100
AcDbLine
 10
159.295912664
 20
131.3349858824
 30
0.0
 11
159.3495025025
 21
131.3349858824
 31
0.0
  0
LINE
  5
1F7
330
1F
100
AcDbEntity
  8
0
  6
Continuous
 62
     7
370
    25
100
AcDbLine
 10
159.2423228255
 20
131.3349858824
 30
0.0
 11
159.295912664
 21
131.3349858824
 31
0.0
  0
LINE
  5
1F8
330
1F
100
AcDbEntity
  8
0
  6
Continuous
 62
     7
370
    25
100
AcDbLine
 10
138.4862091071
 20
131.3349858824
 30
0.0
 11
134.8409326658
 21
131.3349858824
 31
0.0
  0
SPLINE
  5
1F9
330
1F
100
AcDbEntity
  8
0
  6
Continuous
 62
     7
370
    25
100
AcDbSpline
210
0.0
220
0.0
230
1.0
 70
     8
 71
     3
 72
    15
 73
    11
 74
     0
 42
0.000000001
 43
0.00000001
 40
0.0
 40
0.0
 40
0.0
 40
0.0
 40
0.1323049664163419
 40
0.2645725257576577
 40
0.3997989469058979
 40
0.5350009659368401
 40
0.6501921044151456
 40
0.7654012116808045
 40
0.8826892657702334
 40
1.0
 40
1.0
 40
1.0
 40
1.0
 10
138.4862091071456
 20
131.3349858823996
 30
0.0
 10
138.5949806346888
 20
130.9893547660424
 30
0.0
 10
138.8124929363968
 20
130.2981902548985
 30
0.0
 10
139.0465281291924
 20
129.2338581703963
 30
0.0
 10
139.1872473851415
 20
128.1494632970975
 30
0.0
 10
139.215116668865
 20
127.1043477313977
 30
0.0
 10
139.1428148705105
 20
126.1156927805353
 30
0.0
 10
138.9946648905314
 20
125.1826441442716
 30
0.0
 10
138.7773447318268
 20
124.2538140702401
 30
0.0
 10
138.5832605698182
 20
123.6412816841325
 30
0.0
 10
138.4862091071456
 20
123.3349858823997
 30
0.0
  0
LINE
  5
1FA
330
1F
100
AcDbEntity
  8
0
  6
Continuous
 62
     7
370
    25
100
AcDbLine
 10
138.4862091071
 20
123.3349858824
 30
0.0
 11
134.8409326658
 21
123.3349858824
 31
0.0
  0
LINE
  5
1FB
330
1F
100
AcDbEntity
  8
0
  6
Continuous
 62
     7
370
    25
100
AcDbLine
 10
134.7873428273
 20
123.6937335281
 30
0.0
 11
134.8409326658
 21
123.3349858824
 31
0.0
  0
LINE
  5
1FC
330
1F
100
AcDbEntity
  8
0
  6
Continuous
 62
     7
370
    25
100
AcDbLine
 10
134.7337529889
 20
123.3349858824
 30
0.0
 11
134.7873428273
 21
123.6937335281
 31
0.0
  0
LINE
  5
1FD
330
1F
100
AcDbEntity
  8
0
  6
Continuous
 62
     7
370
    25
100
AcDbLine
 10
134.7337529889
 20
123.3349858824
 30
0.0
 11
131.0884765475
 21
123.3349858824
 31
0.0
  0
SPLINE
  5
1FE
330
1F
100
AcDbEntity
  8
0
  6
Continuous
 62
     7
370
    25
100
AcDbSpline
210
0.0
220
0.0
230
1.0
 70
     8
 71
     3
 72
    15
 73
    11
 74
     0
 42
0.000000001
 43
0.00000001
 40
0.0
 40
0.0
 40
0.0
 40
0.0
 40
0.1323049664163419
 40
0.2645725257576577
 40
0.399798946905898
 40
0.5350009659368402
 40
0.6501921044151457
 40
0.7654012116808045
 40
0.8826892657702335
 40
1.0
 40
1.0
 40
1.0
 40
1.0
 10
131.0884765475352
 20
131.3349858823996
 30
0.0
 10
130.9797050199919
 20
130.9893547660424
 30
0.0
 10
130.7621927182839
 20
130.2981902548985
 30
0.0
 10
130.5281575254883
 20
129.2338581703963
 30
0.0
 10
130.3874382695393
 20
128.1494632970975
 30
0.0
 10
130.3595689858158
 20
127.1043477313977
 30
0.0
 10
130.4318707841702
 20
126.1156927805353
 30
0.0
 10
130.5800207641493
 20
125.1826441442716
 30
0.0
 10
130.7973409228539
 20
124.2538140702401
 30
0.0
 10
130.9914250848625
 20
123.6412816841325
 30
0.0
 10
131.0884765475352
 20
123.3349858823997
 30
0.0
  0
LINE
  5
1FF
330
1F
100
AcDbEntity
  8
0
  6
Continuous
 62
     7
370
    25
100
AcDbLine
 10
134.7337529889
 20
131.3349858824
 30
0.0
 11
131.0884765475
 21
131.3349858824
 31
0.0
  0
LINE
  5
200
330
1F
100
AcDbEntity
  8
0
  6
Continuous
 62
     7
370
    25
100
AcDbLine
 10
134.7873428273
 20
130.9762382367
 30
0.0
 11
134.7337529889
 21
131.3349858824
 31
0.0
  0
LINE
  5
201
330
1F
100
AcDbEntity
  8
0
  6
Continuous
 62
     7
370
    25
100
AcDbLine
 10
134.8409326658
 20
131.3349858824
 30
0.0
 11
134.7873428273
 21
130.9762382367
 31
0.0
  0
SPLINE
  5
202
330
1F
100
AcDbEntity
  8
0
  6
Continuous
 62
     7
370
    25
100
AcDbSpline
210
0.0
220
0.0
230
1.0
 70
     8
 71
     3
 72
    15
 73
    11
 74
     0
 42
0.000000001
 43
0.00000001
 40
0.0
 40
0.0
 40
0.0
 40
0.0
 40
0.13230496641634
 40
0.264572525757654
 40
0.3997989469058927
 40
0.5350009659368332
 40
0.6501921044151406
 40
0.7654012116808016
 40
0.8826892657702319
 40
1.0
 40
1.0
 40
1.0
 40
1.0
 10
131.0884765475352
 20
123.3349858823997
 30
0.0
 10
130.9797050199919
 20
122.9893547660425
 30
0.0
 10
130.7621927182839
 20
122.2981902548986
 30
0.0
 10
130.5281575254883
 20
121.2338581703964
 30
0.0
 10
130.3874382695393
 20
120.1494632970976
 30
0.0
 10
130.3595689858157
 20
119.1043477313978
 30
0.0
 10
130.4318707841702
 20
118.1156927805353
 30
0.0
 10
130.5800207641493
 20
117.1826441442717
 30
0.0
 10
130.7973409228539
 20
116.2538140702401
 30
0.0
 10
130.9914250848625
 20
115.6412816841325
 30
0.0
 10
131.0884765475352
 20
115.3349858823996
 30
0.0
  0
SPLINE
  5
203
330
1F
100
AcDbEntity
  8
0
  6
Continuous
 62
     7
370
    25
100
AcDbSpline
210
0.0
220
0.0
230
1.0
 70
    24
 71
     3
 72
    10
 73
     6
 74
     0
 42
0.000000001
 43
0.00000001
 40
0.0
 40
0.0
 40
0.0
 40
0.0
 40
0.3824415361703843
 40
0.7685419602794705
 40
1.0
 40
1.0
 40
1.0
 40
1.0
 10
131.0884765475352
 20
115.3349858823996
 30
0.0
 10
130.9357409629449
 20
115.3349858823996
 30
0.0
 10
130.6288085445659
 20
115.3349858823997
 30
0.0
 10
130.4042879663924
 20
115.3349858823997
 30
0.0
 10
130.3848126815077
 20
115.3349858823997
 30
0.0
 10
130.3775134353206
 20
115.3349858823997
 30
0.0
  0
SPLINE
  5
204
330
1F
100
AcDbEntity
  8
0
  6
Continuous
 62
     7
370
    25
100
AcDbSpline
210
0.0
220
0.0
230
1.0
 70
    24
 71
     3
 72
    10
 73
     6
 74
     0
 42
0.000000001
 43
0.00000001
 40
0.0
 40
0.0
 40
0.0
 40
0.0
 40
0.2314536293865702
 40
0.6135486475542262
 40
1.0
 40
1.0
 40
1.0
 40
1.0
 10
130.3790316774345
 20
131.3349858823997
 30
0.0
 10
130.3857170742241
 20
131.3349858823997
 30
0.0
 10
130.4034390523564
 20
131.3349858823997
 30
0.0
 10
130.6277651757057
 20
131.3349858823996
 30
0.0
 10
130.9343268646604
 20
131.3349858823996
 30
0.0
 10
131.0884765475352
 20
131.3349858823996
 30
0.0
  0
LINE
  5
205
330
1F
100
AcDbEntity
  8
0
  6
Continuous
 62
     7
370
    25
100
AcDbLine
 10
130.2873428273
 20
131.1849858824
 30
0.0
 11
130.2873428273
 21
115.4849858824
 31
0.0
  0
SPLINE
  5
206
330
1F
100
AcDbEntity
  8
0
  6
Continuous
 62
     7
370
    25
100
AcDbSpline
210
0.0
220
0.0
230
1.0
 70
    24
 71
     3
 72
    10
 73
     6
 74
     0
 42
0.000000001
 43
0.00000001
 40
0.0
 40
0.0
 40
0.0
 40
0.0
 40
0.2314536293865702
 40
0.6135486475542262
 40
1.0
 40
1.0
 40
1.0
 40
1.0
 10
139.1956539772463
 20
131.3349858823997
 30
0.0
 10
139.1889685804566
 20
131.3349858823997
 30
0.0
 10
139.1712466023243
 20
131.3349858823997
 30
0.0
 10
138.946920478975
 20
131.3349858823996
 30
0.0
 10
138.6403587900203
 20
131.3349858823996
 30
0.0
 10
138.4862091071456
 20
131.3349858823996
 30
0.0
  0
SPLINE
  5
207
330
1F
100
AcDbEntity
  8
0
  6
Continuous
 62
     7
370
    25
100
AcDbSpline
210
0.0
220
0.0
230
1.0
 70
    24
 71
     3
 72
    10
 73
     6
 74
     0
 42
0.000000001
 43
0.00000001
 40
0.0
 40
0.0
 40
0.0
 40
0.0
 40
0.3824415361703842
 40
0.7685419602794704
 40
1.0
 40
1.0
 40
1.0
 40
1.0
 10
138.4862091071456
 20
115.3349858823996
 30
0.0
 10
138.6389446917358
 20
115.3349858823997
 30
0.0
 10
138.9458771101148
 20
115.3349858823997
 30
0.0
 10
139.1703976882884
 20
115.3349858823997
 30
0.0
 10
139.189872973173
 20
115.3349858823997
 30
0.0
 10
139.1971722193601
 20
115.3349858823997
 30
0.0
  0
SPLINE
  5
208
330
1F
100
AcDbEntity
  8
0
  6
Continuous
 62
     7
370
    25
100
AcDbSpline
210
0.0
220
0.0
230
1.0
 70
     8
 71
     3
 72
    15
 73
    11
 74
     0
 42
0.000000001
 43
0.00000001
 40
0.0
 40
0.0
 40
0.0
 40
0.0
 40
0.13230496641634
 40
0.264572525757654
 40
0.3997989469058927
 40
0.5350009659368332
 40
0.6501921044151406
 40
0.7654012116808016
 40
0.8826892657702319
 40
1.0
 40
1.0
 40
1.0
 40
1.0
 10
138.4862091071456
 20
123.3349858823997
 30
0.0
 10
138.5949806346888
 20
122.9893547660425
 30
0.0
 10
138.8124929363969
 20
122.2981902548986
 30
0.0
 10
139.0465281291924
 20
121.2338581703964
 30
0.0
 10
139.1872473851415
 20
120.1494632970976
 30
0.0
 10
139.215116668865
 20
119.1043477313978
 30
0.0
 10
139.1428148705105
 20
118.1156927805353
 30
0.0
 10
138.9946648905315
 20
117.1826441442717
 30
0.0
 10
138.7773447318268
 20
116.2538140702401
 30
0.0
 10
138.5832605698182
 20
115.6412816841325
 30
0.0
 10
138.4862091071456
 20
115.3349858823996
 30
0.0
  0
LINE
  5
209
330
1F
100
AcDbEntity
  8
0
  6
Continuous
 62
     7
370
    25
100
AcDbLine
 10
139.2873428273
 20
131.1849858824
 30
0.0
 11
139.2873428273
 21
115.4849858824
 31
0.0
  0
LINE
  5
20A
330
1F
100
AcDbEntity
  8
0
  6
Continuous
 62
     7
370
    25
100
AcDbLine
 10
134.7873428273
 20
123.6937335281
 30
0.0
 11
134.7873428273
 21
122.9762382367
 31
0.0
  0
LINE
  5
20B
330
1F
100
AcDbEntity
  8
0
  6
Continuous
 62
     7
370
    25
100
AcDbLine
 10
134.7873428273
 20
122.9762382367
 30
0.0
 11
134.7337529889
 21
123.3349858824
 31
0.0
  0
LINE
  5
20C
330
1F
100
AcDbEntity
  8
0
  6
Continuous
 62
     7
370
    25
100
AcDbLine
 10
134.8409326658
 20
123.3349858824
 30
0.0
 11
134.7873428273
 21
122.9762382367
 31
0.0
  0
LINE
  5
20D
330
1F
100
AcDbEntity
  8
0
  6
Continuous
 62
     7
370
    25
100
AcDbLine
 10
138.4862091071
 20
115.3349858824
 30
0.0
 11
134.8409326658
 21
115.3349858824
 31
0.0
  0
LINE
  5
20E
330
1F
100
AcDbEntity
  8
0
  6
Continuous
 62
     7
370
    25
100
AcDbLine
 10
134.7873428273
 20
115.6937335281
 30
0.0
 11
134.8409326658
 21
115.3349858824
 31
0.0
  0
LINE
  5
20F
330
1F
100
AcDbEntity
  8
0
  6
Continuous
 62
     7
370
    25
100
AcDbLine
 10
134.7337529889
 20
115.3349858824
 30
0.0
 11
134.7873428273
 21
115.6937335281
 31
0.0
  0
LINE
  5
210
330
1F
100
AcDbEntity
  8
0
  6
Continuous
 62
     7
370
    25
100
AcDbLine
 10
134.7337529889
 20
115.3349858824
 30
0.0
 11
131.0884765475
 21
115.3349858824
 31
0.0
  0
LINE
  5
211
330
1F
100
AcDbEntity
  8
0
  6
Continuous
 62
     7
370
    25
100
AcDbLine
 10
141.2873428273
 20
130.8849858824
 30
0.0
 11
141.2873428273
 21
115.7849858901
 31
0.0
  0
LINE
  5
212
330
1F
100
AcDbEntity
  8
0
  6
Continuous
 62
     7
370
    25
100
AcDbLine
 10
128.2873428273
 20
115.7849858824
 30
0.0
 11
128.2873428273
 21
130.8849858747
 31
0.0
  0
LINE
  5
213
330
1F
100
AcDbEntity
  8
0
  6
Continuous
 62
     7
370
    25
100
AcDbLine
 10
134.7337529889
 20
131.3349858824
 30
0.0
 11
134.7873428273
 21
131.3349858824
 31
0.0
  0
LINE
  5
214
330
1F
100
AcDbEntity
  8
0
  6
Continuous
 62
     7
370
    25
100
AcDbLine
 10
134.7873428273
 20
131.3349858824
 30
0.0
 11
134.7873428273
 21
130.9762382367
 31
0.0
  0
LINE
  5
215
330
1F
100
AcDbEntity
  8
0
  6
Continuous
 62
     7
370
    25
100
AcDbLine
 10
134.7873428273
 20
131.3349858824
 30
0.0
 11
134.8409326658
 21
131.3349858824
 31
0.0
  0
LINE
  5
216
330
1F
100
AcDbEntity
  8
0
  6
Continuous
 62
     7
370
    25
100
AcDbLine
 10
134.8409326658
 20
115.3349858824
 30
0.0
 11
134.7873428273
 21
115.3349858824
 31
0.0
  0
LINE
  5
217
330
1F
100
AcDbEntity
  8
0
  6
Continuous
 62
     7
370
    25
100
AcDbLine
 10
134.7873428273
 20
115.6937335281
 30
0.0
 11
134.7873428273
 21
115.3349858824
 31
0.0
  0
LINE
  5
218
330
1F
100
AcDbEntity
  8
0
  6
Continuous
 62
     7
370
    25
100
AcDbLine
 10
134.7873428273
 20
115.3349858824
 30
0.0
 11
134.7337529889
 21
115.3349858824
 31
0.0
  0
LINE
  5
219
330
1F
100
AcDbEntity
  8
0
  6
Continuous
 62
     7
370
    25
100
AcDbLine
 10
145.3111800953
 20
123.3349858824
 30
0.0
 11
146.9612429879
 21
123.3349858824
 31
0.0
  0
SPLINE
  5
21A
330
1F
100
AcDbEntity
  8
0
  6
Continuous
 62
     7
370
    25
100
AcDbSpline
210
0.0
220
0.0
230
1.0
 70
     8
 71
     3
 72
    16
 73
    12
 74
     0
 42
0.000000001
 43
0.00000001
 40
0.0
 40
0.0
 40
0.0
 40
0.0
 40
0.2499999999999999
 40
0.2499999999999999
 40
0.4999999999999999
 40
0.4999999999999999
 40
0.6249999999999999
 40
0.6249999999999999
 40
0.7499999999999999
 40
0.7499999999999999
 40
1.0
 40
1.0
 40
1.0
 40
1.0
 10
145.3111800953009
 20
123.3349858823996
 30
0.0
 10
145.1206856243162
 20
123.906469295354
 30
0.0
 10
144.9636836111031
 20
124.4821193972864
 30
0.0
 10
144.746184800265
 20
125.6454255047148
 30
0.0
 10
144.686405439195
 20
126.2331707641857
 30
0.0
 10
144.685748938341
 20
127.1258624173716
 30
0.0
 10
144.7003627048245
 20
127.4248260962883
 30
0.0
 10
144.7573485627013
 20
128.0162078462228
 30
0.0
 10
144.7996628319605
 20
128.309916036542
 30
0.0
 10
144.9630576518507
 20
129.1858115310765
 30
0.0
 10
145.1204481791642
 20
129.7627901339887
 30
0.0
 10
145.3111800953012
 20
130.3349858823997
 30
0.0
  0
LINE
  5
21B
330
1F
100
AcDbEntity
  8
0
  6
Continuous
 62
     7
370
    25
100
AcDbLine
 10
145.3111800953
 20
130.3349858824
 30
0.0
 11
146.9612429879
 21
130.3349858824
 31
0.0
  0
SPLINE
  5
21C
330
1F
100
AcDbEntity
  8
0
  6
Continuous
 62
     7
370
    25
100
AcDbSpline
210
0.0
220
0.0
230
1.0
 70
     8
 71
     3
 72
     8
 73
     4
 74
     0
 42
0.000000001
 43
0.00000001
 40
0.0
 40
0.0
 40
0.0
 40
0.0
 40
1.0
 40
1.0
 40
1.0
 40
1.0
 10
147.0416277456647
 20
129.7812026605926
 30
0.0
 10
147.016627332742
 20
129.9660584067608
 30
0.0
 10
146.9897610212818
 20
130.1506424169845
 30
0.0
 10
146.9612429879354
 20
130.3349858823997
 30
0.0
  0
SPLINE
  5
21D
330
1F
100
AcDbEntity
  8
0
  6
Continuous
 62
     7
370
    25
100
AcDbSpline
210
0.0
220
0.0
230
1.0
 70
     8
 71
     3
 72
     8
 73
     4
 74
     0
 42
0.000000001
 43
0.00000001
 40
0.0
 40
0.0
 40
0.0
 40
0.0
 40
1.0
 40
1.0
 40
1.0
 40
1.0
 10
147.1220125033941
 20
130.3349858823997
 30
0.0
 10
147.093478688556
 20
130.1505404038187
 30
0.0
 10
147.0666137667492
 20
129.9659519919585
 30
0.0
 10
147.0416277456647
 20
129.7812026605926
 30
0.0
  0
LINE
  5
21E
330
1F
100
AcDbEntity
  8
0
  6
Continuous
 62
     7
370
    25
100
AcDbLine
 10
147.1220125034
 20
130.3349858824
 30
0.0
 11
148.772075396
 21
130.3349858824
 31
0.0
  0
SPLINE
  5
21F
330
1F
100
AcDbEntity
  8
0
  6
Continuous
 62
     7
370
    25
100
AcDbSpline
210
0.0
220
0.0
230
1.0
 70
     8
 71
     3
 72
    16
 73
    12
 74
     0
 42
0.000000001
 43
0.00000001
 40
0.0
 40
0.0
 40
0.0
 40
0.0
 40
0.2499999999999999
 40
0.2499999999999999
 40
0.4999999999999999
 40
0.4999999999999999
 40
0.6249999999999999
 40
0.6249999999999999
 40
0.7499999999999999
 40
0.7499999999999999
 40
1.0
 40
1.0
 40
1.0
 40
1.0
 10
148.7720753960286
 20
123.3349858823996
 30
0.0
 10
148.9625698670133
 20
123.906469295354
 30
0.0
 10
149.1195718802264
 20
124.4821193972864
 30
0.0
 10
149.3370706910644
 20
125.6454255047148
 30
0.0
 10
149.3968500521345
 20
126.2331707641857
 30
0.0
 10
149.3975065529885
 20
127.1258624173716
 30
0.0
 10
149.382892786505
 20
127.4248260962883
 30
0.0
 10
149.3259069286281
 20
128.0162078462228
 30
0.0
 10
149.2835926593689
 20
128.309916036542
 30
0.0
 10
149.1201978394787
 20
129.1858115310765
 30
0.0
 10
148.9628073121653
 20
129.7627901339887
 30
0.0
 10
148.7720753960283
 20
130.3349858823997
 30
0.0
  0
LINE
  5
220
330
1F
100
AcDbEntity
  8
0
  6
Continuous
 62
     7
370
    25
100
AcDbLine
 10
147.1220125034
 20
123.3349858824
 30
0.0
 11
148.772075396
 21
123.3349858824
 31
0.0
  0
SPLINE
  5
221
330
1F
100
AcDbEntity
  8
0
  6
Continuous
 62
     7
370
    25
100
AcDbSpline
210
0.0
220
0.0
230
1.0
 70
     8
 71
     3
 72
     8
 73
     4
 74
     0
 42
0.000000001
 43
0.00000001
 40
0.0
 40
0.0
 40
0.0
 40
0.0
 40
1.0
 40
1.0
 40
1.0
 40
1.0
 10
147.0416277456647
 20
123.8887691042068
 30
0.0
 10
147.0666281585874
 20
123.7039133580386
 30
0.0
 10
147.0934944700477
 20
123.5193293478148
 30
0.0
 10
147.1220125033941
 20
123.3349858823997
 30
0.0
  0
SPLINE
  5
222
330
1F
100
AcDbEntity
  8
0
  6
Continuous
 62
     7
370
    25
100
AcDbSpline
210
0.0
220
0.0
230
1.0
 70
     8
 71
     3
 72
     8
 73
     4
 74
     0
 42
0.000000001
 43
0.00000001
 40
0.0
 40
0.0
 40
0.0
 40
0.0
 40
1.0
 40
1.0
 40
1.0
 40
1.0
 10
146.9612429879354
 20
123.3349858823997
 30
0.0
 10
146.9897768027735
 20
123.5194313609806
 30
0.0
 10
147.0166417245803
 20
123.7040197728409
 30
0.0
 10
147.0416277456647
 20
123.8887691042068
 30
0.0
  0
SPLINE
  5
223
330
1F
100
AcDbEntity
  8
0
  6
Continuous
 62
     7
370
    25
100
AcDbSpline
210
0.0
220
0.0
230
1.0
 70
     8
 71
     3
 72
    16
 73
    12
 74
     0
 42
0.000000001
 43
0.00000001
 40
0.0
 40
0.0
 40
0.0
 40
0.0
 40
0.2499999999999999
 40
0.2499999999999999
 40
0.4999999999999998
 40
0.4999999999999998
 40
0.6249999999999998
 40
0.6249999999999998
 40
0.7499999999999999
 40
0.7499999999999999
 40
1.0
 40
1.0
 40
1.0
 40
1.0
 10
148.7720753960286
 20
116.3349858823996
 30
0.0
 10
148.9625698670133
 20
116.906469295354
 30
0.0
 10
149.1195718802264
 20
117.4821193972864
 30
0.0
 10
149.3370706910644
 20
118.6454255047148
 30
0.0
 10
149.3968500521345
 20
119.2331707641857
 30
0.0
 10
149.3975065529884
 20
120.1258624173716
 30
0.0
 10
149.382892786505
 20
120.4248260962883
 30
0.0
 10
149.3259069286281
 20
121.0162078462228
 30
0.0
 10
149.2835926593689
 20
121.309916036542
 30
0.0
 10
149.1201978394787
 20
122.1858115310765
 30
0.0
 10
148.9628073121653
 20
122.7627901339887
 30
0.0
 10
148.7720753960283
 20
123.3349858823997
 30
0.0
  0
SPLINE
  5
224
330
1F
100
AcDbEntity
  8
0
  6
Continuous
 62
     7
370
    25
100
AcDbSpline
210
0.0
220
0.0
230
1.0
 70
    24
 71
     3
 72
    10
 73
     6
 74
     0
 42
0.000000001
 43
0.00000001
 40
0.0
 40
0.0
 40
0.0
 40
0.0
 40
0.3847217023221219
 40
0.7731788796556208
 40
1.0
 40
1.0
 40
1.0
 40
1.0
 10
148.772075396028
 20
130.3349858823997
 30
0.0
 10
148.9064219948072
 20
130.3349858823997
 30
0.0
 10
149.1764196375258
 20
130.3349858823997
 30
0.0
 10
149.3718757408467
 20
130.3349858823997
 30
0.0
 10
149.3876425870105
 20
130.3349858823997
 30
0.0
 10
149.3934550034807
 20
130.3349858823997
 30
0.0
  0
SPLINE
  5
225
330
1F
100
AcDbEntity
  8
0
  6
Continuous
 62
     7
370
    25
100
AcDbSpline
210
0.0
220
0.0
230
1.0
 70
    24
 71
     3
 72
    10
 73
     6
 74
     0
 42
0.000000001
 43
0.00000001
 40
0.0
 40
0.0
 40
0.0
 40
0.0
 40
0.2268163306113477
 40
0.6111832424638556
 40
1.0
 40
1.0
 40
1.0
 40
1.0
 10
149.392151362616
 20
116.3349858823997
 30
0.0
 10
149.3868648442949
 20
116.3349858823997
 30
0.0
 10
149.3726196997759
 20
116.3349858823997
 30
0.0
 10
149.1773490607087
 20
116.3349858823997
 30
0.0
 10
148.9076839453579
 20
116.3349858823997
 30
0.0
 10
148.772075396028
 20
116.3349858823997
 30
0.0
  0
LINE
  5
226
330
1F
100
AcDbEntity
  8
0
  6
Continuous
 62
     7
370
    25
100
AcDbLine
 10
149.5416277457
 20
116.5849858824
 30
0.0
 11
149.5416277457
 21
130.0849858824
 31
0.0
  0
SPLINE
  5
227
330
1F
100
AcDbEntity
  8
0
  6
Continuous
 62
     7
370
    25
100
AcDbSpline
210
0.0
220
0.0
230
1.0
 70
    24
 71
     3
 72
    10
 73
     6
 74
     0
 42
0.000000001
 43
0.00000001
 40
0.0
 40
0.0
 40
0.0
 40
0.0
 40
0.2268163306113477
 40
0.6111832424638556
 40
1.0
 40
1.0
 40
1.0
 40
1.0
 10
144.6911041287135
 20
116.3349858823997
 30
0.0
 10
144.6963906470346
 20
116.3349858823997
 30
0.0
 10
144.7106357915536
 20
116.3349858823997
 30
0.0
 10
144.9059064306208
 20
116.3349858823997
 30
0.0
 10
145.1755715459716
 20
116.3349858823997
 30
0.0
 10
145.3111800953014
 20
116.3349858823997
 30
0.0
  0
SPLINE
  5
228
330
1F
100
AcDbEntity
  8
0
  6
Continuous
 62
     7
370
    25
100
AcDbSpline
210
0.0
220
0.0
230
1.0
 70
    24
 71
     3
 72
    10
 73
     6
 74
     0
 42
0.000000001
 43
0.00000001
 40
0.0
 40
0.0
 40
0.0
 40
0.0
 40
0.384721702322122
 40
0.7731788796556208
 40
1.0
 40
1.0
 40
1.0
 40
1.0
 10
145.3111800953014
 20
130.3349858823997
 30
0.0
 10
145.1768334965222
 20
130.3349858823997
 30
0.0
 10
144.9068358538037
 20
130.3349858823997
 30
0.0
 10
144.7113797504828
 20
130.3349858823997
 30
0.0
 10
144.6956129043189
 20
130.3349858823997
 30
0.0
 10
144.6898004878488
 20
130.3349858823997
 30
0.0
  0
SPLINE
  5
229
330
1F
100
AcDbEntity
  8
0
  6
Continuous
 62
     7
370
    25
100
AcDbSpline
210
0.0
220
0.0
230
1.0
 70
     8
 71
     3
 72
    16
 73
    12
 74
     0
 42
0.000000001
 43
0.00000001
 40
0.0
 40
0.0
 40
0.0
 40
0.0
 40
0.2499999999999999
 40
0.2499999999999999
 40
0.4999999999999998
 40
0.4999999999999998
 40
0.6249999999999998
 40
0.6249999999999998
 40
0.7499999999999999
 40
0.7499999999999999
 40
1.0
 40
1.0
 40
1.0
 40
1.0
 10
145.3111800953009
 20
116.3349858823996
 30
0.0
 10
145.1206856243162
 20
116.906469295354
 30
0.0
 10
144.9636836111031
 20
117.4821193972864
 30
0.0
 10
144.746184800265
 20
118.6454255047148
 30
0.0
 10
144.686405439195
 20
119.2331707641857
 30
0.0
 10
144.685748938341
 20
120.1258624173716
 30
0.0
 10
144.7003627048245
 20
120.4248260962883
 30
0.0
 10
144.7573485627013
 20
121.0162078462228
 30
0.0
 10
144.7996628319606
 20
121.309916036542
 30
0.0
 10
144.9630576518507
 20
122.1858115310765
 30
0.0
 10
145.1204481791642
 20
122.7627901339887
 30
0.0
 10
145.3111800953012
 20
123.3349858823997
 30
0.0
  0
LINE
  5
22A
330
1F
100
AcDbEntity
  8
0
  6
Continuous
 62
     7
370
    25
100
AcDbLine
 10
144.5416277457
 20
116.5849858824
 30
0.0
 11
144.5416277457
 21
130.0849858824
 31
0.0
  0
SPLINE
  5
22B
330
1F
100
AcDbEntity
  8
0
  6
Continuous
 62
     7
370
    25
100
AcDbSpline
210
0.0
220
0.0
230
1.0
 70
     8
 71
     3
 72
     8
 73
     4
 74
     0
 42
0.000000001
 43
0.00000001
 40
0.0
 40
0.0
 40
0.0
 40
0.0
 40
1.0
 40
1.0
 40
1.0
 40
1.0
 10
147.0416277456647
 20
122.7812026605926
 30
0.0
 10
147.016627332742
 20
122.9660584067608
 30
0.0
 10
146.9897610212818
 20
123.1506424169845
 30
0.0
 10
146.9612429879354
 20
123.3349858823997
 30
0.0
  0
LINE
  5
22C
330
1F
100
AcDbEntity
  8
0
  6
Continuous
 62
     7
370
    25
100
AcDbLine
 10
147.0416277457
 20
122.7812026606
 30
0.0
 11
147.0416277457
 21
123.8887691042
 31
0.0
  0
SPLINE
  5
22D
330
1F
100
AcDbEntity
  8
0
  6
Continuous
 62
     7
370
    25
100
AcDbSpline
210
0.0
220
0.0
230
1.0
 70
     8
 71
     3
 72
     8
 73
     4
 74
     0
 42
0.000000001
 43
0.00000001
 40
0.0
 40
0.0
 40
0.0
 40
0.0
 40
1.0
 40
1.0
 40
1.0
 40
1.0
 10
147.1220125033941
 20
123.3349858823997
 30
0.0
 10
147.093478688556
 20
123.1505404038187
 30
0.0
 10
147.0666137667492
 20
122.9659519919585
 30
0.0
 10
147.0416277456647
 20
122.7812026605926
 30
0.0
  0
LINE
  5
22E
330
1F
100
AcDbEntity
  8
0
  6
Continuous
 62
     7
370
    25
100
AcDbLine
 10
145.3111800953
 20
116.3349858824
 30
0.0
 11
146.9612429879
 21
116.3349858824
 31
0.0
  0
LINE
  5
22F
330
1F
100
AcDbEntity
  8
0
  6
Continuous
 62
     7
370
    25
100
AcDbLine
 10
147.1220125034
 20
116.3349858824
 30
0.0
 11
148.772075396
 21
116.3349858824
 31
0.0
  0
SPLINE
  5
230
330
1F
100
AcDbEntity
  8
0
  6
Continuous
 62
     7
370
    25
100
AcDbSpline
210
0.0
220
0.0
230
1.0
 70
     8
 71
     3
 72
     8
 73
     4
 74
     0
 42
0.000000001
 43
0.00000001
 40
0.0
 40
0.0
 40
0.0
 40
0.0
 40
1.0
 40
1.0
 40
1.0
 40
1.0
 10
147.0416277456647
 20
116.8887691042068
 30
0.0
 10
147.0666281585874
 20
116.7039133580386
 30
0.0
 10
147.0934944700477
 20
116.5193293478149
 30
0.0
 10
147.1220125033941
 20
116.3349858823997
 30
0.0
  0
SPLINE
  5
231
330
1F
100
AcDbEntity
  8
0
  6
Continuous
 62
     7
370
    25
100
AcDbSpline
210
0.0
220
0.0
230
1.0
 70
     8
 71
     3
 72
     8
 73
     4
 74
     0
 42
0.000000001
 43
0.00000001
 40
0.0
 40
0.0
 40
0.0
 40
0.0
 40
1.0
 40
1.0
 40
1.0
 40
1.0
 10
146.9612429879354
 20
116.3349858823997
 30
0.0
 10
146.9897768027735
 20
116.5194313609807
 30
0.0
 10
147.0166417245803
 20
116.7040197728409
 30
0.0
 10
147.0416277456647
 20
116.8887691042068
 30
0.0
  0
LINE
  5
232
330
1F
100
AcDbEntity
  8
0
  6
Continuous
 62
     7
370
    25
100
AcDbLine
 10
141.5416277457
 20
116.7564858824
 30
0.0
 11
141.5416277457
 21
129.9134858824
 31
0.0
  0
LINE
  5
233
330
1F
100
AcDbEntity
  8
0
  6
Continuous
 62
     7
370
    25
100
AcDbLine
 10
142.5416277457
 20
128.9134858824
 30
0.0
 11
142.5416277457
 21
117.7564858824
 31
0.0
  0
LINE
  5
234
330
1F
100
AcDbEntity
  8
0
  6
Continuous
 62
     7
370
    25
100
AcDbLine
 10
152.5416277457
 20
129.9134858824
 30
0.0
 11
152.5416277457
 21
116.7564858824
 31
0.0
  0
LINE
  5
235
330
1F
100
AcDbEntity
  8
0
  6
Continuous
 62
     7
370
    25
100
AcDbLine
 10
151.5416277457
 20
117.7564858824
 30
0.0
 11
151.5416277457
 21
128.9134858824
 31
0.0
  0
LINE
  5
236
330
1F
100
AcDbEntity
  8
0
  6
Continuous
 62
     7
370
    25
100
AcDbLine
 10
147.0416277457
 20
116.3349858824
 30
0.0
 11
147.0416277457
 21
116.8887691042
 31
0.0
  0
SPLINE
  5
237
330
1F
100
AcDbEntity
  8
0
  6
Continuous
 62
     7
370
    25
100
AcDbSpline
210
0.0
220
0.0
230
1.0
 70
    24
 71
     3
 72
     8
 73
     4
 74
     0
 42
0.000000001
 43
0.00000001
 40
0.0
 40
0.0
 40
0.0
 40
0.0
 40
1.0
 40
1.0
 40
1.0
 40
1.0
 10
147.0416277456647
 20
116.3349858823997
 30
0.0
 10
147.0166280736705
 20
116.3349858823997
 30
0.0
 10
146.9897618328835
 20
116.3349858823997
 30
0.0
 10
146.9612429879354
 20
116.3349858823997
 30
0.0
  0
SPLINE
  5
238
330
1F
100
AcDbEntity
  8
0
  6
Continuous
 62
     7
370
    25
100
AcDbSpline
210
0.0
220
0.0
230
1.0
 70
    24
 71
     3
 72
     8
 73
     4
 74
     0
 42
0.000000001
 43
0.00000001
 40
0.0
 40
0.0
 40
0.0
 40
0.0
 40
1.0
 40
1.0
 40
1.0
 40
1.0
 10
147.1220125033941
 20
116.3349858823997
 30
0.0
 10
147.0934763730784
 20
116.3349858823997
 30
0.0
 10
147.066611657895
 20
116.3349858823997
 30
0.0
 10
147.0416277456647
 20
116.3349858823997
 30
0.0
  0
LINE
  5
239
330
1F
100
AcDbEntity
  8
0
  6
Continuous
 62
     7
370
    25
100
AcDbLine
 10
147.0416277457
 20
129.7812026606
 30
0.0
 11
147.0416277457
 21
130.3349858824
 31
0.0
  0
SPLINE
  5
23A
330
1F
100
AcDbEntity
  8
0
  6
Continuous
 62
     7
370
    25
100
AcDbSpline
210
0.0
220
0.0
230
1.0
 70
    24
 71
     3
 72
     8
 73
     4
 74
     0
 42
0.000000001
 43
0.00000001
 40
0.0
 40
0.0
 40
0.0
 40
0.0
 40
1.0
 40
1.0
 40
1.0
 40
1.0
 10
147.0416277456647
 20
130.3349858823997
 30
0.0
 10
147.066627417659
 20
130.3349858823997
 30
0.0
 10
147.093493658446
 20
130.3349858823997
 30
0.0
 10
147.1220125033941
 20
130.3349858823997
 30
0.0
  0
SPLINE
  5
23B
330
1F
100
AcDbEntity
  8
0
  6
Continuous
 62
     7
370
    25
100
AcDbSpline
210
0.0
220
0.0
230
1.0
 70
    24
 71
     3
 72
     8
 73
     4
 74
     0
 42
0.000000001
 43
0.00000001
 40
0.0
 40
0.0
 40
0.0
 40
0.0
 40
1.0
 40
1.0
 40
1.0
 40
1.0
 10
146.9612429879354
 20
130.3349858823997
 30
0.0
 10
146.989779118251
 20
130.3349858823997
 30
0.0
 10
147.0166438334345
 20
130.3349858823997
 30
0.0
 10
147.0416277456647
 20
130.3349858823997
 30
0.0
  0
LINE
  5
23C
330
1F
100
AcDbEntity
  8
0
  6
Continuous
 62
     8
370
    25
100
AcDbLine
 10
191.0898046999
 20
119.9015367594
 30
0.0
 11
191.0898046999
 21
126.7684350054
 31
0.0
  0
LINE
  5
23D
330
1F
100
AcDbEntity
  8
0
  6
Continuous
 62
     8
370
    25
100
AcDbLine
 10
102.9934507915
 20
126.7684350054
 30
0.0
 11
102.9934507915
 21
119.9015367594
 31
0.0
  0
LINE
  5
23E
330
1F
100
AcDbEntity
  8
0
  6
Continuous
 62
     8
370
    25
100
AcDbLine
 10
153.095912664
 20
131.1849858824
 30
0.0
 11
153.095912664
 21
115.4849858824
 31
0.0
  0
LINE
  5
23F
330
1F
100
AcDbEntity
  8
0
  6
Continuous
 62
     8
370
    25
100
AcDbLine
 10
165.495912664
 20
115.4849858824
 30
0.0
 11
165.495912664
 21
131.1849858824
 31
0.0
  0
LINE
  5
240
330
1F
100
AcDbEntity
  8
0
  6
Continuous
 62
     8
370
    25
100
AcDbLine
 10
128.5873428273
 20
131.1849858824
 30
0.0
 11
128.5873428273
 21
115.4849858824
 31
0.0
  0
LINE
  5
241
330
1F
100
AcDbEntity
  8
0
  6
Continuous
 62
     8
370
    25
100
AcDbLine
 10
140.9873428273
 20
115.4849858824
 30
0.0
 11
140.9873428273
 21
131.1849858824
 31
0.0
  0
LINE
  5
242
330
1F
100
AcDbEntity
  8
0
  6
CENTERX2
 62
     7
370
    18
100
AcDbLine
 10
100.7892178929
 20
123.3349858824
 30
0.0
 11
193.795912664
 21
123.3349858824
 31
0.0
  0
ENDSEC
  0
SECTION
  2
OBJECTS
  0
DICTIONARY
  5
C
330
0
100
AcDbDictionary
281
     1
  3
ACAD_GROUP
350
D
  3
ACAD_LAYOUT
350
1A
  3
ACAD_MLINESTYLE
350
17
  3
ACAD_PLOTSETTINGS
350
19
  3
ACAD_PLOTSTYLENAME
350
E
  3
ACAD_SCALELIST
350
47
  0
DICTIONARY
  5
D
102
{ACAD_REACTORS
330
C
102
}
330
C
100
AcDbDictionary
281
     1
  0
DICTIONARY
  5
1A
102
{ACAD_REACTORS
330
C
102
}
330
C
100
AcDbDictionary
281
     1
  3
Layout1
350
1E
  3
Layout2
350
26
  3
Model
350
22
  0
DICTIONARY
  5
17
102
{ACAD_REACTORS
330
C
102
}
330
C
100
AcDbDictionary
281
     1
  3
Standard
350
18
  0
DICTIONARY
  5
19
102
{ACAD_REACTORS
330
C
102
}
330
C
100
AcDbDictionary
281
     1
  0
ACDBDICTIONARYWDFLT
  5
E
102
{ACAD_REACTORS
330
C
102
}
330
C
100
AcDbDictionary
281
     1
  3
Normal
350
F
100
AcDbDictionaryWithDefault
340
F
  0
DICTIONARY
  5
47
102
{ACAD_REACTORS
330
C
102
}
330
C
100
AcDbDictionary
281
     1
  3
A0
350
48
  3
A1
350
49
  3
A2
350
4A
  3
A3
350
4B
  3
A4
350
4C
  3
A5
350
4D
  3
A6
350
4E
  3
A7
350
4F
  3
A8
350
50
  3
A9
350
51
  3
B0
350
52
  3
B1
350
53
  3
B2
350
54
  3
B3
350
55
  3
B4
350
56
  3
B5
350
57
  3
B6
350
58
  3
B7
350
59
  3
B8
350
5A
  3
B9
350
5B
  3
C0
350
5C
  3
C1
350
5D
  3
C2
350
5E
  3
C3
350
5F
  3
C4
350
60
  3
C5
350
61
  3
C6
350
62
  3
C7
350
63
  3
C8
350
64
  3
C9
350
65
  3
D0
350
66
  3
D1
350
67
  3
D2
350
68
  0
LAYOUT
  5
1E
102
{ACAD_REACTORS
330
1A
102
}
330
1A
100
AcDbPlotSettings
  1

  2
none_device
  4

  6

 40
0.0
 41
0.0
 42
0.0
 43
0.0
 44
0.0
 45
0.0
 46
0.0
 47
0.0
 48
0.0
 49
0.0
140
0.0
141
0.0
142
1.0
143
1.0
 70
   688
 72
     1
 73
     0
 74
     5
  7

 75
    16
147
1.0
148
0.0
149
0.0
100
AcDbLayout
  1
Layout1
 70
     1
 71
     1
 10
0.0
 20
0.0
 11
420.0
 21
297.0
 12
0.0
 22
0.0
 32
0.0
 14
1.0000000000E+20
 24
1.0000000000E+20
 34
1.0000000000E+20
 15
-1.0000000000E+20
 25
-1.0000000000E+20
 35
-1.0000000000E+20
146
0.0
 13
0.0
 23
0.0
 33
0.0
 16
1.0
 26
0.0
 36
0.0
 17
0.0
 27
1.0
 37
0.0
 76
     0
330
1B
  0
LAYOUT
  5
26
102
{ACAD_REACTORS
330
1A
102
}
330
1A
100
AcDbPlotSettings
  1

  2
none_device
  4

  6

 40
0.0
 41
0.0
 42
0.0
 43
0.0
 44
0.0
 45
0.0
 46
0.0
 47
0.0
 48
0.0
 49
0.0
140
0.0
141
0.0
142
1.0
143
1.0
 70
   688
 72
     1
 73
     0
 74
     5
  7

 75
    16
147
1.0
148
0.0
149
0.0
100
AcDbLayout
  1
Layout2
 70
     1
 71
     2
 10
0.0
 20
0.0
 11
0.0
 21
0.0
 12
0.0
 22
0.0
 32
0.0
 14
0.0
 24
0.0
 34
0.0
 15
0.0
 25
0.0
 35
0.0
146
0.0
 13
0.0
 23
0.0
 33
0.0
 16
1.0
 26
0.0
 36
0.0
 17
0.0
 27
1.0
 37
0.0
 76
     0
330
23
  0
LAYOUT
  5
22
102
{ACAD_REACTORS
330
1A
102
}
330
1A
100
AcDbPlotSettings
  1

  2
none_device
  4
Letter_(8.50_x_11.00_Inches)
  6

 40
6.35
 41
6.35
 42
6.35000508
 43
6.35000508
 44
215.9
 45
279.4
 46
0.0
 47
0.0
 48
0.0
 49
0.0
140
0.0
141
0.0
142
1.0
143
1.0
 70
  1712
 72
     1
 73
     0
 74
     0
  7

 75
     0
147
1.0
148
0.0
149
0.0
100
AcDbLayout
  1
Model
 70
     1
 71
     0
 10
0.0
 20
0.0
 11
431.8
 21
279.4
 12
0.0
 22
0.0
 32
0.0
 14
0.0
 24
0.0
 34
0.0
 15
431.8
 25
279.4
 35
0.0
146
0.0
 13
0.0
 23
0.0
 33
0.0
 16
1.0
 26
0.0
 36
0.0
 17
0.0
 27
1.0
 37
0.0
 76
     0
330
1F
331
29
  0
MLINESTYLE
  5
18
102
{ACAD_REACTORS
330
17
102
}
330
17
100
AcDbMlineStyle
  2
Standard
 70
     0
  3

 62
   256
 51
90.0
 52
90.0
 71
     2
 49
0.5
 62
   256
  6
BYLAYER
 49
-0.5
 62
   256
  6
BYLAYER
  0
ACDBPLACEHOLDER
  5
F
102
{ACAD_REACTORS
330
E
102
}
330
E
  0
SCALE
  5
48
102
{ACAD_REACTORS
330
47
102
}
330
47
100
AcDbScale
 70
     0
300
1:1
140
1.0
141
1.0
290
     1
  0
SCALE
  5
49
102
{ACAD_REACTORS
330
47
102
}
330
47
100
AcDbScale
 70
     0
300
1:2
140
1.0
141
2.0
290
     0
  0
SCALE
  5
4A
102
{ACAD_REACTORS
330
47
102
}
330
47
100
AcDbScale
 70
     0
300
1:4
140
1.0
141
4.0
290
     0
  0
SCALE
  5
4B
102
{ACAD_REACTORS
330
47
102
}
330
47
100
AcDbScale
 70
     0
300
1:5
140
1.0
141
5.0
290
     0
  0
SCALE
  5
4C
102
{ACAD_REACTORS
330
47
102
}
330
47
100
AcDbScale
 70
     0
300
1:8
140
1.0
141
8.0
290
     0
  0
SCALE
  5
4D
102
{ACAD_REACTORS
330
47
102
}
330
47
100
AcDbScale
 70
     0
300
1:10
140
1.0
141
10.0
290
     0
  0
SCALE
  5
4E
102
{ACAD_REACTORS
330
47
102
}
330
47
100
AcDbScale
 70
     0
300
1:16
140
1.0
141
16.0
290
     0
  0
SCALE
  5
4F
102
{ACAD_REACTORS
330
47
102
}
330
47
100
AcDbScale
 70
     0
300
1:20
140
1.0
141
20.0
290
     0
  0
SCALE
  5
50
102
{ACAD_REACTORS
330
47
102
}
330
47
100
AcDbScale
 70
     0
300
1:30
140
1.0
141
30.0
290
     0
  0
SCALE
  5
51
102
{ACAD_REACTORS
330
47
102
}
330
47
100
AcDbScale
 70
     0
300
1:40
140
1.0
141
40.0
290
     0
  0
SCALE
  5
52
102
{ACAD_REACTORS
330
47
102
}
330
47
100
AcDbScale
 70
     0
300
1:50
140
1.0
141
50.0
290
     0
  0
SCALE
  5
53
102
{ACAD_REACTORS
330
47
102
}
330
47
100
AcDbScale
 70
     0
300
1:100
140
1.0
141
100.0
290
     0
  0
SCALE
  5
54
102
{ACAD_REACTORS
330
47
102
}
330
47
100
AcDbScale
 70
     0
300
2:1
140
2.0
141
1.0
290
     0
  0
SCALE
  5
55
102
{ACAD_REACTORS
330
47
102
}
330
47
100
AcDbScale
 70
     0
300
4:1
140
4.0
141
1.0
290
     0
  0
SCALE
  5
56
102
{ACAD_REACTORS
330
47
102
}
330
47
100
AcDbScale
 70
     0
300
8:1
140
8.0
141
1.0
290
     0
  0
SCALE
  5
57
102
{ACAD_REACTORS
330
47
102
}
330
47
100
AcDbScale
 70
     0
300
10:1
140
10.0
141
1.0
290
     0
  0
SCALE
  5
58
102
{ACAD_REACTORS
330
47
102
}
330
47
100
AcDbScale
 70
     0
300
100:1
140
100.0
141
1.0
290
     0
  0
SCALE
  5
59
102
{ACAD_REACTORS
330
47
102
}
330
47
100
AcDbScale
 70
     0
300
1/128" = 1'-0"
140
0.0078125
141
12.0
290
     0
  0
SCALE
  5
5A
102
{ACAD_REACTORS
330
47
102
}
330
47
100
AcDbScale
 70
     0
300
1/64" = 1'-0"
140
0.015625
141
12.0
290
     0
  0
SCALE
  5
5B
102
{ACAD_REACTORS
330
47
102
}
330
47
100
AcDbScale
 70
     0
300
1/32" = 1'-0"
140
0.03125
141
12.0
290
     0
  0
SCALE
  5
5C
102
{ACAD_REACTORS
330
47
102
}
330
47
100
AcDbScale
 70
     0
300
1/16" = 1'-0"
140
0.0625
141
12.0
290
     0
  0
SCALE
  5
5D
102
{ACAD_REACTORS
330
47
102
}
330
47
100
AcDbScale
 70
     0
300
3/32" = 1'-0"
140
0.09375
141
12.0
290
     0
  0
SCALE
  5
5E
102
{ACAD_REACTORS
330
47
102
}
330
47
100
AcDbScale
 70
     0
300
1/8" = 1'-0"
140
0.125
141
12.0
290
     0
  0
SCALE
  5
5F
102
{ACAD_REACTORS
330
47
102
}
330
47
100
AcDbScale
 70
     0
300
3/16" = 1'-0"
140
0.1875
141
12.0
290
     0
  0
SCALE
  5
60
102
{ACAD_REACTORS
330
47
102
}
330
47
100
AcDbScale
 70
     0
300
1/4" = 1'-0"
140
0.25
141
12.0
290
     0
  0
SCALE
  5
61
102
{ACAD_REACTORS
330
47
102
}
330
47
100
AcDbScale
 70
     0
300
3/8" = 1'-0"
140
0.375
141
12.0
290
     0
  0
SCALE
  5
62
102
{ACAD_REACTORS
330
47
102
}
330
47
100
AcDbScale
 70
     0
300
1/2" = 1'-0"
140
0.5
141
12.0
290
     0
  0
SCALE
  5
63
102
{ACAD_REACTORS
330
47
102
}
330
47
100
AcDbScale
 70
     0
300
3/4" = 1'-0"
140
0.75
141
12.0
290
     0
  0
SCALE
  5
64
102
{ACAD_REACTORS
330
47
102
}
330
47
100
AcDbScale
 70
     0
300
1" = 1'-0"
140
1.0
141
12.0
290
     0
  0
SCALE
  5
65
102
{ACAD_REACTORS
330
47
102
}
330
47
100
AcDbScale
 70
     0
300
1-1/2" = 1'-0"
140
1.5
141
12.0
290
     0
  0
SCALE
  5
66
102
{ACAD_REACTORS
330
47
102
}
330
47
100
AcDbScale
 70
     0
300
3" = 1'-0"
140
3.0
141
12.0
290
     0
  0
SCALE
  5
67
102
{ACAD_REACTORS
330
47
102
}
330
47
100
AcDbScale
 70
     0
300
6" = 1'-0"
140
6.0
141
12.0
290
     0
  0
SCALE
  5
68
102
{ACAD_REACTORS
330
47
102
}
330
47
100
AcDbScale
 70
     0
300
1'-0" = 1'-0"
140
12.0
141
12.0
290
     0
  0
ENDSEC
  0
EOF
