  0
SECTION
  2
HEADER
  9
$ACADVER
  1
AC1015
  9
$ACADMAINTVER
 70
     6
  9
$DWGCODEPAGE
  3
DOS932
  9
$INSBASE
 10
0.0
 20
0.0
 30
0.0
  9
$EXTMIN
 10
0.0
 20
0.0
 30
0.0
  9
$EXTMAX
 10
431.8
 20
279.4
 30
0.0
  9
$LIMMIN
 10
0.0
 20
0.0
  9
$LIMMAX
 10
431.8
 20
279.4
  9
$ORTHOMODE
 70
     0
  9
$REGENMODE
 70
     1
  9
$FILLMODE
 70
     1
  9
$QTEXTMODE
 70
     0
  9
$MIRRTEXT
 70
     1
  9
$LTSCALE
 40
1.0
  9
$ATTMODE
 70
     1
  9
$TEXTSIZE
 40
3.5
  9
$TRACEWID
 40
1.0
  9
$TEXTSTYLE
  7
Standard
  9
$CLAYER
  8
0
  9
$CELTYPE
  6
ByLayer
  9
$CECOLOR
 62
   256
  9
$CELTSCALE
 40
1.0
  9
$DISPSILH
 70
     0
  9
$DIMSCALE
 40
1.0
  9
$DIMASZ
 40
3.302
  9
$DIMEXO
 40
1.0
  9
$DIMDLI
 40
3.75
  9
$DIMRND
 40
0.0
  9
$DIMDLE
 40
0.0
  9
$DIMEXE
 40
1.0
  9
$DIMTP
 40
0.0
  9
$DIMTM
 40
0.0
  9
$DIMTXT
 40
3.5
  9
$DIMCEN
 40
2.5
  9
$DIMTSZ
 40
0.0
  9
$DIMTOL
 70
     0
  9
$DIMLIM
 70
     0
  9
$DIMTIH
 70
     1
  9
$DIMTOH
 70
     1
  9
$DIMSE1
 70
     0
  9
$DIMSE2
 70
     0
  9
$DIMTAD
 70
     1
  9
$DIMZIN
 70
     1
  9
$DIMBLK
  1

  9
$DIMASO
 70
     1
  9
$DIMSHO
 70
     1
  9
$DIMPOST
  1

  9
$DIMAPOST
  1

  9
$DIMALT
 70
     0
  9
$DIMALTD
 70
     3
  9
$DIMALTF
 40
0.0393700787
  9
$DIMLFAC
 40
1.0
  9
$DIMTOFL
 70
     1
  9
$DIMTVP
 40
0.0
  9
$DIMTIX
 70
     0
  9
$DIMSOXD
 70
     0
  9
$DIMSAH
 70
     0
  9
$DIMBLK1
  1

  9
$DIMBLK2
  1

  9
$DIMSTYLE
  2
ISO-25
  9
$DIMCLRD
 70
     0
  9
$DIMCLRE
 70
     0
  9
$DIMCLRT
 70
     0
  9
$DIMTFAC
 40
1.0
  9
$DIMGAP
 40
1.524
  9
$DIMJUST
 70
     0
  9
$DIMSD1
 70
     0
  9
$DIMSD2
 70
     0
  9
$DIMTOLJ
 70
     0
  9
$DIMTZIN
 70
     1
  9
$DIMALTZ
 70
     0
  9
$DIMALTTZ
 70
     0
  9
$DIMUPT
 70
     0
  9
$DIMDEC
 70
     2
  9
$DIMTDEC
 70
     2
  9
$DIMALTU
 70
     2
  9
$DIMALTTD
 70
     3
  9
$DIMTXSTY
  7
Standard
  9
$DIMAUNIT
 70
     0
  9
$DIMADEC
 70
     2
  9
$DIMALTRND
 40
0.0
  9
$DIMAZIN
 70
     0
  9
$DIMDSEP
 70
    44
  9
$DIMATFIT
 70
     3
  9
$DIMFRAC
 70
     0
  9
$DIMLDRBLK
  1

  9
$DIMLUNIT
 70
     2
  9
$DIMLWD
 70
    -2
  9
$DIMLWE
 70
    -2
  9
$DIMTMOVE
 70
     0
  9
$LUNITS
 70
     2
  9
$LUPREC
 70
     2
  9
$SKETCHINC
 40
1.0
  9
$FILLETRAD
 40
10.0
  9
$AUNITS
 70
     0
  9
$AUPREC
 70
     2
  9
$MENU
  1
.
  9
$ELEVATION
 40
0.0
  9
$PELEVATION
 40
0.0
  9
$THICKNESS
 40
0.0
  9
$LIMCHECK
 70
     0
  9
$CHAMFERA
 40
0.0
  9
$CHAMFERB
 40
0.0
  9
$CHAMFERC
 40
0.0
  9
$CHAMFERD
 40
0.0
  9
$SKPOLY
 70
     0
  9
$TDCREATE
 40
2459486.414294063
  9
$TDUCREATE
 40
2459486.039294063
  9
$TDUPDATE
 40
2459486.414294745
  9
$TDUUPDATE
 40
2459486.039294745
  9
$TDINDWG
 40
0.0000000116
  9
$TDUSRTIMER
 40
0.0000000116
  9
$USRTIMER
 70
     1
  9
$ANGBASE
 50
0.0
  9
$ANGDIR
 70
     0
  9
$PDMODE
 70
     0
  9
$PDSIZE
 40
-1.0
  9
$PLINEWID
 40
0.0
  9
$SPLFRAME
 70
     0
  9
$SPLINETYPE
 70
     6
  9
$SPLINESEGS
 70
     8
  9
$HANDSEED
  5
19D
  9
$SURFTAB1
 70
     6
  9
$SURFTAB2
 70
     6
  9
$SURFTYPE
 70
     6
  9
$SURFU
 70
     6
  9
$SURFV
 70
     6
  9
$UCSBASE
  2

  9
$UCSNAME
  2

  9
$UCSORG
 10
0.0
 20
0.0
 30
0.0
  9
$UCSXDIR
 10
1.0
 20
0.0
 30
0.0
  9
$UCSYDIR
 10
0.0
 20
1.0
 30
0.0
  9
$UCSORTHOREF
  2

  9
$UCSORTHOVIEW
 70
     0
  9
$UCSORGTOP
 10
0.0
 20
0.0
 30
0.0
  9
$UCSORGBOTTOM
 10
0.0
 20
0.0
 30
0.0
  9
$UCSORGLEFT
 10
0.0
 20
0.0
 30
0.0
  9
$UCSORGRIGHT
 10
0.0
 20
0.0
 30
0.0
  9
$UCSORGFRONT
 10
0.0
 20
0.0
 30
0.0
  9
$UCSORGBACK
 10
0.0
 20
0.0
 30
0.0
  9
$PUCSBASE
  2

  9
$PUCSNAME
  2

  9
$PUCSORG
 10
0.0
 20
0.0
 30
0.0
  9
$PUCSXDIR
 10
1.0
 20
0.0
 30
0.0
  9
$PUCSYDIR
 10
0.0
 20
1.0
 30
0.0
  9
$PUCSORTHOREF
  2

  9
$PUCSORTHOVIEW
 70
     0
  9
$PUCSORGTOP
 10
0.0
 20
0.0
 30
0.0
  9
$PUCSORGBOTTOM
 10
0.0
 20
0.0
 30
0.0
  9
$PUCSORGLEFT
 10
0.0
 20
0.0
 30
0.0
  9
$PUCSORGRIGHT
 10
0.0
 20
0.0
 30
0.0
  9
$PUCSORGFRONT
 10
0.0
 20
0.0
 30
0.0
  9
$PUCSORGBACK
 10
0.0
 20
0.0
 30
0.0
  9
$USERI1
 70
     0
  9
$USERI2
 70
     0
  9
$USERI3
 70
     0
  9
$USERI4
 70
     0
  9
$USERI5
 70
     0
  9
$USERR1
 40
0.0
  9
$USERR2
 40
0.0
  9
$USERR3
 40
0.0
  9
$USERR4
 40
0.0
  9
$USERR5
 40
0.0
  9
$WORLDVIEW
 70
     1
  9
$SHADEDGE
 70
     3
  9
$SHADEDIF
 70
    70
  9
$TILEMODE
 70
     1
  9
$MAXACTVP
 70
    64
  9
$PINSBASE
 10
0.0
 20
0.0
 30
0.0
  9
$PLIMCHECK
 70
     0
  9
$PEXTMIN
 10
1.0000000000E+20
 20
1.0000000000E+20
 30
1.0000000000E+20
  9
$PEXTMAX
 10
-1.0000000000E+20
 20
-1.0000000000E+20
 30
-1.0000000000E+20
  9
$PLIMMIN
 10
0.0
 20
0.0
  9
$PLIMMAX
 10
420.0
 20
297.0
  9
$UNITMODE
 70
     0
  9
$VISRETAIN
 70
     1
  9
$PLINEGEN
 70
     0
  9
$PSLTSCALE
 70
     1
  9
$TREEDEPTH
 70
  3020
  9
$CMLSTYLE
  2
Standard
  9
$CMLJUST
 70
     0
  9
$CMLSCALE
 40
20.0
  9
$PROXYGRAPHICS
 70
     1
  9
$MEASUREMENT
 70
     1
  9
$CELWEIGHT
370
    -1
  9
$ENDCAPS
280
     0
  9
$JOINSTYLE
280
     0
  9
$LWDISPLAY
290
     1
  9
$INSUNITS
 70
     4
  9
$HYPERLINKBASE
  1

  9
$STYLESHEET
  1

  9
$XEDIT
290
     1
  9
$CEPSNTYPE
380
     0
  9
$PSTYLEMODE
290
     1
  9
$FINGERPRINTGUID
  2
{50DF320D-6AE1-4ED7-B944-16F8D25AB9AA}
  9
$VERSIONGUID
  2
{FAEB1C32-E019-11D5-929B-00C0DF256EC4}
  9
$EXTNAMES
290
     1
  9
$PSVPSCALE
 40
0.0
  9
$OLESTARTUP
290
     0
  0
ENDSEC
  0
SECTION
  2
CLASSES
  0
CLASS
  1
ACDBDICTIONARYWDFLT
  2
AcDbDictionaryWithDefault
  3
ObjectDBX Classes
 90
        0
280
     0
281
     0
  0
CLASS
  1
VISUALSTYLE
  2
AcDbVisualStyle
  3
ObjectDBX Classes
 90
     4095
280
     0
281
     0
  0
CLASS
  1
MATERIAL
  2
AcDbMaterial
  3
ObjectDBX Classes
 90
     1153
280
     0
281
     0
  0
CLASS
  1
SCALE
  2
AcDbScale
  3
ObjectDBX Classes
 90
     1153
280
     0
281
     0
  0
CLASS
  1
TABLESTYLE
  2
AcDbTableStyle
  3
ObjectDBX Classes
 90
     4095
280
     0
281
     0
  0
CLASS
  1
MLEADERSTYLE
  2
AcDbMLeaderStyle
  3
ACDB_MLEADERSTYLE_CLASS
 90
     4095
280
     0
281
     0
  0
CLASS
  1
SUN
  2
AcDbSun
  3
SCENEOE
 90
     1153
280
     0
281
     0
  0
CLASS
  1
ACDBPLACEHOLDER
  2
AcDbPlaceHolder
  3
ObjectDBX Classes
 90
        0
280
     0
281
     0
  0
CLASS
  1
LAYOUT
  2
AcDbLayout
  3
ObjectDBX Classes
 90
        0
280
     0
281
     0
  0
ENDSEC
  0
SECTION
  2
TABLES
  0
TABLE
  2
VPORT
  5
8
330
0
100
AcDbSymbolTable
 70
     1
  0
VPORT
  5
29
330
8
100
AcDbSymbolTableRecord
100
AcDbViewportTableRecord
  2
*Active
 70
     0
 10
0.0
 20
0.0
 11
1.0
 21
1.0
 12
215.9
 22
139.7
 13
0.0
 23
0.0
 14
10.0
 24
10.0
 15
10.0
 25
10.0
 16
0.0
 26
0.0
 36
1.0
 17
0.0
 27
0.0
 37
0.0
 40
279.4
 41
1.5454545455
 42
50.0
 43
0.0
 44
0.0
 50
0.0
 51
0.0
 71
     0
 72
  2000
 73
     1
 74
     3
 75
     0
 76
     0
 77
     0
 78
     0
281
     0
 65
     1
110
0.0
120
0.0
130
0.0
111
1.0
121
0.0
131
0.0
112
0.0
122
1.0
132
0.0
 79
     0
146
0.0
  0
ENDTAB
  0
TABLE
  2
LTYPE
  5
5
330
0
100
AcDbSymbolTable
 70
     6
  0
LTYPE
  5
14
330
5
100
AcDbSymbolTableRecord
100
AcDbLinetypeTableRecord
  2
ByBlock
 70
     0
  3

 72
    65
 73
     0
 40
0.0
  0
LTYPE
  5
15
330
5
100
AcDbSymbolTableRecord
100
AcDbLinetypeTableRecord
  2
ByLayer
 70
     0
  3

 72
    65
 73
     0
 40
0.0
  0
LTYPE
  5
16
330
5
100
AcDbSymbolTableRecord
100
AcDbLinetypeTableRecord
  2
Continuous
 70
     0
  3
Solid line
 72
    65
 73
     0
 40
0.0
  0
LTYPE
  5
6E
330
5
100
AcDbSymbolTableRecord
100
AcDbLinetypeTableRecord
  2
HIDDEN
 70
     0
  3
Hidden __ __ __ __ __ __ __ __ __ __ __ __ __ __
 72
    65
 73
     2
 40
1.905
 49
1.27
 74
     0
 49
-0.635
 74
     0
  0
LTYPE
  5
6F
330
5
100
AcDbSymbolTableRecord
100
AcDbLinetypeTableRecord
  2
PHANTOM
 70
     0
  3
Phantom ______  __  __  ______  __  __  ______
 72
    65
 73
     6
 40
12.7
 49
6.35
 74
     0
 49
-1.27
 74
     0
 49
1.27
 74
     0
 49
-1.27
 74
     0
 49
1.27
 74
     0
 49
-1.27
 74
     0
  0
LTYPE
  5
70
330
5
100
AcDbSymbolTableRecord
100
AcDbLinetypeTableRecord
  2
CENTER
 70
     0
  3
Center ____ _ ____ _ ____ _ ____ _ ____ _ ____
 72
    65
 73
     4
 40
10.16
 49
6.35
 74
     0
 49
-1.27
 74
     0
 49
1.27
 74
     0
 49
-1.27
 74
     0
  0
LTYPE
  5
71
330
5
100
AcDbSymbolTableRecord
100
AcDbLinetypeTableRecord
  2
CENTERX2
 70
     0
  3
Center (2x) ________  __  ________  __  _____
 72
    65
 73
     4
 40
20.32
 49
12.7
 74
     0
 49
-2.54
 74
     0
 49
2.54
 74
     0
 49
-2.54
 74
     0
  0
LTYPE
  5
72
330
5
100
AcDbSymbolTableRecord
100
AcDbLinetypeTableRecord
  2
DOT2
 70
     0
  3
Dot (.5x) ........................................
 72
    65
 73
     2
 40
0.635
 49
0.0
 74
     0
 49
-0.635
 74
     0
  0
ENDTAB
  0
TABLE
  2
LAYER
  5
2
330
0
100
AcDbSymbolTable
 70
     1
  0
LAYER
  5
10
330
2
100
AcDbSymbolTableRecord
100
AcDbLayerTableRecord
  2
0
 70
     0
 62
     7
  6
Continuous
370
    -3
390
F
  0
ENDTAB
  0
TABLE
  2
STYLE
  5
3
330
0
100
AcDbSymbolTable
 70
     2
  0
STYLE
  5
11
330
3
100
AcDbSymbolTableRecord
100
AcDbTextStyleTableRecord
  2
Standard
 70
     0
 40
0.0
 41
1.0
 50
0.0
 71
     0
 42
3.5
  3
txt
  4
bigfont
  0
STYLE
  5
73
330
3
100
AcDbSymbolTableRecord
100
AcDbTextStyleTableRecord
  2
SLDTEXTSTYLE0
 70
     0
 40
0.0
 41
0.7
 50
0.0
 71
     0
 42
3.5
  3
TXT
  4
bigfont
  0
ENDTAB
  0
TABLE
  2
VIEW
  5
6
330
0
100
AcDbSymbolTable
 70
     0
  0
ENDTAB
  0
TABLE
  2
UCS
  5
7
330
0
100
AcDbSymbolTable
 70
     0
  0
ENDTAB
  0
TABLE
  2
APPID
  5
9
330
0
100
AcDbSymbolTable
 70
     1
  0
APPID
  5
12
330
9
100
AcDbSymbolTableRecord
100
AcDbRegAppTableRecord
  2
ACAD
 70
     0
  0
ENDTAB
  0
TABLE
  2
DIMSTYLE
  5
A
330
0
100
AcDbSymbolTable
 70
     1
100
AcDbDimStyleTable
  0
DIMSTYLE
105
27
330
A
100
AcDbSymbolTableRecord
100
AcDbDimStyleTableRecord
  2
ISO-25
 70
     0
 41
2.5
 42
0.625
 43
3.75
 44
1.25
 73
     0
 74
     0
 77
     1
 78
     8
140
2.5
141
2.5
143
0.0393700787
147
0.625
171
     3
172
     1
178
     0
271
     2
272
     2
274
     3
278
    44
283
     0
284
     8
340
11
  0
ENDTAB
  0
TABLE
  2
BLOCK_RECORD
  5
1
330
0
100
AcDbSymbolTable
 70
     2
  0
BLOCK_RECORD
  5
1F
330
1
100
AcDbSymbolTableRecord
100
AcDbBlockTableRecord
  2
*Model_Space
340
22
  0
BLOCK_RECORD
  5
1B
330
1
100
AcDbSymbolTableRecord
100
AcDbBlockTableRecord
  2
*Paper_Space
340
1E
  0
BLOCK_RECORD
  5
23
330
1
100
AcDbSymbolTableRecord
100
AcDbBlockTableRecord
  2
*Paper_Space0
340
26
  0
BLOCK_RECORD
  5
10E
330
1
100
AcDbSymbolTableRecord
100
AcDbBlockTableRecord
  2
SW_CENTERMARKSYMBOL_0
340
0
102
{BLKREFS
331
119
102
}
  0
ENDTAB
  0
ENDSEC
  0
SECTION
  2
BLOCKS
  0
BLOCK
  5
20
330
1F
100
AcDbEntity
  8
0
100
AcDbBlockBegin
  2
*Model_Space
 70
     0
 10
0.0
 20
0.0
 30
0.0
  3
*Model_Space
  1

  0
ENDBLK
  5
21
330
1F
100
AcDbEntity
  8
0
100
AcDbBlockEnd
  0
BLOCK
  5
1C
330
1B
100
AcDbEntity
 67
     1
  8
0
100
AcDbBlockBegin
  2
*Paper_Space
 70
     0
 10
0.0
 20
0.0
 30
0.0
  3
*Paper_Space
  1

  0
ENDBLK
  5
1D
330
1B
100
AcDbEntity
 67
     1
  8
0
100
AcDbBlockEnd
  0
BLOCK
  5
24
330
23
100
AcDbEntity
  8
0
100
AcDbBlockBegin
  2
*Paper_Space0
 70
     0
 10
0.0
 20
0.0
 30
0.0
  3
*Paper_Space0
  1

  0
ENDBLK
  5
25
330
23
100
AcDbEntity
  8
0
100
AcDbBlockEnd
  0
BLOCK
  5
10F
330
10E
100
AcDbEntity
  8
0
100
AcDbBlockBegin
  2
SW_CENTERMARKSYMBOL_0
 70
     0
 10
0.0
 20
0.0
 30
0.0
  3
SW_CENTERMARKSYMBOL_0
  1

  0
LINE
  5
111
330
10E
100
AcDbEntity
  8
0
  6
Continuous
 62
     0
370
    18
100
AcDbLine
 10
0.0
 20
0.0
 30
0.0
 11
0.0
 21
2.5
 31
0.0
  0
LINE
  5
112
330
10E
100
AcDbEntity
  8
0
  6
Continuous
 62
     0
370
    18
100
AcDbLine
 10
0.0
 20
0.0
 30
0.0
 11
-2.5
 21
0.0
 31
0.0
  0
LINE
  5
113
330
10E
100
AcDbEntity
  8
0
  6
Continuous
 62
     0
370
    18
100
AcDbLine
 10
0.0
 20
0.0
 30
0.0
 11
0.0
 21
-2.5
 31
0.0
  0
LINE
  5
114
330
10E
100
AcDbEntity
  8
0
  6
Continuous
 62
     0
370
    18
100
AcDbLine
 10
0.0
 20
0.0
 30
0.0
 11
2.5
 21
0.0
 31
0.0
  0
LINE
  5
115
330
10E
100
AcDbEntity
  8
0
  6
Continuous
 62
     0
370
    18
100
AcDbLine
 10
0.0
 20
5.0
 30
0.0
 11
0.0
 21
15.2031889416
 31
0.0
  0
LINE
  5
116
330
10E
100
AcDbEntity
  8
0
  6
Continuous
 62
     0
370
    18
100
AcDbLine
 10
-5.0
 20
0.0
 30
0.0
 11
-14.25
 21
0.0
 31
0.0
  0
LINE
  5
117
330
10E
100
AcDbEntity
  8
0
  6
Continuous
 62
     0
370
    18
100
AcDbLine
 10
0.0
 20
-5.0
 30
0.0
 11
0.0
 21
-15.3495762849
 31
0.0
  0
LINE
  5
118
330
10E
100
AcDbEntity
  8
0
  6
Continuous
 62
     0
370
    18
100
AcDbLine
 10
5.0
 20
0.0
 30
0.0
 11
14.25
 21
0.0
 31
0.0
  0
ENDBLK
  5
110
330
10E
100
AcDbEntity
  8
0
100
AcDbBlockEnd
  0
ENDSEC
  0
SECTION
  2
ENTITIES
  0
MTEXT
  5
74
330
1F
100
AcDbEntity
  8
0
  6
Continuous
 62
     7
370
     0
100
AcDbMText
 10
186.8079180025
 20
109.7904582647
 30
0.0
 40
4.2333333333
 41
0.0
 71
     1
 72
     1
  1
HS-1414R
  7
SLDTEXTSTYLE0
 73
     1
 44
1.0
  0
LINE
  5
75
330
1F
100
AcDbEntity
  8
0
  6
Continuous
 62
     7
370
    25
100
AcDbLine
 10
152.716087208
 20
76.2716466072
 30
0.0
 11
153.216087208
 21
76.2716466072
 31
0.0
  0
LINE
  5
76
330
1F
100
AcDbEntity
  8
0
  6
Continuous
 62
     7
370
    25
100
AcDbLine
 10
153.216087208
 20
92.2716466072
 30
0.0
 11
152.716087208
 21
92.2716466072
 31
0.0
  0
LINE
  5
77
330
1F
100
AcDbEntity
  8
0
  6
Continuous
 62
     7
370
    25
100
AcDbLine
 10
159.216087208
 20
77.2716466072
 30
0.0
 11
163.716087208
 21
78.0216466072
 31
0.0
  0
LINE
  5
78
330
1F
100
AcDbEntity
  8
0
  6
Continuous
 62
     7
370
    25
100
AcDbLine
 10
163.716087208
 20
90.5216466072
 30
0.0
 11
159.216087208
 21
91.2716466072
 31
0.0
  0
LINE
  5
79
330
1F
100
AcDbEntity
  8
0
  6
Continuous
 62
     7
370
    25
100
AcDbLine
 10
159.216087208
 20
91.2716466072
 30
0.0
 11
153.216087208
 21
91.2716466072
 31
0.0
  0
LINE
  5
7A
330
1F
100
AcDbEntity
  8
0
  6
Continuous
 62
     7
370
    25
100
AcDbLine
 10
153.216087208
 20
77.2716466072
 30
0.0
 11
159.216087208
 21
77.2716466072
 31
0.0
  0
LINE
  5
7B
330
1F
100
AcDbEntity
  8
0
  6
Continuous
 62
     7
370
    25
100
AcDbLine
 10
163.716087208
 20
77.2716466072
 30
0.0
 11
168.216087208
 21
78.0216466072
 31
0.0
  0
LINE
  5
7C
330
1F
100
AcDbEntity
  8
0
  6
Continuous
 62
     7
370
    25
100
AcDbLine
 10
168.216087208
 20
90.5216466072
 30
0.0
 11
163.716087208
 21
91.2716466072
 31
0.0
  0
LINE
  5
7D
330
1F
100
AcDbEntity
  8
0
  6
Continuous
 62
     7
370
    25
100
AcDbLine
 10
172.716087208
 20
77.2716466072
 30
0.0
 11
177.216087208
 21
78.0216466072
 31
0.0
  0
LINE
  5
7E
330
1F
100
AcDbEntity
  8
0
  6
Continuous
 62
     7
370
    25
100
AcDbLine
 10
177.216087208
 20
90.5216466072
 30
0.0
 11
172.716087208
 21
91.2716466072
 31
0.0
  0
LINE
  5
7F
330
1F
100
AcDbEntity
  8
0
  6
Continuous
 62
     7
370
    25
100
AcDbLine
 10
177.216087208
 20
77.2716466072
 30
0.0
 11
183.0207009529
 21
77.9414097316
 31
0.0
  0
LINE
  5
80
330
1F
100
AcDbEntity
  8
0
  6
Continuous
 62
     7
370
    25
100
AcDbLine
 10
183.0207009529
 20
90.6018834828
 30
0.0
 11
177.216087208
 21
91.2716466072
 31
0.0
  0
LINE
  5
81
330
1F
100
AcDbEntity
  8
0
  6
Continuous
 62
     7
370
    25
100
AcDbLine
 10
168.216087208
 20
77.2716466072
 30
0.0
 11
172.716087208
 21
78.0216466072
 31
0.0
  0
LINE
  5
82
330
1F
100
AcDbEntity
  8
0
  6
Continuous
 62
     7
370
    25
100
AcDbLine
 10
172.716087208
 20
90.5216466072
 30
0.0
 11
168.216087208
 21
91.2716466072
 31
0.0
  0
LINE
  5
83
330
1F
100
AcDbEntity
  8
0
  6
Continuous
 62
     7
370
    25
100
AcDbLine
 10
183.0207009529
 20
77.9414097316
 30
0.0
 11
183.716087208
 21
78.8182010968
 31
0.0
  0
LINE
  5
84
330
1F
100
AcDbEntity
  8
0
  6
Continuous
 62
     7
370
    25
100
AcDbLine
 10
183.716087208
 20
89.7250921177
 30
0.0
 11
183.0207009529
 21
90.6018834828
 31
0.0
  0
LINE
  5
85
330
1F
100
AcDbEntity
  8
0
  6
Continuous
 62
     7
370
    25
100
AcDbLine
 10
149.499952871
 20
70.4152401467
 30
0.0
 11
150.716087208
 21
72.5216466072
 31
0.0
  0
LINE
  5
86
330
1F
100
AcDbEntity
  8
0
  6
Continuous
 62
     7
370
    25
100
AcDbLine
 10
150.716087208
 20
96.0216466072
 30
0.0
 11
149.499952871
 21
98.1280530678
 31
0.0
  0
LINE
  5
87
330
1F
100
AcDbEntity
  8
0
  6
Continuous
 62
     7
370
    25
100
AcDbLine
 10
139.9322215451
 20
98.1280530678
 30
0.0
 11
138.716087208
 21
96.0216466072
 31
0.0
  0
LINE
  5
88
330
1F
100
AcDbEntity
  8
0
  6
Continuous
 62
     7
370
    25
100
AcDbLine
 10
138.716087208
 20
72.5216466072
 30
0.0
 11
139.9322215451
 21
70.4152401467
 31
0.0
  0
LINE
  5
89
330
1F
100
AcDbEntity
  8
0
  6
Continuous
 62
     7
370
    25
100
AcDbLine
 10
138.716087208
 20
96.0216466072
 30
0.0
 11
137.216087208
 21
96.0216466072
 31
0.0
  0
LINE
  5
8A
330
1F
100
AcDbEntity
  8
0
  6
Continuous
 62
     7
370
    25
100
AcDbLine
 10
137.216087208
 20
72.5216466072
 30
0.0
 11
138.716087208
 21
72.5216466072
 31
0.0
  0
LINE
  5
8B
330
1F
100
AcDbEntity
  8
0
  6
Continuous
 62
     7
370
    25
100
AcDbLine
 10
150.716087208
 20
72.5216466072
 30
0.0
 11
152.216087208
 21
72.5216466072
 31
0.0
  0
LINE
  5
8C
330
1F
100
AcDbEntity
  8
0
  6
Continuous
 62
     7
370
    25
100
AcDbLine
 10
152.216087208
 20
96.0216466072
 30
0.0
 11
150.716087208
 21
96.0216466072
 31
0.0
  0
LINE
  5
8D
330
1F
100
AcDbEntity
  8
0
  6
Continuous
 62
     7
370
    25
100
AcDbLine
 10
152.216087208
 20
72.5216466072
 30
0.0
 11
152.716087208
 21
73.0216466072
 31
0.0
  0
LINE
  5
8E
330
1F
100
AcDbEntity
  8
0
  6
Continuous
 62
     7
370
    25
100
AcDbLine
 10
152.716087208
 20
95.5216466072
 30
0.0
 11
152.216087208
 21
96.0216466072
 31
0.0
  0
LINE
  5
8F
330
1F
100
AcDbEntity
  8
0
  6
Continuous
 62
     7
370
    25
100
AcDbLine
 10
137.216087208
 20
96.0216466072
 30
0.0
 11
136.716087208
 21
95.5216466072
 31
0.0
  0
LINE
  5
90
330
1F
100
AcDbEntity
  8
0
  6
Continuous
 62
     7
370
    25
100
AcDbLine
 10
136.716087208
 20
73.0216466072
 30
0.0
 11
137.216087208
 21
72.5216466072
 31
0.0
  0
LINE
  5
91
330
1F
100
AcDbEntity
  8
0
  6
Continuous
 62
     7
370
    25
100
AcDbLine
 10
144.716087208
 20
97.6280530678
 30
0.0
 11
144.5821126118
 21
98.1280530678
 31
0.0
  0
LINE
  5
92
330
1F
100
AcDbEntity
  8
0
  6
Continuous
 62
     7
370
    25
100
AcDbLine
 10
144.8500618043
 20
98.1280530678
 30
0.0
 11
144.716087208
 21
97.6280530678
 31
0.0
  0
LINE
  5
93
330
1F
100
AcDbEntity
  8
0
  6
Continuous
 62
     7
370
    25
100
AcDbLine
 10
144.5821126118
 20
70.4152401467
 30
0.0
 11
144.716087208
 21
70.9152401467
 31
0.0
  0
LINE
  5
94
330
1F
100
AcDbEntity
  8
0
  6
Continuous
 62
     7
370
    25
100
AcDbLine
 10
144.716087208
 20
70.9152401467
 30
0.0
 11
144.8500618043
 21
70.4152401467
 31
0.0
  0
LINE
  5
95
330
1F
100
AcDbEntity
  8
0
  6
Continuous
 62
     7
370
    25
100
AcDbLine
 10
130.6203581817
 20
71.569940685
 30
0.0
 11
131.7471761213
 21
73.5216466072
 31
0.0
  0
LINE
  5
96
330
1F
100
AcDbEntity
  8
0
  6
Continuous
 62
     7
370
    25
100
AcDbLine
 10
131.7471761213
 20
95.0216466072
 30
0.0
 11
130.6203581817
 21
96.9733525294
 31
0.0
  0
LINE
  5
97
330
1F
100
AcDbEntity
  8
0
  6
Continuous
 62
     7
370
    25
100
AcDbLine
 10
125.8739940608
 20
96.9733525294
 30
0.0
 11
124.7471761213
 21
95.0216466072
 31
0.0
  0
LINE
  5
98
330
1F
100
AcDbEntity
  8
0
  6
Continuous
 62
     7
370
    25
100
AcDbLine
 10
124.7471761213
 20
73.5216466072
 30
0.0
 11
125.8739940608
 21
71.569940685
 31
0.0
  0
LINE
  5
99
330
1F
100
AcDbEntity
  8
0
  6
Continuous
 62
     7
370
    25
100
AcDbLine
 10
124.7471761213
 20
94.9316466072
 30
0.0
 11
113.4435673942
 21
94.5784088345
 31
0.0
  0
LINE
  5
9A
330
1F
100
AcDbEntity
  8
0
  6
Continuous
 62
     7
370
    25
100
AcDbLine
 10
113.4435673942
 20
73.9648843799
 30
0.0
 11
124.7471761213
 21
73.6116466072
 31
0.0
  0
LINE
  5
9B
330
1F
100
AcDbEntity
  8
0
  6
Continuous
 62
     7
370
    25
100
AcDbLine
 10
135.2471761213
 20
94.7491466072
 30
0.0
 11
134.2471761213
 21
93.7491466072
 31
0.0
  0
LINE
  5
9C
330
1F
100
AcDbEntity
  8
0
  6
Continuous
 62
     7
370
    25
100
AcDbLine
 10
134.2471761213
 20
74.7941466072
 30
0.0
 11
135.2471761213
 21
73.7941466072
 31
0.0
  0
LINE
  5
9D
330
1F
100
AcDbEntity
  8
0
  6
Continuous
 62
     7
370
    25
100
AcDbLine
 10
135.2471761213
 20
73.7941466072
 30
0.0
 11
136.716087208
 21
73.7941466072
 31
0.0
  0
LINE
  5
9E
330
1F
100
AcDbEntity
  8
0
  6
Continuous
 62
     7
370
    25
100
AcDbLine
 10
136.716087208
 20
94.7491466072
 30
0.0
 11
135.2471761213
 21
94.7491466072
 31
0.0
  0
LINE
  5
9F
330
1F
100
AcDbEntity
  8
0
  6
Continuous
 62
     7
370
    25
100
AcDbLine
 10
113.4435673942
 20
94.5784088345
 30
0.0
 11
110.7471761213
 21
93.0216466072
 31
0.0
  0
LINE
  5
A0
330
1F
100
AcDbEntity
  8
0
  6
Continuous
 62
     7
370
    25
100
AcDbLine
 10
110.7471761213
 20
75.5216466072
 30
0.0
 11
113.4435673942
 21
73.9648843799
 31
0.0
  0
LINE
  5
A1
330
1F
100
AcDbEntity
  8
0
  6
Continuous
 62
     7
370
    25
100
AcDbLine
 10
131.7471761213
 20
75.2716466072
 30
0.0
 11
134.2471761213
 21
75.2716466072
 31
0.0
  0
LINE
  5
A2
330
1F
100
AcDbEntity
  8
0
  6
Continuous
 62
     7
370
    25
100
AcDbLine
 10
134.2471761213
 20
93.2716466072
 30
0.0
 11
131.7471761213
 21
93.2716466072
 31
0.0
  0
LINE
  5
A3
330
1F
100
AcDbEntity
  8
0
  6
Continuous
 62
     7
370
    25
100
AcDbLine
 10
128.2471761213
 20
71.769940685
 30
0.0
 11
128.3007659598
 21
71.569940685
 31
0.0
  0
LINE
  5
A4
330
1F
100
AcDbEntity
  8
0
  6
Continuous
 62
     7
370
    25
100
AcDbLine
 10
128.1935862828
 20
71.569940685
 30
0.0
 11
128.2471761213
 21
71.769940685
 31
0.0
  0
LINE
  5
A5
330
1F
100
AcDbEntity
  8
0
  6
Continuous
 62
     7
370
    25
100
AcDbLine
 10
128.2471761213
 20
96.7733525294
 30
0.0
 11
128.1935862828
 21
96.9733525294
 31
0.0
  0
LINE
  5
A6
330
1F
100
AcDbEntity
  8
0
  6
Continuous
 62
     7
370
    25
100
AcDbLine
 10
128.3007659598
 20
96.9733525294
 30
0.0
 11
128.2471761213
 21
96.7733525294
 31
0.0
  0
LINE
  5
A7
330
1F
100
AcDbEntity
  8
0
  6
Continuous
 62
     7
370
    25
100
AcDbLine
 10
153.216087208
 20
92.2716466072
 30
0.0
 11
153.216087208
 21
76.2716466072
 31
0.0
  0
LINE
  5
A8
330
1F
100
AcDbEntity
  8
0
  6
Continuous
 62
     7
370
    25
100
AcDbLine
 10
159.216087208
 20
91.2716466072
 30
0.0
 11
159.216087208
 21
77.2716466072
 31
0.0
  0
LINE
  5
A9
330
1F
100
AcDbEntity
  8
0
  6
Continuous
 62
     7
370
    25
100
AcDbLine
 10
163.716087208
 20
91.2716466072
 30
0.0
 11
163.716087208
 21
77.2716466072
 31
0.0
  0
LINE
  5
AA
330
1F
100
AcDbEntity
  8
0
  6
Continuous
 62
     7
370
    25
100
AcDbLine
 10
172.716087208
 20
91.2716466072
 30
0.0
 11
172.716087208
 21
77.2716466072
 31
0.0
  0
LINE
  5
AB
330
1F
100
AcDbEntity
  8
0
  6
Continuous
 62
     7
370
    25
100
AcDbLine
 10
183.0207009529
 20
77.9414097316
 30
0.0
 11
183.0207009529
 21
90.6018834828
 31
0.0
  0
LINE
  5
AC
330
1F
100
AcDbEntity
  8
0
  6
Continuous
 62
     7
370
    25
100
AcDbLine
 10
177.216087208
 20
91.2716466072
 30
0.0
 11
177.216087208
 21
77.2716466072
 31
0.0
  0
LINE
  5
AD
330
1F
100
AcDbEntity
  8
0
  6
Continuous
 62
     7
370
    25
100
AcDbLine
 10
168.216087208
 20
91.2716466072
 30
0.0
 11
168.216087208
 21
77.2716466072
 31
0.0
  0
LINE
  5
AE
330
1F
100
AcDbEntity
  8
0
  6
Continuous
 62
     7
370
    25
100
AcDbLine
 10
183.716087208
 20
89.7250921177
 30
0.0
 11
183.716087208
 21
78.8182010968
 31
0.0
  0
LINE
  5
AF
330
1F
100
AcDbEntity
  8
0
  6
Continuous
 62
     7
370
    25
100
AcDbLine
 10
144.716087208
 20
91.7316488787
 30
0.0
 11
144.5821126118
 21
91.1998498375
 31
0.0
  0
LINE
  5
B0
330
1F
100
AcDbEntity
  8
0
  6
Continuous
 62
     7
370
    25
100
AcDbLine
 10
144.716087208
 20
91.7316488787
 30
0.0
 11
144.716087208
 21
90.136251755
 31
0.0
  0
LINE
  5
B1
330
1F
100
AcDbEntity
  8
0
  6
Continuous
 62
     7
370
    25
100
AcDbLine
 10
144.5821126118
 20
91.1998498375
 30
0.0
 11
144.716087208
 21
90.136251755
 31
0.0
  0
LINE
  5
B2
330
1F
100
AcDbEntity
  8
0
  6
Continuous
 62
     7
370
    25
100
AcDbLine
 10
144.8500618043
 20
91.1998498375
 30
0.0
 11
144.716087208
 21
90.136251755
 31
0.0
  0
LINE
  5
B3
330
1F
100
AcDbEntity
  8
0
  6
Continuous
 62
     7
370
    25
100
AcDbLine
 10
149.499952871
 20
91.1998498375
 30
0.0
 11
144.8500618043
 21
91.1998498375
 31
0.0
  0
SPLINE
  5
B4
330
1F
100
AcDbEntity
  8
0
  6
Continuous
 62
     7
370
    25
100
AcDbSpline
210
0.0
220
0.0
230
1.0
 70
     8
 71
     3
 72
    16
 73
    12
 74
     0
 42
0.000000001
 43
0.00000001
 40
0.0
 40
0.0
 40
0.0
 40
0.0
 40
0.0915356978782496
 40
0.183063343223533
 40
0.2753996771146607
 40
0.3677267146962474
 40
0.4925705318074073
 40
0.6174129202940688
 40
0.7455832490327828
 40
0.8737882839722001
 40
1.0
 40
1.0
 40
1.0
 40
1.0
 10
149.499952871015
 20
91.19984983748637
 30
0.0
 10
149.614748219687
 20
90.78625010893214
 30
0.0
 10
149.8443288183116
 20
89.95908703681364
 30
0.0
 10
150.125563179845
 20
88.69821180533076
 30
0.0
 10
150.348886137233
 20
87.42213239026401
 30
0.0
 10
150.5202467870143
 20
85.98029928409284
 30
0.0
 10
150.5951933206701
 20
84.376570529187
 30
0.0
 10
150.5306017324361
 20
82.60392818653776
 30
0.0
 10
150.3131113763687
 20
80.82805843769958
 30
0.0
 10
149.9708208757954
 20
79.06533909778496
 30
0.0
 10
149.6560869073762
 20
77.9144028100673
 30
0.0
 10
149.499952871015
 20
77.34344337693535
 30
0.0
  0
LINE
  5
B5
330
1F
100
AcDbEntity
  8
0
  6
Continuous
 62
     7
370
    25
100
AcDbLine
 10
149.499952871
 20
77.3434433769
 30
0.0
 11
144.8500618043
 21
77.3434433769
 31
0.0
  0
LINE
  5
B6
330
1F
100
AcDbEntity
  8
0
  6
Continuous
 62
     7
370
    25
100
AcDbLine
 10
144.716087208
 20
78.4070414594
 30
0.0
 11
144.8500618043
 21
77.3434433769
 31
0.0
  0
LINE
  5
B7
330
1F
100
AcDbEntity
  8
0
  6
Continuous
 62
     7
370
    25
100
AcDbLine
 10
144.716087208
 20
78.4070414594
 30
0.0
 11
144.5821126118
 21
77.3434433769
 31
0.0
  0
LINE
  5
B8
330
1F
100
AcDbEntity
  8
0
  6
Continuous
 62
     7
370
    25
100
AcDbLine
 10
144.5821126118
 20
77.3434433769
 30
0.0
 11
139.9322215451
 21
77.3434433769
 31
0.0
  0
SPLINE
  5
B9
330
1F
100
AcDbEntity
  8
0
  6
Continuous
 62
     7
370
    25
100
AcDbSpline
210
0.0
220
0.0
230
1.0
 70
     8
 71
     3
 72
    16
 73
    12
 74
     0
 42
0.000000001
 43
0.00000001
 40
0.0
 40
0.0
 40
0.0
 40
0.0
 40
0.0915356978782496
 40
0.183063343223533
 40
0.2753996771146608
 40
0.3677267146962475
 40
0.4925705318074075
 40
0.6174129202940689
 40
0.7455832490327831
 40
0.8737882839722002
 40
1.0
 40
1.0
 40
1.0
 40
1.0
 10
139.9322215450588
 20
91.19984983748637
 30
0.0
 10
139.8174261963868
 20
90.78625010893214
 30
0.0
 10
139.5878455977622
 20
89.95908703681364
 30
0.0
 10
139.3066112362289
 20
88.69821180533076
 30
0.0
 10
139.0832882788408
 20
87.42213239026401
 30
0.0
 10
138.9119276290595
 20
85.98029928409284
 30
0.0
 10
138.8369810954036
 20
84.376570529187
 30
0.0
 10
138.9015726836377
 20
82.60392818653776
 30
0.0
 10
139.1190630397051
 20
80.82805843769958
 30
0.0
 10
139.4613535402784
 20
79.06533909778496
 30
0.0
 10
139.7760875086975
 20
77.9144028100673
 30
0.0
 10
139.9322215450588
 20
77.34344337693535
 30
0.0
  0
LINE
  5
BA
330
1F
100
AcDbEntity
  8
0
  6
Continuous
 62
     7
370
    25
100
AcDbLine
 10
144.5821126118
 20
91.1998498375
 30
0.0
 11
139.9322215451
 21
91.1998498375
 31
0.0
  0
LINE
  5
BB
330
1F
100
AcDbEntity
  8
0
  6
Continuous
 62
     7
370
    25
100
AcDbLine
 10
144.8500618043
 20
98.1280530678
 30
0.0
 11
144.716087208
 21
97.5962540265
 31
0.0
  0
LINE
  5
BC
330
1F
100
AcDbEntity
  8
0
  6
Continuous
 62
     7
370
    25
100
AcDbLine
 10
149.499952871
 20
98.1280530678
 30
0.0
 11
144.8500618043
 21
98.1280530678
 31
0.0
  0
SPLINE
  5
BD
330
1F
100
AcDbEntity
  8
0
  6
Continuous
 62
     7
370
    25
100
AcDbSpline
210
0.0
220
0.0
230
1.0
 70
     8
 71
     3
 72
    15
 73
    11
 74
     0
 42
0.000000001
 43
0.00000001
 40
0.0
 40
0.0
 40
0.0
 40
0.0
 40
0.1323065044264403
 40
0.2645755999739297
 40
0.3998036789671094
 40
0.5350073556765895
 40
0.6501969475405023
 40
0.7654045076453768
 40
0.882690914416897
 40
1.0
 40
1.0
 40
1.0
 40
1.0
 10
149.499952871015
 20
98.12805306776188
 30
0.0
 10
149.6631119529327
 20
97.82872424499128
 30
0.0
 10
149.989383984506
 20
97.23015123289834
 30
0.0
 10
150.3404386875259
 20
96.30840145610556
 30
0.0
 10
150.5515154730551
 20
95.369276342355
 30
0.0
 10
150.5933127833407
 20
94.46417544431179
 30
0.0
 10
150.4848541506399
 20
93.60797873952725
 30
0.0
 10
150.262628241579
 20
92.79994623071775
 30
0.0
 10
149.9366504682927
 20
91.99556716160781
 30
0.0
 10
149.6455281178993
 20
91.46510603910316
 30
0.0
 10
149.499952871015
 20
91.19984983748637
 30
0.0
  0
LINE
  5
BE
330
1F
100
AcDbEntity
  8
0
  6
Continuous
 62
     7
370
    25
100
AcDbLine
 10
144.716087208
 20
91.7316488787
 30
0.0
 11
144.8500618043
 21
91.1998498375
 31
0.0
  0
SPLINE
  5
BF
330
1F
100
AcDbEntity
  8
0
  6
Continuous
 62
     7
370
    25
100
AcDbSpline
210
0.0
220
0.0
230
1.0
 70
     8
 71
     3
 72
    15
 73
    11
 74
     0
 42
0.000000001
 43
0.00000001
 40
0.0
 40
0.0
 40
0.0
 40
0.0
 40
0.1323065044264403
 40
0.2645755999739298
 40
0.3998036789671094
 40
0.5350073556765895
 40
0.6501969475405023
 40
0.7654045076453768
 40
0.882690914416897
 40
1.0
 40
1.0
 40
1.0
 40
1.0
 10
139.9322215450588
 20
98.12805306776188
 30
0.0
 10
139.7690624631411
 20
97.82872424499128
 30
0.0
 10
139.4427904315678
 20
97.23015123289834
 30
0.0
 10
139.0917357285479
 20
96.30840145610556
 30
0.0
 10
138.8806589430187
 20
95.369276342355
 30
0.0
 10
138.8388616327331
 20
94.46417544431179
 30
0.0
 10
138.9473202654339
 20
93.60797873952725
 30
0.0
 10
139.1695461744948
 20
92.79994623071775
 30
0.0
 10
139.4955239477811
 20
91.99556716160781
 30
0.0
 10
139.7866462981745
 20
91.46510603910316
 30
0.0
 10
139.9322215450588
 20
91.19984983748637
 30
0.0
  0
LINE
  5
C0
330
1F
100
AcDbEntity
  8
0
  6
Continuous
 62
     7
370
    25
100
AcDbLine
 10
144.5821126118
 20
98.1280530678
 30
0.0
 11
139.9322215451
 21
98.1280530678
 31
0.0
  0
LINE
  5
C1
330
1F
100
AcDbEntity
  8
0
  6
Continuous
 62
     7
370
    25
100
AcDbLine
 10
144.5821126118
 20
98.1280530678
 30
0.0
 11
144.716087208
 21
97.5962540265
 31
0.0
  0
SPLINE
  5
C2
330
1F
100
AcDbEntity
  8
0
  6
Continuous
 62
     7
370
    25
100
AcDbSpline
210
0.0
220
0.0
230
1.0
 70
     8
 71
     3
 72
    15
 73
    11
 74
     0
 42
0.000000001
 43
0.00000001
 40
0.0
 40
0.0
 40
0.0
 40
0.0
 40
0.1323065044264403
 40
0.2645755999739298
 40
0.3998036789671094
 40
0.5350073556765895
 40
0.6501969475405022
 40
0.7654045076453765
 40
0.8826909144168967
 40
1.0
 40
1.0
 40
1.0
 40
1.0
 10
149.499952871015
 20
77.34344337693535
 30
0.0
 10
149.6631119529327
 20
77.04411455416475
 30
0.0
 10
149.989383984506
 20
76.44554154207181
 30
0.0
 10
150.3404386875259
 20
75.52379176527903
 30
0.0
 10
150.5515154730551
 20
74.58466665152847
 30
0.0
 10
150.5933127833407
 20
73.67956575348526
 30
0.0
 10
150.4848541506399
 20
72.82336904870073
 30
0.0
 10
150.262628241579
 20
72.01533653989122
 30
0.0
 10
149.9366504682927
 20
71.2109574707813
 30
0.0
 10
149.6455281178993
 20
70.68049634827663
 30
0.0
 10
149.499952871015
 20
70.41524014665985
 30
0.0
  0
LINE
  5
C3
330
1F
100
AcDbEntity
  8
0
  6
Continuous
 62
     7
370
    25
100
AcDbLine
 10
150.716087208
 20
96.0216466072
 30
0.0
 11
150.716087208
 21
72.5216466072
 31
0.0
  0
SPLINE
  5
C4
330
1F
100
AcDbEntity
  8
0
  6
Continuous
 62
     7
370
    25
100
AcDbSpline
210
0.0
220
0.0
230
1.0
 70
     8
 71
     3
 72
    15
 73
    11
 74
     0
 42
0.000000001
 43
0.00000001
 40
0.0
 40
0.0
 40
0.0
 40
0.0
 40
0.1323065044264403
 40
0.2645755999739298
 40
0.3998036789671094
 40
0.5350073556765895
 40
0.6501969475405022
 40
0.7654045076453765
 40
0.8826909144168967
 40
1.0
 40
1.0
 40
1.0
 40
1.0
 10
139.9322215450588
 20
77.34344337693535
 30
0.0
 10
139.7690624631411
 20
77.04411455416475
 30
0.0
 10
139.4427904315678
 20
76.44554154207181
 30
0.0
 10
139.0917357285479
 20
75.52379176527903
 30
0.0
 10
138.8806589430187
 20
74.58466665152847
 30
0.0
 10
138.8388616327331
 20
73.67956575348526
 30
0.0
 10
138.9473202654339
 20
72.82336904870073
 30
0.0
 10
139.1695461744948
 20
72.01533653989122
 30
0.0
 10
139.4955239477811
 20
71.2109574707813
 30
0.0
 10
139.7866462981745
 20
70.68049634827663
 30
0.0
 10
139.9322215450588
 20
70.41524014665985
 30
0.0
  0
LINE
  5
C5
330
1F
100
AcDbEntity
  8
0
  6
Continuous
 62
     7
370
    25
100
AcDbLine
 10
138.716087208
 20
96.0216466072
 30
0.0
 11
138.716087208
 21
72.5216466072
 31
0.0
  0
LINE
  5
C6
330
1F
100
AcDbEntity
  8
0
  6
Continuous
 62
     7
370
    25
100
AcDbLine
 10
144.716087208
 20
78.4070414594
 30
0.0
 11
144.716087208
 21
76.8116443357
 31
0.0
  0
LINE
  5
C7
330
1F
100
AcDbEntity
  8
0
  6
Continuous
 62
     7
370
    25
100
AcDbLine
 10
144.5821126118
 20
77.3434433769
 30
0.0
 11
144.716087208
 21
76.8116443357
 31
0.0
  0
LINE
  5
C8
330
1F
100
AcDbEntity
  8
0
  6
Continuous
 62
     7
370
    25
100
AcDbLine
 10
144.8500618043
 20
77.3434433769
 30
0.0
 11
144.716087208
 21
76.8116443357
 31
0.0
  0
LINE
  5
C9
330
1F
100
AcDbEntity
  8
0
  6
Continuous
 62
     7
370
    25
100
AcDbLine
 10
149.499952871
 20
70.4152401467
 30
0.0
 11
144.8500618043
 21
70.4152401467
 31
0.0
  0
LINE
  5
CA
330
1F
100
AcDbEntity
  8
0
  6
Continuous
 62
     7
370
    25
100
AcDbLine
 10
144.716087208
 20
70.9470391879
 30
0.0
 11
144.8500618043
 21
70.4152401467
 31
0.0
  0
LINE
  5
CB
330
1F
100
AcDbEntity
  8
0
  6
Continuous
 62
     7
370
    25
100
AcDbLine
 10
144.716087208
 20
70.9470391879
 30
0.0
 11
144.5821126118
 21
70.4152401467
 31
0.0
  0
LINE
  5
CC
330
1F
100
AcDbEntity
  8
0
  6
Continuous
 62
     7
370
    25
100
AcDbLine
 10
144.5821126118
 20
70.4152401467
 30
0.0
 11
139.9322215451
 21
70.4152401467
 31
0.0
  0
LINE
  5
CD
330
1F
100
AcDbEntity
  8
0
  6
Continuous
 62
     7
370
    25
100
AcDbLine
 10
137.216087208
 20
84.2716466072
 30
0.0
 11
137.216087208
 21
72.5216466072
 31
0.0
  0
LINE
  5
CE
330
1F
100
AcDbEntity
  8
0
  6
Continuous
 62
     7
370
    25
100
AcDbLine
 10
137.216087208
 20
96.0216466072
 30
0.0
 11
137.216087208
 21
84.2716466072
 31
0.0
  0
LINE
  5
CF
330
1F
100
AcDbEntity
  8
0
  6
Continuous
 62
     7
370
    25
100
AcDbLine
 10
152.216087208
 20
72.5216466072
 30
0.0
 11
152.216087208
 21
96.0216466072
 31
0.0
  0
LINE
  5
D0
330
1F
100
AcDbEntity
  8
0
  6
Continuous
 62
     7
370
    25
100
AcDbLine
 10
152.716087208
 20
95.5216466072
 30
0.0
 11
152.716087208
 21
73.0216466072
 31
0.0
  0
LINE
  5
D1
330
1F
100
AcDbEntity
  8
0
  6
Continuous
 62
     7
370
    25
100
AcDbLine
 10
136.716087208
 20
84.2716466072
 30
0.0
 11
136.716087208
 21
95.5216466072
 31
0.0
  0
LINE
  5
D2
330
1F
100
AcDbEntity
  8
0
  6
Continuous
 62
     7
370
    25
100
AcDbLine
 10
136.716087208
 20
73.0216466072
 30
0.0
 11
136.716087208
 21
84.2716466072
 31
0.0
  0
LINE
  5
D3
330
1F
100
AcDbEntity
  8
0
  6
Continuous
 62
     7
370
    25
100
AcDbLine
 10
144.716087208
 20
97.6280530678
 30
0.0
 11
144.716087208
 21
97.5962540265
 31
0.0
  0
LINE
  5
D4
330
1F
100
AcDbEntity
  8
0
  6
Continuous
 62
     7
370
    25
100
AcDbLine
 10
144.716087208
 20
70.9470391879
 30
0.0
 11
144.716087208
 21
70.9152401467
 31
0.0
  0
LINE
  5
D5
330
1F
100
AcDbEntity
  8
0
  6
Continuous
 62
     7
370
    25
100
AcDbLine
 10
125.8739940608
 20
71.569940685
 30
0.0
 11
128.1935862828
 21
71.569940685
 31
0.0
  0
SPLINE
  5
D6
330
1F
100
AcDbEntity
  8
0
  6
Continuous
 62
     7
370
    25
100
AcDbSpline
210
0.0
220
0.0
230
1.0
 70
     8
 71
     3
 72
    16
 73
    12
 74
     0
 42
0.000000001
 43
0.00000001
 40
0.0
 40
0.0
 40
0.0
 40
0.0
 40
0.2500000000000002
 40
0.2500000000000002
 40
0.5000000000000003
 40
0.5000000000000003
 40
0.6250000000000002
 40
0.6250000000000002
 40
0.7500000000000001
 40
0.7500000000000001
 40
1.0
 40
1.0
 40
1.0
 40
1.0
 10
125.873994060827
 20
77.92079364612512
 30
0.0
 10
125.5746455026439
 20
77.40230673417962
 30
0.0
 10
125.3279280757824
 20
76.88003966386297
 30
0.0
 10
124.9861443434261
 20
75.82461339073062
 30
0.0
 10
124.8922054350411
 20
75.29137321417339
 30
0.0
 10
124.8911736135616
 20
74.48146650981627
 30
0.0
 10
124.914138020418
 20
74.21022715477417
 30
0.0
 10
125.0036871467035
 20
73.6736871293049
 30
0.0
 10
125.0701809807711
 20
73.40721593515394
 30
0.0
 10
125.3269442775849
 20
72.6125465062691
 30
0.0
 10
125.5742723366053
 20
72.08907393952343
 30
0.0
 10
125.8739940608271
 20
71.5699406850391
 30
0.0
  0
LINE
  5
D7
330
1F
100
AcDbEntity
  8
0
  6
Continuous
 62
     7
370
    25
100
AcDbLine
 10
125.8739940608
 20
77.9207936461
 30
0.0
 11
128.1935862828
 21
77.9207936461
 31
0.0
  0
SPLINE
  5
D8
330
1F
100
AcDbEntity
  8
0
  6
Continuous
 62
     7
370
    25
100
AcDbSpline
210
0.0
220
0.0
230
1.0
 70
     8
 71
     3
 72
     8
 73
     4
 74
     0
 42
0.000000001
 43
0.00000001
 40
0.0
 40
0.0
 40
0.0
 40
0.0
 40
1.0
 40
1.0
 40
1.0
 40
1.0
 10
128.2471761212825
 20
77.71574807400384
 30
0.0
 10
128.2297611055024
 20
77.78413428823069
 30
0.0
 10
128.2118902854451
 20
77.85248217825774
 30
0.0
 10
128.1935862827962
 20
77.9207936461251
 30
0.0
  0
SPLINE
  5
D9
330
1F
100
AcDbEntity
  8
0
  6
Continuous
 62
     7
370
    25
100
AcDbSpline
210
0.0
220
0.0
230
1.0
 70
     8
 71
     3
 72
     8
 73
     4
 74
     0
 42
0.000000001
 43
0.00000001
 40
0.0
 40
0.0
 40
0.0
 40
0.0
 40
1.0
 40
1.0
 40
1.0
 40
1.0
 10
128.3007659597687
 20
77.92079364612509
 30
0.0
 10
128.2824579205173
 20
77.85246711345218
 30
0.0
 10
128.2645872325361
 20
77.78411895572802
 30
0.0
 10
128.2471761212825
 20
77.71574807400384
 30
0.0
  0
LINE
  5
DA
330
1F
100
AcDbEntity
  8
0
  6
Continuous
 62
     7
370
    25
100
AcDbLine
 10
128.3007659598
 20
77.9207936461
 30
0.0
 11
130.6203581817
 21
77.9207936461
 31
0.0
  0
SPLINE
  5
DB
330
1F
100
AcDbEntity
  8
0
  6
Continuous
 62
     7
370
    25
100
AcDbSpline
210
0.0
220
0.0
230
1.0
 70
     8
 71
     3
 72
    16
 73
    12
 74
     0
 42
0.000000001
 43
0.00000001
 40
0.0
 40
0.0
 40
0.0
 40
0.0
 40
0.2500000000000003
 40
0.2500000000000003
 40
0.5000000000000006
 40
0.5000000000000006
 40
0.6250000000000004
 40
0.6250000000000004
 40
0.7500000000000003
 40
0.7500000000000003
 40
1.0
 40
1.0
 40
1.0
 40
1.0
 10
130.6203581817379
 20
77.92079364612512
 30
0.0
 10
130.9197067399209
 20
77.40230673417962
 30
0.0
 10
131.1664241667825
 20
76.88003966386297
 30
0.0
 10
131.5082078991388
 20
75.82461339073062
 30
0.0
 10
131.6021468075238
 20
75.29137321417339
 30
0.0
 10
131.6031786290033
 20
74.48146650981627
 30
0.0
 10
131.5802142221469
 20
74.21022715477417
 30
0.0
 10
131.4906650958613
 20
73.6736871293049
 30
0.0
 10
131.4241712617938
 20
73.40721593515394
 30
0.0
 10
131.16740796498
 20
72.6125465062691
 30
0.0
 10
130.9200799059595
 20
72.08907393952342
 30
0.0
 10
130.6203581817377
 20
71.5699406850391
 30
0.0
  0
LINE
  5
DC
330
1F
100
AcDbEntity
  8
0
  6
Continuous
 62
     7
370
    25
100
AcDbLine
 10
128.3007659598
 20
71.569940685
 30
0.0
 11
130.6203581817
 21
71.569940685
 31
0.0
  0
SPLINE
  5
DD
330
1F
100
AcDbEntity
  8
0
  6
Continuous
 62
     7
370
    25
100
AcDbSpline
210
0.0
220
0.0
230
1.0
 70
     8
 71
     3
 72
     8
 73
     4
 74
     0
 42
0.000000001
 43
0.00000001
 40
0.0
 40
0.0
 40
0.0
 40
0.0
 40
1.0
 40
1.0
 40
1.0
 40
1.0
 10
128.2471761212825
 20
71.77498625716035
 30
0.0
 10
128.2645911370625
 20
71.7066000429335
 30
0.0
 10
128.2824619571198
 20
71.63825215290645
 30
0.0
 10
128.3007659597687
 20
71.56994068503911
 30
0.0
  0
SPLINE
  5
DE
330
1F
100
AcDbEntity
  8
0
  6
Continuous
 62
     7
370
    25
100
AcDbSpline
210
0.0
220
0.0
230
1.0
 70
     8
 71
     3
 72
     8
 73
     4
 74
     0
 42
0.000000001
 43
0.00000001
 40
0.0
 40
0.0
 40
0.0
 40
0.0
 40
1.0
 40
1.0
 40
1.0
 40
1.0
 10
128.1935862827962
 20
71.56994068503911
 30
0.0
 10
128.2118943220476
 20
71.63826721771203
 30
0.0
 10
128.2297650100288
 20
71.70661537543617
 30
0.0
 10
128.2471761212825
 20
71.77498625716035
 30
0.0
  0
SPLINE
  5
DF
330
1F
100
AcDbEntity
  8
0
  6
Continuous
 62
     7
370
    25
100
AcDbSpline
210
0.0
220
0.0
230
1.0
 70
     8
 71
     3
 72
     8
 73
     4
 74
     0
 42
0.000000001
 43
0.00000001
 40
0.0
 40
0.0
 40
0.0
 40
0.0
 40
1.0
 40
1.0
 40
1.0
 40
1.0
 10
128.1935862827962
 20
77.9207936461251
 30
0.0
 10
128.2118949142691
 20
78.05745113187271
 30
0.0
 10
128.229765582581
 20
78.19414752357648
 30
0.0
 10
128.2471761212825
 20
78.33088479036756
 30
0.0
  0
LINE
  5
E0
330
1F
100
AcDbEntity
  8
0
  6
Continuous
 62
     7
370
    25
100
AcDbLine
 10
128.2471761213
 20
77.715748074
 30
0.0
 11
128.2471761213
 21
78.3308847904
 31
0.0
  0
SPLINE
  5
E1
330
1F
100
AcDbEntity
  8
0
  6
Continuous
 62
     7
370
    25
100
AcDbSpline
210
0.0
220
0.0
230
1.0
 70
     8
 71
     3
 72
    16
 73
    12
 74
     0
 42
0.000000001
 43
0.00000001
 40
0.0
 40
0.0
 40
0.0
 40
0.0
 40
0.25
 40
0.25
 40
0.5
 40
0.5
 40
0.625
 40
0.625
 40
0.75
 40
0.75
 40
1.0
 40
1.0
 40
1.0
 40
1.0
 10
130.6203581817376
 20
77.92079364612509
 30
0.0
 10
130.9187743739581
 20
78.9545376595794
 30
0.0
 10
131.1688398479979
 20
80.01264362581846
 30
0.0
 10
131.5106906624318
 20
82.13313078442972
 30
0.0
 10
131.6029571408418
 20
83.19971688882035
 30
0.0
 10
131.6027790860136
 20
84.81077002160036
 30
0.0
 10
131.5798933704494
 20
85.34962829644238
 30
0.0
 10
131.4890028850317
 20
86.43098294211859
 30
0.0
 10
131.4216863081078
 20
86.96606602170826
 30
0.0
 10
131.1634942106575
 20
88.5558989268059
 30
0.0
 10
130.9167316556794
 20
89.59583173853113
 30
0.0
 10
130.6203581817376
 20
90.6224995682969
 30
0.0
  0
SPLINE
  5
E2
330
1F
100
AcDbEntity
  8
0
  6
Continuous
 62
     7
370
    25
100
AcDbSpline
210
0.0
220
0.0
230
1.0
 70
     8
 71
     3
 72
    16
 73
    12
 74
     0
 42
0.000000001
 43
0.00000001
 40
0.0
 40
0.0
 40
0.0
 40
0.0
 40
0.2499999999999999
 40
0.2499999999999999
 40
0.4999999999999999
 40
0.4999999999999999
 40
0.6249999999999999
 40
0.6249999999999999
 40
0.7499999999999998
 40
0.7499999999999998
 40
1.0
 40
1.0
 40
1.0
 40
1.0
 10
130.6203581817379
 20
96.97335252938268
 30
0.0
 10
130.9197067399209
 20
96.4548656174372
 30
0.0
 10
131.1664241667825
 20
95.93259854712058
 30
0.0
 10
131.5082078991387
 20
94.87717227398826
 30
0.0
 10
131.6021468075237
 20
94.34393209743106
 30
0.0
 10
131.6031786290032
 20
93.53402539307396
 30
0.0
 10
131.5802142221469
 20
93.26278603803188
 30
0.0
 10
131.4906650958613
 20
92.72624601256263
 30
0.0
 10
131.4241712617937
 20
92.45977481841166
 30
0.0
 10
131.16740796498
 20
91.66510538952686
 30
0.0
 10
130.9200799059595
 20
91.1416328227812
 30
0.0
 10
130.6203581817377
 20
90.62249956829687
 30
0.0
  0
LINE
  5
E3
330
1F
100
AcDbEntity
  8
0
  6
Continuous
 62
     7
370
    25
100
AcDbLine
 10
131.7471761213
 20
95.0216466072
 30
0.0
 11
131.7471761213
 21
73.5216466072
 31
0.0
  0
SPLINE
  5
E4
330
1F
100
AcDbEntity
  8
0
  6
Continuous
 62
     7
370
    25
100
AcDbSpline
210
0.0
220
0.0
230
1.0
 70
     8
 71
     3
 72
     8
 73
     4
 74
     0
 42
0.000000001
 43
0.00000001
 40
0.0
 40
0.0
 40
0.0
 40
0.0
 40
1.0
 40
1.0
 40
1.0
 40
1.0
 10
128.2471761212825
 20
78.33088479036756
 30
0.0
 10
128.2645909361921
 20
78.19411393949076
 30
0.0
 10
128.2824617495423
 20
78.05741813123927
 30
0.0
 10
128.3007659597687
 20
77.92079364612509
 30
0.0
  0
SPLINE
  5
E5
330
1F
100
AcDbEntity
  8
0
  6
Continuous
 62
     7
370
    25
100
AcDbSpline
210
0.0
220
0.0
230
1.0
 70
     8
 71
     3
 72
    16
 73
    12
 74
     0
 42
0.000000001
 43
0.00000001
 40
0.0
 40
0.0
 40
0.0
 40
0.0
 40
0.25
 40
0.25
 40
0.5
 40
0.5
 40
0.625
 40
0.625
 40
0.75
 40
0.75
 40
1.0
 40
1.0
 40
1.0
 40
1.0
 10
125.8739940608272
 20
77.92079364612509
 30
0.0
 10
125.5755778686068
 20
78.9545376595794
 30
0.0
 10
125.3255123945669
 20
80.01264362581846
 30
0.0
 10
124.983661580133
 20
82.13313078442972
 30
0.0
 10
124.891395101723
 20
83.19971688882035
 30
0.0
 10
124.8915731565512
 20
84.81077002160036
 30
0.0
 10
124.9144588721155
 20
85.34962829644238
 30
0.0
 10
125.0053493575332
 20
86.43098294211859
 30
0.0
 10
125.072665934457
 20
86.96606602170826
 30
0.0
 10
125.3308580319073
 20
88.5558989268059
 30
0.0
 10
125.5776205868855
 20
89.59583173853113
 30
0.0
 10
125.8739940608273
 20
90.6224995682969
 30
0.0
  0
LINE
  5
E6
330
1F
100
AcDbEntity
  8
0
  6
Continuous
 62
     7
370
    25
100
AcDbLine
 10
125.8739940608
 20
90.6224995683
 30
0.0
 11
128.1935862828
 21
90.6224995683
 31
0.0
  0
SPLINE
  5
E7
330
1F
100
AcDbEntity
  8
0
  6
Continuous
 62
     7
370
    25
100
AcDbSpline
210
0.0
220
0.0
230
1.0
 70
     8
 71
     3
 72
     8
 73
     4
 74
     0
 42
0.000000001
 43
0.00000001
 40
0.0
 40
0.0
 40
0.0
 40
0.0
 40
1.0
 40
1.0
 40
1.0
 40
1.0
 10
128.2471761212825
 20
90.21240842405443
 30
0.0
 10
128.2297613063728
 20
90.34917927493122
 30
0.0
 10
128.2118904930225
 20
90.4858750831827
 30
0.0
 10
128.1935862827962
 20
90.62249956829689
 30
0.0
  0
SPLINE
  5
E8
330
1F
100
AcDbEntity
  8
0
  6
Continuous
 62
     7
370
    25
100
AcDbSpline
210
0.0
220
0.0
230
1.0
 70
     8
 71
     3
 72
     8
 73
     4
 74
     0
 42
0.000000001
 43
0.00000001
 40
0.0
 40
0.0
 40
0.0
 40
0.0
 40
1.0
 40
1.0
 40
1.0
 40
1.0
 10
128.3007659597687
 20
90.62249956829689
 30
0.0
 10
128.2824573282958
 20
90.48584208254928
 30
0.0
 10
128.2645866599838
 20
90.34914569084552
 30
0.0
 10
128.2471761212825
 20
90.21240842405443
 30
0.0
  0
LINE
  5
E9
330
1F
100
AcDbEntity
  8
0
  6
Continuous
 62
     7
370
    25
100
AcDbLine
 10
128.3007659598
 20
90.6224995683
 30
0.0
 11
130.6203581817
 21
90.6224995683
 31
0.0
  0
SPLINE
  5
EA
330
1F
100
AcDbEntity
  8
0
  6
Continuous
 62
     7
370
    25
100
AcDbSpline
210
0.0
220
0.0
230
1.0
 70
     8
 71
     3
 72
    16
 73
    12
 74
     0
 42
0.000000001
 43
0.00000001
 40
0.0
 40
0.0
 40
0.0
 40
0.0
 40
0.2499999999999999
 40
0.2499999999999999
 40
0.4999999999999999
 40
0.4999999999999999
 40
0.6249999999999999
 40
0.6249999999999999
 40
0.7499999999999998
 40
0.7499999999999998
 40
1.0
 40
1.0
 40
1.0
 40
1.0
 10
125.873994060827
 20
96.97335252938268
 30
0.0
 10
125.574645502644
 20
96.4548656174372
 30
0.0
 10
125.3279280757824
 20
95.93259854712058
 30
0.0
 10
124.9861443434261
 20
94.87717227398826
 30
0.0
 10
124.8922054350411
 20
94.34393209743106
 30
0.0
 10
124.8911736135616
 20
93.53402539307396
 30
0.0
 10
124.914138020418
 20
93.26278603803188
 30
0.0
 10
125.0036871467036
 20
92.72624601256263
 30
0.0
 10
125.0701809807711
 20
92.45977481841166
 30
0.0
 10
125.3269442775849
 20
91.66510538952686
 30
0.0
 10
125.5742723366053
 20
91.1416328227812
 30
0.0
 10
125.8739940608271
 20
90.62249956829687
 30
0.0
  0
LINE
  5
EB
330
1F
100
AcDbEntity
  8
0
  6
Continuous
 62
     7
370
    25
100
AcDbLine
 10
124.7471761213
 20
95.0216466072
 30
0.0
 11
124.7471761213
 21
73.5216466072
 31
0.0
  0
LINE
  5
EC
330
1F
100
AcDbEntity
  8
0
  6
Continuous
 62
     7
370
    25
100
AcDbLine
 10
128.2471761213
 20
90.2124084241
 30
0.0
 11
128.2471761213
 21
90.8275451404
 31
0.0
  0
SPLINE
  5
ED
330
1F
100
AcDbEntity
  8
0
  6
Continuous
 62
     7
370
    25
100
AcDbSpline
210
0.0
220
0.0
230
1.0
 70
     8
 71
     3
 72
     8
 73
     4
 74
     0
 42
0.000000001
 43
0.00000001
 40
0.0
 40
0.0
 40
0.0
 40
0.0
 40
1.0
 40
1.0
 40
1.0
 40
1.0
 10
128.2471761212825
 20
90.82754514041812
 30
0.0
 10
128.2645911370625
 20
90.75915892619129
 30
0.0
 10
128.2824619571198
 20
90.69081103616425
 30
0.0
 10
128.3007659597687
 20
90.62249956829689
 30
0.0
  0
SPLINE
  5
EE
330
1F
100
AcDbEntity
  8
0
  6
Continuous
 62
     7
370
    25
100
AcDbSpline
210
0.0
220
0.0
230
1.0
 70
     8
 71
     3
 72
     8
 73
     4
 74
     0
 42
0.000000001
 43
0.00000001
 40
0.0
 40
0.0
 40
0.0
 40
0.0
 40
1.0
 40
1.0
 40
1.0
 40
1.0
 10
128.1935862827962
 20
90.62249956829689
 30
0.0
 10
128.2118943220476
 20
90.69082610096982
 30
0.0
 10
128.2297650100288
 20
90.75917425869395
 30
0.0
 10
128.2471761212825
 20
90.82754514041812
 30
0.0
  0
LINE
  5
EF
330
1F
100
AcDbEntity
  8
0
  6
Continuous
 62
     7
370
    25
100
AcDbLine
 10
125.8739940608
 20
96.9733525294
 30
0.0
 11
128.1935862828
 21
96.9733525294
 31
0.0
  0
SPLINE
  5
F0
330
1F
100
AcDbEntity
  8
0
  6
Continuous
 62
     7
370
    25
100
AcDbSpline
210
0.0
220
0.0
230
1.0
 70
     8
 71
     3
 72
     8
 73
     4
 74
     0
 42
0.000000001
 43
0.00000001
 40
0.0
 40
0.0
 40
0.0
 40
0.0
 40
1.0
 40
1.0
 40
1.0
 40
1.0
 10
128.2471761212825
 20
96.76830695726142
 30
0.0
 10
128.2297611055024
 20
96.83669317148825
 30
0.0
 10
128.2118902854451
 20
96.9050410615153
 30
0.0
 10
128.1935862827962
 20
96.97335252938267
 30
0.0
  0
SPLINE
  5
F1
330
1F
100
AcDbEntity
  8
0
  6
Continuous
 62
     7
370
    25
100
AcDbSpline
210
0.0
220
0.0
230
1.0
 70
     8
 71
     3
 72
     8
 73
     4
 74
     0
 42
0.000000001
 43
0.00000001
 40
0.0
 40
0.0
 40
0.0
 40
0.0
 40
1.0
 40
1.0
 40
1.0
 40
1.0
 10
128.3007659597687
 20
96.97335252938267
 30
0.0
 10
128.2824579205173
 20
96.90502599670974
 30
0.0
 10
128.2645872325361
 20
96.8366778389856
 30
0.0
 10
128.2471761212825
 20
96.76830695726142
 30
0.0
  0
LINE
  5
F2
330
1F
100
AcDbEntity
  8
0
  6
Continuous
 62
     7
370
    25
100
AcDbLine
 10
128.3007659598
 20
96.9733525294
 30
0.0
 11
130.6203581817
 21
96.9733525294
 31
0.0
  0
LINE
  5
F3
330
1F
100
AcDbEntity
  8
0
  6
Continuous
 62
     7
370
    25
100
AcDbLine
 10
113.4435673942
 20
94.5784088345
 30
0.0
 11
113.4435673942
 21
73.9648843799
 31
0.0
  0
LINE
  5
F4
330
1F
100
AcDbEntity
  8
0
  6
Continuous
 62
     7
370
    25
100
AcDbLine
 10
135.2471761213
 20
94.7491466072
 30
0.0
 11
135.2471761213
 21
73.7941466072
 31
0.0
  0
LINE
  5
F5
330
1F
100
AcDbEntity
  8
0
  6
Continuous
 62
     7
370
    25
100
AcDbLine
 10
134.2471761213
 20
74.7941466072
 30
0.0
 11
134.2471761213
 21
93.7491466072
 31
0.0
  0
LINE
  5
F6
330
1F
100
AcDbEntity
  8
0
  6
Continuous
 62
     7
370
    25
100
AcDbLine
 10
110.7471761213
 20
84.2716466072
 30
0.0
 11
110.7471761213
 21
93.0216466072
 31
0.0
  0
LINE
  5
F7
330
1F
100
AcDbEntity
  8
0
  6
Continuous
 62
     7
370
    25
100
AcDbLine
 10
110.7471761213
 20
75.5216466072
 30
0.0
 11
110.7471761213
 21
84.2716466072
 31
0.0
  0
LINE
  5
F8
330
1F
100
AcDbEntity
  8
0
  6
Continuous
 62
     7
370
    25
100
AcDbLine
 10
128.2471761213
 20
71.769940685
 30
0.0
 11
128.2471761213
 21
71.7749862572
 31
0.0
  0
LINE
  5
F9
330
1F
100
AcDbEntity
  8
0
  6
Continuous
 62
     7
370
    25
100
AcDbLine
 10
128.2471761213
 20
96.7683069573
 30
0.0
 11
128.2471761213
 21
96.7733525294
 31
0.0
  0
LINE
  5
FA
330
1F
100
AcDbEntity
  8
0
  6
Continuous
 62
     7
370
     0
100
AcDbLine
 10
111.78270024
 20
93.6195067359
 30
0.0
 11
124.2471761213
 21
94.0090216072
 31
0.0
  0
LINE
  5
FB
330
1F
100
AcDbEntity
  8
0
  6
Continuous
 62
     7
370
     0
100
AcDbLine
 10
111.78270024
 20
74.9237864785
 30
0.0
 11
124.2471761213
 21
74.5342716072
 31
0.0
  0
LINE
  5
FC
330
1F
100
AcDbEntity
  8
0
  6
Continuous
 62
     7
370
     0
100
AcDbLine
 10
124.2471761213
 20
73.6272716072
 30
0.0
 11
124.2471761213
 21
94.9160216072
 31
0.0
  0
LINE
  5
FD
330
1F
100
AcDbEntity
  8
0
  6
CENTERX2
 62
     7
370
    18
100
AcDbLine
 10
185.716087208
 20
84.2716466072
 30
0.0
 11
108.0575109334
 21
84.2716466072
 31
0.0
  0
CIRCLE
  5
FE
330
1F
100
AcDbEntity
  8
0
  6
Continuous
 62
     7
370
    25
100
AcDbCircle
 10
215.7871981462
 20
84.2716466072
 30
0.0
 40
5.453445510451135
  0
CIRCLE
  5
FF
330
1F
100
AcDbEntity
  8
0
  6
Continuous
 62
     7
370
    25
100
AcDbCircle
 10
215.7871981462
 20
84.2716466072
 30
0.0
 40
6.330236875589558
  0
CIRCLE
  5
100
330
1F
100
AcDbEntity
  8
0
  6
Continuous
 62
     7
370
    25
100
AcDbCircle
 10
215.7871981462
 20
84.2716466072
 30
0.0
 40
5.199999999999957
  0
CIRCLE
  5
101
330
1F
100
AcDbEntity
  8
0
  6
Continuous
 62
     7
370
    25
100
AcDbCircle
 10
215.7871981462
 20
84.2716466072
 30
0.0
 40
4.999999999999999
  0
CIRCLE
  5
102
330
1F
100
AcDbEntity
  8
0
  6
Continuous
 62
     7
370
    25
100
AcDbCircle
 10
215.7871981462
 20
84.2716466072
 30
0.0
 40
6.999999999999974
  0
CIRCLE
  5
103
330
1F
100
AcDbEntity
  8
0
  6
Continuous
 62
     7
370
    25
100
AcDbCircle
 10
215.7871981462
 20
84.2716466072
 30
0.0
 40
7.999999999999992
  0
CIRCLE
  5
104
330
1F
100
AcDbEntity
  8
0
  6
Continuous
 62
     7
370
    25
100
AcDbCircle
 10
215.7871981462
 20
84.2716466072
 30
0.0
 40
11.24999999999997
  0
CIRCLE
  5
105
330
1F
100
AcDbEntity
  8
0
  6
Continuous
 62
     7
370
    25
100
AcDbCircle
 10
215.7871981462
 20
84.2716466072
 30
0.0
 40
11.74999999999997
  0
CIRCLE
  5
106
330
1F
100
AcDbEntity
  8
0
  6
Continuous
 62
     7
370
    25
100
AcDbCircle
 10
215.7871981462
 20
84.2716466072
 30
0.0
 40
8.349999999999966
  0
CIRCLE
  5
107
330
1F
100
AcDbEntity
  8
0
  6
Continuous
 62
     7
370
    25
100
AcDbCircle
 10
215.7871981462
 20
84.2716466072
 30
0.0
 40
8.249999999999972
  0
SPLINE
  5
108
330
1F
100
AcDbEntity
  8
0
  6
Continuous
 62
     7
370
    25
100
AcDbSpline
210
0.0
220
0.0
230
1.0
 70
    24
 71
     3
 72
    15
 73
    11
 74
     0
 42
0.000000001
 43
0.00000001
 40
0.0
 40
0.0
 40
0.0
 40
0.0
 40
0.1323065044264401
 40
0.2645755999739294
 40
0.3998036789671088
 40
0.535007355676589
 40
0.6501969475405016
 40
0.7654045076453762
 40
0.8826909144168965
 40
1.0
 40
1.0
 40
1.0
 40
1.0
 10
227.7871981462417
 20
91.19984983748638
 30
0.0
 10
227.2687454170332
 20
91.49917866025699
 30
0.0
 10
226.2319865480487
 20
92.09775167234991
 30
0.0
 10
224.6354691027783
 20
93.01950144914271
 30
0.0
 10
223.0088566910985
 20
93.95862656289327
 30
0.0
 10
221.4411759497114
 20
94.86372746093646
 30
0.0
 10
219.9581997557515
 20
95.71992416572103
 30
0.0
 10
218.5586463963261
 20
96.52795667453051
 30
0.0
 10
217.1654209800828
 20
97.33233574364044
 30
0.0
 10
216.2466353644647
 20
97.8627968661451
 30
0.0
 10
215.7871981462417
 20
98.1280530677619
 30
0.0
  0
SPLINE
  5
109
330
1F
100
AcDbEntity
  8
0
  6
Continuous
 62
     7
370
    25
100
AcDbSpline
210
0.0
220
0.0
230
1.0
 70
    24
 71
     3
 72
    16
 73
    12
 74
     0
 42
0.000000001
 43
0.00000001
 40
0.0
 40
0.0
 40
0.0
 40
0.0
 40
0.1262118512103692
 40
0.2512020653763511
 40
0.3761607760521393
 40
0.5042162939840997
 40
0.6322727081776326
 40
0.7237405332378762
 40
0.815217305758078
 40
0.9076044663789501
 40
1.0
 40
1.0
 40
1.0
 40
1.0
 10
227.7871981462417
 20
77.34344337693535
 30
0.0
 10
227.7871981462417
 20
77.91440068750772
 30
0.0
 10
227.7871981462417
 20
79.05078886565465
 30
0.0
 10
227.7871981462417
 20
80.78353233183927
 30
0.0
 10
227.7871981462417
 20
82.54367772481734
 30
0.0
 10
227.7871981462417
 20
84.33128859615101
 30
0.0
 10
227.7871981462417
 20
85.9613108355853
 30
0.0
 10
227.7871981462417
 20
87.41012838114543
 30
0.0
 10
227.7871981462417
 20
88.6823916194939
 30
0.0
 10
227.7871981462417
 20
89.94739830466608
 30
0.0
 10
227.7871981462417
 20
90.78235338186057
 30
0.0
 10
227.7871981462417
 20
91.19984983748638
 30
0.0
  0
SPLINE
  5
10A
330
1F
100
AcDbEntity
  8
0
  6
Continuous
 62
     7
370
    25
100
AcDbSpline
210
0.0
220
0.0
230
1.0
 70
    24
 71
     3
 72
    15
 73
    11
 74
     0
 42
0.000000001
 43
0.00000001
 40
0.0
 40
0.0
 40
0.0
 40
0.0
 40
0.1323065044264402
 40
0.2645755999739296
 40
0.3998036789671092
 40
0.5350073556765893
 40
0.6501969475405021
 40
0.7654045076453765
 40
0.8826909144168966
 40
1.0
 40
1.0
 40
1.0
 40
1.0
 10
215.7871981462417
 20
70.41524014665985
 30
0.0
 10
216.3056508754501
 20
70.71456896943046
 30
0.0
 10
217.3424097444347
 20
71.3131419815234
 30
0.0
 10
218.938927189705
 20
72.23489175831618
 30
0.0
 10
220.5655396013849
 20
73.17401687206674
 30
0.0
 10
222.1332203427719
 20
74.07911777010993
 30
0.0
 10
223.6161965367318
 20
74.93531447489448
 30
0.0
 10
225.0157498961572
 20
75.74334698370399
 30
0.0
 10
226.4089753124006
 20
76.54772605281393
 30
0.0
 10
227.3277609280187
 20
77.07818717531859
 30
0.0
 10
227.7871981462417
 20
77.34344337693535
 30
0.0
  0
SPLINE
  5
10B
330
1F
100
AcDbEntity
  8
0
  6
Continuous
 62
     7
370
    25
100
AcDbSpline
210
0.0
220
0.0
230
1.0
 70
    24
 71
     3
 72
    15
 73
    11
 74
     0
 42
0.000000001
 43
0.00000001
 40
0.0
 40
0.0
 40
0.0
 40
0.0
 40
0.1323065044264404
 40
0.2645755999739298
 40
0.3998036789671094
 40
0.5350073556765895
 40
0.6501969475405022
 40
0.7654045076453765
 40
0.8826909144168967
 40
1.0
 40
1.0
 40
1.0
 40
1.0
 10
203.7871981462417
 20
77.34344337693535
 30
0.0
 10
204.3056508754502
 20
77.04411455416475
 30
0.0
 10
205.3424097444347
 20
76.44554154207181
 30
0.0
 10
206.9389271897051
 20
75.52379176527903
 30
0.0
 10
208.5655396013849
 20
74.58466665152847
 30
0.0
 10
210.1332203427719
 20
73.67956575348526
 30
0.0
 10
211.6161965367318
 20
72.82336904870073
 30
0.0
 10
213.0157498961572
 20
72.01533653989122
 30
0.0
 10
214.4089753124006
 20
71.2109574707813
 30
0.0
 10
215.3277609280187
 20
70.68049634827663
 30
0.0
 10
215.7871981462417
 20
70.41524014665985
 30
0.0
  0
SPLINE
  5
10C
330
1F
100
AcDbEntity
  8
0
  6
Continuous
 62
     7
370
    25
100
AcDbSpline
210
0.0
220
0.0
230
1.0
 70
    24
 71
     3
 72
    16
 73
    12
 74
     0
 42
0.000000001
 43
0.00000001
 40
0.0
 40
0.0
 40
0.0
 40
0.0
 40
0.0915356978782496
 40
0.1830633432235329
 40
0.2753996771146607
 40
0.3677267146962474
 40
0.4925705318074073
 40
0.6174129202940688
 40
0.7455832490327828
 40
0.8737882839722
 40
1.0
 40
1.0
 40
1.0
 40
1.0
 10
203.7871981462417
 20
91.19984983748637
 30
0.0
 10
203.7871981462417
 20
90.78625010893214
 30
0.0
 10
203.7871981462417
 20
89.95908703681364
 30
0.0
 10
203.7871981462417
 20
88.69821180533076
 30
0.0
 10
203.7871981462417
 20
87.42213239026403
 30
0.0
 10
203.7871981462417
 20
85.98029928409285
 30
0.0
 10
203.7871981462417
 20
84.376570529187
 30
0.0
 10
203.7871981462417
 20
82.60392818653776
 30
0.0
 10
203.7871981462417
 20
80.82805843769958
 30
0.0
 10
203.7871981462417
 20
79.06533909778496
 30
0.0
 10
203.7871981462417
 20
77.9144028100673
 30
0.0
 10
203.7871981462417
 20
77.34344337693535
 30
0.0
  0
SPLINE
  5
10D
330
1F
100
AcDbEntity
  8
0
  6
Continuous
 62
     7
370
    25
100
AcDbSpline
210
0.0
220
0.0
230
1.0
 70
    24
 71
     3
 72
    15
 73
    11
 74
     0
 42
0.000000001
 43
0.00000001
 40
0.0
 40
0.0
 40
0.0
 40
0.0
 40
0.1323065044264402
 40
0.2645755999739297
 40
0.3998036789671093
 40
0.5350073556765894
 40
0.6501969475405022
 40
0.7654045076453766
 40
0.8826909144168967
 40
1.0
 40
1.0
 40
1.0
 40
1.0
 10
215.7871981462417
 20
98.12805306776188
 30
0.0
 10
215.2687454170332
 20
97.82872424499128
 30
0.0
 10
214.2319865480487
 20
97.23015123289834
 30
0.0
 10
212.6354691027783
 20
96.30840145610556
 30
0.0
 10
211.0088566910985
 20
95.369276342355
 30
0.0
 10
209.4411759497114
 20
94.46417544431179
 30
0.0
 10
207.9581997557515
 20
93.60797873952725
 30
0.0
 10
206.5586463963261
 20
92.79994623071775
 30
0.0
 10
205.1654209800828
 20
91.99556716160781
 30
0.0
 10
204.2466353644647
 20
91.46510603910316
 30
0.0
 10
203.7871981462417
 20
91.19984983748637
 30
0.0
  0
INSERT
  5
119
330
1F
100
AcDbEntity
  8
0
  6
Continuous
 62
     7
370
    18
100
AcDbBlockReference
  2
SW_CENTERMARKSYMBOL_0
 10
215.7871981462
 20
84.2716466072
 30
0.0
  0
LINE
  5
11A
330
1F
100
AcDbEntity
  8
0
  6
Continuous
 62
     7
370
    25
100
AcDbLine
 10
152.716087208
 20
120.8496504277
 30
0.0
 11
153.216087208
 21
120.8496504277
 31
0.0
  0
LINE
  5
11B
330
1F
100
AcDbEntity
  8
0
  6
Continuous
 62
     7
370
    25
100
AcDbLine
 10
153.216087208
 20
136.8496504277
 30
0.0
 11
152.716087208
 21
136.8496504277
 31
0.0
  0
LINE
  5
11C
330
1F
100
AcDbEntity
  8
0
  6
Continuous
 62
     7
370
    25
100
AcDbLine
 10
159.216087208
 20
121.8496504277
 30
0.0
 11
163.716087208
 21
122.5996504277
 31
0.0
  0
LINE
  5
11D
330
1F
100
AcDbEntity
  8
0
  6
Continuous
 62
     7
370
    25
100
AcDbLine
 10
163.716087208
 20
135.0996504277
 30
0.0
 11
159.216087208
 21
135.8496504277
 31
0.0
  0
LINE
  5
11E
330
1F
100
AcDbEntity
  8
0
  6
Continuous
 62
     7
370
    25
100
AcDbLine
 10
159.216087208
 20
135.8496504277
 30
0.0
 11
153.216087208
 21
135.8496504277
 31
0.0
  0
LINE
  5
11F
330
1F
100
AcDbEntity
  8
0
  6
Continuous
 62
     7
370
    25
100
AcDbLine
 10
153.216087208
 20
121.8496504277
 30
0.0
 11
159.216087208
 21
121.8496504277
 31
0.0
  0
LINE
  5
120
330
1F
100
AcDbEntity
  8
0
  6
Continuous
 62
     7
370
    25
100
AcDbLine
 10
177.216087208
 20
121.8496504277
 30
0.0
 11
183.0207009529
 21
122.5194135522
 31
0.0
  0
LINE
  5
121
330
1F
100
AcDbEntity
  8
0
  6
Continuous
 62
     7
370
    25
100
AcDbLine
 10
183.0207009529
 20
135.1798873033
 30
0.0
 11
177.216087208
 21
135.8496504277
 31
0.0
  0
LINE
  5
122
330
1F
100
AcDbEntity
  8
0
  6
Continuous
 62
     7
370
    25
100
AcDbLine
 10
168.216087208
 20
121.8496504277
 30
0.0
 11
172.716087208
 21
122.5996504277
 31
0.0
  0
LINE
  5
123
330
1F
100
AcDbEntity
  8
0
  6
Continuous
 62
     7
370
    25
100
AcDbLine
 10
172.716087208
 20
135.0996504277
 30
0.0
 11
168.216087208
 21
135.8496504277
 31
0.0
  0
LINE
  5
124
330
1F
100
AcDbEntity
  8
0
  6
Continuous
 62
     7
370
    25
100
AcDbLine
 10
163.716087208
 20
121.8496504277
 30
0.0
 11
168.216087208
 21
122.5996504277
 31
0.0
  0
LINE
  5
125
330
1F
100
AcDbEntity
  8
0
  6
Continuous
 62
     7
370
    25
100
AcDbLine
 10
168.216087208
 20
135.0996504277
 30
0.0
 11
163.716087208
 21
135.8496504277
 31
0.0
  0
LINE
  5
126
330
1F
100
AcDbEntity
  8
0
  6
Continuous
 62
     7
370
    25
100
AcDbLine
 10
172.716087208
 20
121.8496504277
 30
0.0
 11
177.216087208
 21
122.5996504277
 31
0.0
  0
LINE
  5
127
330
1F
100
AcDbEntity
  8
0
  6
Continuous
 62
     7
370
    25
100
AcDbLine
 10
177.216087208
 20
135.0996504277
 30
0.0
 11
172.716087208
 21
135.8496504277
 31
0.0
  0
LINE
  5
128
330
1F
100
AcDbEntity
  8
0
  6
Continuous
 62
     7
370
    25
100
AcDbLine
 10
183.0207009529
 20
122.5194135522
 30
0.0
 11
183.716087208
 21
123.3962049173
 31
0.0
  0
LINE
  5
129
330
1F
100
AcDbEntity
  8
0
  6
Continuous
 62
     7
370
    25
100
AcDbLine
 10
183.716087208
 20
134.3030959382
 30
0.0
 11
183.0207009529
 21
135.1798873033
 31
0.0
  0
LINE
  5
12A
330
1F
100
AcDbEntity
  8
0
  6
Continuous
 62
     7
370
    25
100
AcDbLine
 10
150.5717496407
 20
116.8496504277
 30
0.0
 11
150.716087208
 21
117.0996504277
 31
0.0
  0
LINE
  5
12B
330
1F
100
AcDbEntity
  8
0
  6
Continuous
 62
     7
370
    25
100
AcDbLine
 10
150.716087208
 20
140.5996504277
 30
0.0
 11
150.5717496407
 21
140.8496504277
 31
0.0
  0
LINE
  5
12C
330
1F
100
AcDbEntity
  8
0
  6
Continuous
 62
     7
370
    25
100
AcDbLine
 10
138.8604247753
 20
140.8496504277
 30
0.0
 11
138.716087208
 21
140.5996504277
 31
0.0
  0
LINE
  5
12D
330
1F
100
AcDbEntity
  8
0
  6
Continuous
 62
     7
370
    25
100
AcDbLine
 10
138.716087208
 20
117.0996504277
 30
0.0
 11
138.8604247753
 21
116.8496504277
 31
0.0
  0
LINE
  5
12E
330
1F
100
AcDbEntity
  8
0
  6
Continuous
 62
     7
370
    25
100
AcDbLine
 10
152.216087208
 20
117.0996504277
 30
0.0
 11
152.716087208
 21
117.5996504277
 31
0.0
  0
LINE
  5
12F
330
1F
100
AcDbEntity
  8
0
  6
Continuous
 62
     7
370
    25
100
AcDbLine
 10
152.716087208
 20
140.0996504277
 30
0.0
 11
152.216087208
 21
140.5996504277
 31
0.0
  0
LINE
  5
130
330
1F
100
AcDbEntity
  8
0
  6
Continuous
 62
     7
370
    25
100
AcDbLine
 10
150.716087208
 20
117.0996504277
 30
0.0
 11
152.216087208
 21
117.0996504277
 31
0.0
  0
LINE
  5
131
330
1F
100
AcDbEntity
  8
0
  6
Continuous
 62
     7
370
    25
100
AcDbLine
 10
152.216087208
 20
140.5996504277
 30
0.0
 11
150.716087208
 21
140.5996504277
 31
0.0
  0
LINE
  5
132
330
1F
100
AcDbEntity
  8
0
  6
Continuous
 62
     7
370
    25
100
AcDbLine
 10
138.716087208
 20
140.5996504277
 30
0.0
 11
137.216087208
 21
140.5996504277
 31
0.0
  0
LINE
  5
133
330
1F
100
AcDbEntity
  8
0
  6
Continuous
 62
     7
370
    25
100
AcDbLine
 10
137.216087208
 20
117.0996504277
 30
0.0
 11
138.716087208
 21
117.0996504277
 31
0.0
  0
LINE
  5
134
330
1F
100
AcDbEntity
  8
0
  6
Continuous
 62
     7
370
    25
100
AcDbLine
 10
137.216087208
 20
140.5996504277
 30
0.0
 11
136.716087208
 21
140.0996504277
 31
0.0
  0
LINE
  5
135
330
1F
100
AcDbEntity
  8
0
  6
Continuous
 62
     7
370
    25
100
AcDbLine
 10
136.716087208
 20
117.5996504277
 30
0.0
 11
137.216087208
 21
117.0996504277
 31
0.0
  0
LINE
  5
136
330
1F
100
AcDbEntity
  8
0
  6
Continuous
 62
     7
370
    25
100
AcDbLine
 10
131.602838554
 20
117.8496504277
 30
0.0
 11
131.7471761213
 21
118.0996504277
 31
0.0
  0
LINE
  5
137
330
1F
100
AcDbEntity
  8
0
  6
Continuous
 62
     7
370
    25
100
AcDbLine
 10
131.7471761213
 20
139.5996504277
 30
0.0
 11
131.602838554
 21
139.8496504277
 31
0.0
  0
LINE
  5
138
330
1F
100
AcDbEntity
  8
0
  6
Continuous
 62
     7
370
    25
100
AcDbLine
 10
124.8915136886
 20
139.8496504277
 30
0.0
 11
124.7471761213
 21
139.5996504277
 31
0.0
  0
LINE
  5
139
330
1F
100
AcDbEntity
  8
0
  6
Continuous
 62
     7
370
    25
100
AcDbLine
 10
124.7471761213
 20
118.0996504277
 30
0.0
 11
124.8915136886
 21
117.8496504277
 31
0.0
  0
LINE
  5
13A
330
1F
100
AcDbEntity
  8
0
  6
Continuous
 62
     7
370
    25
100
AcDbLine
 10
124.7471761213
 20
139.5096504277
 30
0.0
 11
113.4435673942
 21
139.156412655
 31
0.0
  0
LINE
  5
13B
330
1F
100
AcDbEntity
  8
0
  6
Continuous
 62
     7
370
    25
100
AcDbLine
 10
113.4435673942
 20
118.5428882005
 30
0.0
 11
124.7471761213
 21
118.1896504277
 31
0.0
  0
LINE
  5
13C
330
1F
100
AcDbEntity
  8
0
  6
Continuous
 62
     7
370
    25
100
AcDbLine
 10
135.2471761213
 20
139.3271504277
 30
0.0
 11
134.2471761213
 21
138.3271504277
 31
0.0
  0
LINE
  5
13D
330
1F
100
AcDbEntity
  8
0
  6
Continuous
 62
     7
370
    25
100
AcDbLine
 10
134.2471761213
 20
119.3721504277
 30
0.0
 11
135.2471761213
 21
118.3721504277
 31
0.0
  0
LINE
  5
13E
330
1F
100
AcDbEntity
  8
0
  6
Continuous
 62
     7
370
    25
100
AcDbLine
 10
135.2471761213
 20
118.3721504277
 30
0.0
 11
136.716087208
 21
118.3721504277
 31
0.0
  0
LINE
  5
13F
330
1F
100
AcDbEntity
  8
0
  6
Continuous
 62
     7
370
    25
100
AcDbLine
 10
136.716087208
 20
139.3271504277
 30
0.0
 11
135.2471761213
 21
139.3271504277
 31
0.0
  0
LINE
  5
140
330
1F
100
AcDbEntity
  8
0
  6
Continuous
 62
     7
370
    25
100
AcDbLine
 10
113.4435673942
 20
139.156412655
 30
0.0
 11
110.7471761213
 21
137.5996504277
 31
0.0
  0
LINE
  5
141
330
1F
100
AcDbEntity
  8
0
  6
Continuous
 62
     7
370
    25
100
AcDbLine
 10
110.7471761213
 20
120.0996504277
 30
0.0
 11
113.4435673942
 21
118.5428882005
 31
0.0
  0
LINE
  5
142
330
1F
100
AcDbEntity
  8
0
  6
Continuous
 62
     7
370
    25
100
AcDbLine
 10
131.7471761213
 20
119.8496504277
 30
0.0
 11
134.2471761213
 21
119.8496504277
 31
0.0
  0
LINE
  5
143
330
1F
100
AcDbEntity
  8
0
  6
Continuous
 62
     7
370
    25
100
AcDbLine
 10
134.2471761213
 20
137.8496504277
 30
0.0
 11
131.7471761213
 21
137.8496504277
 31
0.0
  0
LINE
  5
144
330
1F
100
AcDbEntity
  8
0
  6
Continuous
 62
     7
370
    25
100
AcDbLine
 10
153.216087208
 20
136.8496504277
 30
0.0
 11
153.216087208
 21
120.8496504277
 31
0.0
  0
LINE
  5
145
330
1F
100
AcDbEntity
  8
0
  6
Continuous
 62
     7
370
    25
100
AcDbLine
 10
159.216087208
 20
135.7191212066
 30
0.0
 11
159.216087208
 21
121.8496504277
 31
0.0
  0
LINE
  5
146
330
1F
100
AcDbEntity
  8
0
  6
Continuous
 62
     7
370
    25
100
AcDbLine
 10
159.216087208
 20
135.8496504277
 30
0.0
 11
159.216087208
 21
135.7191212066
 31
0.0
  0
LINE
  5
147
330
1F
100
AcDbEntity
  8
0
  6
Continuous
 62
     7
370
    25
100
AcDbLine
 10
177.216087208
 20
135.7191212066
 30
0.0
 11
177.216087208
 21
121.8496504277
 31
0.0
  0
LINE
  5
148
330
1F
100
AcDbEntity
  8
0
  6
Continuous
 62
     7
370
    25
100
AcDbLine
 10
177.216087208
 20
135.8496504277
 30
0.0
 11
177.216087208
 21
135.7191212066
 31
0.0
  0
LINE
  5
149
330
1F
100
AcDbEntity
  8
0
  6
Continuous
 62
     7
370
    25
100
AcDbLine
 10
183.0207009529
 20
135.0618471763
 30
0.0
 11
183.0207009529
 21
135.1798873033
 31
0.0
  0
LINE
  5
14A
330
1F
100
AcDbEntity
  8
0
  6
Continuous
 62
     7
370
    25
100
AcDbLine
 10
183.0207009529
 20
122.5194135522
 30
0.0
 11
183.0207009529
 21
135.0618471763
 31
0.0
  0
LINE
  5
14B
330
1F
100
AcDbEntity
  8
0
  6
Continuous
 62
     7
370
    25
100
AcDbLine
 10
168.216087208
 20
135.7191212066
 30
0.0
 11
168.216087208
 21
121.8496504277
 31
0.0
  0
LINE
  5
14C
330
1F
100
AcDbEntity
  8
0
  6
Continuous
 62
     7
370
    25
100
AcDbLine
 10
168.216087208
 20
135.8496504277
 30
0.0
 11
168.216087208
 21
135.7191212066
 31
0.0
  0
LINE
  5
14D
330
1F
100
AcDbEntity
  8
0
  6
Continuous
 62
     7
370
    25
100
AcDbLine
 10
163.716087208
 20
135.7191212066
 30
0.0
 11
163.716087208
 21
121.8496504277
 31
0.0
  0
LINE
  5
14E
330
1F
100
AcDbEntity
  8
0
  6
Continuous
 62
     7
370
    25
100
AcDbLine
 10
163.716087208
 20
135.8496504277
 30
0.0
 11
163.716087208
 21
135.7191212066
 31
0.0
  0
LINE
  5
14F
330
1F
100
AcDbEntity
  8
0
  6
Continuous
 62
     7
370
    25
100
AcDbLine
 10
172.716087208
 20
135.7191212066
 30
0.0
 11
172.716087208
 21
121.8496504277
 31
0.0
  0
LINE
  5
150
330
1F
100
AcDbEntity
  8
0
  6
Continuous
 62
     7
370
    25
100
AcDbLine
 10
172.716087208
 20
135.8496504277
 30
0.0
 11
172.716087208
 21
135.7191212066
 31
0.0
  0
LINE
  5
151
330
1F
100
AcDbEntity
  8
0
  6
Continuous
 62
     7
370
    25
100
AcDbLine
 10
183.716087208
 20
134.2014053675
 30
0.0
 11
183.716087208
 21
123.3962049173
 31
0.0
  0
LINE
  5
152
330
1F
100
AcDbEntity
  8
0
  6
Continuous
 62
     7
370
    25
100
AcDbLine
 10
183.716087208
 20
134.3030959382
 30
0.0
 11
183.716087208
 21
134.2014053675
 31
0.0
  0
SPLINE
  5
153
330
1F
100
AcDbEntity
  8
0
  6
Continuous
 62
     7
370
    25
100
AcDbSpline
210
0.0
220
0.0
230
1.0
 70
     8
 71
     3
 72
    15
 73
    11
 74
     0
 42
0.000000001
 43
0.00000001
 40
0.0
 40
0.0
 40
0.0
 40
0.0
 40
0.1323065044264401
 40
0.2645755999739294
 40
0.3998036789671088
 40
0.535007355676589
 40
0.6501969475405016
 40
0.7654045076453762
 40
0.8826909144168965
 40
1.0
 40
1.0
 40
1.0
 40
1.0
 10
149.499952871015
 20
140.8496504277471
 30
0.0
 10
149.6631119529327
 20
140.3311976985386
 30
0.0
 10
149.989383984506
 20
139.2944388295541
 30
0.0
 10
150.3404386875259
 20
137.6979213842837
 30
0.0
 10
150.5515154730551
 20
136.0713089726039
 30
0.0
 10
150.5933127833407
 20
134.5036282312169
 30
0.0
 10
150.4848541506399
 20
133.0206520372569
 30
0.0
 10
150.2626282415791
 20
131.6210986778316
 30
0.0
 10
149.9366504682927
 20
130.2278732615882
 30
0.0
 10
149.6455281178993
 20
129.3090876459701
 30
0.0
 10
149.499952871015
 20
128.8496504277471
 30
0.0
  0
SPLINE
  5
154
330
1F
100
AcDbEntity
  8
0
  6
Continuous
 62
     7
370
    25
100
AcDbSpline
210
0.0
220
0.0
230
1.0
 70
    24
 71
     3
 72
    13
 73
     9
 74
     0
 42
0.000000001
 43
0.00000001
 40
0.0
 40
0.0
 40
0.0
 40
0.0
 40
0.0074794268088855
 40
0.2645403638909603
 40
0.4472089068488358
 40
0.6304324418490956
 40
0.8150423145752518
 40
0.9999999999999999
 40
0.9999999999999999
 40
0.9999999999999999
 40
0.9999999999999999
 10
150.5695599391998
 20
140.8496504277471
 30
0.0
 10
150.5702871265287
 20
140.8496504277471
 30
0.0
 10
150.596007065439
 20
140.8496504277471
 30
0.0
 10
150.5142396384242
 20
140.8496504277471
 30
0.0
 10
150.3525647551204
 20
140.8496504277471
 30
0.0
 10
150.128401153674
 20
140.8496504277471
 30
0.0
 10
149.8476731449713
 20
140.8496504277471
 30
0.0
 10
149.6159323287427
 20
140.8496504277471
 30
0.0
 10
149.499952871015
 20
140.8496504277471
 30
0.0
  0
SPLINE
  5
155
330
1F
100
AcDbEntity
  8
0
  6
Continuous
 62
     7
370
    25
100
AcDbSpline
210
0.0
220
0.0
230
1.0
 70
    24
 71
     3
 72
    13
 73
     9
 74
     0
 42
0.000000001
 43
0.00000001
 40
0.0
 40
0.0
 40
0.0
 40
0.0
 40
0.1829110580115795
 40
0.3661269173550584
 40
0.5505245674166975
 40
0.7354546461250693
 40
0.9842724754053469
 40
1.0
 40
1.0
 40
1.0
 40
1.0
 10
149.499952871015
 20
116.8496504277471
 30
0.0
 10
149.6146927480823
 20
116.8496504277471
 30
0.0
 10
149.8443637037099
 20
116.8496504277471
 30
0.0
 10
150.1248404197167
 20
116.8496504277471
 30
0.0
 10
150.3507498912043
 20
116.8496504277471
 30
0.0
 10
150.5122068621993
 20
116.8496504277471
 30
0.0
 10
150.5930862461885
 20
116.8496504277471
 30
0.0
 10
150.5688226192158
 20
116.8496504277471
 30
0.0
 10
150.5673801187735
 20
116.8496504277471
 30
0.0
  0
SPLINE
  5
156
330
1F
100
AcDbEntity
  8
0
  6
Continuous
 62
     7
370
    25
100
AcDbSpline
210
0.0
220
0.0
230
1.0
 70
     8
 71
     3
 72
    15
 73
    11
 74
     0
 42
0.000000001
 43
0.00000001
 40
0.0
 40
0.0
 40
0.0
 40
0.0
 40
0.1323065044264402
 40
0.2645755999739296
 40
0.3998036789671093
 40
0.5350073556765893
 40
0.6501969475405021
 40
0.7654045076453766
 40
0.8826909144168967
 40
0.9999999999999999
 40
0.9999999999999999
 40
0.9999999999999999
 40
0.9999999999999999
 10
149.499952871015
 20
128.8496504277471
 30
0.0
 10
149.6631119529327
 20
128.3311976985386
 30
0.0
 10
149.989383984506
 20
127.2944388295541
 30
0.0
 10
150.3404386875259
 20
125.6979213842837
 30
0.0
 10
150.5515154730551
 20
124.0713089726039
 30
0.0
 10
150.5933127833407
 20
122.5036282312168
 30
0.0
 10
150.4848541506399
 20
121.0206520372569
 30
0.0
 10
150.262628241579
 20
119.6210986778316
 30
0.0
 10
149.9366504682928
 20
118.2278732615882
 30
0.0
 10
149.6455281178993
 20
117.3090876459701
 30
0.0
 10
149.499952871015
 20
116.8496504277471
 30
0.0
  0
LINE
  5
157
330
1F
100
AcDbEntity
  8
0
  6
Continuous
 62
     7
370
    25
100
AcDbLine
 10
150.716087208
 20
140.5996504277
 30
0.0
 11
150.716087208
 21
117.0996504277
 31
0.0
  0
LINE
  5
158
330
1F
100
AcDbEntity
  8
0
  6
Continuous
 62
     7
370
    25
100
AcDbLine
 10
144.8500618043
 20
140.8496504277
 30
0.0
 11
144.716087208
 21
139.9285474689
 31
0.0
  0
LINE
  5
159
330
1F
100
AcDbEntity
  8
0
  6
Continuous
 62
     7
370
    25
100
AcDbLine
 10
149.499952871
 20
140.8496504277
 30
0.0
 11
144.8500618043
 21
140.8496504277
 31
0.0
  0
LINE
  5
15A
330
1F
100
AcDbEntity
  8
0
  6
Continuous
 62
     7
370
    25
100
AcDbLine
 10
149.499952871
 20
128.8496504277
 30
0.0
 11
144.8500618043
 21
128.8496504277
 31
0.0
  0
LINE
  5
15B
330
1F
100
AcDbEntity
  8
0
  6
Continuous
 62
     7
370
    25
100
AcDbLine
 10
144.716087208
 20
129.7707533866
 30
0.0
 11
144.8500618043
 21
128.8496504277
 31
0.0
  0
LINE
  5
15C
330
1F
100
AcDbEntity
  8
0
  6
Continuous
 62
     7
370
    25
100
AcDbLine
 10
144.716087208
 20
129.7707533866
 30
0.0
 11
144.5821126118
 21
128.8496504277
 31
0.0
  0
LINE
  5
15D
330
1F
100
AcDbEntity
  8
0
  6
Continuous
 62
     7
370
    25
100
AcDbLine
 10
144.5821126118
 20
128.8496504277
 30
0.0
 11
139.9322215451
 21
128.8496504277
 31
0.0
  0
SPLINE
  5
15E
330
1F
100
AcDbEntity
  8
0
  6
Continuous
 62
     7
370
    25
100
AcDbSpline
210
0.0
220
0.0
230
1.0
 70
     8
 71
     3
 72
    15
 73
    11
 74
     0
 42
0.000000001
 43
0.00000001
 40
0.0
 40
0.0
 40
0.0
 40
0.0
 40
0.13230650442644
 40
0.2645755999739292
 40
0.3998036789671086
 40
0.5350073556765887
 40
0.6501969475405015
 40
0.765404507645376
 40
0.8826909144168965
 40
1.0
 40
1.0
 40
1.0
 40
1.0
 10
139.9322215450588
 20
140.8496504277471
 30
0.0
 10
139.7690624631411
 20
140.3311976985386
 30
0.0
 10
139.4427904315678
 20
139.2944388295541
 30
0.0
 10
139.0917357285479
 20
137.6979213842837
 30
0.0
 10
138.8806589430187
 20
136.0713089726039
 30
0.0
 10
138.8388616327331
 20
134.5036282312169
 30
0.0
 10
138.9473202654339
 20
133.0206520372569
 30
0.0
 10
139.1695461744948
 20
131.6210986778316
 30
0.0
 10
139.4955239477811
 20
130.2278732615882
 30
0.0
 10
139.7866462981746
 20
129.3090876459701
 30
0.0
 10
139.9322215450588
 20
128.8496504277471
 30
0.0
  0
LINE
  5
15F
330
1F
100
AcDbEntity
  8
0
  6
Continuous
 62
     7
370
    25
100
AcDbLine
 10
144.5821126118
 20
140.8496504277
 30
0.0
 11
139.9322215451
 21
140.8496504277
 31
0.0
  0
LINE
  5
160
330
1F
100
AcDbEntity
  8
0
  6
Continuous
 62
     7
370
    25
100
AcDbLine
 10
144.5821126118
 20
140.8496504277
 30
0.0
 11
144.716087208
 21
139.9285474689
 31
0.0
  0
SPLINE
  5
161
330
1F
100
AcDbEntity
  8
0
  6
Continuous
 62
     7
370
    25
100
AcDbSpline
210
0.0
220
0.0
230
1.0
 70
     8
 71
     3
 72
    15
 73
    11
 74
     0
 42
0.000000001
 43
0.00000001
 40
0.0
 40
0.0
 40
0.0
 40
0.0
 40
0.1323065044264403
 40
0.2645755999739298
 40
0.3998036789671095
 40
0.5350073556765896
 40
0.6501969475405023
 40
0.7654045076453768
 40
0.8826909144168968
 40
1.0
 40
1.0
 40
1.0
 40
1.0
 10
139.9322215450588
 20
128.8496504277471
 30
0.0
 10
139.7690624631411
 20
128.3311976985386
 30
0.0
 10
139.4427904315678
 20
127.2944388295541
 30
0.0
 10
139.0917357285479
 20
125.6979213842837
 30
0.0
 10
138.8806589430187
 20
124.0713089726039
 30
0.0
 10
138.8388616327331
 20
122.5036282312168
 30
0.0
 10
138.9473202654339
 20
121.0206520372569
 30
0.0
 10
139.1695461744948
 20
119.6210986778316
 30
0.0
 10
139.4955239477811
 20
118.2278732615882
 30
0.0
 10
139.7866462981745
 20
117.3090876459701
 30
0.0
 10
139.9322215450588
 20
116.8496504277471
 30
0.0
  0
SPLINE
  5
162
330
1F
100
AcDbEntity
  8
0
  6
Continuous
 62
     7
370
    25
100
AcDbSpline
210
0.0
220
0.0
230
1.0
 70
    24
 71
     3
 72
    13
 73
     9
 74
     0
 42
0.000000001
 43
0.00000001
 40
0.0
 40
0.0
 40
0.0
 40
0.0
 40
0.1829110580115801
 40
0.3661269173550595
 40
0.550524567416699
 40
0.7354546461250713
 40
0.9842724754053493
 40
1.0
 40
1.0
 40
1.0
 40
1.0
 10
139.9322215450588
 20
116.8496504277471
 30
0.0
 10
139.8174816679915
 20
116.8496504277471
 30
0.0
 10
139.5878107123639
 20
116.8496504277471
 30
0.0
 10
139.3073339963571
 20
116.8496504277471
 30
0.0
 10
139.0814245248695
 20
116.8496504277471
 30
0.0
 10
138.9199675538745
 20
116.8496504277471
 30
0.0
 10
138.8390881698853
 20
116.8496504277471
 30
0.0
 10
138.863351796858
 20
116.8496504277471
 30
0.0
 10
138.8647942973003
 20
116.8496504277471
 30
0.0
  0
SPLINE
  5
163
330
1F
100
AcDbEntity
  8
0
  6
Continuous
 62
     7
370
    25
100
AcDbSpline
210
0.0
220
0.0
230
1.0
 70
    24
 71
     3
 72
    13
 73
     9
 74
     0
 42
0.000000001
 43
0.00000001
 40
0.0
 40
0.0
 40
0.0
 40
0.0
 40
0.0074794268088826
 40
0.264540363890958
 40
0.4472089068488341
 40
0.6304324418490944
 40
0.8150423145752512
 40
1.0
 40
1.0
 40
1.0
 40
1.0
 10
138.862614476874
 20
140.8496504277471
 30
0.0
 10
138.8618872895451
 20
140.8496504277471
 30
0.0
 10
138.8361673506348
 20
140.8496504277471
 30
0.0
 10
138.9179347776495
 20
140.8496504277471
 30
0.0
 10
139.0796096609534
 20
140.8496504277471
 30
0.0
 10
139.3037732623998
 20
140.8496504277471
 30
0.0
 10
139.5845012711025
 20
140.8496504277471
 30
0.0
 10
139.8162420873311
 20
140.8496504277471
 30
0.0
 10
139.9322215450588
 20
140.8496504277471
 30
0.0
  0
LINE
  5
164
330
1F
100
AcDbEntity
  8
0
  6
Continuous
 62
     7
370
    25
100
AcDbLine
 10
138.716087208
 20
140.5996504277
 30
0.0
 11
138.716087208
 21
117.0996504277
 31
0.0
  0
LINE
  5
165
330
1F
100
AcDbEntity
  8
0
  6
Continuous
 62
     7
370
    25
100
AcDbLine
 10
144.716087208
 20
129.7707533866
 30
0.0
 11
144.716087208
 21
127.9285474689
 31
0.0
  0
LINE
  5
166
330
1F
100
AcDbEntity
  8
0
  6
Continuous
 62
     7
370
    25
100
AcDbLine
 10
144.5821126118
 20
128.8496504277
 30
0.0
 11
144.716087208
 21
127.9285474689
 31
0.0
  0
LINE
  5
167
330
1F
100
AcDbEntity
  8
0
  6
Continuous
 62
     7
370
    25
100
AcDbLine
 10
144.8500618043
 20
128.8496504277
 30
0.0
 11
144.716087208
 21
127.9285474689
 31
0.0
  0
LINE
  5
168
330
1F
100
AcDbEntity
  8
0
  6
Continuous
 62
     7
370
    25
100
AcDbLine
 10
149.499952871
 20
116.8496504277
 30
0.0
 11
144.8500618043
 21
116.8496504277
 31
0.0
  0
LINE
  5
169
330
1F
100
AcDbEntity
  8
0
  6
Continuous
 62
     7
370
    25
100
AcDbLine
 10
144.716087208
 20
117.7707533866
 30
0.0
 11
144.8500618043
 21
116.8496504277
 31
0.0
  0
LINE
  5
16A
330
1F
100
AcDbEntity
  8
0
  6
Continuous
 62
     7
370
    25
100
AcDbLine
 10
144.716087208
 20
117.7707533866
 30
0.0
 11
144.5821126118
 21
116.8496504277
 31
0.0
  0
LINE
  5
16B
330
1F
100
AcDbEntity
  8
0
  6
Continuous
 62
     7
370
    25
100
AcDbLine
 10
144.5821126118
 20
116.8496504277
 30
0.0
 11
139.9322215451
 21
116.8496504277
 31
0.0
  0
LINE
  5
16C
330
1F
100
AcDbEntity
  8
0
  6
Continuous
 62
     7
370
    25
100
AcDbLine
 10
152.716087208
 20
140.0996504277
 30
0.0
 11
152.716087208
 21
117.5996504277
 31
0.0
  0
LINE
  5
16D
330
1F
100
AcDbEntity
  8
0
  6
Continuous
 62
     7
370
    25
100
AcDbLine
 10
152.216087208
 20
117.0996504277
 30
0.0
 11
152.216087208
 21
140.5996504277
 31
0.0
  0
LINE
  5
16E
330
1F
100
AcDbEntity
  8
0
  6
Continuous
 62
     7
370
    25
100
AcDbLine
 10
137.216087208
 20
140.5996504277
 30
0.0
 11
137.216087208
 21
117.0996504277
 31
0.0
  0
LINE
  5
16F
330
1F
100
AcDbEntity
  8
0
  6
Continuous
 62
     7
370
    25
100
AcDbLine
 10
136.716087208
 20
117.5996504277
 30
0.0
 11
136.716087208
 21
140.0996504277
 31
0.0
  0
LINE
  5
170
330
1F
100
AcDbEntity
  8
0
  6
Continuous
 62
     7
370
    25
100
AcDbLine
 10
144.716087208
 20
140.8496504277
 30
0.0
 11
144.5821126118
 21
140.8496504277
 31
0.0
  0
LINE
  5
171
330
1F
100
AcDbEntity
  8
0
  6
Continuous
 62
     7
370
    25
100
AcDbLine
 10
144.716087208
 20
140.8496504277
 30
0.0
 11
144.716087208
 21
139.9285474689
 31
0.0
  0
LINE
  5
172
330
1F
100
AcDbEntity
  8
0
  6
Continuous
 62
     7
370
    25
100
AcDbLine
 10
144.716087208
 20
140.8496504277
 30
0.0
 11
144.8500618043
 21
140.8496504277
 31
0.0
  0
LINE
  5
173
330
1F
100
AcDbEntity
  8
0
  6
Continuous
 62
     7
370
    25
100
AcDbLine
 10
144.716087208
 20
117.7707533866
 30
0.0
 11
144.716087208
 21
116.8496504277
 31
0.0
  0
LINE
  5
174
330
1F
100
AcDbEntity
  8
0
  6
Continuous
 62
     7
370
    25
100
AcDbLine
 10
144.5821126118
 20
116.8496504277
 30
0.0
 11
144.716087208
 21
116.8496504277
 31
0.0
  0
LINE
  5
175
330
1F
100
AcDbEntity
  8
0
  6
Continuous
 62
     7
370
    25
100
AcDbLine
 10
144.8500618043
 20
116.8496504277
 30
0.0
 11
144.716087208
 21
116.8496504277
 31
0.0
  0
SPLINE
  5
176
330
1F
100
AcDbEntity
  8
0
  6
Continuous
 62
     7
370
    25
100
AcDbSpline
210
0.0
220
0.0
230
1.0
 70
     8
 71
     3
 72
    16
 73
    12
 74
     0
 42
0.000000001
 43
0.00000001
 40
0.0
 40
0.0
 40
0.0
 40
0.0
 40
0.2499999999999999
 40
0.2499999999999999
 40
0.4999999999999999
 40
0.4999999999999999
 40
0.6249999999999999
 40
0.6249999999999999
 40
0.75
 40
0.75
 40
1.0
 40
1.0
 40
1.0
 40
1.0
 10
130.6203581817379
 20
139.8496504277472
 30
0.0
 10
130.9197067399209
 20
138.9516047531981
 30
0.0
 10
131.1664241667825
 20
138.0470116522895
 30
0.0
 10
131.5082078991388
 20
136.2189597235812
 30
0.0
 10
131.6021468075238
 20
135.2953606451472
 30
0.0
 10
131.6031786290033
 20
133.89256108381
 30
0.0
 10
131.5802142221469
 20
133.4227607398648
 30
0.0
 10
131.4906650958613
 20
132.4934461554578
 30
0.0
 10
131.4241712617938
 20
132.0319045084348
 30
0.0
 10
131.16740796498
 20
130.6554966823845
 30
0.0
 10
130.9200799059595
 20
129.7488156004125
 30
0.0
 10
130.6203581817377
 20
128.8496504277471
 30
0.0
  0
SPLINE
  5
177
330
1F
100
AcDbEntity
  8
0
  6
Continuous
 62
     7
370
    25
100
AcDbSpline
210
0.0
220
0.0
230
1.0
 70
    24
 71
     3
 72
    12
 73
     8
 74
     0
 42
0.000000001
 43
0.00000001
 40
0.0
 40
0.0
 40
0.0
 40
0.0
 40
0.253384323585067
 40
0.438776330769356
 40
0.6247539702518066
 40
0.8121939217449051
 40
1.0
 40
1.0
 40
1.0
 40
1.0
 10
131.6016339223131
 20
139.8496504277471
 30
0.0
 10
131.5888424854296
 20
139.8496504277471
 30
0.0
 10
131.5666920237847
 20
139.8496504277471
 30
0.0
 10
131.407360544547
 20
139.8496504277471
 30
0.0
 10
131.2046300800765
 20
139.8496504277471
 30
0.0
 10
130.9436569770053
 20
139.8496504277471
 30
0.0
 10
130.7281945222481
 20
139.8496504277471
 30
0.0
 10
130.6203581817376
 20
139.8496504277471
 30
0.0
  0
SPLINE
  5
178
330
1F
100
AcDbEntity
  8
0
  6
Continuous
 62
     7
370
    25
100
AcDbSpline
210
0.0
220
0.0
230
1.0
 70
    24
 71
     3
 72
    13
 73
     9
 74
     0
 42
0.000000001
 43
0.00000001
 40
0.0
 40
0.0
 40
0.0
 40
0.0
 40
0.1856671128603256
 40
0.3716542815457716
 40
0.5588863368473324
 40
0.7466808510290941
 40
0.9962121849766495
 40
1.0
 40
1.0
 40
1.0
 40
1.0
 10
130.6203581817376
 20
117.8496504277472
 30
0.0
 10
130.7270651468207
 20
117.8496504277472
 30
0.0
 10
130.9406630200947
 20
117.8496504277472
 30
0.0
 10
131.2004183409985
 20
117.8496504277472
 30
0.0
 10
131.4085979966064
 20
117.8496504277471
 30
0.0
 10
131.553219057418
 20
117.8496504277471
 30
0.0
 10
131.6247617026211
 20
117.8496504277471
 30
0.0
 10
131.6021608665408
 20
117.8496504277471
 30
0.0
 10
131.6018229221462
 20
117.8496504277471
 30
0.0
  0
SPLINE
  5
179
330
1F
100
AcDbEntity
  8
0
  6
Continuous
 62
     7
370
    25
100
AcDbSpline
210
0.0
220
0.0
230
1.0
 70
     8
 71
     3
 72
    16
 73
    12
 74
     0
 42
0.000000001
 43
0.00000001
 40
0.0
 40
0.0
 40
0.0
 40
0.0
 40
0.2499999999999999
 40
0.2499999999999999
 40
0.4999999999999999
 40
0.4999999999999999
 40
0.6249999999999999
 40
0.6249999999999999
 40
0.7499999999999998
 40
0.7499999999999998
 40
1.0
 40
1.0
 40
1.0
 40
1.0
 10
130.6203581817379
 20
128.8496504277472
 30
0.0
 10
130.9197067399209
 20
127.9516047531981
 30
0.0
 10
131.1664241667825
 20
127.0470116522895
 30
0.0
 10
131.5082078991387
 20
125.2189597235812
 30
0.0
 10
131.6021468075237
 20
124.2953606451472
 30
0.0
 10
131.6031786290032
 20
122.89256108381
 30
0.0
 10
131.5802142221469
 20
122.4227607398649
 30
0.0
 10
131.4906650958613
 20
121.4934461554578
 30
0.0
 10
131.4241712617937
 20
121.0319045084348
 30
0.0
 10
131.16740796498
 20
119.6554966823846
 30
0.0
 10
130.9200799059595
 20
118.7488156004126
 30
0.0
 10
130.6203581817377
 20
117.8496504277472
 30
0.0
  0
LINE
  5
17A
330
1F
100
AcDbEntity
  8
0
  6
Continuous
 62
     7
370
    25
100
AcDbLine
 10
131.7471761213
 20
139.5996504277
 30
0.0
 11
131.7471761213
 21
118.0996504277
 31
0.0
  0
SPLINE
  5
17B
330
1F
100
AcDbEntity
  8
0
  6
Continuous
 62
     7
370
    25
100
AcDbSpline
210
0.0
220
0.0
230
1.0
 70
    24
 71
     3
 72
    13
 73
     9
 74
     0
 42
0.000000001
 43
0.00000001
 40
0.0
 40
0.0
 40
0.0
 40
0.0
 40
0.1856671128603256
 40
0.3716542815457716
 40
0.5588863368473324
 40
0.7466808510290941
 40
0.9962121849766495
 40
1.0
 40
1.0
 40
1.0
 40
1.0
 10
125.8739940608273
 20
117.8496504277472
 30
0.0
 10
125.7672870957442
 20
117.8496504277472
 30
0.0
 10
125.5536892224702
 20
117.8496504277472
 30
0.0
 10
125.2939339015663
 20
117.8496504277472
 30
0.0
 10
125.0857542459585
 20
117.8496504277471
 30
0.0
 10
124.9411331851469
 20
117.8496504277471
 30
0.0
 10
124.8695905399438
 20
117.8496504277471
 30
0.0
 10
124.892191376024
 20
117.8496504277471
 30
0.0
 10
124.8925293204187
 20
117.8496504277471
 30
0.0
  0
SPLINE
  5
17C
330
1F
100
AcDbEntity
  8
0
  6
Continuous
 62
     7
370
    25
100
AcDbSpline
210
0.0
220
0.0
230
1.0
 70
    24
 71
     3
 72
    12
 73
     8
 74
     0
 42
0.000000001
 43
0.00000001
 40
0.0
 40
0.0
 40
0.0
 40
0.0
 40
0.2533843235850669
 40
0.4387763307693558
 40
0.6247539702518065
 40
0.8121939217449051
 40
1.0
 40
1.0
 40
1.0
 40
1.0
 10
124.8927183202518
 20
139.8496504277471
 30
0.0
 10
124.9055097571352
 20
139.8496504277471
 30
0.0
 10
124.9276602187802
 20
139.8496504277471
 30
0.0
 10
125.0869916980178
 20
139.8496504277471
 30
0.0
 10
125.2897221624883
 20
139.8496504277471
 30
0.0
 10
125.5506952655596
 20
139.8496504277471
 30
0.0
 10
125.7661577203167
 20
139.8496504277471
 30
0.0
 10
125.8739940608273
 20
139.8496504277471
 30
0.0
  0
SPLINE
  5
17D
330
1F
100
AcDbEntity
  8
0
  6
Continuous
 62
     7
370
    25
100
AcDbSpline
210
0.0
220
0.0
230
1.0
 70
     8
 71
     3
 72
    16
 73
    12
 74
     0
 42
0.000000001
 43
0.00000001
 40
0.0
 40
0.0
 40
0.0
 40
0.0
 40
0.25
 40
0.25
 40
0.5000000000000001
 40
0.5000000000000001
 40
0.6250000000000002
 40
0.6250000000000002
 40
0.7500000000000002
 40
0.7500000000000002
 40
1.0
 40
1.0
 40
1.0
 40
1.0
 10
125.873994060827
 20
139.8496504277472
 30
0.0
 10
125.5746455026439
 20
138.9516047531981
 30
0.0
 10
125.3279280757824
 20
138.0470116522895
 30
0.0
 10
124.9861443434261
 20
136.2189597235812
 30
0.0
 10
124.8922054350411
 20
135.2953606451472
 30
0.0
 10
124.8911736135616
 20
133.89256108381
 30
0.0
 10
124.914138020418
 20
133.4227607398648
 30
0.0
 10
125.0036871467035
 20
132.4934461554578
 30
0.0
 10
125.0701809807711
 20
132.0319045084348
 30
0.0
 10
125.3269442775849
 20
130.6554966823845
 30
0.0
 10
125.5742723366053
 20
129.7488156004125
 30
0.0
 10
125.8739940608271
 20
128.8496504277471
 30
0.0
  0
SPLINE
  5
17E
330
1F
100
AcDbEntity
  8
0
  6
Continuous
 62
     7
370
    25
100
AcDbSpline
210
0.0
220
0.0
230
1.0
 70
     8
 71
     3
 72
    16
 73
    12
 74
     0
 42
0.000000001
 43
0.00000001
 40
0.0
 40
0.0
 40
0.0
 40
0.0
 40
0.2499999999999999
 40
0.2499999999999999
 40
0.4999999999999999
 40
0.4999999999999999
 40
0.6249999999999999
 40
0.6249999999999999
 40
0.7499999999999998
 40
0.7499999999999998
 40
1.0
 40
1.0
 40
1.0
 40
1.0
 10
125.873994060827
 20
128.8496504277472
 30
0.0
 10
125.574645502644
 20
127.9516047531981
 30
0.0
 10
125.3279280757824
 20
127.0470116522895
 30
0.0
 10
124.9861443434261
 20
125.2189597235812
 30
0.0
 10
124.8922054350411
 20
124.2953606451472
 30
0.0
 10
124.8911736135616
 20
122.89256108381
 30
0.0
 10
124.914138020418
 20
122.4227607398649
 30
0.0
 10
125.0036871467036
 20
121.4934461554578
 30
0.0
 10
125.0701809807711
 20
121.0319045084348
 30
0.0
 10
125.3269442775849
 20
119.6554966823846
 30
0.0
 10
125.5742723366053
 20
118.7488156004126
 30
0.0
 10
125.8739940608271
 20
117.8496504277472
 30
0.0
  0
LINE
  5
17F
330
1F
100
AcDbEntity
  8
0
  6
Continuous
 62
     7
370
    25
100
AcDbLine
 10
124.7471761213
 20
139.5996504277
 30
0.0
 11
124.7471761213
 21
118.0996504277
 31
0.0
  0
LINE
  5
180
330
1F
100
AcDbEntity
  8
0
  6
Continuous
 62
     7
370
    25
100
AcDbLine
 10
125.8739940608
 20
128.8496504277
 30
0.0
 11
128.1935862828
 21
128.8496504277
 31
0.0
  0
LINE
  5
181
330
1F
100
AcDbEntity
  8
0
  6
Continuous
 62
     7
370
    25
100
AcDbLine
 10
125.8739940608
 20
139.8496504277
 30
0.0
 11
128.1935862828
 21
139.8496504277
 31
0.0
  0
SPLINE
  5
182
330
1F
100
AcDbEntity
  8
0
  6
Continuous
 62
     7
370
    25
100
AcDbSpline
210
0.0
220
0.0
230
1.0
 70
     8
 71
     3
 72
     8
 73
     4
 74
     0
 42
0.000000001
 43
0.00000001
 40
0.0
 40
0.0
 40
0.0
 40
0.0
 40
1.0
 40
1.0
 40
1.0
 40
1.0
 10
128.2471761212825
 20
139.4945010789661
 30
0.0
 10
128.2297611055024
 20
139.6129494765443
 30
0.0
 10
128.2118902854451
 20
139.7313314946613
 30
0.0
 10
128.1935862827962
 20
139.8496504277471
 30
0.0
  0
SPLINE
  5
183
330
1F
100
AcDbEntity
  8
0
  6
Continuous
 62
     7
370
    25
100
AcDbSpline
210
0.0
220
0.0
230
1.0
 70
     8
 71
     3
 72
     8
 73
     4
 74
     0
 42
0.000000001
 43
0.00000001
 40
0.0
 40
0.0
 40
0.0
 40
0.0
 40
1.0
 40
1.0
 40
1.0
 40
1.0
 10
128.3007659597687
 20
139.8496504277471
 30
0.0
 10
128.2824579205173
 20
139.7313054016526
 30
0.0
 10
128.2645872325361
 20
139.6129229198706
 30
0.0
 10
128.2471761212825
 20
139.4945010789661
 30
0.0
  0
LINE
  5
184
330
1F
100
AcDbEntity
  8
0
  6
Continuous
 62
     7
370
    25
100
AcDbLine
 10
128.3007659598
 20
139.8496504277
 30
0.0
 11
130.6203581817
 21
139.8496504277
 31
0.0
  0
LINE
  5
185
330
1F
100
AcDbEntity
  8
0
  6
Continuous
 62
     7
370
    25
100
AcDbLine
 10
128.3007659598
 20
128.8496504277
 30
0.0
 11
130.6203581817
 21
128.8496504277
 31
0.0
  0
SPLINE
  5
186
330
1F
100
AcDbEntity
  8
0
  6
Continuous
 62
     7
370
    25
100
AcDbSpline
210
0.0
220
0.0
230
1.0
 70
     8
 71
     3
 72
     8
 73
     4
 74
     0
 42
0.000000001
 43
0.00000001
 40
0.0
 40
0.0
 40
0.0
 40
0.0
 40
1.0
 40
1.0
 40
1.0
 40
1.0
 10
128.2471761212825
 20
129.2047997765281
 30
0.0
 10
128.2645911370625
 20
129.08635137895
 30
0.0
 10
128.2824619571198
 20
128.967969360833
 30
0.0
 10
128.3007659597687
 20
128.8496504277471
 30
0.0
  0
SPLINE
  5
187
330
1F
100
AcDbEntity
  8
0
  6
Continuous
 62
     7
370
    25
100
AcDbSpline
210
0.0
220
0.0
230
1.0
 70
     8
 71
     3
 72
     8
 73
     4
 74
     0
 42
0.000000001
 43
0.00000001
 40
0.0
 40
0.0
 40
0.0
 40
0.0
 40
1.0
 40
1.0
 40
1.0
 40
1.0
 10
128.1935862827962
 20
128.8496504277471
 30
0.0
 10
128.2118943220476
 20
128.9679954538416
 30
0.0
 10
128.2297650100288
 20
129.0863779356235
 30
0.0
 10
128.2471761212825
 20
129.2047997765281
 30
0.0
  0
SPLINE
  5
188
330
1F
100
AcDbEntity
  8
0
  6
Continuous
 62
     7
370
    25
100
AcDbSpline
210
0.0
220
0.0
230
1.0
 70
     8
 71
     3
 72
     8
 73
     4
 74
     0
 42
0.000000001
 43
0.00000001
 40
0.0
 40
0.0
 40
0.0
 40
0.0
 40
1.0
 40
1.0
 40
1.0
 40
1.0
 10
128.3007659597687
 20
128.8496504277471
 30
0.0
 10
128.2824579205173
 20
128.7313054016526
 30
0.0
 10
128.2645872325361
 20
128.6129229198706
 30
0.0
 10
128.2471761212825
 20
128.4945010789661
 30
0.0
  0
LINE
  5
189
330
1F
100
AcDbEntity
  8
0
  6
Continuous
 62
     7
370
    25
100
AcDbLine
 10
128.2471761213
 20
128.494501079
 30
0.0
 11
128.2471761213
 21
129.2047997765
 31
0.0
  0
SPLINE
  5
18A
330
1F
100
AcDbEntity
  8
0
  6
Continuous
 62
     7
370
    25
100
AcDbSpline
210
0.0
220
0.0
230
1.0
 70
     8
 71
     3
 72
     8
 73
     4
 74
     0
 42
0.000000001
 43
0.00000001
 40
0.0
 40
0.0
 40
0.0
 40
0.0
 40
1.0
 40
1.0
 40
1.0
 40
1.0
 10
128.2471761212825
 20
128.4945010789661
 30
0.0
 10
128.2297611055024
 20
128.6129494765443
 30
0.0
 10
128.2118902854451
 20
128.7313314946612
 30
0.0
 10
128.1935862827962
 20
128.8496504277471
 30
0.0
  0
LINE
  5
18B
330
1F
100
AcDbEntity
  8
0
  6
Continuous
 62
     7
370
    25
100
AcDbLine
 10
125.8739940608
 20
117.8496504277
 30
0.0
 11
128.1935862828
 21
117.8496504277
 31
0.0
  0
LINE
  5
18C
330
1F
100
AcDbEntity
  8
0
  6
Continuous
 62
     7
370
    25
100
AcDbLine
 10
128.3007659598
 20
117.8496504277
 30
0.0
 11
130.6203581817
 21
117.8496504277
 31
0.0
  0
SPLINE
  5
18D
330
1F
100
AcDbEntity
  8
0
  6
Continuous
 62
     7
370
    25
100
AcDbSpline
210
0.0
220
0.0
230
1.0
 70
     8
 71
     3
 72
     8
 73
     4
 74
     0
 42
0.000000001
 43
0.00000001
 40
0.0
 40
0.0
 40
0.0
 40
0.0
 40
1.0
 40
1.0
 40
1.0
 40
1.0
 10
128.2471761212825
 20
118.2047997765282
 30
0.0
 10
128.2645911370625
 20
118.08635137895
 30
0.0
 10
128.2824619571198
 20
117.967969360833
 30
0.0
 10
128.3007659597687
 20
117.8496504277472
 30
0.0
  0
SPLINE
  5
18E
330
1F
100
AcDbEntity
  8
0
  6
Continuous
 62
     7
370
    25
100
AcDbSpline
210
0.0
220
0.0
230
1.0
 70
     8
 71
     3
 72
     8
 73
     4
 74
     0
 42
0.000000001
 43
0.00000001
 40
0.0
 40
0.0
 40
0.0
 40
0.0
 40
1.0
 40
1.0
 40
1.0
 40
1.0
 10
128.1935862827962
 20
117.8496504277472
 30
0.0
 10
128.2118943220476
 20
117.9679954538417
 30
0.0
 10
128.2297650100288
 20
118.0863779356236
 30
0.0
 10
128.2471761212825
 20
118.2047997765282
 30
0.0
  0
LINE
  5
18F
330
1F
100
AcDbEntity
  8
0
  6
Continuous
 62
     7
370
    25
100
AcDbLine
 10
113.4435673942
 20
139.156412655
 30
0.0
 11
113.4435673942
 21
118.5428882005
 31
0.0
  0
LINE
  5
190
330
1F
100
AcDbEntity
  8
0
  6
Continuous
 62
     7
370
    25
100
AcDbLine
 10
135.2471761213
 20
139.3271504277
 30
0.0
 11
135.2471761213
 21
118.3721504277
 31
0.0
  0
LINE
  5
191
330
1F
100
AcDbEntity
  8
0
  6
Continuous
 62
     7
370
    25
100
AcDbLine
 10
134.2471761213
 20
119.3721504277
 30
0.0
 11
134.2471761213
 21
138.3271504277
 31
0.0
  0
LINE
  5
192
330
1F
100
AcDbEntity
  8
0
  6
Continuous
 62
     7
370
    25
100
AcDbLine
 10
110.7471761213
 20
120.0996504277
 30
0.0
 11
110.7471761213
 21
137.5996504277
 31
0.0
  0
SPLINE
  5
193
330
1F
100
AcDbEntity
  8
0
  6
Continuous
 62
     7
370
    25
100
AcDbSpline
210
0.0
220
0.0
230
1.0
 70
    24
 71
     3
 72
     8
 73
     4
 74
     0
 42
0.000000001
 43
0.00000001
 40
0.0
 40
0.0
 40
0.0
 40
0.0
 40
1.0
 40
1.0
 40
1.0
 40
1.0
 10
128.2471761212825
 20
117.8496504277472
 30
0.0
 10
128.2297613063728
 20
117.8496504277472
 30
0.0
 10
128.2118904930225
 20
117.8496504277472
 30
0.0
 10
128.1935862827962
 20
117.8496504277472
 30
0.0
  0
LINE
  5
194
330
1F
100
AcDbEntity
  8
0
  6
Continuous
 62
     7
370
    25
100
AcDbLine
 10
128.2471761213
 20
117.8496504277
 30
0.0
 11
128.2471761213
 21
118.2047997765
 31
0.0
  0
SPLINE
  5
195
330
1F
100
AcDbEntity
  8
0
  6
Continuous
 62
     7
370
    25
100
AcDbSpline
210
0.0
220
0.0
230
1.0
 70
    24
 71
     3
 72
     8
 73
     4
 74
     0
 42
0.000000001
 43
0.00000001
 40
0.0
 40
0.0
 40
0.0
 40
0.0
 40
1.0
 40
1.0
 40
1.0
 40
1.0
 10
128.3007659597687
 20
117.8496504277472
 30
0.0
 10
128.2824573282958
 20
117.8496504277472
 30
0.0
 10
128.2645866599838
 20
117.8496504277472
 30
0.0
 10
128.2471761212825
 20
117.8496504277472
 30
0.0
  0
SPLINE
  5
196
330
1F
100
AcDbEntity
  8
0
  6
Continuous
 62
     7
370
    25
100
AcDbSpline
210
0.0
220
0.0
230
1.0
 70
    24
 71
     3
 72
     8
 73
     4
 74
     0
 42
0.000000001
 43
0.00000001
 40
0.0
 40
0.0
 40
0.0
 40
0.0
 40
1.0
 40
1.0
 40
1.0
 40
1.0
 10
128.2471761212825
 20
139.8496504277471
 30
0.0
 10
128.2645909361921
 20
139.8496504277471
 30
0.0
 10
128.2824617495423
 20
139.8496504277471
 30
0.0
 10
128.3007659597687
 20
139.8496504277471
 30
0.0
  0
LINE
  5
197
330
1F
100
AcDbEntity
  8
0
  6
Continuous
 62
     7
370
    25
100
AcDbLine
 10
128.2471761213
 20
139.494501079
 30
0.0
 11
128.2471761213
 21
139.8496504277
 31
0.0
  0
SPLINE
  5
198
330
1F
100
AcDbEntity
  8
0
  6
Continuous
 62
     7
370
    25
100
AcDbSpline
210
0.0
220
0.0
230
1.0
 70
    24
 71
     3
 72
     8
 73
     4
 74
     0
 42
0.000000001
 43
0.00000001
 40
0.0
 40
0.0
 40
0.0
 40
0.0
 40
1.0
 40
1.0
 40
1.0
 40
1.0
 10
128.1935862827962
 20
139.8496504277471
 30
0.0
 10
128.2118949142691
 20
139.8496504277471
 30
0.0
 10
128.229765582581
 20
139.8496504277471
 30
0.0
 10
128.2471761212825
 20
139.8496504277471
 30
0.0
  0
LINE
  5
199
330
1F
100
AcDbEntity
  8
0
  6
Continuous
 62
     7
370
     0
100
AcDbLine
 10
111.78270024
 20
138.1975105565
 30
0.0
 11
124.2471761213
 21
138.5870254277
 31
0.0
  0
LINE
  5
19A
330
1F
100
AcDbEntity
  8
0
  6
Continuous
 62
     7
370
     0
100
AcDbLine
 10
111.78270024
 20
119.501790299
 30
0.0
 11
124.2471761213
 21
119.1122754277
 31
0.0
  0
LINE
  5
19B
330
1F
100
AcDbEntity
  8
0
  6
Continuous
 62
     7
370
     0
100
AcDbLine
 10
124.2471761213
 20
118.2052754277
 30
0.0
 11
124.2471761213
 21
139.4940254277
 31
0.0
  0
LINE
  5
19C
330
1F
100
AcDbEntity
  8
0
  6
CENTERX2
 62
     7
370
    18
100
AcDbLine
 10
185.716087208
 20
128.8496504277
 30
0.0
 11
108.321486825
 21
128.8496504277
 31
0.0
  0
ENDSEC
  0
SECTION
  2
OBJECTS
  0
DICTIONARY
  5
C
330
0
100
AcDbDictionary
281
     1
  3
ACAD_GROUP
350
D
  3
ACAD_LAYOUT
350
1A
  3
ACAD_MLINESTYLE
350
17
  3
ACAD_PLOTSETTINGS
350
19
  3
ACAD_PLOTSTYLENAME
350
E
  3
ACAD_SCALELIST
350
47
  0
DICTIONARY
  5
D
102
{ACAD_REACTORS
330
C
102
}
330
C
100
AcDbDictionary
281
     1
  0
DICTIONARY
  5
1A
102
{ACAD_REACTORS
330
C
102
}
330
C
100
AcDbDictionary
281
     1
  3
Layout1
350
1E
  3
Layout2
350
26
  3
Model
350
22
  0
DICTIONARY
  5
17
102
{ACAD_REACTORS
330
C
102
}
330
C
100
AcDbDictionary
281
     1
  3
Standard
350
18
  0
DICTIONARY
  5
19
102
{ACAD_REACTORS
330
C
102
}
330
C
100
AcDbDictionary
281
     1
  0
ACDBDICTIONARYWDFLT
  5
E
102
{ACAD_REACTORS
330
C
102
}
330
C
100
AcDbDictionary
281
     1
  3
Normal
350
F
100
AcDbDictionaryWithDefault
340
F
  0
DICTIONARY
  5
47
102
{ACAD_REACTORS
330
C
102
}
330
C
100
AcDbDictionary
281
     1
  3
A0
350
48
  3
A1
350
49
  3
A2
350
4A
  3
A3
350
4B
  3
A4
350
4C
  3
A5
350
4D
  3
A6
350
4E
  3
A7
350
4F
  3
A8
350
50
  3
A9
350
51
  3
B0
350
52
  3
B1
350
53
  3
B2
350
54
  3
B3
350
55
  3
B4
350
56
  3
B5
350
57
  3
B6
350
58
  3
B7
350
59
  3
B8
350
5A
  3
B9
350
5B
  3
C0
350
5C
  3
C1
350
5D
  3
C2
350
5E
  3
C3
350
5F
  3
C4
350
60
  3
C5
350
61
  3
C6
350
62
  3
C7
350
63
  3
C8
350
64
  3
C9
350
65
  3
D0
350
66
  3
D1
350
67
  3
D2
350
68
  0
LAYOUT
  5
1E
102
{ACAD_REACTORS
330
1A
102
}
330
1A
100
AcDbPlotSettings
  1

  2
none_device
  4

  6

 40
0.0
 41
0.0
 42
0.0
 43
0.0
 44
0.0
 45
0.0
 46
0.0
 47
0.0
 48
0.0
 49
0.0
140
0.0
141
0.0
142
1.0
143
1.0
 70
   688
 72
     1
 73
     0
 74
     5
  7

 75
    16
147
1.0
148
0.0
149
0.0
100
AcDbLayout
  1
Layout1
 70
     1
 71
     1
 10
0.0
 20
0.0
 11
420.0
 21
297.0
 12
0.0
 22
0.0
 32
0.0
 14
1.0000000000E+20
 24
1.0000000000E+20
 34
1.0000000000E+20
 15
-1.0000000000E+20
 25
-1.0000000000E+20
 35
-1.0000000000E+20
146
0.0
 13
0.0
 23
0.0
 33
0.0
 16
1.0
 26
0.0
 36
0.0
 17
0.0
 27
1.0
 37
0.0
 76
     0
330
1B
  0
LAYOUT
  5
26
102
{ACAD_REACTORS
330
1A
102
}
330
1A
100
AcDbPlotSettings
  1

  2
none_device
  4

  6

 40
0.0
 41
0.0
 42
0.0
 43
0.0
 44
0.0
 45
0.0
 46
0.0
 47
0.0
 48
0.0
 49
0.0
140
0.0
141
0.0
142
1.0
143
1.0
 70
   688
 72
     1
 73
     0
 74
     5
  7

 75
    16
147
1.0
148
0.0
149
0.0
100
AcDbLayout
  1
Layout2
 70
     1
 71
     2
 10
0.0
 20
0.0
 11
0.0
 21
0.0
 12
0.0
 22
0.0
 32
0.0
 14
0.0
 24
0.0
 34
0.0
 15
0.0
 25
0.0
 35
0.0
146
0.0
 13
0.0
 23
0.0
 33
0.0
 16
1.0
 26
0.0
 36
0.0
 17
0.0
 27
1.0
 37
0.0
 76
     0
330
23
  0
LAYOUT
  5
22
102
{ACAD_REACTORS
330
1A
102
}
330
1A
100
AcDbPlotSettings
  1

  2
none_device
  4
Letter_(8.50_x_11.00_Inches)
  6

 40
6.35
 41
6.35
 42
6.35000508
 43
6.35000508
 44
215.9
 45
279.4
 46
0.0
 47
0.0
 48
0.0
 49
0.0
140
0.0
141
0.0
142
1.0
143
1.0
 70
  1712
 72
     1
 73
     0
 74
     0
  7

 75
     0
147
1.0
148
0.0
149
0.0
100
AcDbLayout
  1
Model
 70
     1
 71
     0
 10
0.0
 20
0.0
 11
431.8
 21
279.4
 12
0.0
 22
0.0
 32
0.0
 14
0.0
 24
0.0
 34
0.0
 15
431.8
 25
279.4
 35
0.0
146
0.0
 13
0.0
 23
0.0
 33
0.0
 16
1.0
 26
0.0
 36
0.0
 17
0.0
 27
1.0
 37
0.0
 76
     0
330
1F
331
29
  0
MLINESTYLE
  5
18
102
{ACAD_REACTORS
330
17
102
}
330
17
100
AcDbMlineStyle
  2
Standard
 70
     0
  3

 62
   256
 51
90.0
 52
90.0
 71
     2
 49
0.5
 62
   256
  6
BYLAYER
 49
-0.5
 62
   256
  6
BYLAYER
  0
ACDBPLACEHOLDER
  5
F
102
{ACAD_REACTORS
330
E
102
}
330
E
  0
SCALE
  5
48
102
{ACAD_REACTORS
330
47
102
}
330
47
100
AcDbScale
 70
     0
300
1:1
140
1.0
141
1.0
290
     1
  0
SCALE
  5
49
102
{ACAD_REACTORS
330
47
102
}
330
47
100
AcDbScale
 70
     0
300
1:2
140
1.0
141
2.0
290
     0
  0
SCALE
  5
4A
102
{ACAD_REACTORS
330
47
102
}
330
47
100
AcDbScale
 70
     0
300
1:4
140
1.0
141
4.0
290
     0
  0
SCALE
  5
4B
102
{ACAD_REACTORS
330
47
102
}
330
47
100
AcDbScale
 70
     0
300
1:5
140
1.0
141
5.0
290
     0
  0
SCALE
  5
4C
102
{ACAD_REACTORS
330
47
102
}
330
47
100
AcDbScale
 70
     0
300
1:8
140
1.0
141
8.0
290
     0
  0
SCALE
  5
4D
102
{ACAD_REACTORS
330
47
102
}
330
47
100
AcDbScale
 70
     0
300
1:10
140
1.0
141
10.0
290
     0
  0
SCALE
  5
4E
102
{ACAD_REACTORS
330
47
102
}
330
47
100
AcDbScale
 70
     0
300
1:16
140
1.0
141
16.0
290
     0
  0
SCALE
  5
4F
102
{ACAD_REACTORS
330
47
102
}
330
47
100
AcDbScale
 70
     0
300
1:20
140
1.0
141
20.0
290
     0
  0
SCALE
  5
50
102
{ACAD_REACTORS
330
47
102
}
330
47
100
AcDbScale
 70
     0
300
1:30
140
1.0
141
30.0
290
     0
  0
SCALE
  5
51
102
{ACAD_REACTORS
330
47
102
}
330
47
100
AcDbScale
 70
     0
300
1:40
140
1.0
141
40.0
290
     0
  0
SCALE
  5
52
102
{ACAD_REACTORS
330
47
102
}
330
47
100
AcDbScale
 70
     0
300
1:50
140
1.0
141
50.0
290
     0
  0
SCALE
  5
53
102
{ACAD_REACTORS
330
47
102
}
330
47
100
AcDbScale
 70
     0
300
1:100
140
1.0
141
100.0
290
     0
  0
SCALE
  5
54
102
{ACAD_REACTORS
330
47
102
}
330
47
100
AcDbScale
 70
     0
300
2:1
140
2.0
141
1.0
290
     0
  0
SCALE
  5
55
102
{ACAD_REACTORS
330
47
102
}
330
47
100
AcDbScale
 70
     0
300
4:1
140
4.0
141
1.0
290
     0
  0
SCALE
  5
56
102
{ACAD_REACTORS
330
47
102
}
330
47
100
AcDbScale
 70
     0
300
8:1
140
8.0
141
1.0
290
     0
  0
SCALE
  5
57
102
{ACAD_REACTORS
330
47
102
}
330
47
100
AcDbScale
 70
     0
300
10:1
140
10.0
141
1.0
290
     0
  0
SCALE
  5
58
102
{ACAD_REACTORS
330
47
102
}
330
47
100
AcDbScale
 70
     0
300
100:1
140
100.0
141
1.0
290
     0
  0
SCALE
  5
59
102
{ACAD_REACTORS
330
47
102
}
330
47
100
AcDbScale
 70
     0
300
1/128" = 1'-0"
140
0.0078125
141
12.0
290
     0
  0
SCALE
  5
5A
102
{ACAD_REACTORS
330
47
102
}
330
47
100
AcDbScale
 70
     0
300
1/64" = 1'-0"
140
0.015625
141
12.0
290
     0
  0
SCALE
  5
5B
102
{ACAD_REACTORS
330
47
102
}
330
47
100
AcDbScale
 70
     0
300
1/32" = 1'-0"
140
0.03125
141
12.0
290
     0
  0
SCALE
  5
5C
102
{ACAD_REACTORS
330
47
102
}
330
47
100
AcDbScale
 70
     0
300
1/16" = 1'-0"
140
0.0625
141
12.0
290
     0
  0
SCALE
  5
5D
102
{ACAD_REACTORS
330
47
102
}
330
47
100
AcDbScale
 70
     0
300
3/32" = 1'-0"
140
0.09375
141
12.0
290
     0
  0
SCALE
  5
5E
102
{ACAD_REACTORS
330
47
102
}
330
47
100
AcDbScale
 70
     0
300
1/8" = 1'-0"
140
0.125
141
12.0
290
     0
  0
SCALE
  5
5F
102
{ACAD_REACTORS
330
47
102
}
330
47
100
AcDbScale
 70
     0
300
3/16" = 1'-0"
140
0.1875
141
12.0
290
     0
  0
SCALE
  5
60
102
{ACAD_REACTORS
330
47
102
}
330
47
100
AcDbScale
 70
     0
300
1/4" = 1'-0"
140
0.25
141
12.0
290
     0
  0
SCALE
  5
61
102
{ACAD_REACTORS
330
47
102
}
330
47
100
AcDbScale
 70
     0
300
3/8" = 1'-0"
140
0.375
141
12.0
290
     0
  0
SCALE
  5
62
102
{ACAD_REACTORS
330
47
102
}
330
47
100
AcDbScale
 70
     0
300
1/2" = 1'-0"
140
0.5
141
12.0
290
     0
  0
SCALE
  5
63
102
{ACAD_REACTORS
330
47
102
}
330
47
100
AcDbScale
 70
     0
300
3/4" = 1'-0"
140
0.75
141
12.0
290
     0
  0
SCALE
  5
64
102
{ACAD_REACTORS
330
47
102
}
330
47
100
AcDbScale
 70
     0
300
1" = 1'-0"
140
1.0
141
12.0
290
     0
  0
SCALE
  5
65
102
{ACAD_REACTORS
330
47
102
}
330
47
100
AcDbScale
 70
     0
300
1-1/2" = 1'-0"
140
1.5
141
12.0
290
     0
  0
SCALE
  5
66
102
{ACAD_REACTORS
330
47
102
}
330
47
100
AcDbScale
 70
     0
300
3" = 1'-0"
140
3.0
141
12.0
290
     0
  0
SCALE
  5
67
102
{ACAD_REACTORS
330
47
102
}
330
47
100
AcDbScale
 70
     0
300
6" = 1'-0"
140
6.0
141
12.0
290
     0
  0
SCALE
  5
68
102
{ACAD_REACTORS
330
47
102
}
330
47
100
AcDbScale
 70
     0
300
1'-0" = 1'-0"
140
12.0
141
12.0
290
     0
  0
ENDSEC
  0
EOF
