  0
SECTION
  2
HEADER
  9
$ACADVER
  1
AC1015
  9
$ACADMAINTVER
 70
     6
  9
$DWGCODEPAGE
  3
DOS932
  9
$INSBASE
 10
0.0
 20
0.0
 30
0.0
  9
$EXTMIN
 10
0.0
 20
0.0
 30
0.0
  9
$EXTMAX
 10
431.8
 20
279.4
 30
0.0
  9
$LIMMIN
 10
0.0
 20
0.0
  9
$LIMMAX
 10
431.8
 20
279.4
  9
$ORTHOMODE
 70
     0
  9
$REGENMODE
 70
     1
  9
$FILLMODE
 70
     1
  9
$QTEXTMODE
 70
     0
  9
$MIRRTEXT
 70
     1
  9
$LTSCALE
 40
1.0
  9
$ATTMODE
 70
     1
  9
$TEXTSIZE
 40
3.5
  9
$TRACEWID
 40
1.0
  9
$TEXTSTYLE
  7
Standard
  9
$CLAYER
  8
0
  9
$CELTYPE
  6
ByLayer
  9
$CECOLOR
 62
   256
  9
$CELTSCALE
 40
1.0
  9
$DISPSILH
 70
     0
  9
$DIMSCALE
 40
1.0
  9
$DIMASZ
 40
3.302
  9
$DIMEXO
 40
1.0
  9
$DIMDLI
 40
3.75
  9
$DIMRND
 40
0.0
  9
$DIMDLE
 40
0.0
  9
$DIMEXE
 40
1.0
  9
$DIMTP
 40
0.0
  9
$DIMTM
 40
0.0
  9
$DIMTXT
 40
3.5
  9
$DIMCEN
 40
2.5
  9
$DIMTSZ
 40
0.0
  9
$DIMTOL
 70
     0
  9
$DIMLIM
 70
     0
  9
$DIMTIH
 70
     1
  9
$DIMTOH
 70
     1
  9
$DIMSE1
 70
     0
  9
$DIMSE2
 70
     0
  9
$DIMTAD
 70
     1
  9
$DIMZIN
 70
     1
  9
$DIMBLK
  1

  9
$DIMASO
 70
     1
  9
$DIMSHO
 70
     1
  9
$DIMPOST
  1

  9
$DIMAPOST
  1

  9
$DIMALT
 70
     0
  9
$DIMALTD
 70
     3
  9
$DIMALTF
 40
0.0393700787
  9
$DIMLFAC
 40
1.0
  9
$DIMTOFL
 70
     1
  9
$DIMTVP
 40
0.0
  9
$DIMTIX
 70
     0
  9
$DIMSOXD
 70
     0
  9
$DIMSAH
 70
     0
  9
$DIMBLK1
  1

  9
$DIMBLK2
  1

  9
$DIMSTYLE
  2
ISO-25
  9
$DIMCLRD
 70
     0
  9
$DIMCLRE
 70
     0
  9
$DIMCLRT
 70
     0
  9
$DIMTFAC
 40
1.0
  9
$DIMGAP
 40
1.524
  9
$DIMJUST
 70
     0
  9
$DIMSD1
 70
     0
  9
$DIMSD2
 70
     0
  9
$DIMTOLJ
 70
     0
  9
$DIMTZIN
 70
     1
  9
$DIMALTZ
 70
     0
  9
$DIMALTTZ
 70
     0
  9
$DIMUPT
 70
     0
  9
$DIMDEC
 70
     2
  9
$DIMTDEC
 70
     2
  9
$DIMALTU
 70
     2
  9
$DIMALTTD
 70
     3
  9
$DIMTXSTY
  7
Standard
  9
$DIMAUNIT
 70
     0
  9
$DIMADEC
 70
     2
  9
$DIMALTRND
 40
0.0
  9
$DIMAZIN
 70
     0
  9
$DIMDSEP
 70
    44
  9
$DIMATFIT
 70
     3
  9
$DIMFRAC
 70
     0
  9
$DIMLDRBLK
  1

  9
$DIMLUNIT
 70
     2
  9
$DIMLWD
 70
    -2
  9
$DIMLWE
 70
    -2
  9
$DIMTMOVE
 70
     0
  9
$LUNITS
 70
     2
  9
$LUPREC
 70
     2
  9
$SKETCHINC
 40
1.0
  9
$FILLETRAD
 40
10.0
  9
$AUNITS
 70
     0
  9
$AUPREC
 70
     2
  9
$MENU
  1
.
  9
$ELEVATION
 40
0.0
  9
$PELEVATION
 40
0.0
  9
$THICKNESS
 40
0.0
  9
$LIMCHECK
 70
     0
  9
$CHAMFERA
 40
0.0
  9
$CHAMFERB
 40
0.0
  9
$CHAMFERC
 40
0.0
  9
$CHAMFERD
 40
0.0
  9
$SKPOLY
 70
     0
  9
$TDCREATE
 40
2459285.48059816
  9
$TDUCREATE
 40
2459285.10559816
  9
$TDUPDATE
 40
2459285.480598703
  9
$TDUUPDATE
 40
2459285.105598703
  9
$TDINDWG
 40
0.0000000116
  9
$TDUSRTIMER
 40
0.0000000116
  9
$USRTIMER
 70
     1
  9
$ANGBASE
 50
0.0
  9
$ANGDIR
 70
     0
  9
$PDMODE
 70
     0
  9
$PDSIZE
 40
-1.0
  9
$PLINEWID
 40
0.0
  9
$SPLFRAME
 70
     0
  9
$SPLINETYPE
 70
     6
  9
$SPLINESEGS
 70
     8
  9
$HANDSEED
  5
197
  9
$SURFTAB1
 70
     6
  9
$SURFTAB2
 70
     6
  9
$SURFTYPE
 70
     6
  9
$SURFU
 70
     6
  9
$SURFV
 70
     6
  9
$UCSBASE
  2

  9
$UCSNAME
  2

  9
$UCSORG
 10
0.0
 20
0.0
 30
0.0
  9
$UCSXDIR
 10
1.0
 20
0.0
 30
0.0
  9
$UCSYDIR
 10
0.0
 20
1.0
 30
0.0
  9
$UCSORTHOREF
  2

  9
$UCSORTHOVIEW
 70
     0
  9
$UCSORGTOP
 10
0.0
 20
0.0
 30
0.0
  9
$UCSORGBOTTOM
 10
0.0
 20
0.0
 30
0.0
  9
$UCSORGLEFT
 10
0.0
 20
0.0
 30
0.0
  9
$UCSORGRIGHT
 10
0.0
 20
0.0
 30
0.0
  9
$UCSORGFRONT
 10
0.0
 20
0.0
 30
0.0
  9
$UCSORGBACK
 10
0.0
 20
0.0
 30
0.0
  9
$PUCSBASE
  2

  9
$PUCSNAME
  2

  9
$PUCSORG
 10
0.0
 20
0.0
 30
0.0
  9
$PUCSXDIR
 10
1.0
 20
0.0
 30
0.0
  9
$PUCSYDIR
 10
0.0
 20
1.0
 30
0.0
  9
$PUCSORTHOREF
  2

  9
$PUCSORTHOVIEW
 70
     0
  9
$PUCSORGTOP
 10
0.0
 20
0.0
 30
0.0
  9
$PUCSORGBOTTOM
 10
0.0
 20
0.0
 30
0.0
  9
$PUCSORGLEFT
 10
0.0
 20
0.0
 30
0.0
  9
$PUCSORGRIGHT
 10
0.0
 20
0.0
 30
0.0
  9
$PUCSORGFRONT
 10
0.0
 20
0.0
 30
0.0
  9
$PUCSORGBACK
 10
0.0
 20
0.0
 30
0.0
  9
$USERI1
 70
     0
  9
$USERI2
 70
     0
  9
$USERI3
 70
     0
  9
$USERI4
 70
     0
  9
$USERI5
 70
     0
  9
$USERR1
 40
0.0
  9
$USERR2
 40
0.0
  9
$USERR3
 40
0.0
  9
$USERR4
 40
0.0
  9
$USERR5
 40
0.0
  9
$WORLDVIEW
 70
     1
  9
$SHADEDGE
 70
     3
  9
$SHADEDIF
 70
    70
  9
$TILEMODE
 70
     1
  9
$MAXACTVP
 70
    64
  9
$PINSBASE
 10
0.0
 20
0.0
 30
0.0
  9
$PLIMCHECK
 70
     0
  9
$PEXTMIN
 10
1.0000000000E+20
 20
1.0000000000E+20
 30
1.0000000000E+20
  9
$PEXTMAX
 10
-1.0000000000E+20
 20
-1.0000000000E+20
 30
-1.0000000000E+20
  9
$PLIMMIN
 10
0.0
 20
0.0
  9
$PLIMMAX
 10
420.0
 20
297.0
  9
$UNITMODE
 70
     0
  9
$VISRETAIN
 70
     1
  9
$PLINEGEN
 70
     0
  9
$PSLTSCALE
 70
     1
  9
$TREEDEPTH
 70
  3020
  9
$CMLSTYLE
  2
Standard
  9
$CMLJUST
 70
     0
  9
$CMLSCALE
 40
20.0
  9
$PROXYGRAPHICS
 70
     1
  9
$MEASUREMENT
 70
     1
  9
$CELWEIGHT
370
    -1
  9
$ENDCAPS
280
     0
  9
$JOINSTYLE
280
     0
  9
$LWDISPLAY
290
     1
  9
$INSUNITS
 70
     4
  9
$HYPERLINKBASE
  1

  9
$STYLESHEET
  1

  9
$XEDIT
290
     1
  9
$CEPSNTYPE
380
     0
  9
$PSTYLEMODE
290
     1
  9
$FINGERPRINTGUID
  2
{11AAABA9-E409-4EC1-85D4-94B599E2E8FA}
  9
$VERSIONGUID
  2
{FAEB1C32-E019-11D5-929B-00C0DF256EC4}
  9
$EXTNAMES
290
     1
  9
$PSVPSCALE
 40
0.0
  9
$OLESTARTUP
290
     0
  0
ENDSEC
  0
SECTION
  2
CLASSES
  0
CLASS
  1
ACDBDICTIONARYWDFLT
  2
AcDbDictionaryWithDefault
  3
ObjectDBX Classes
 90
        0
280
     0
281
     0
  0
CLASS
  1
VISUALSTYLE
  2
AcDbVisualStyle
  3
ObjectDBX Classes
 90
     4095
280
     0
281
     0
  0
CLASS
  1
MATERIAL
  2
AcDbMaterial
  3
ObjectDBX Classes
 90
     1153
280
     0
281
     0
  0
CLASS
  1
SCALE
  2
AcDbScale
  3
ObjectDBX Classes
 90
     1153
280
     0
281
     0
  0
CLASS
  1
TABLESTYLE
  2
AcDbTableStyle
  3
ObjectDBX Classes
 90
     4095
280
     0
281
     0
  0
CLASS
  1
MLEADERSTYLE
  2
AcDbMLeaderStyle
  3
ACDB_MLEADERSTYLE_CLASS
 90
     4095
280
     0
281
     0
  0
CLASS
  1
SUN
  2
AcDbSun
  3
SCENEOE
 90
     1153
280
     0
281
     0
  0
CLASS
  1
ACDBPLACEHOLDER
  2
AcDbPlaceHolder
  3
ObjectDBX Classes
 90
        0
280
     0
281
     0
  0
CLASS
  1
LAYOUT
  2
AcDbLayout
  3
ObjectDBX Classes
 90
        0
280
     0
281
     0
  0
ENDSEC
  0
SECTION
  2
TABLES
  0
TABLE
  2
VPORT
  5
8
330
0
100
AcDbSymbolTable
 70
     1
  0
VPORT
  5
29
330
8
100
AcDbSymbolTableRecord
100
AcDbViewportTableRecord
  2
*Active
 70
     0
 10
0.0
 20
0.0
 11
1.0
 21
1.0
 12
215.9
 22
139.7
 13
0.0
 23
0.0
 14
10.0
 24
10.0
 15
10.0
 25
10.0
 16
0.0
 26
0.0
 36
1.0
 17
0.0
 27
0.0
 37
0.0
 40
279.4
 41
1.5454545455
 42
50.0
 43
0.0
 44
0.0
 50
0.0
 51
0.0
 71
     0
 72
  2000
 73
     1
 74
     3
 75
     0
 76
     0
 77
     0
 78
     0
281
     0
 65
     1
110
0.0
120
0.0
130
0.0
111
1.0
121
0.0
131
0.0
112
0.0
122
1.0
132
0.0
 79
     0
146
0.0
  0
ENDTAB
  0
TABLE
  2
LTYPE
  5
5
330
0
100
AcDbSymbolTable
 70
     6
  0
LTYPE
  5
14
330
5
100
AcDbSymbolTableRecord
100
AcDbLinetypeTableRecord
  2
ByBlock
 70
     0
  3

 72
    65
 73
     0
 40
0.0
  0
LTYPE
  5
15
330
5
100
AcDbSymbolTableRecord
100
AcDbLinetypeTableRecord
  2
ByLayer
 70
     0
  3

 72
    65
 73
     0
 40
0.0
  0
LTYPE
  5
16
330
5
100
AcDbSymbolTableRecord
100
AcDbLinetypeTableRecord
  2
Continuous
 70
     0
  3
Solid line
 72
    65
 73
     0
 40
0.0
  0
LTYPE
  5
6E
330
5
100
AcDbSymbolTableRecord
100
AcDbLinetypeTableRecord
  2
HIDDEN
 70
     0
  3
Hidden __ __ __ __ __ __ __ __ __ __ __ __ __ __
 72
    65
 73
     2
 40
1.905
 49
1.27
 74
     0
 49
-0.635
 74
     0
  0
LTYPE
  5
6F
330
5
100
AcDbSymbolTableRecord
100
AcDbLinetypeTableRecord
  2
PHANTOM
 70
     0
  3
Phantom ______  __  __  ______  __  __  ______
 72
    65
 73
     6
 40
12.7
 49
6.35
 74
     0
 49
-1.27
 74
     0
 49
1.27
 74
     0
 49
-1.27
 74
     0
 49
1.27
 74
     0
 49
-1.27
 74
     0
  0
LTYPE
  5
70
330
5
100
AcDbSymbolTableRecord
100
AcDbLinetypeTableRecord
  2
CENTER
 70
     0
  3
Center ____ _ ____ _ ____ _ ____ _ ____ _ ____
 72
    65
 73
     4
 40
10.16
 49
6.35
 74
     0
 49
-1.27
 74
     0
 49
1.27
 74
     0
 49
-1.27
 74
     0
  0
LTYPE
  5
71
330
5
100
AcDbSymbolTableRecord
100
AcDbLinetypeTableRecord
  2
CENTERX2
 70
     0
  3
Center (2x) ________  __  ________  __  _____
 72
    65
 73
     4
 40
20.32
 49
12.7
 74
     0
 49
-2.54
 74
     0
 49
2.54
 74
     0
 49
-2.54
 74
     0
  0
LTYPE
  5
72
330
5
100
AcDbSymbolTableRecord
100
AcDbLinetypeTableRecord
  2
DOT2
 70
     0
  3
Dot (.5x) ........................................
 72
    65
 73
     2
 40
0.635
 49
0.0
 74
     0
 49
-0.635
 74
     0
  0
ENDTAB
  0
TABLE
  2
LAYER
  5
2
330
0
100
AcDbSymbolTable
 70
     1
  0
LAYER
  5
10
330
2
100
AcDbSymbolTableRecord
100
AcDbLayerTableRecord
  2
0
 70
     0
 62
     7
  6
Continuous
370
    -3
390
F
  0
ENDTAB
  0
TABLE
  2
STYLE
  5
3
330
0
100
AcDbSymbolTable
 70
     2
  0
STYLE
  5
11
330
3
100
AcDbSymbolTableRecord
100
AcDbTextStyleTableRecord
  2
Standard
 70
     0
 40
0.0
 41
1.0
 50
0.0
 71
     0
 42
3.5
  3
txt
  4
bigfont
  0
STYLE
  5
73
330
3
100
AcDbSymbolTableRecord
100
AcDbTextStyleTableRecord
  2
SLDTEXTSTYLE0
 70
     0
 40
0.0
 41
0.7
 50
0.0
 71
     0
 42
3.5
  3
TXT
  4
bigfont
  0
ENDTAB
  0
TABLE
  2
VIEW
  5
6
330
0
100
AcDbSymbolTable
 70
     0
  0
ENDTAB
  0
TABLE
  2
UCS
  5
7
330
0
100
AcDbSymbolTable
 70
     0
  0
ENDTAB
  0
TABLE
  2
APPID
  5
9
330
0
100
AcDbSymbolTable
 70
     1
  0
APPID
  5
12
330
9
100
AcDbSymbolTableRecord
100
AcDbRegAppTableRecord
  2
ACAD
 70
     0
  0
ENDTAB
  0
TABLE
  2
DIMSTYLE
  5
A
330
0
100
AcDbSymbolTable
 70
     1
100
AcDbDimStyleTable
  0
DIMSTYLE
105
27
330
A
100
AcDbSymbolTableRecord
100
AcDbDimStyleTableRecord
  2
ISO-25
 70
     0
 41
2.5
 42
0.625
 43
3.75
 44
1.25
 73
     0
 74
     0
 77
     1
 78
     8
140
2.5
141
2.5
143
0.0393700787
147
0.625
171
     3
172
     1
178
     0
271
     2
272
     2
274
     3
278
    44
283
     0
284
     8
340
11
  0
ENDTAB
  0
TABLE
  2
BLOCK_RECORD
  5
1
330
0
100
AcDbSymbolTable
 70
     2
  0
BLOCK_RECORD
  5
1F
330
1
100
AcDbSymbolTableRecord
100
AcDbBlockTableRecord
  2
*Model_Space
340
22
  0
BLOCK_RECORD
  5
1B
330
1
100
AcDbSymbolTableRecord
100
AcDbBlockTableRecord
  2
*Paper_Space
340
1E
  0
BLOCK_RECORD
  5
23
330
1
100
AcDbSymbolTableRecord
100
AcDbBlockTableRecord
  2
*Paper_Space0
340
26
  0
BLOCK_RECORD
  5
10C
330
1
100
AcDbSymbolTableRecord
100
AcDbBlockTableRecord
  2
SW_CENTERMARKSYMBOL_0
340
0
102
{BLKREFS
331
117
102
}
  0
ENDTAB
  0
ENDSEC
  0
SECTION
  2
BLOCKS
  0
BLOCK
  5
20
330
1F
100
AcDbEntity
  8
0
100
AcDbBlockBegin
  2
*Model_Space
 70
     0
 10
0.0
 20
0.0
 30
0.0
  3
*Model_Space
  1

  0
ENDBLK
  5
21
330
1F
100
AcDbEntity
  8
0
100
AcDbBlockEnd
  0
BLOCK
  5
1C
330
1B
100
AcDbEntity
 67
     1
  8
0
100
AcDbBlockBegin
  2
*Paper_Space
 70
     0
 10
0.0
 20
0.0
 30
0.0
  3
*Paper_Space
  1

  0
ENDBLK
  5
1D
330
1B
100
AcDbEntity
 67
     1
  8
0
100
AcDbBlockEnd
  0
BLOCK
  5
24
330
23
100
AcDbEntity
  8
0
100
AcDbBlockBegin
  2
*Paper_Space0
 70
     0
 10
0.0
 20
0.0
 30
0.0
  3
*Paper_Space0
  1

  0
ENDBLK
  5
25
330
23
100
AcDbEntity
  8
0
100
AcDbBlockEnd
  0
BLOCK
  5
10D
330
10C
100
AcDbEntity
  8
0
100
AcDbBlockBegin
  2
SW_CENTERMARKSYMBOL_0
 70
     0
 10
0.0
 20
0.0
 30
0.0
  3
SW_CENTERMARKSYMBOL_0
  1

  0
LINE
  5
10F
330
10C
100
AcDbEntity
  8
0
  6
Continuous
 62
     0
370
    18
100
AcDbLine
 10
0.0
 20
0.0
 30
0.0
 11
0.0
 21
2.5
 31
0.0
  0
LINE
  5
110
330
10C
100
AcDbEntity
  8
0
  6
Continuous
 62
     0
370
    18
100
AcDbLine
 10
0.0
 20
0.0
 30
0.0
 11
-2.5
 21
0.0
 31
0.0
  0
LINE
  5
111
330
10C
100
AcDbEntity
  8
0
  6
Continuous
 62
     0
370
    18
100
AcDbLine
 10
0.0
 20
0.0
 30
0.0
 11
0.0
 21
-2.5
 31
0.0
  0
LINE
  5
112
330
10C
100
AcDbEntity
  8
0
  6
Continuous
 62
     0
370
    18
100
AcDbLine
 10
0.0
 20
0.0
 30
0.0
 11
2.5
 21
0.0
 31
0.0
  0
LINE
  5
113
330
10C
100
AcDbEntity
  8
0
  6
Continuous
 62
     0
370
    18
100
AcDbLine
 10
0.0
 20
5.0
 30
0.0
 11
0.0
 21
15.633235512
 31
0.0
  0
LINE
  5
114
330
10C
100
AcDbEntity
  8
0
  6
Continuous
 62
     0
370
    18
100
AcDbLine
 10
-5.0
 20
0.0
 30
0.0
 11
-14.25
 21
0.0
 31
0.0
  0
LINE
  5
115
330
10C
100
AcDbEntity
  8
0
  6
Continuous
 62
     0
370
    18
100
AcDbLine
 10
0.0
 20
-5.0
 30
0.0
 11
0.0
 21
-15.5287895987
 31
0.0
  0
LINE
  5
116
330
10C
100
AcDbEntity
  8
0
  6
Continuous
 62
     0
370
    18
100
AcDbLine
 10
5.0
 20
0.0
 30
0.0
 11
14.25
 21
0.0
 31
0.0
  0
ENDBLK
  5
10E
330
10C
100
AcDbEntity
  8
0
100
AcDbBlockEnd
  0
ENDSEC
  0
SECTION
  2
ENTITIES
  0
MTEXT
  5
74
330
1F
100
AcDbEntity
  8
0
  6
Continuous
 62
     7
370
     0
100
AcDbMText
 10
194.6374136266
 20
100.4196135067
 30
0.0
 40
4.7625
 41
0.0
 71
     1
 72
     1
  1
HS-1314R
  7
SLDTEXTSTYLE0
 73
     1
 44
1.0
  0
LINE
  5
75
330
1F
100
AcDbEntity
  8
0
  6
Continuous
 62
     7
370
    25
100
AcDbLine
 10
164.0102196278
 20
66.0829940632
 30
0.0
 11
164.5102196278
 21
66.0829940632
 31
0.0
  0
LINE
  5
76
330
1F
100
AcDbEntity
  8
0
  6
Continuous
 62
     7
370
    25
100
AcDbLine
 10
164.5102196278
 20
82.0829940632
 30
0.0
 11
164.0102196278
 21
82.0829940632
 31
0.0
  0
LINE
  5
77
330
1F
100
AcDbEntity
  8
0
  6
Continuous
 62
     7
370
    25
100
AcDbLine
 10
170.5102196278
 20
67.0829940632
 30
0.0
 11
175.0102196278
 21
67.8329940632
 31
0.0
  0
LINE
  5
78
330
1F
100
AcDbEntity
  8
0
  6
Continuous
 62
     7
370
    25
100
AcDbLine
 10
175.0102196278
 20
80.3329940632
 30
0.0
 11
170.5102196278
 21
81.0829940632
 31
0.0
  0
LINE
  5
79
330
1F
100
AcDbEntity
  8
0
  6
Continuous
 62
     7
370
    25
100
AcDbLine
 10
170.5102196278
 20
81.0829940632
 30
0.0
 11
164.5102196278
 21
81.0829940632
 31
0.0
  0
LINE
  5
7A
330
1F
100
AcDbEntity
  8
0
  6
Continuous
 62
     7
370
    25
100
AcDbLine
 10
164.5102196278
 20
67.0829940632
 30
0.0
 11
170.5102196278
 21
67.0829940632
 31
0.0
  0
LINE
  5
7B
330
1F
100
AcDbEntity
  8
0
  6
Continuous
 62
     7
370
    25
100
AcDbLine
 10
175.0102196278
 20
67.0829940632
 30
0.0
 11
179.5102196278
 21
67.8329940632
 31
0.0
  0
LINE
  5
7C
330
1F
100
AcDbEntity
  8
0
  6
Continuous
 62
     7
370
    25
100
AcDbLine
 10
179.5102196278
 20
80.3329940632
 30
0.0
 11
175.0102196278
 21
81.0829940632
 31
0.0
  0
LINE
  5
7D
330
1F
100
AcDbEntity
  8
0
  6
Continuous
 62
     7
370
    25
100
AcDbLine
 10
188.5102196278
 20
67.0829940632
 30
0.0
 11
194.3148333727
 21
67.7527571876
 31
0.0
  0
LINE
  5
7E
330
1F
100
AcDbEntity
  8
0
  6
Continuous
 62
     7
370
    25
100
AcDbLine
 10
194.3148333727
 20
80.4132309388
 30
0.0
 11
188.5102196278
 21
81.0829940632
 31
0.0
  0
LINE
  5
7F
330
1F
100
AcDbEntity
  8
0
  6
Continuous
 62
     7
370
    25
100
AcDbLine
 10
184.0102196278
 20
67.0829940632
 30
0.0
 11
188.5102196278
 21
67.8329940632
 31
0.0
  0
LINE
  5
80
330
1F
100
AcDbEntity
  8
0
  6
Continuous
 62
     7
370
    25
100
AcDbLine
 10
188.5102196278
 20
80.3329940632
 30
0.0
 11
184.0102196278
 21
81.0829940632
 31
0.0
  0
LINE
  5
81
330
1F
100
AcDbEntity
  8
0
  6
Continuous
 62
     7
370
    25
100
AcDbLine
 10
179.5102196278
 20
67.0829940632
 30
0.0
 11
184.0102196278
 21
67.8329940632
 31
0.0
  0
LINE
  5
82
330
1F
100
AcDbEntity
  8
0
  6
Continuous
 62
     7
370
    25
100
AcDbLine
 10
184.0102196278
 20
80.3329940632
 30
0.0
 11
179.5102196278
 21
81.0829940632
 31
0.0
  0
LINE
  5
83
330
1F
100
AcDbEntity
  8
0
  6
Continuous
 62
     7
370
    25
100
AcDbLine
 10
194.3148333727
 20
67.7527571876
 30
0.0
 11
195.0102196278
 21
68.6295485527
 31
0.0
  0
LINE
  5
84
330
1F
100
AcDbEntity
  8
0
  6
Continuous
 62
     7
370
    25
100
AcDbLine
 10
195.0102196278
 20
79.5364395736
 30
0.0
 11
194.3148333727
 21
80.4132309388
 31
0.0
  0
LINE
  5
85
330
1F
100
AcDbEntity
  8
0
  6
Continuous
 62
     7
370
    25
100
AcDbLine
 10
160.7940852908
 20
60.2265876026
 30
0.0
 11
162.0102196278
 21
62.3329940632
 31
0.0
  0
LINE
  5
86
330
1F
100
AcDbEntity
  8
0
  6
Continuous
 62
     7
370
    25
100
AcDbLine
 10
162.0102196278
 20
85.8329940632
 30
0.0
 11
160.7940852908
 21
87.9394005237
 31
0.0
  0
LINE
  5
87
330
1F
100
AcDbEntity
  8
0
  6
Continuous
 62
     7
370
    25
100
AcDbLine
 10
151.2263539649
 20
87.9394005237
 30
0.0
 11
150.0102196278
 21
85.8329940632
 31
0.0
  0
LINE
  5
88
330
1F
100
AcDbEntity
  8
0
  6
Continuous
 62
     7
370
    25
100
AcDbLine
 10
150.0102196278
 20
62.3329940632
 30
0.0
 11
151.2263539649
 21
60.2265876026
 31
0.0
  0
LINE
  5
89
330
1F
100
AcDbEntity
  8
0
  6
Continuous
 62
     7
370
    25
100
AcDbLine
 10
150.0102196278
 20
85.8329940632
 30
0.0
 11
148.5102196278
 21
85.8329940632
 31
0.0
  0
LINE
  5
8A
330
1F
100
AcDbEntity
  8
0
  6
Continuous
 62
     7
370
    25
100
AcDbLine
 10
148.5102196278
 20
62.3329940632
 30
0.0
 11
150.0102196278
 21
62.3329940632
 31
0.0
  0
LINE
  5
8B
330
1F
100
AcDbEntity
  8
0
  6
Continuous
 62
     7
370
    25
100
AcDbLine
 10
162.0102196278
 20
62.3329940632
 30
0.0
 11
163.5102196278
 21
62.3329940632
 31
0.0
  0
LINE
  5
8C
330
1F
100
AcDbEntity
  8
0
  6
Continuous
 62
     7
370
    25
100
AcDbLine
 10
163.5102196278
 20
85.8329940632
 30
0.0
 11
162.0102196278
 21
85.8329940632
 31
0.0
  0
LINE
  5
8D
330
1F
100
AcDbEntity
  8
0
  6
Continuous
 62
     7
370
    25
100
AcDbLine
 10
163.5102196278
 20
62.3329940632
 30
0.0
 11
164.0102196278
 21
62.8329940632
 31
0.0
  0
LINE
  5
8E
330
1F
100
AcDbEntity
  8
0
  6
Continuous
 62
     7
370
    25
100
AcDbLine
 10
164.0102196278
 20
85.3329940632
 30
0.0
 11
163.5102196278
 21
85.8329940632
 31
0.0
  0
LINE
  5
8F
330
1F
100
AcDbEntity
  8
0
  6
Continuous
 62
     7
370
    25
100
AcDbLine
 10
148.5102196278
 20
85.8329940632
 30
0.0
 11
148.0102196278
 21
85.3329940632
 31
0.0
  0
LINE
  5
90
330
1F
100
AcDbEntity
  8
0
  6
Continuous
 62
     7
370
    25
100
AcDbLine
 10
148.0102196278
 20
62.8329940632
 30
0.0
 11
148.5102196278
 21
62.3329940632
 31
0.0
  0
LINE
  5
91
330
1F
100
AcDbEntity
  8
0
  6
Continuous
 62
     7
370
    25
100
AcDbLine
 10
156.0102196278
 20
87.4394005237
 30
0.0
 11
155.8762450316
 21
87.9394005237
 31
0.0
  0
LINE
  5
92
330
1F
100
AcDbEntity
  8
0
  6
Continuous
 62
     7
370
    25
100
AcDbLine
 10
156.144194224
 20
87.9394005237
 30
0.0
 11
156.0102196278
 21
87.4394005237
 31
0.0
  0
LINE
  5
93
330
1F
100
AcDbEntity
  8
0
  6
Continuous
 62
     7
370
    25
100
AcDbLine
 10
155.8762450316
 20
60.2265876026
 30
0.0
 11
156.0102196278
 21
60.7265876026
 31
0.0
  0
LINE
  5
94
330
1F
100
AcDbEntity
  8
0
  6
Continuous
 62
     7
370
    25
100
AcDbLine
 10
156.0102196278
 20
60.7265876026
 30
0.0
 11
156.144194224
 21
60.2265876026
 31
0.0
  0
LINE
  5
95
330
1F
100
AcDbEntity
  8
0
  6
Continuous
 62
     7
370
    25
100
AcDbLine
 10
141.4814778996
 20
61.381288141
 30
0.0
 11
142.6082958392
 21
63.3329940632
 31
0.0
  0
LINE
  5
96
330
1F
100
AcDbEntity
  8
0
  6
Continuous
 62
     7
370
    25
100
AcDbLine
 10
142.6082958392
 20
84.8329940632
 30
0.0
 11
141.4814778996
 21
86.7846999854
 31
0.0
  0
LINE
  5
97
330
1F
100
AcDbEntity
  8
0
  6
Continuous
 62
     7
370
    25
100
AcDbLine
 10
146.6082958392
 20
63.6054940632
 30
0.0
 11
148.0102196278
 21
63.6054940632
 31
0.0
  0
LINE
  5
98
330
1F
100
AcDbEntity
  8
0
  6
Continuous
 62
     7
370
    25
100
AcDbLine
 10
148.0102196278
 20
84.5604940632
 30
0.0
 11
146.6082958392
 21
84.5604940632
 31
0.0
  0
LINE
  5
99
330
1F
100
AcDbEntity
  8
0
  6
Continuous
 62
     7
370
    25
100
AcDbLine
 10
146.6082958392
 20
84.5604940632
 30
0.0
 11
145.1307958392
 21
83.0829940632
 31
0.0
  0
LINE
  5
9A
330
1F
100
AcDbEntity
  8
0
  6
Continuous
 62
     7
370
    25
100
AcDbLine
 10
145.1307958392
 20
65.0829940632
 30
0.0
 11
146.6082958392
 21
63.6054940632
 31
0.0
  0
LINE
  5
9B
330
1F
100
AcDbEntity
  8
0
  6
Continuous
 62
     7
370
    25
100
AcDbLine
 10
142.6082958392
 20
65.0829940632
 30
0.0
 11
145.1307958392
 21
65.0829940632
 31
0.0
  0
LINE
  5
9C
330
1F
100
AcDbEntity
  8
0
  6
Continuous
 62
     7
370
    25
100
AcDbLine
 10
145.1307958392
 20
83.0829940632
 30
0.0
 11
142.6082958392
 21
83.0829940632
 31
0.0
  0
LINE
  5
9D
330
1F
100
AcDbEntity
  8
0
  6
Continuous
 62
     7
370
    25
100
AcDbLine
 10
136.6082958392
 20
82.5905565632
 30
0.0
 11
126.6822052728
 21
82.280366233
 31
0.0
  0
LINE
  5
9E
330
1F
100
AcDbEntity
  8
0
  6
Continuous
 62
     7
370
    25
100
AcDbLine
 10
126.6822052728
 20
65.8856218934
 30
0.0
 11
136.6082958392
 21
65.5754315632
 31
0.0
  0
LINE
  5
9F
330
1F
100
AcDbEntity
  8
0
  6
Continuous
 62
     7
370
    25
100
AcDbLine
 10
126.6822052728
 20
82.280366233
 30
0.0
 11
124.6082958392
 21
81.0829940632
 31
0.0
  0
LINE
  5
A0
330
1F
100
AcDbEntity
  8
0
  6
Continuous
 62
     7
370
    25
100
AcDbLine
 10
124.6082958392
 20
67.0829940632
 30
0.0
 11
126.6822052728
 21
65.8856218934
 31
0.0
  0
LINE
  5
A1
330
1F
100
AcDbEntity
  8
0
  6
Continuous
 62
     7
370
    25
100
AcDbLine
 10
138.9645021117
 20
61.381288141
 30
0.0
 11
139.0448868694
 21
61.681288141
 31
0.0
  0
LINE
  5
A2
330
1F
100
AcDbEntity
  8
0
  6
Continuous
 62
     7
370
    25
100
AcDbLine
 10
139.0448868694
 20
61.681288141
 30
0.0
 11
139.1252716271
 21
61.381288141
 31
0.0
  0
LINE
  5
A3
330
1F
100
AcDbEntity
  8
0
  6
Continuous
 62
     7
370
    25
100
AcDbLine
 10
139.0448868694
 20
86.4846999854
 30
0.0
 11
138.9645021117
 21
86.7846999854
 31
0.0
  0
LINE
  5
A4
330
1F
100
AcDbEntity
  8
0
  6
Continuous
 62
     7
370
    25
100
AcDbLine
 10
139.1252716271
 20
86.7846999854
 30
0.0
 11
139.0448868694
 21
86.4846999854
 31
0.0
  0
LINE
  5
A5
330
1F
100
AcDbEntity
  8
0
  6
Continuous
 62
     7
370
    25
100
AcDbLine
 10
164.5102196278
 20
82.0829940632
 30
0.0
 11
164.5102196278
 21
66.0829940632
 31
0.0
  0
LINE
  5
A6
330
1F
100
AcDbEntity
  8
0
  6
Continuous
 62
     7
370
    25
100
AcDbLine
 10
170.5102196278
 20
81.0829940632
 30
0.0
 11
170.5102196278
 21
67.0829940632
 31
0.0
  0
LINE
  5
A7
330
1F
100
AcDbEntity
  8
0
  6
Continuous
 62
     7
370
    25
100
AcDbLine
 10
175.0102196278
 20
81.0829940632
 30
0.0
 11
175.0102196278
 21
67.0829940632
 31
0.0
  0
LINE
  5
A8
330
1F
100
AcDbEntity
  8
0
  6
Continuous
 62
     7
370
    25
100
AcDbLine
 10
194.3148333727
 20
67.7527571876
 30
0.0
 11
194.3148333727
 21
80.4132309388
 31
0.0
  0
LINE
  5
A9
330
1F
100
AcDbEntity
  8
0
  6
Continuous
 62
     7
370
    25
100
AcDbLine
 10
188.5102196278
 20
81.0829940632
 30
0.0
 11
188.5102196278
 21
67.0829940632
 31
0.0
  0
LINE
  5
AA
330
1F
100
AcDbEntity
  8
0
  6
Continuous
 62
     7
370
    25
100
AcDbLine
 10
184.0102196278
 20
81.0829940632
 30
0.0
 11
184.0102196278
 21
67.0829940632
 31
0.0
  0
LINE
  5
AB
330
1F
100
AcDbEntity
  8
0
  6
Continuous
 62
     7
370
    25
100
AcDbLine
 10
179.5102196278
 20
81.0829940632
 30
0.0
 11
179.5102196278
 21
67.0829940632
 31
0.0
  0
LINE
  5
AC
330
1F
100
AcDbEntity
  8
0
  6
Continuous
 62
     7
370
    25
100
AcDbLine
 10
195.0102196278
 20
79.5364395736
 30
0.0
 11
195.0102196278
 21
68.6295485527
 31
0.0
  0
LINE
  5
AD
330
1F
100
AcDbEntity
  8
0
  6
Continuous
 62
     7
370
    25
100
AcDbLine
 10
156.0102196278
 20
81.5429963347
 30
0.0
 11
155.8762450316
 21
81.0111972935
 31
0.0
  0
LINE
  5
AE
330
1F
100
AcDbEntity
  8
0
  6
Continuous
 62
     7
370
    25
100
AcDbLine
 10
156.0102196278
 20
81.5429963347
 30
0.0
 11
156.0102196278
 21
79.947599211
 31
0.0
  0
LINE
  5
AF
330
1F
100
AcDbEntity
  8
0
  6
Continuous
 62
     7
370
    25
100
AcDbLine
 10
155.8762450316
 20
81.0111972935
 30
0.0
 11
156.0102196278
 21
79.947599211
 31
0.0
  0
LINE
  5
B0
330
1F
100
AcDbEntity
  8
0
  6
Continuous
 62
     7
370
    25
100
AcDbLine
 10
156.144194224
 20
81.0111972935
 30
0.0
 11
156.0102196278
 21
79.947599211
 31
0.0
  0
LINE
  5
B1
330
1F
100
AcDbEntity
  8
0
  6
Continuous
 62
     7
370
    25
100
AcDbLine
 10
160.7940852908
 20
81.0111972935
 30
0.0
 11
156.144194224
 21
81.0111972935
 31
0.0
  0
SPLINE
  5
B2
330
1F
100
AcDbEntity
  8
0
  6
Continuous
 62
     7
370
    25
100
AcDbSpline
210
0.0
220
0.0
230
1.0
 70
     8
 71
     3
 72
    16
 73
    12
 74
     0
 42
0.000000001
 43
0.00000001
 40
0.0
 40
0.0
 40
0.0
 40
0.0
 40
0.0915356978782496
 40
0.183063343223533
 40
0.2753996771146607
 40
0.3677267146962474
 40
0.4925705318074073
 40
0.6174129202940688
 40
0.7455832490327828
 40
0.8737882839722001
 40
1.0
 40
1.0
 40
1.0
 40
1.0
 10
160.7940852908069
 20
81.01119729345523
 30
0.0
 10
160.9088806394789
 20
80.597597564901
 30
0.0
 10
161.1384612381035
 20
79.7704344927825
 30
0.0
 10
161.4196955996369
 20
78.50955926129961
 30
0.0
 10
161.6430185570249
 20
77.23347984623287
 30
0.0
 10
161.8143792068062
 20
75.7916467400617
 30
0.0
 10
161.8893257404621
 20
74.18791798515586
 30
0.0
 10
161.824734152228
 20
72.4152756425066
 30
0.0
 10
161.6072437961606
 20
70.63940589366842
 30
0.0
 10
161.2649532955873
 20
68.87668655375381
 30
0.0
 10
160.9502193271682
 20
67.72575026603616
 30
0.0
 10
160.7940852908069
 20
67.15479083290421
 30
0.0
  0
LINE
  5
B3
330
1F
100
AcDbEntity
  8
0
  6
Continuous
 62
     7
370
    25
100
AcDbLine
 10
160.7940852908
 20
67.1547908329
 30
0.0
 11
156.144194224
 21
67.1547908329
 31
0.0
  0
LINE
  5
B4
330
1F
100
AcDbEntity
  8
0
  6
Continuous
 62
     7
370
    25
100
AcDbLine
 10
156.0102196278
 20
68.2183889154
 30
0.0
 11
156.144194224
 21
67.1547908329
 31
0.0
  0
LINE
  5
B5
330
1F
100
AcDbEntity
  8
0
  6
Continuous
 62
     7
370
    25
100
AcDbLine
 10
156.0102196278
 20
68.2183889154
 30
0.0
 11
155.8762450316
 21
67.1547908329
 31
0.0
  0
LINE
  5
B6
330
1F
100
AcDbEntity
  8
0
  6
Continuous
 62
     7
370
    25
100
AcDbLine
 10
155.8762450316
 20
67.1547908329
 30
0.0
 11
151.2263539649
 21
67.1547908329
 31
0.0
  0
SPLINE
  5
B7
330
1F
100
AcDbEntity
  8
0
  6
Continuous
 62
     7
370
    25
100
AcDbSpline
210
0.0
220
0.0
230
1.0
 70
     8
 71
     3
 72
    16
 73
    12
 74
     0
 42
0.000000001
 43
0.00000001
 40
0.0
 40
0.0
 40
0.0
 40
0.0
 40
0.0915356978782496
 40
0.183063343223533
 40
0.2753996771146608
 40
0.3677267146962475
 40
0.4925705318074075
 40
0.6174129202940689
 40
0.7455832490327831
 40
0.8737882839722002
 40
1.0
 40
1.0
 40
1.0
 40
1.0
 10
151.2263539648507
 20
81.01119729345523
 30
0.0
 10
151.1115586161787
 20
80.597597564901
 30
0.0
 10
150.8819780175541
 20
79.7704344927825
 30
0.0
 10
150.6007436560207
 20
78.50955926129961
 30
0.0
 10
150.3774206986327
 20
77.23347984623287
 30
0.0
 10
150.2060600488514
 20
75.7916467400617
 30
0.0
 10
150.1311135151956
 20
74.18791798515586
 30
0.0
 10
150.1957051034297
 20
72.4152756425066
 30
0.0
 10
150.413195459497
 20
70.63940589366844
 30
0.0
 10
150.7554859600703
 20
68.87668655375381
 30
0.0
 10
151.0702199284895
 20
67.72575026603616
 30
0.0
 10
151.2263539648507
 20
67.15479083290421
 30
0.0
  0
LINE
  5
B8
330
1F
100
AcDbEntity
  8
0
  6
Continuous
 62
     7
370
    25
100
AcDbLine
 10
155.8762450316
 20
81.0111972935
 30
0.0
 11
151.2263539649
 21
81.0111972935
 31
0.0
  0
LINE
  5
B9
330
1F
100
AcDbEntity
  8
0
  6
Continuous
 62
     7
370
    25
100
AcDbLine
 10
156.144194224
 20
87.9394005237
 30
0.0
 11
156.0102196278
 21
87.4076014825
 31
0.0
  0
LINE
  5
BA
330
1F
100
AcDbEntity
  8
0
  6
Continuous
 62
     7
370
    25
100
AcDbLine
 10
160.7940852908
 20
87.9394005237
 30
0.0
 11
156.144194224
 21
87.9394005237
 31
0.0
  0
SPLINE
  5
BB
330
1F
100
AcDbEntity
  8
0
  6
Continuous
 62
     7
370
    25
100
AcDbSpline
210
0.0
220
0.0
230
1.0
 70
     8
 71
     3
 72
    15
 73
    11
 74
     0
 42
0.000000001
 43
0.00000001
 40
0.0
 40
0.0
 40
0.0
 40
0.0
 40
0.1323065044264402
 40
0.2645755999739297
 40
0.3998036789671093
 40
0.5350073556765894
 40
0.6501969475405022
 40
0.7654045076453766
 40
0.8826909144168968
 40
1.0
 40
1.0
 40
1.0
 40
1.0
 10
160.7940852908069
 20
87.93940052373074
 30
0.0
 10
160.9572443727246
 20
87.64007170096014
 30
0.0
 10
161.283516404298
 20
87.0414986888672
 30
0.0
 10
161.6345711073179
 20
86.11974891207441
 30
0.0
 10
161.845647892847
 20
85.18062379832385
 30
0.0
 10
161.8874452031326
 20
84.27552290028065
 30
0.0
 10
161.7789865704318
 20
83.41932619549611
 30
0.0
 10
161.5567606613709
 20
82.6112936866866
 30
0.0
 10
161.2307828880846
 20
81.80691461757667
 30
0.0
 10
160.9396605376912
 20
81.276453495072
 30
0.0
 10
160.7940852908069
 20
81.01119729345523
 30
0.0
  0
LINE
  5
BC
330
1F
100
AcDbEntity
  8
0
  6
Continuous
 62
     7
370
    25
100
AcDbLine
 10
156.0102196278
 20
81.5429963347
 30
0.0
 11
156.144194224
 21
81.0111972935
 31
0.0
  0
SPLINE
  5
BD
330
1F
100
AcDbEntity
  8
0
  6
Continuous
 62
     7
370
    25
100
AcDbSpline
210
0.0
220
0.0
230
1.0
 70
     8
 71
     3
 72
    15
 73
    11
 74
     0
 42
0.000000001
 43
0.00000001
 40
0.0
 40
0.0
 40
0.0
 40
0.0
 40
0.1323065044264403
 40
0.2645755999739297
 40
0.3998036789671093
 40
0.5350073556765894
 40
0.6501969475405022
 40
0.7654045076453766
 40
0.8826909144168968
 40
1.0
 40
1.0
 40
1.0
 40
1.0
 10
151.2263539648507
 20
87.93940052373074
 30
0.0
 10
151.063194882933
 20
87.64007170096014
 30
0.0
 10
150.7369228513597
 20
87.04149868886721
 30
0.0
 10
150.3858681483398
 20
86.11974891207441
 30
0.0
 10
150.1747913628107
 20
85.18062379832385
 30
0.0
 10
150.132994052525
 20
84.27552290028065
 30
0.0
 10
150.2414526852258
 20
83.41932619549611
 30
0.0
 10
150.4636785942867
 20
82.6112936866866
 30
0.0
 10
150.789656367573
 20
81.80691461757667
 30
0.0
 10
151.0807787179664
 20
81.276453495072
 30
0.0
 10
151.2263539648507
 20
81.01119729345523
 30
0.0
  0
LINE
  5
BE
330
1F
100
AcDbEntity
  8
0
  6
Continuous
 62
     7
370
    25
100
AcDbLine
 10
155.8762450316
 20
87.9394005237
 30
0.0
 11
151.2263539649
 21
87.9394005237
 31
0.0
  0
LINE
  5
BF
330
1F
100
AcDbEntity
  8
0
  6
Continuous
 62
     7
370
    25
100
AcDbLine
 10
155.8762450316
 20
87.9394005237
 30
0.0
 11
156.0102196278
 21
87.4076014825
 31
0.0
  0
SPLINE
  5
C0
330
1F
100
AcDbEntity
  8
0
  6
Continuous
 62
     7
370
    25
100
AcDbSpline
210
0.0
220
0.0
230
1.0
 70
     8
 71
     3
 72
    15
 73
    11
 74
     0
 42
0.000000001
 43
0.00000001
 40
0.0
 40
0.0
 40
0.0
 40
0.0
 40
0.1323065044264403
 40
0.2645755999739298
 40
0.3998036789671094
 40
0.5350073556765895
 40
0.6501969475405022
 40
0.7654045076453765
 40
0.8826909144168967
 40
1.0
 40
1.0
 40
1.0
 40
1.0
 10
160.7940852908069
 20
67.15479083290421
 30
0.0
 10
160.9572443727246
 20
66.8554620101336
 30
0.0
 10
161.283516404298
 20
66.25688899804067
 30
0.0
 10
161.6345711073179
 20
65.33513922124789
 30
0.0
 10
161.845647892847
 20
64.39601410749732
 30
0.0
 10
161.8874452031326
 20
63.49091320945411
 30
0.0
 10
161.7789865704318
 20
62.63471650466958
 30
0.0
 10
161.5567606613709
 20
61.82668399586007
 30
0.0
 10
161.2307828880846
 20
61.02230492675014
 30
0.0
 10
160.9396605376912
 20
60.49184380424549
 30
0.0
 10
160.7940852908069
 20
60.22658760262871
 30
0.0
  0
LINE
  5
C1
330
1F
100
AcDbEntity
  8
0
  6
Continuous
 62
     7
370
    25
100
AcDbLine
 10
162.0102196278
 20
85.8329940632
 30
0.0
 11
162.0102196278
 21
62.3329940632
 31
0.0
  0
SPLINE
  5
C2
330
1F
100
AcDbEntity
  8
0
  6
Continuous
 62
     7
370
    25
100
AcDbSpline
210
0.0
220
0.0
230
1.0
 70
     8
 71
     3
 72
    15
 73
    11
 74
     0
 42
0.000000001
 43
0.00000001
 40
0.0
 40
0.0
 40
0.0
 40
0.0
 40
0.13202976123994
 40
0.2645740184078837
 40
0.3992784260596374
 40
0.5350086679185998
 40
0.649891936882649
 40
0.7654060347253145
 40
0.882507980435099
 40
1.0
 40
1.0
 40
1.0
 40
1.0
 10
151.2263539648507
 20
67.15479083290421
 30
0.0
 10
151.0634551026459
 20
66.85609435328512
 30
0.0
 10
150.737022591045
 20
66.25753742827868
 30
0.0
 10
150.3868654558048
 20
65.33696832805337
 30
0.0
 10
150.1735605145408
 20
64.39729476990775
 30
0.0
 10
150.1333643929659
 20
63.4928656000336
 30
0.0
 10
150.2406330015697
 20
62.63540698085869
 30
0.0
 10
150.4634649434957
 20
61.82782706483076
 30
0.0
 10
150.7893752664567
 20
61.02271885478036
 30
0.0
 10
151.0805330233993
 20
60.49225869628683
 30
0.0
 10
151.2263539648507
 20
60.22658760262871
 30
0.0
  0
LINE
  5
C3
330
1F
100
AcDbEntity
  8
0
  6
Continuous
 62
     7
370
    25
100
AcDbLine
 10
150.0102196278
 20
85.8329940632
 30
0.0
 11
150.0102196278
 21
62.3329940632
 31
0.0
  0
LINE
  5
C4
330
1F
100
AcDbEntity
  8
0
  6
Continuous
 62
     7
370
    25
100
AcDbLine
 10
156.0102196278
 20
68.2183889154
 30
0.0
 11
156.0102196278
 21
66.6229917917
 31
0.0
  0
LINE
  5
C5
330
1F
100
AcDbEntity
  8
0
  6
Continuous
 62
     7
370
    25
100
AcDbLine
 10
155.8762450316
 20
67.1547908329
 30
0.0
 11
156.0102196278
 21
66.6229917917
 31
0.0
  0
LINE
  5
C6
330
1F
100
AcDbEntity
  8
0
  6
Continuous
 62
     7
370
    25
100
AcDbLine
 10
156.144194224
 20
67.1547908329
 30
0.0
 11
156.0102196278
 21
66.6229917917
 31
0.0
  0
LINE
  5
C7
330
1F
100
AcDbEntity
  8
0
  6
Continuous
 62
     7
370
    25
100
AcDbLine
 10
160.7940852908
 20
60.2265876026
 30
0.0
 11
156.144194224
 21
60.2265876026
 31
0.0
  0
LINE
  5
C8
330
1F
100
AcDbEntity
  8
0
  6
Continuous
 62
     7
370
    25
100
AcDbLine
 10
156.0102196278
 20
60.7583866439
 30
0.0
 11
156.144194224
 21
60.2265876026
 31
0.0
  0
LINE
  5
C9
330
1F
100
AcDbEntity
  8
0
  6
Continuous
 62
     7
370
    25
100
AcDbLine
 10
156.0102196278
 20
60.7583866439
 30
0.0
 11
155.8762450316
 21
60.2265876026
 31
0.0
  0
LINE
  5
CA
330
1F
100
AcDbEntity
  8
0
  6
Continuous
 62
     7
370
    25
100
AcDbLine
 10
155.8762450316
 20
60.2265876026
 30
0.0
 11
151.2263539649
 21
60.2265876026
 31
0.0
  0
LINE
  5
CB
330
1F
100
AcDbEntity
  8
0
  6
Continuous
 62
     7
370
    25
100
AcDbLine
 10
148.5102196278
 20
74.0829940632
 30
0.0
 11
148.5102196278
 21
62.3329940632
 31
0.0
  0
LINE
  5
CC
330
1F
100
AcDbEntity
  8
0
  6
Continuous
 62
     7
370
    25
100
AcDbLine
 10
148.5102196278
 20
85.8329940632
 30
0.0
 11
148.5102196278
 21
74.0829940632
 31
0.0
  0
LINE
  5
CD
330
1F
100
AcDbEntity
  8
0
  6
Continuous
 62
     7
370
    25
100
AcDbLine
 10
163.5102196278
 20
62.3329940632
 30
0.0
 11
163.5102196278
 21
85.8329940632
 31
0.0
  0
LINE
  5
CE
330
1F
100
AcDbEntity
  8
0
  6
Continuous
 62
     7
370
    25
100
AcDbLine
 10
164.0102196278
 20
85.3329940632
 30
0.0
 11
164.0102196278
 21
62.8329940632
 31
0.0
  0
LINE
  5
CF
330
1F
100
AcDbEntity
  8
0
  6
Continuous
 62
     7
370
    25
100
AcDbLine
 10
148.0102196278
 20
74.0829940632
 30
0.0
 11
148.0102196278
 21
85.3329940632
 31
0.0
  0
LINE
  5
D0
330
1F
100
AcDbEntity
  8
0
  6
Continuous
 62
     7
370
    25
100
AcDbLine
 10
148.0102196278
 20
62.8329940632
 30
0.0
 11
148.0102196278
 21
74.0829940632
 31
0.0
  0
LINE
  5
D1
330
1F
100
AcDbEntity
  8
0
  6
Continuous
 62
     7
370
    25
100
AcDbLine
 10
156.0102196278
 20
87.4394005237
 30
0.0
 11
156.0102196278
 21
87.4076014825
 31
0.0
  0
LINE
  5
D2
330
1F
100
AcDbEntity
  8
0
  6
Continuous
 62
     7
370
    25
100
AcDbLine
 10
156.0102196278
 20
60.7583866439
 30
0.0
 11
156.0102196278
 21
60.7265876026
 31
0.0
  0
LINE
  5
D3
330
1F
100
AcDbEntity
  8
0
  6
Continuous
 62
     7
370
    25
100
AcDbLine
 10
136.6082958392
 20
61.381288141
 30
0.0
 11
138.9645021117
 21
61.381288141
 31
0.0
  0
LINE
  5
D4
330
1F
100
AcDbEntity
  8
0
  6
Continuous
 62
     7
370
    25
100
AcDbLine
 10
136.6082958392
 20
61.381288141
 30
0.0
 11
136.6082958392
 21
67.7321411021
 31
0.0
  0
LINE
  5
D5
330
1F
100
AcDbEntity
  8
0
  6
Continuous
 62
     7
370
    25
100
AcDbLine
 10
136.6082958392
 20
67.7321411021
 30
0.0
 11
138.9645021117
 21
67.7321411021
 31
0.0
  0
SPLINE
  5
D6
330
1F
100
AcDbEntity
  8
0
  6
Continuous
 62
     7
370
    25
100
AcDbSpline
210
0.0
220
0.0
230
1.0
 70
     8
 71
     3
 72
     8
 73
     4
 74
     0
 42
0.000000001
 43
0.00000001
 40
0.0
 40
0.0
 40
0.0
 40
0.0
 40
1.0
 40
1.0
 40
1.0
 40
1.0
 10
139.0448868694097
 20
67.42037965870315
 30
0.0
 10
139.0191459195764
 20
67.52438875814151
 30
0.0
 10
138.9923243753155
 20
67.62830700062614
 30
0.0
 10
138.9645021116804
 20
67.73214110209395
 30
0.0
  0
SPLINE
  5
D7
330
1F
100
AcDbEntity
  8
0
  6
Continuous
 62
     7
370
    25
100
AcDbSpline
210
0.0
220
0.0
230
1.0
 70
     8
 71
     3
 72
     8
 73
     4
 74
     0
 42
0.000000001
 43
0.00000001
 40
0.0
 40
0.0
 40
0.0
 40
0.0
 40
1.0
 40
1.0
 40
1.0
 40
1.0
 10
139.125271627139
 20
67.73214110209395
 30
0.0
 10
139.0974399540819
 20
67.62827188418521
 30
0.0
 10
139.0706188942159
 20
67.52435269560148
 30
0.0
 10
139.0448868694097
 20
67.42037965870315
 30
0.0
  0
LINE
  5
D8
330
1F
100
AcDbEntity
  8
0
  6
Continuous
 62
     7
370
    25
100
AcDbLine
 10
139.1252716271
 20
67.7321411021
 30
0.0
 11
141.4814778996
 21
67.7321411021
 31
0.0
  0
SPLINE
  5
D9
330
1F
100
AcDbEntity
  8
0
  6
Continuous
 62
     7
370
    25
100
AcDbSpline
210
0.0
220
0.0
230
1.0
 70
     8
 71
     3
 72
    16
 73
    12
 74
     0
 42
0.000000001
 43
0.00000001
 40
0.0
 40
0.0
 40
0.0
 40
0.0
 40
0.2500000000000001
 40
0.2500000000000001
 40
0.5000000000000001
 40
0.5000000000000001
 40
0.6250000000000001
 40
0.6250000000000001
 40
0.7500000000000001
 40
0.7500000000000001
 40
1.0
 40
1.0
 40
1.0
 40
1.0
 10
141.4814778996376
 20
67.73214110209398
 30
0.0
 10
141.7808264578206
 20
67.21365419014849
 30
0.0
 10
142.0275438846822
 20
66.69138711983184
 30
0.0
 10
142.3693276170385
 20
65.63596084669948
 30
0.0
 10
142.4632665254234
 20
65.10272067014228
 30
0.0
 10
142.464298346903
 20
64.29281396578514
 30
0.0
 10
142.4413339400466
 20
64.02157461074303
 30
0.0
 10
142.351784813761
 20
63.48503458527377
 30
0.0
 10
142.2852909796935
 20
63.21856339112281
 30
0.0
 10
142.0285276828797
 20
62.42389396223796
 30
0.0
 10
141.7811996238592
 20
61.90042139549229
 30
0.0
 10
141.4814778996374
 20
61.38128814100796
 30
0.0
  0
LINE
  5
DA
330
1F
100
AcDbEntity
  8
0
  6
Continuous
 62
     7
370
    25
100
AcDbLine
 10
139.1252716271
 20
61.381288141
 30
0.0
 11
141.4814778996
 21
61.381288141
 31
0.0
  0
SPLINE
  5
DB
330
1F
100
AcDbEntity
  8
0
  6
Continuous
 62
     7
370
    25
100
AcDbSpline
210
0.0
220
0.0
230
1.0
 70
     8
 71
     3
 72
     8
 73
     4
 74
     0
 42
0.000000001
 43
0.00000001
 40
0.0
 40
0.0
 40
0.0
 40
0.0
 40
1.0
 40
1.0
 40
1.0
 40
1.0
 10
139.0448868694097
 20
61.69304958439877
 30
0.0
 10
139.070627819243
 20
61.58904048496041
 30
0.0
 10
139.0974493635039
 20
61.48512224247579
 30
0.0
 10
139.125271627139
 20
61.38128814100797
 30
0.0
  0
SPLINE
  5
DC
330
1F
100
AcDbEntity
  8
0
  6
Continuous
 62
     7
370
    25
100
AcDbSpline
210
0.0
220
0.0
230
1.0
 70
     8
 71
     3
 72
     8
 73
     4
 74
     0
 42
0.000000001
 43
0.00000001
 40
0.0
 40
0.0
 40
0.0
 40
0.0
 40
1.0
 40
1.0
 40
1.0
 40
1.0
 10
138.9645021116804
 20
61.38128814100797
 30
0.0
 10
138.9923337847375
 20
61.48515735891672
 30
0.0
 10
139.0191548446035
 20
61.58907654750046
 30
0.0
 10
139.0448868694097
 20
61.69304958439878
 30
0.0
  0
LINE
  5
DD
330
1F
100
AcDbEntity
  8
0
  6
Continuous
 62
     7
370
    25
100
AcDbLine
 10
136.6082958392
 20
67.7321411021
 30
0.0
 11
136.6082958392
 21
80.4338470243
 31
0.0
  0
LINE
  5
DE
330
1F
100
AcDbEntity
  8
0
  6
Continuous
 62
     7
370
    25
100
AcDbLine
 10
136.6082958392
 20
80.4338470243
 30
0.0
 11
138.9645021117
 21
80.4338470243
 31
0.0
  0
SPLINE
  5
DF
330
1F
100
AcDbEntity
  8
0
  6
Continuous
 62
     7
370
    25
100
AcDbSpline
210
0.0
220
0.0
230
1.0
 70
     8
 71
     3
 72
     8
 73
     4
 74
     0
 42
0.000000001
 43
0.00000001
 40
0.0
 40
0.0
 40
0.0
 40
0.0
 40
1.0
 40
1.0
 40
1.0
 40
1.0
 10
139.0448868694097
 20
79.81032413748416
 30
0.0
 10
139.0191463788401
 20
80.01833862495137
 30
0.0
 10
138.9923248591907
 20
80.22617520963652
 30
0.0
 10
138.9645021116804
 20
80.43384702426576
 30
0.0
  0
SPLINE
  5
E0
330
1F
100
AcDbEntity
  8
0
  6
Continuous
 62
     7
370
    25
100
AcDbSpline
210
0.0
220
0.0
230
1.0
 70
     8
 71
     3
 72
     8
 73
     4
 74
     0
 42
0.000000001
 43
0.00000001
 40
0.0
 40
0.0
 40
0.0
 40
0.0
 40
1.0
 40
1.0
 40
1.0
 40
1.0
 10
139.125271627139
 20
80.43384702426576
 30
0.0
 10
139.0974385735831
 20
80.22609828426496
 30
0.0
 10
139.0706175858128
 20
80.01825963779197
 30
0.0
 10
139.0448868694097
 20
79.81032413748416
 30
0.0
  0
LINE
  5
E1
330
1F
100
AcDbEntity
  8
0
  6
Continuous
 62
     7
370
    25
100
AcDbLine
 10
139.1252716271
 20
80.4338470243
 30
0.0
 11
141.4814778996
 21
80.4338470243
 31
0.0
  0
SPLINE
  5
E2
330
1F
100
AcDbEntity
  8
0
  6
Continuous
 62
     7
370
    25
100
AcDbSpline
210
0.0
220
0.0
230
1.0
 70
     8
 71
     3
 72
    16
 73
    12
 74
     0
 42
0.000000001
 43
0.00000001
 40
0.0
 40
0.0
 40
0.0
 40
0.0
 40
0.2500000000000001
 40
0.2500000000000001
 40
0.5000000000000001
 40
0.5000000000000001
 40
0.6250000000000001
 40
0.6250000000000001
 40
0.7500000000000002
 40
0.7500000000000002
 40
1.0
 40
1.0
 40
1.0
 40
1.0
 10
141.4814778996373
 20
67.73214110209393
 30
0.0
 10
141.7799644936441
 20
68.76612899448986
 30
0.0
 10
142.0299810398234
 20
69.82413108761153
 30
0.0
 10
142.3717817270822
 20
71.94429370165531
 30
0.0
 10
142.4640823015529
 20
73.01090535699066
 30
0.0
 10
142.4638960661916
 20
74.62234130299566
 30
0.0
 10
142.4409714559726
 20
75.1616804518964
 30
0.0
 10
142.3500564783735
 20
76.24290747068804
 30
0.0
 10
142.2827603659584
 20
76.77772660506317
 30
0.0
 10
142.0246022824944
 20
78.36725412901437
 30
0.0
 10
141.7778635782295
 20
79.40713691635084
 30
0.0
 10
141.4814778996373
 20
80.43384702426576
 30
0.0
  0
SPLINE
  5
E3
330
1F
100
AcDbEntity
  8
0
  6
Continuous
 62
     7
370
    25
100
AcDbSpline
210
0.0
220
0.0
230
1.0
 70
     8
 71
     3
 72
     8
 73
     4
 74
     0
 42
0.000000001
 43
0.00000001
 40
0.0
 40
0.0
 40
0.0
 40
0.0
 40
1.0
 40
1.0
 40
1.0
 40
1.0
 10
139.0448868694097
 20
68.35566398887556
 30
0.0
 10
139.0706273599793
 20
68.14764950140835
 30
0.0
 10
139.0974488796287
 20
67.9398129167232
 30
0.0
 10
139.125271627139
 20
67.73214110209395
 30
0.0
  0
SPLINE
  5
E4
330
1F
100
AcDbEntity
  8
0
  6
Continuous
 62
     7
370
    25
100
AcDbSpline
210
0.0
220
0.0
230
1.0
 70
     8
 71
     3
 72
     8
 73
     4
 74
     0
 42
0.000000001
 43
0.00000001
 40
0.0
 40
0.0
 40
0.0
 40
0.0
 40
1.0
 40
1.0
 40
1.0
 40
1.0
 10
138.9645021116804
 20
67.73214110209396
 30
0.0
 10
138.9923351652363
 20
67.93988984209474
 30
0.0
 10
139.0191561530065
 20
68.14772848856776
 30
0.0
 10
139.0448868694097
 20
68.35566398887556
 30
0.0
  0
LINE
  5
E5
330
1F
100
AcDbEntity
  8
0
  6
Continuous
 62
     7
370
    25
100
AcDbLine
 10
139.0448868694
 20
67.4203796587
 30
0.0
 11
139.0448868694
 21
68.3556639889
 31
0.0
  0
SPLINE
  5
E6
330
1F
100
AcDbEntity
  8
0
  6
Continuous
 62
     7
370
    25
100
AcDbSpline
210
0.0
220
0.0
230
1.0
 70
     8
 71
     3
 72
     8
 73
     4
 74
     0
 42
0.000000001
 43
0.00000001
 40
0.0
 40
0.0
 40
0.0
 40
0.0
 40
1.0
 40
1.0
 40
1.0
 40
1.0
 10
138.9645021116804
 20
80.43384702426576
 30
0.0
 10
138.9923337847375
 20
80.53771624217451
 30
0.0
 10
139.0191548446035
 20
80.64163543075826
 30
0.0
 10
139.0448868694097
 20
80.74560846765657
 30
0.0
  0
LINE
  5
E7
330
1F
100
AcDbEntity
  8
0
  6
Continuous
 62
     7
370
    25
100
AcDbLine
 10
139.0448868694
 20
79.8103241375
 30
0.0
 11
139.0448868694
 21
80.7456084677
 31
0.0
  0
SPLINE
  5
E8
330
1F
100
AcDbEntity
  8
0
  6
Continuous
 62
     7
370
    25
100
AcDbSpline
210
0.0
220
0.0
230
1.0
 70
     8
 71
     3
 72
     8
 73
     4
 74
     0
 42
0.000000001
 43
0.00000001
 40
0.0
 40
0.0
 40
0.0
 40
0.0
 40
1.0
 40
1.0
 40
1.0
 40
1.0
 10
139.0448868694097
 20
80.74560846765657
 30
0.0
 10
139.070627819243
 20
80.64159936821821
 30
0.0
 10
139.0974493635039
 20
80.53768112573358
 30
0.0
 10
139.125271627139
 20
80.43384702426576
 30
0.0
  0
SPLINE
  5
E9
330
1F
100
AcDbEntity
  8
0
  6
Continuous
 62
     7
370
    25
100
AcDbSpline
210
0.0
220
0.0
230
1.0
 70
     8
 71
     3
 72
    16
 73
    12
 74
     0
 42
0.000000001
 43
0.00000001
 40
0.0
 40
0.0
 40
0.0
 40
0.0
 40
0.2499999999999998
 40
0.2499999999999998
 40
0.4999999999999997
 40
0.4999999999999997
 40
0.6249999999999997
 40
0.6249999999999997
 40
0.7499999999999997
 40
0.7499999999999997
 40
1.0
 40
1.0
 40
1.0
 40
1.0
 10
141.4814778996376
 20
86.78469998535154
 30
0.0
 10
141.7808264578206
 20
86.26621307340608
 30
0.0
 10
142.0275438846822
 20
85.74394600308945
 30
0.0
 10
142.3693276170384
 20
84.68851972995712
 30
0.0
 10
142.4632665254234
 20
84.15527955339992
 30
0.0
 10
142.4642983469029
 20
83.34537284904282
 30
0.0
 10
142.4413339400466
 20
83.07413349400073
 30
0.0
 10
142.351784813761
 20
82.53759346853148
 30
0.0
 10
142.2852909796935
 20
82.27112227438053
 30
0.0
 10
142.0285276828797
 20
81.47645284549571
 30
0.0
 10
141.7811996238592
 20
80.95298027875008
 30
0.0
 10
141.4814778996374
 20
80.43384702426575
 30
0.0
  0
LINE
  5
EA
330
1F
100
AcDbEntity
  8
0
  6
Continuous
 62
     7
370
    25
100
AcDbLine
 10
142.6082958392
 20
84.8329940632
 30
0.0
 11
142.6082958392
 21
63.3329940632
 31
0.0
  0
LINE
  5
EB
330
1F
100
AcDbEntity
  8
0
  6
Continuous
 62
     7
370
    25
100
AcDbLine
 10
136.6082958392
 20
86.7846999854
 30
0.0
 11
138.9645021117
 21
86.7846999854
 31
0.0
  0
SPLINE
  5
EC
330
1F
100
AcDbEntity
  8
0
  6
Continuous
 62
     7
370
    25
100
AcDbSpline
210
0.0
220
0.0
230
1.0
 70
     8
 71
     3
 72
     8
 73
     4
 74
     0
 42
0.000000001
 43
0.00000001
 40
0.0
 40
0.0
 40
0.0
 40
0.0
 40
1.0
 40
1.0
 40
1.0
 40
1.0
 10
139.0448868694097
 20
86.47293854196073
 30
0.0
 10
139.0191459195764
 20
86.57694764139907
 30
0.0
 10
138.9923243753155
 20
86.6808658838837
 30
0.0
 10
138.9645021116804
 20
86.78469998535151
 30
0.0
  0
SPLINE
  5
ED
330
1F
100
AcDbEntity
  8
0
  6
Continuous
 62
     7
370
    25
100
AcDbSpline
210
0.0
220
0.0
230
1.0
 70
     8
 71
     3
 72
     8
 73
     4
 74
     0
 42
0.000000001
 43
0.00000001
 40
0.0
 40
0.0
 40
0.0
 40
0.0
 40
1.0
 40
1.0
 40
1.0
 40
1.0
 10
139.125271627139
 20
86.78469998535152
 30
0.0
 10
139.0974399540819
 20
86.68083076744277
 30
0.0
 10
139.0706188942159
 20
86.57691157885904
 30
0.0
 10
139.0448868694097
 20
86.47293854196073
 30
0.0
  0
LINE
  5
EE
330
1F
100
AcDbEntity
  8
0
  6
Continuous
 62
     7
370
    25
100
AcDbLine
 10
139.1252716271
 20
86.7846999854
 30
0.0
 11
141.4814778996
 21
86.7846999854
 31
0.0
  0
LINE
  5
EF
330
1F
100
AcDbEntity
  8
0
  6
Continuous
 62
     7
370
    25
100
AcDbLine
 10
136.6082958392
 20
80.4338470243
 30
0.0
 11
136.6082958392
 21
86.7846999854
 31
0.0
  0
LINE
  5
F0
330
1F
100
AcDbEntity
  8
0
  6
Continuous
 62
     7
370
    25
100
AcDbLine
 10
146.6082958392
 20
84.5604940632
 30
0.0
 11
146.6082958392
 21
63.6054940632
 31
0.0
  0
LINE
  5
F1
330
1F
100
AcDbEntity
  8
0
  6
Continuous
 62
     7
370
    25
100
AcDbLine
 10
145.1307958392
 20
65.0829940632
 30
0.0
 11
145.1307958392
 21
83.0829940632
 31
0.0
  0
LINE
  5
F2
330
1F
100
AcDbEntity
  8
0
  6
Continuous
 62
     7
370
    25
100
AcDbLine
 10
126.6822052728
 20
82.280366233
 30
0.0
 11
126.6822052728
 21
65.8856218934
 31
0.0
  0
LINE
  5
F3
330
1F
100
AcDbEntity
  8
0
  6
Continuous
 62
     7
370
    25
100
AcDbLine
 10
124.6082958392
 20
74.0829940632
 30
0.0
 11
124.6082958392
 21
81.0829940632
 31
0.0
  0
LINE
  5
F4
330
1F
100
AcDbEntity
  8
0
  6
Continuous
 62
     7
370
    25
100
AcDbLine
 10
124.6082958392
 20
67.0829940632
 30
0.0
 11
124.6082958392
 21
74.0829940632
 31
0.0
  0
LINE
  5
F5
330
1F
100
AcDbEntity
  8
0
  6
Continuous
 62
     7
370
    25
100
AcDbLine
 10
139.0448868694
 20
61.681288141
 30
0.0
 11
139.0448868694
 21
61.6930495844
 31
0.0
  0
LINE
  5
F6
330
1F
100
AcDbEntity
  8
0
  6
Continuous
 62
     7
370
    25
100
AcDbLine
 10
139.0448868694
 20
86.472938542
 30
0.0
 11
139.0448868694
 21
86.4846999854
 31
0.0
  0
LINE
  5
F7
330
1F
100
AcDbEntity
  8
0
  6
Continuous
 62
     7
370
     0
100
AcDbLine
 10
125.3594222409
 20
81.5166570934
 30
0.0
 11
136.1082958392
 21
81.8525593934
 31
0.0
  0
LINE
  5
F8
330
1F
100
AcDbEntity
  8
0
  6
Continuous
 62
     7
370
     0
100
AcDbLine
 10
125.3594222409
 20
66.6493310329
 30
0.0
 11
136.1082958392
 21
66.313428733
 31
0.0
  0
LINE
  5
F9
330
1F
100
AcDbEntity
  8
0
  6
Continuous
 62
     7
370
     0
100
AcDbLine
 10
136.1082958392
 20
65.5910565632
 30
0.0
 11
136.1082958392
 21
82.5749315632
 31
0.0
  0
LINE
  5
FA
330
1F
100
AcDbEntity
  8
0
  6
CENTERX2
 62
     7
370
    18
100
AcDbLine
 10
122.6082958392
 20
74.0829940632
 30
0.0
 11
138.6082958392
 21
74.0829940632
 31
0.0
  0
LINE
  5
FB
330
1F
100
AcDbEntity
  8
0
  6
CENTERX2
 62
     7
370
    18
100
AcDbLine
 10
197.0102196278
 20
74.0829940632
 30
0.0
 11
140.6082958392
 21
74.0829940632
 31
0.0
  0
CIRCLE
  5
FC
330
1F
100
AcDbEntity
  8
0
  6
Continuous
 62
     7
370
    25
100
AcDbCircle
 10
224.0847671225
 20
74.0829940632
 30
0.0
 40
5.199999999999974
  0
CIRCLE
  5
FD
330
1F
100
AcDbEntity
  8
0
  6
Continuous
 62
     7
370
    25
100
AcDbCircle
 10
224.0847671225
 20
74.0829940632
 30
0.0
 40
4.999999999999972
  0
CIRCLE
  5
FE
330
1F
100
AcDbEntity
  8
0
  6
Continuous
 62
     7
370
    25
100
AcDbCircle
 10
224.0847671225
 20
74.0829940632
 30
0.0
 40
5.453445510451147
  0
CIRCLE
  5
FF
330
1F
100
AcDbEntity
  8
0
  6
Continuous
 62
     7
370
    25
100
AcDbCircle
 10
224.0847671225
 20
74.0829940632
 30
0.0
 40
6.330236875589591
  0
CIRCLE
  5
100
330
1F
100
AcDbEntity
  8
0
  6
Continuous
 62
     7
370
    25
100
AcDbCircle
 10
224.0847671225
 20
74.0829940632
 30
0.0
 40
6.999999999999986
  0
CIRCLE
  5
101
330
1F
100
AcDbEntity
  8
0
  6
Continuous
 62
     7
370
    25
100
AcDbCircle
 10
224.0847671225
 20
74.0829940632
 30
0.0
 40
7.999999999999972
  0
CIRCLE
  5
102
330
1F
100
AcDbEntity
  8
0
  6
Continuous
 62
     7
370
    25
100
AcDbCircle
 10
224.0847671225
 20
74.0829940632
 30
0.0
 40
11.24999999999997
  0
CIRCLE
  5
103
330
1F
100
AcDbEntity
  8
0
  6
Continuous
 62
     7
370
    25
100
AcDbCircle
 10
224.0847671225
 20
74.0829940632
 30
0.0
 40
11.74999999999997
  0
CIRCLE
  5
104
330
1F
100
AcDbEntity
  8
0
  6
Continuous
 62
     7
370
    25
100
AcDbCircle
 10
224.0847671225
 20
74.0829940632
 30
0.0
 40
8.349999999999966
  0
CIRCLE
  5
105
330
1F
100
AcDbEntity
  8
0
  6
Continuous
 62
     7
370
    25
100
AcDbCircle
 10
224.0847671225
 20
74.0829940632
 30
0.0
 40
8.249999999999972
  0
SPLINE
  5
106
330
1F
100
AcDbEntity
  8
0
  6
Continuous
 62
     7
370
    25
100
AcDbSpline
210
0.0
220
0.0
230
1.0
 70
    24
 71
     3
 72
    15
 73
    11
 74
     0
 42
0.000000001
 43
0.00000001
 40
0.0
 40
0.0
 40
0.0
 40
0.0
 40
0.1323065044264402
 40
0.2645755999739294
 40
0.3998036789671088
 40
0.535007355676589
 40
0.6501969475405016
 40
0.7654045076453763
 40
0.8826909144168966
 40
1.0
 40
1.0
 40
1.0
 40
1.0
 10
236.084767122526
 20
81.01119729345524
 30
0.0
 10
235.5663143933175
 20
81.31052611622584
 30
0.0
 10
234.529555524333
 20
81.90909912831877
 30
0.0
 10
232.9330380790626
 20
82.83084890511157
 30
0.0
 10
231.3064256673827
 20
83.76997401886213
 30
0.0
 10
229.7387449259957
 20
84.67507491690532
 30
0.0
 10
228.2557687320358
 20
85.53127162168987
 30
0.0
 10
226.8562153726104
 20
86.33930413049937
 30
0.0
 10
225.462989956367
 20
87.14368319960931
 30
0.0
 10
224.544204340749
 20
87.67414432211396
 30
0.0
 10
224.084767122526
 20
87.93940052373075
 30
0.0
  0
SPLINE
  5
107
330
1F
100
AcDbEntity
  8
0
  6
Continuous
 62
     7
370
    25
100
AcDbSpline
210
0.0
220
0.0
230
1.0
 70
    24
 71
     3
 72
    16
 73
    12
 74
     0
 42
0.000000001
 43
0.00000001
 40
0.0
 40
0.0
 40
0.0
 40
0.0
 40
0.1262118512103692
 40
0.2512020653763512
 40
0.3761607760521394
 40
0.5042162939840997
 40
0.6322727081776327
 40
0.7237405332378763
 40
0.8152173057580782
 40
0.9076044663789503
 40
1.0
 40
1.0
 40
1.0
 40
1.0
 10
236.084767122526
 20
67.15479083290421
 30
0.0
 10
236.084767122526
 20
67.72574814347657
 30
0.0
 10
236.084767122526
 20
68.86213632162351
 30
0.0
 10
236.084767122526
 20
70.59487978780813
 30
0.0
 10
236.084767122526
 20
72.3550251807862
 30
0.0
 10
236.084767122526
 20
74.14263605211987
 30
0.0
 10
236.084767122526
 20
75.77265829155414
 30
0.0
 10
236.084767122526
 20
77.22147583711428
 30
0.0
 10
236.084767122526
 20
78.49373907546276
 30
0.0
 10
236.084767122526
 20
79.75874576063494
 30
0.0
 10
236.084767122526
 20
80.59370083782942
 30
0.0
 10
236.084767122526
 20
81.01119729345524
 30
0.0
  0
SPLINE
  5
108
330
1F
100
AcDbEntity
  8
0
  6
Continuous
 62
     7
370
    25
100
AcDbSpline
210
0.0
220
0.0
230
1.0
 70
    24
 71
     3
 72
    15
 73
    11
 74
     0
 42
0.000000001
 43
0.00000001
 40
0.0
 40
0.0
 40
0.0
 40
0.0
 40
0.1323065044264402
 40
0.2645755999739297
 40
0.3998036789671092
 40
0.5350073556765894
 40
0.6501969475405021
 40
0.7654045076453765
 40
0.8826909144168967
 40
1.0
 40
1.0
 40
1.0
 40
1.0
 10
224.084767122526
 20
60.22658760262871
 30
0.0
 10
224.6032198517344
 20
60.52591642539931
 30
0.0
 10
225.6399787207189
 20
61.12448943749226
 30
0.0
 10
227.2364961659893
 20
62.04623921428504
 30
0.0
 10
228.8631085776692
 20
62.9853643280356
 30
0.0
 10
230.4307893190563
 20
63.8904652260788
 30
0.0
 10
231.9137655130161
 20
64.74666193086334
 30
0.0
 10
233.3133188724415
 20
65.55469443967284
 30
0.0
 10
234.7065442886849
 20
66.35907350878279
 30
0.0
 10
235.625329904303
 20
66.88953463128743
 30
0.0
 10
236.084767122526
 20
67.15479083290421
 30
0.0
  0
SPLINE
  5
109
330
1F
100
AcDbEntity
  8
0
  6
Continuous
 62
     7
370
    25
100
AcDbSpline
210
0.0
220
0.0
230
1.0
 70
    24
 71
     3
 72
    15
 73
    11
 74
     0
 42
0.000000001
 43
0.00000001
 40
0.0
 40
0.0
 40
0.0
 40
0.0
 40
0.1323065044264403
 40
0.2645755999739298
 40
0.3998036789671093
 40
0.5350073556765895
 40
0.6501969475405022
 40
0.7654045076453766
 40
0.8826909144168967
 40
1.0
 40
1.0
 40
1.0
 40
1.0
 10
212.084767122526
 20
67.15479083290421
 30
0.0
 10
212.6032198517345
 20
66.8554620101336
 30
0.0
 10
213.639978720719
 20
66.25688899804067
 30
0.0
 10
215.2364961659893
 20
65.33513922124789
 30
0.0
 10
216.8631085776692
 20
64.39601410749732
 30
0.0
 10
218.4307893190562
 20
63.49091320945413
 30
0.0
 10
219.9137655130161
 20
62.63471650466958
 30
0.0
 10
221.3133188724415
 20
61.82668399586007
 30
0.0
 10
222.7065442886849
 20
61.02230492675015
 30
0.0
 10
223.625329904303
 20
60.49184380424549
 30
0.0
 10
224.084767122526
 20
60.22658760262871
 30
0.0
  0
SPLINE
  5
10A
330
1F
100
AcDbEntity
  8
0
  6
Continuous
 62
     7
370
    25
100
AcDbSpline
210
0.0
220
0.0
230
1.0
 70
    24
 71
     3
 72
    16
 73
    12
 74
     0
 42
0.000000001
 43
0.00000001
 40
0.0
 40
0.0
 40
0.0
 40
0.0
 40
0.0915356978782496
 40
0.1830633432235329
 40
0.2753996771146607
 40
0.3677267146962473
 40
0.4925705318074072
 40
0.6174129202940687
 40
0.7455832490327827
 40
0.8737882839722
 40
1.0
 40
1.0
 40
1.0
 40
1.0
 10
212.084767122526
 20
81.01119729345523
 30
0.0
 10
212.084767122526
 20
80.597597564901
 30
0.0
 10
212.084767122526
 20
79.7704344927825
 30
0.0
 10
212.084767122526
 20
78.50955926129961
 30
0.0
 10
212.084767122526
 20
77.23347984623288
 30
0.0
 10
212.084767122526
 20
75.7916467400617
 30
0.0
 10
212.084767122526
 20
74.18791798515586
 30
0.0
 10
212.084767122526
 20
72.4152756425066
 30
0.0
 10
212.084767122526
 20
70.63940589366844
 30
0.0
 10
212.084767122526
 20
68.87668655375381
 30
0.0
 10
212.084767122526
 20
67.72575026603616
 30
0.0
 10
212.084767122526
 20
67.15479083290421
 30
0.0
  0
SPLINE
  5
10B
330
1F
100
AcDbEntity
  8
0
  6
Continuous
 62
     7
370
    25
100
AcDbSpline
210
0.0
220
0.0
230
1.0
 70
    24
 71
     3
 72
    15
 73
    11
 74
     0
 42
0.000000001
 43
0.00000001
 40
0.0
 40
0.0
 40
0.0
 40
0.0
 40
0.1323065044264402
 40
0.2645755999739297
 40
0.3998036789671093
 40
0.5350073556765894
 40
0.6501969475405022
 40
0.7654045076453766
 40
0.8826909144168968
 40
1.0
 40
1.0
 40
1.0
 40
1.0
 10
224.084767122526
 20
87.93940052373075
 30
0.0
 10
223.5663143933175
 20
87.64007170096014
 30
0.0
 10
222.529555524333
 20
87.04149868886721
 30
0.0
 10
220.9330380790626
 20
86.11974891207441
 30
0.0
 10
219.3064256673827
 20
85.18062379832385
 30
0.0
 10
217.7387449259957
 20
84.27552290028065
 30
0.0
 10
216.2557687320358
 20
83.41932619549611
 30
0.0
 10
214.8562153726104
 20
82.6112936866866
 30
0.0
 10
213.462989956367
 20
81.80691461757667
 30
0.0
 10
212.544204340749
 20
81.276453495072
 30
0.0
 10
212.084767122526
 20
81.01119729345523
 30
0.0
  0
INSERT
  5
117
330
1F
100
AcDbEntity
  8
0
  6
Continuous
 62
     7
370
    18
100
AcDbBlockReference
  2
SW_CENTERMARKSYMBOL_0
 10
224.0847671225
 20
74.0829940632
 30
0.0
  0
LINE
  5
118
330
1F
100
AcDbEntity
  8
0
  6
Continuous
 62
     7
370
    25
100
AcDbLine
 10
164.0102196278
 20
109.2105539675
 30
0.0
 11
164.5102196278
 21
109.2105539675
 31
0.0
  0
LINE
  5
119
330
1F
100
AcDbEntity
  8
0
  6
Continuous
 62
     7
370
    25
100
AcDbLine
 10
164.5102196278
 20
125.2105539675
 30
0.0
 11
164.0102196278
 21
125.2105539675
 31
0.0
  0
LINE
  5
11A
330
1F
100
AcDbEntity
  8
0
  6
Continuous
 62
     7
370
    25
100
AcDbLine
 10
170.5102196278
 20
124.2105539675
 30
0.0
 11
164.5102196278
 21
124.2105539675
 31
0.0
  0
LINE
  5
11B
330
1F
100
AcDbEntity
  8
0
  6
Continuous
 62
     7
370
    25
100
AcDbLine
 10
164.5102196278
 20
110.2105539675
 30
0.0
 11
170.5102196278
 21
110.2105539675
 31
0.0
  0
LINE
  5
11C
330
1F
100
AcDbEntity
  8
0
  6
Continuous
 62
     7
370
    25
100
AcDbLine
 10
170.5102196278
 20
110.2105539675
 30
0.0
 11
175.0102196278
 21
110.9605539675
 31
0.0
  0
LINE
  5
11D
330
1F
100
AcDbEntity
  8
0
  6
Continuous
 62
     7
370
    25
100
AcDbLine
 10
175.0102196278
 20
123.4605539675
 30
0.0
 11
170.5102196278
 21
124.2105539675
 31
0.0
  0
LINE
  5
11E
330
1F
100
AcDbEntity
  8
0
  6
Continuous
 62
     7
370
    25
100
AcDbLine
 10
188.5102196278
 20
110.2105539675
 30
0.0
 11
194.3148333727
 21
110.8803170919
 31
0.0
  0
LINE
  5
11F
330
1F
100
AcDbEntity
  8
0
  6
Continuous
 62
     7
370
    25
100
AcDbLine
 10
194.3148333727
 20
123.540790843
 30
0.0
 11
188.5102196278
 21
124.2105539675
 31
0.0
  0
LINE
  5
120
330
1F
100
AcDbEntity
  8
0
  6
Continuous
 62
     7
370
    25
100
AcDbLine
 10
175.0102196278
 20
110.2105539675
 30
0.0
 11
179.5102196278
 21
110.9605539675
 31
0.0
  0
LINE
  5
121
330
1F
100
AcDbEntity
  8
0
  6
Continuous
 62
     7
370
    25
100
AcDbLine
 10
179.5102196278
 20
123.4605539675
 30
0.0
 11
175.0102196278
 21
124.2105539675
 31
0.0
  0
LINE
  5
122
330
1F
100
AcDbEntity
  8
0
  6
Continuous
 62
     7
370
    25
100
AcDbLine
 10
184.0102196278
 20
110.2105539675
 30
0.0
 11
188.5102196278
 21
110.9605539675
 31
0.0
  0
LINE
  5
123
330
1F
100
AcDbEntity
  8
0
  6
Continuous
 62
     7
370
    25
100
AcDbLine
 10
188.5102196278
 20
123.4605539675
 30
0.0
 11
184.0102196278
 21
124.2105539675
 31
0.0
  0
LINE
  5
124
330
1F
100
AcDbEntity
  8
0
  6
Continuous
 62
     7
370
    25
100
AcDbLine
 10
179.5102196278
 20
110.2105539675
 30
0.0
 11
184.0102196278
 21
110.9605539675
 31
0.0
  0
LINE
  5
125
330
1F
100
AcDbEntity
  8
0
  6
Continuous
 62
     7
370
    25
100
AcDbLine
 10
184.0102196278
 20
123.4605539675
 30
0.0
 11
179.5102196278
 21
124.2105539675
 31
0.0
  0
LINE
  5
126
330
1F
100
AcDbEntity
  8
0
  6
Continuous
 62
     7
370
    25
100
AcDbLine
 10
194.3148333727
 20
110.8803170919
 30
0.0
 11
195.0102196278
 21
111.757108457
 31
0.0
  0
LINE
  5
127
330
1F
100
AcDbEntity
  8
0
  6
Continuous
 62
     7
370
    25
100
AcDbLine
 10
195.0102196278
 20
122.6639994779
 30
0.0
 11
194.3148333727
 21
123.540790843
 31
0.0
  0
LINE
  5
128
330
1F
100
AcDbEntity
  8
0
  6
Continuous
 62
     7
370
    25
100
AcDbLine
 10
161.8658820605
 20
105.2105539675
 30
0.0
 11
162.0102196278
 21
105.4605539675
 31
0.0
  0
LINE
  5
129
330
1F
100
AcDbEntity
  8
0
  6
Continuous
 62
     7
370
    25
100
AcDbLine
 10
162.0102196278
 20
128.9605539675
 30
0.0
 11
161.8658820605
 21
129.2105539675
 31
0.0
  0
LINE
  5
12A
330
1F
100
AcDbEntity
  8
0
  6
Continuous
 62
     7
370
    25
100
AcDbLine
 10
150.1545571951
 20
129.2105539675
 30
0.0
 11
150.0102196278
 21
128.9605539675
 31
0.0
  0
LINE
  5
12B
330
1F
100
AcDbEntity
  8
0
  6
Continuous
 62
     7
370
    25
100
AcDbLine
 10
150.0102196278
 20
105.4605539675
 30
0.0
 11
150.1545571951
 21
105.2105539675
 31
0.0
  0
LINE
  5
12C
330
1F
100
AcDbEntity
  8
0
  6
Continuous
 62
     7
370
    25
100
AcDbLine
 10
162.0102196278
 20
105.4605539675
 30
0.0
 11
163.5102196278
 21
105.4605539675
 31
0.0
  0
LINE
  5
12D
330
1F
100
AcDbEntity
  8
0
  6
Continuous
 62
     7
370
    25
100
AcDbLine
 10
163.5102196278
 20
128.9605539675
 30
0.0
 11
162.0102196278
 21
128.9605539675
 31
0.0
  0
LINE
  5
12E
330
1F
100
AcDbEntity
  8
0
  6
Continuous
 62
     7
370
    25
100
AcDbLine
 10
163.5102196278
 20
105.4605539675
 30
0.0
 11
164.0102196278
 21
105.9605539675
 31
0.0
  0
LINE
  5
12F
330
1F
100
AcDbEntity
  8
0
  6
Continuous
 62
     7
370
    25
100
AcDbLine
 10
164.0102196278
 20
128.4605539675
 30
0.0
 11
163.5102196278
 21
128.9605539675
 31
0.0
  0
LINE
  5
130
330
1F
100
AcDbEntity
  8
0
  6
Continuous
 62
     7
370
    25
100
AcDbLine
 10
148.5102196278
 20
128.9605539675
 30
0.0
 11
148.0102196278
 21
128.4605539675
 31
0.0
  0
LINE
  5
131
330
1F
100
AcDbEntity
  8
0
  6
Continuous
 62
     7
370
    25
100
AcDbLine
 10
148.0102196278
 20
105.9605539675
 30
0.0
 11
148.5102196278
 21
105.4605539675
 31
0.0
  0
LINE
  5
132
330
1F
100
AcDbEntity
  8
0
  6
Continuous
 62
     7
370
    25
100
AcDbLine
 10
150.0102196278
 20
128.9605539675
 30
0.0
 11
148.5102196278
 21
128.9605539675
 31
0.0
  0
LINE
  5
133
330
1F
100
AcDbEntity
  8
0
  6
Continuous
 62
     7
370
    25
100
AcDbLine
 10
148.5102196278
 20
105.4605539675
 30
0.0
 11
150.0102196278
 21
105.4605539675
 31
0.0
  0
LINE
  5
134
330
1F
100
AcDbEntity
  8
0
  6
Continuous
 62
     7
370
    25
100
AcDbLine
 10
142.4639582719
 20
106.2105539675
 30
0.0
 11
142.6082958392
 21
106.4605539675
 31
0.0
  0
LINE
  5
135
330
1F
100
AcDbEntity
  8
0
  6
Continuous
 62
     7
370
    25
100
AcDbLine
 10
142.6082958392
 20
127.9605539675
 30
0.0
 11
142.4639582719
 21
128.2105539675
 31
0.0
  0
LINE
  5
136
330
1F
100
AcDbEntity
  8
0
  6
Continuous
 62
     7
370
    25
100
AcDbLine
 10
146.6082958392
 20
106.7330539675
 30
0.0
 11
148.0102196278
 21
106.7330539675
 31
0.0
  0
LINE
  5
137
330
1F
100
AcDbEntity
  8
0
  6
Continuous
 62
     7
370
    25
100
AcDbLine
 10
148.0102196278
 20
127.6880539675
 30
0.0
 11
146.6082958392
 21
127.6880539675
 31
0.0
  0
LINE
  5
138
330
1F
100
AcDbEntity
  8
0
  6
Continuous
 62
     7
370
    25
100
AcDbLine
 10
146.6082958392
 20
127.6880539675
 30
0.0
 11
145.1307958392
 21
126.2105539675
 31
0.0
  0
LINE
  5
139
330
1F
100
AcDbEntity
  8
0
  6
Continuous
 62
     7
370
    25
100
AcDbLine
 10
145.1307958392
 20
108.2105539675
 30
0.0
 11
146.6082958392
 21
106.7330539675
 31
0.0
  0
LINE
  5
13A
330
1F
100
AcDbEntity
  8
0
  6
Continuous
 62
     7
370
    25
100
AcDbLine
 10
142.6082958392
 20
108.2105539675
 30
0.0
 11
145.1307958392
 21
108.2105539675
 31
0.0
  0
LINE
  5
13B
330
1F
100
AcDbEntity
  8
0
  6
Continuous
 62
     7
370
    25
100
AcDbLine
 10
145.1307958392
 20
126.2105539675
 30
0.0
 11
142.6082958392
 21
126.2105539675
 31
0.0
  0
LINE
  5
13C
330
1F
100
AcDbEntity
  8
0
  6
Continuous
 62
     7
370
    25
100
AcDbLine
 10
136.6082958392
 20
125.7181164675
 30
0.0
 11
126.6822052728
 21
125.4079261373
 31
0.0
  0
LINE
  5
13D
330
1F
100
AcDbEntity
  8
0
  6
Continuous
 62
     7
370
    25
100
AcDbLine
 10
126.6822052728
 20
109.0131817977
 30
0.0
 11
136.6082958392
 21
108.7029914675
 31
0.0
  0
LINE
  5
13E
330
1F
100
AcDbEntity
  8
0
  6
Continuous
 62
     7
370
    25
100
AcDbLine
 10
126.6822052728
 20
125.4079261373
 30
0.0
 11
124.6082958392
 21
124.2105539675
 31
0.0
  0
LINE
  5
13F
330
1F
100
AcDbEntity
  8
0
  6
Continuous
 62
     7
370
    25
100
AcDbLine
 10
124.6082958392
 20
110.2105539675
 30
0.0
 11
126.6822052728
 21
109.0131817977
 31
0.0
  0
LINE
  5
140
330
1F
100
AcDbEntity
  8
0
  6
Continuous
 62
     7
370
    25
100
AcDbLine
 10
164.5102196278
 20
125.2105539675
 30
0.0
 11
164.5102196278
 21
109.2105539675
 31
0.0
  0
LINE
  5
141
330
1F
100
AcDbEntity
  8
0
  6
Continuous
 62
     7
370
    25
100
AcDbLine
 10
170.5102196278
 20
117.2105539675
 30
0.0
 11
170.5102196278
 21
110.2105539675
 31
0.0
  0
LINE
  5
142
330
1F
100
AcDbEntity
  8
0
  6
Continuous
 62
     7
370
    25
100
AcDbLine
 10
170.5102196278
 20
124.2105539675
 30
0.0
 11
170.5102196278
 21
117.2105539675
 31
0.0
  0
LINE
  5
143
330
1F
100
AcDbEntity
  8
0
  6
Continuous
 62
     7
370
    25
100
AcDbLine
 10
188.5102196278
 20
117.2105539675
 30
0.0
 11
188.5102196278
 21
110.2105539675
 31
0.0
  0
LINE
  5
144
330
1F
100
AcDbEntity
  8
0
  6
Continuous
 62
     7
370
    25
100
AcDbLine
 10
188.5102196278
 20
124.2105539675
 30
0.0
 11
188.5102196278
 21
117.2105539675
 31
0.0
  0
LINE
  5
145
330
1F
100
AcDbEntity
  8
0
  6
Continuous
 62
     7
370
    25
100
AcDbLine
 10
194.3148333727
 20
117.2105539675
 30
0.0
 11
194.3148333727
 21
123.540790843
 31
0.0
  0
LINE
  5
146
330
1F
100
AcDbEntity
  8
0
  6
Continuous
 62
     7
370
    25
100
AcDbLine
 10
194.3148333727
 20
110.8803170919
 30
0.0
 11
194.3148333727
 21
117.2105539675
 31
0.0
  0
LINE
  5
147
330
1F
100
AcDbEntity
  8
0
  6
Continuous
 62
     7
370
    25
100
AcDbLine
 10
175.0102196278
 20
117.2105539675
 30
0.0
 11
175.0102196278
 21
110.2105539675
 31
0.0
  0
LINE
  5
148
330
1F
100
AcDbEntity
  8
0
  6
Continuous
 62
     7
370
    25
100
AcDbLine
 10
175.0102196278
 20
124.2105539675
 30
0.0
 11
175.0102196278
 21
117.2105539675
 31
0.0
  0
LINE
  5
149
330
1F
100
AcDbEntity
  8
0
  6
Continuous
 62
     7
370
    25
100
AcDbLine
 10
184.0102196278
 20
117.2105539675
 30
0.0
 11
184.0102196278
 21
110.2105539675
 31
0.0
  0
LINE
  5
14A
330
1F
100
AcDbEntity
  8
0
  6
Continuous
 62
     7
370
    25
100
AcDbLine
 10
184.0102196278
 20
124.2105539675
 30
0.0
 11
184.0102196278
 21
117.2105539675
 31
0.0
  0
LINE
  5
14B
330
1F
100
AcDbEntity
  8
0
  6
Continuous
 62
     7
370
    25
100
AcDbLine
 10
179.5102196278
 20
117.2105539675
 30
0.0
 11
179.5102196278
 21
110.2105539675
 31
0.0
  0
LINE
  5
14C
330
1F
100
AcDbEntity
  8
0
  6
Continuous
 62
     7
370
    25
100
AcDbLine
 10
179.5102196278
 20
124.2105539675
 30
0.0
 11
179.5102196278
 21
117.2105539675
 31
0.0
  0
LINE
  5
14D
330
1F
100
AcDbEntity
  8
0
  6
Continuous
 62
     7
370
    25
100
AcDbLine
 10
195.0102196278
 20
117.2105539675
 30
0.0
 11
195.0102196278
 21
111.757108457
 31
0.0
  0
LINE
  5
14E
330
1F
100
AcDbEntity
  8
0
  6
Continuous
 62
     7
370
    25
100
AcDbLine
 10
195.0102196278
 20
122.6639994779
 30
0.0
 11
195.0102196278
 21
117.2105539675
 31
0.0
  0
SPLINE
  5
14F
330
1F
100
AcDbEntity
  8
0
  6
Continuous
 62
     7
370
    25
100
AcDbSpline
210
0.0
220
0.0
230
1.0
 70
     8
 71
     3
 72
    15
 73
    11
 74
     0
 42
0.000000001
 43
0.00000001
 40
0.0
 40
0.0
 40
0.0
 40
0.0
 40
0.1323065044264402
 40
0.2645755999739295
 40
0.3998036789671088
 40
0.5350073556765889
 40
0.6501969475405015
 40
0.765404507645376
 40
0.8826909144168964
 40
0.9999999999999999
 40
0.9999999999999999
 40
0.9999999999999999
 40
0.9999999999999999
 10
160.7940852908069
 20
129.2105539674578
 30
0.0
 10
160.9572443727246
 20
128.6921012382493
 30
0.0
 10
161.283516404298
 20
127.6553423692648
 30
0.0
 10
161.6345711073179
 20
126.0588249239944
 30
0.0
 10
161.845647892847
 20
124.4322125123145
 30
0.0
 10
161.8874452031326
 20
122.8645317709275
 30
0.0
 10
161.7789865704318
 20
121.3815555769676
 30
0.0
 10
161.556760661371
 20
119.9820022175422
 30
0.0
 10
161.2307828880846
 20
118.5887768012988
 30
0.0
 10
160.9396605376912
 20
117.6699911856807
 30
0.0
 10
160.7940852908069
 20
117.2105539674577
 30
0.0
  0
SPLINE
  5
150
330
1F
100
AcDbEntity
  8
0
  6
Continuous
 62
     7
370
    25
100
AcDbSpline
210
0.0
220
0.0
230
1.0
 70
    24
 71
     3
 72
    13
 73
     9
 74
     0
 42
0.000000001
 43
0.00000001
 40
0.0
 40
0.0
 40
0.0
 40
0.0
 40
0.0074805398740651
 40
0.2645411886743795
 40
0.4472095267780684
 40
0.6304328563017443
 40
0.815042521996604
 40
0.9999999999999999
 40
0.9999999999999999
 40
0.9999999999999999
 40
0.9999999999999999
 10
161.8636920407715
 20
129.2105539674578
 30
0.0
 10
161.8644193399958
 20
129.2105539674578
 30
0.0
 10
161.8901394891487
 20
129.2105539674578
 30
0.0
 10
161.8083721221506
 20
129.2105539674577
 30
0.0
 10
161.6466971602553
 20
129.2105539674578
 30
0.0
 10
161.4225335774123
 20
129.2105539674578
 30
0.0
 10
161.1418055637714
 20
129.2105539674578
 30
0.0
 10
160.9100647482038
 20
129.2105539674578
 30
0.0
 10
160.7940852908069
 20
129.2105539674578
 30
0.0
  0
SPLINE
  5
151
330
1F
100
AcDbEntity
  8
0
  6
Continuous
 62
     7
370
    25
100
AcDbSpline
210
0.0
220
0.0
230
1.0
 70
    24
 71
     3
 72
    13
 73
     9
 74
     0
 42
0.000000001
 43
0.00000001
 40
0.0
 40
0.0
 40
0.0
 40
0.0
 40
0.1829108694329372
 40
0.3661265398835283
 40
0.5505239998338701
 40
0.7354538878820186
 40
0.9842714606347308
 40
1.0
 40
1.0
 40
1.0
 40
1.0
 10
160.7940852908069
 20
105.2105539674577
 30
0.0
 10
160.9088251675898
 20
105.2105539674577
 30
0.0
 10
161.1384961226479
 20
105.2105539674578
 30
0.0
 10
161.4189728429401
 20
105.2105539674578
 30
0.0
 10
161.6448822980203
 20
105.2105539674578
 30
0.0
 10
161.8063393376762
 20
105.2105539674577
 30
0.0
 10
161.887218680119
 20
105.2105539674578
 30
0.0
 10
161.8629548717038
 20
105.2105539674578
 30
0.0
 10
161.8615122715357
 20
105.2105539674578
 30
0.0
  0
SPLINE
  5
152
330
1F
100
AcDbEntity
  8
0
  6
Continuous
 62
     7
370
    25
100
AcDbSpline
210
0.0
220
0.0
230
1.0
 70
     8
 71
     3
 72
    15
 73
    11
 74
     0
 42
0.000000001
 43
0.00000001
 40
0.0
 40
0.0
 40
0.0
 40
0.0
 40
0.1323065044264402
 40
0.2645755999739296
 40
0.3998036789671091
 40
0.5350073556765892
 40
0.650196947540502
 40
0.7654045076453765
 40
0.8826909144168967
 40
1.0
 40
1.0
 40
1.0
 40
1.0
 10
160.7940852908069
 20
117.2105539674577
 30
0.0
 10
160.9572443727246
 20
116.6921012382493
 30
0.0
 10
161.283516404298
 20
115.6553423692648
 30
0.0
 10
161.6345711073179
 20
114.0588249239944
 30
0.0
 10
161.845647892847
 20
112.4322125123145
 30
0.0
 10
161.8874452031326
 20
110.8645317709275
 30
0.0
 10
161.7789865704318
 20
109.3815555769676
 30
0.0
 10
161.5567606613709
 20
107.9820022175422
 30
0.0
 10
161.2307828880847
 20
106.5887768012988
 30
0.0
 10
160.9396605376912
 20
105.6699911856808
 30
0.0
 10
160.7940852908069
 20
105.2105539674577
 30
0.0
  0
LINE
  5
153
330
1F
100
AcDbEntity
  8
0
  6
Continuous
 62
     7
370
    25
100
AcDbLine
 10
162.0102196278
 20
128.9605539675
 30
0.0
 11
162.0102196278
 21
105.4605539675
 31
0.0
  0
LINE
  5
154
330
1F
100
AcDbEntity
  8
0
  6
Continuous
 62
     7
370
    25
100
AcDbLine
 10
156.144194224
 20
129.2105539675
 30
0.0
 11
156.0102196278
 21
128.2894510086
 31
0.0
  0
LINE
  5
155
330
1F
100
AcDbEntity
  8
0
  6
Continuous
 62
     7
370
    25
100
AcDbLine
 10
160.7940852908
 20
129.2105539675
 30
0.0
 11
156.144194224
 21
129.2105539675
 31
0.0
  0
LINE
  5
156
330
1F
100
AcDbEntity
  8
0
  6
Continuous
 62
     7
370
    25
100
AcDbLine
 10
160.7940852908
 20
117.2105539675
 30
0.0
 11
156.144194224
 21
117.2105539675
 31
0.0
  0
LINE
  5
157
330
1F
100
AcDbEntity
  8
0
  6
Continuous
 62
     7
370
    25
100
AcDbLine
 10
156.0102196278
 20
118.1316569263
 30
0.0
 11
156.144194224
 21
117.2105539675
 31
0.0
  0
LINE
  5
158
330
1F
100
AcDbEntity
  8
0
  6
Continuous
 62
     7
370
    25
100
AcDbLine
 10
156.0102196278
 20
118.1316569263
 30
0.0
 11
155.8762450316
 21
117.2105539675
 31
0.0
  0
LINE
  5
159
330
1F
100
AcDbEntity
  8
0
  6
Continuous
 62
     7
370
    25
100
AcDbLine
 10
155.8762450316
 20
117.2105539675
 30
0.0
 11
151.2263539649
 21
117.2105539675
 31
0.0
  0
SPLINE
  5
15A
330
1F
100
AcDbEntity
  8
0
  6
Continuous
 62
     7
370
    25
100
AcDbSpline
210
0.0
220
0.0
230
1.0
 70
     8
 71
     3
 72
    15
 73
    11
 74
     0
 42
0.000000001
 43
0.00000001
 40
0.0
 40
0.0
 40
0.0
 40
0.0
 40
0.1323065044264401
 40
0.2645755999739294
 40
0.3998036789671088
 40
0.535007355676589
 40
0.6501969475405016
 40
0.7654045076453762
 40
0.8826909144168965
 40
1.0
 40
1.0
 40
1.0
 40
1.0
 10
151.2263539648507
 20
129.2105539674578
 30
0.0
 10
151.063194882933
 20
128.6921012382493
 30
0.0
 10
150.7369228513597
 20
127.6553423692648
 30
0.0
 10
150.3858681483398
 20
126.0588249239944
 30
0.0
 10
150.1747913628107
 20
124.4322125123145
 30
0.0
 10
150.132994052525
 20
122.8645317709275
 30
0.0
 10
150.2414526852259
 20
121.3815555769676
 30
0.0
 10
150.4636785942867
 20
119.9820022175422
 30
0.0
 10
150.789656367573
 20
118.5887768012988
 30
0.0
 10
151.0807787179665
 20
117.6699911856807
 30
0.0
 10
151.2263539648507
 20
117.2105539674577
 30
0.0
  0
LINE
  5
15B
330
1F
100
AcDbEntity
  8
0
  6
Continuous
 62
     7
370
    25
100
AcDbLine
 10
155.8762450316
 20
129.2105539675
 30
0.0
 11
151.2263539649
 21
129.2105539675
 31
0.0
  0
LINE
  5
15C
330
1F
100
AcDbEntity
  8
0
  6
Continuous
 62
     7
370
    25
100
AcDbLine
 10
155.8762450316
 20
129.2105539675
 30
0.0
 11
156.0102196278
 21
128.2894510086
 31
0.0
  0
SPLINE
  5
15D
330
1F
100
AcDbEntity
  8
0
  6
Continuous
 62
     7
370
    25
100
AcDbSpline
210
0.0
220
0.0
230
1.0
 70
     8
 71
     3
 72
    15
 73
    11
 74
     0
 42
0.000000001
 43
0.00000001
 40
0.0
 40
0.0
 40
0.0
 40
0.0
 40
0.1323065044264403
 40
0.2645755999739298
 40
0.3998036789671094
 40
0.5350073556765895
 40
0.6501969475405022
 40
0.7654045076453766
 40
0.8826909144168967
 40
1.0
 40
1.0
 40
1.0
 40
1.0
 10
151.2263539648507
 20
117.2105539674577
 30
0.0
 10
151.063194882933
 20
116.6921012382493
 30
0.0
 10
150.7369228513597
 20
115.6553423692648
 30
0.0
 10
150.3858681483398
 20
114.0588249239944
 30
0.0
 10
150.1747913628107
 20
112.4322125123145
 30
0.0
 10
150.132994052525
 20
110.8645317709275
 30
0.0
 10
150.2414526852258
 20
109.3815555769676
 30
0.0
 10
150.4636785942867
 20
107.9820022175422
 30
0.0
 10
150.789656367573
 20
106.5887768012988
 30
0.0
 10
151.0807787179664
 20
105.6699911856808
 30
0.0
 10
151.2263539648507
 20
105.2105539674577
 30
0.0
  0
SPLINE
  5
15E
330
1F
100
AcDbEntity
  8
0
  6
Continuous
 62
     7
370
    25
100
AcDbSpline
210
0.0
220
0.0
230
1.0
 70
    24
 71
     3
 72
    13
 73
     9
 74
     0
 42
0.000000001
 43
0.00000001
 40
0.0
 40
0.0
 40
0.0
 40
0.0
 40
0.1829108694329378
 40
0.3661265398835294
 40
0.5505239998338717
 40
0.7354538878820205
 40
0.9842714606347331
 40
1.0
 40
1.0
 40
1.0
 40
1.0
 10
151.2263539648507
 20
105.2105539674577
 30
0.0
 10
151.1116140880679
 20
105.2105539674577
 30
0.0
 10
150.8819431330098
 20
105.2105539674577
 30
0.0
 10
150.6014664127175
 20
105.2105539674578
 30
0.0
 10
150.3755569576373
 20
105.2105539674578
 30
0.0
 10
150.2140999179814
 20
105.2105539674577
 30
0.0
 10
150.1332205755386
 20
105.2105539674578
 30
0.0
 10
150.1574843839539
 20
105.2105539674578
 30
0.0
 10
150.1589269841219
 20
105.2105539674578
 30
0.0
  0
SPLINE
  5
15F
330
1F
100
AcDbEntity
  8
0
  6
Continuous
 62
     7
370
    25
100
AcDbSpline
210
0.0
220
0.0
230
1.0
 70
    24
 71
     3
 72
    13
 73
     9
 74
     0
 42
0.000000001
 43
0.00000001
 40
0.0
 40
0.0
 40
0.0
 40
0.0
 40
0.0074805398740622
 40
0.2645411886743773
 40
0.4472095267780669
 40
0.6304328563017431
 40
0.8150425219966033
 40
0.9999999999999999
 40
0.9999999999999999
 40
0.9999999999999999
 40
0.9999999999999999
 10
150.1567472148861
 20
129.2105539674578
 30
0.0
 10
150.1560199156618
 20
129.2105539674578
 30
0.0
 10
150.1302997665089
 20
129.2105539674577
 30
0.0
 10
150.212067133507
 20
129.2105539674578
 30
0.0
 10
150.3737420954023
 20
129.2105539674578
 30
0.0
 10
150.5979056782453
 20
129.2105539674578
 30
0.0
 10
150.8786336918863
 20
129.2105539674578
 30
0.0
 10
151.1103745074539
 20
129.2105539674578
 30
0.0
 10
151.2263539648507
 20
129.2105539674578
 30
0.0
  0
LINE
  5
160
330
1F
100
AcDbEntity
  8
0
  6
Continuous
 62
     7
370
    25
100
AcDbLine
 10
150.0102196278
 20
128.9605539675
 30
0.0
 11
150.0102196278
 21
105.4605539675
 31
0.0
  0
LINE
  5
161
330
1F
100
AcDbEntity
  8
0
  6
Continuous
 62
     7
370
    25
100
AcDbLine
 10
156.0102196278
 20
118.1316569263
 30
0.0
 11
156.0102196278
 21
116.2894510086
 31
0.0
  0
LINE
  5
162
330
1F
100
AcDbEntity
  8
0
  6
Continuous
 62
     7
370
    25
100
AcDbLine
 10
155.8762450316
 20
117.2105539675
 30
0.0
 11
156.0102196278
 21
116.2894510086
 31
0.0
  0
LINE
  5
163
330
1F
100
AcDbEntity
  8
0
  6
Continuous
 62
     7
370
    25
100
AcDbLine
 10
156.144194224
 20
117.2105539675
 30
0.0
 11
156.0102196278
 21
116.2894510086
 31
0.0
  0
LINE
  5
164
330
1F
100
AcDbEntity
  8
0
  6
Continuous
 62
     7
370
    25
100
AcDbLine
 10
160.7940852908
 20
105.2105539675
 30
0.0
 11
156.144194224
 21
105.2105539675
 31
0.0
  0
LINE
  5
165
330
1F
100
AcDbEntity
  8
0
  6
Continuous
 62
     7
370
    25
100
AcDbLine
 10
156.0102196278
 20
106.1316569263
 30
0.0
 11
156.144194224
 21
105.2105539675
 31
0.0
  0
LINE
  5
166
330
1F
100
AcDbEntity
  8
0
  6
Continuous
 62
     7
370
    25
100
AcDbLine
 10
156.0102196278
 20
106.1316569263
 30
0.0
 11
155.8762450316
 21
105.2105539675
 31
0.0
  0
LINE
  5
167
330
1F
100
AcDbEntity
  8
0
  6
Continuous
 62
     7
370
    25
100
AcDbLine
 10
155.8762450316
 20
105.2105539675
 30
0.0
 11
151.2263539649
 21
105.2105539675
 31
0.0
  0
LINE
  5
168
330
1F
100
AcDbEntity
  8
0
  6
Continuous
 62
     7
370
    25
100
AcDbLine
 10
163.5102196278
 20
105.4605539675
 30
0.0
 11
163.5102196278
 21
128.9605539675
 31
0.0
  0
LINE
  5
169
330
1F
100
AcDbEntity
  8
0
  6
Continuous
 62
     7
370
    25
100
AcDbLine
 10
164.0102196278
 20
128.4605539675
 30
0.0
 11
164.0102196278
 21
105.9605539675
 31
0.0
  0
LINE
  5
16A
330
1F
100
AcDbEntity
  8
0
  6
Continuous
 62
     7
370
    25
100
AcDbLine
 10
148.5102196278
 20
128.9605539675
 30
0.0
 11
148.5102196278
 21
105.4605539675
 31
0.0
  0
LINE
  5
16B
330
1F
100
AcDbEntity
  8
0
  6
Continuous
 62
     7
370
    25
100
AcDbLine
 10
148.0102196278
 20
105.9605539675
 30
0.0
 11
148.0102196278
 21
128.4605539675
 31
0.0
  0
LINE
  5
16C
330
1F
100
AcDbEntity
  8
0
  6
Continuous
 62
     7
370
    25
100
AcDbLine
 10
156.0102196278
 20
129.2105539675
 30
0.0
 11
156.0102196278
 21
128.2894510086
 31
0.0
  0
LINE
  5
16D
330
1F
100
AcDbEntity
  8
0
  6
Continuous
 62
     7
370
    25
100
AcDbLine
 10
156.0102196278
 20
129.2105539675
 30
0.0
 11
156.144194224
 21
129.2105539675
 31
0.0
  0
LINE
  5
16E
330
1F
100
AcDbEntity
  8
0
  6
Continuous
 62
     7
370
    25
100
AcDbLine
 10
156.0102196278
 20
129.2105539675
 30
0.0
 11
155.8762450316
 21
129.2105539675
 31
0.0
  0
LINE
  5
16F
330
1F
100
AcDbEntity
  8
0
  6
Continuous
 62
     7
370
    25
100
AcDbLine
 10
156.144194224
 20
105.2105539675
 30
0.0
 11
156.0102196278
 21
105.2105539675
 31
0.0
  0
LINE
  5
170
330
1F
100
AcDbEntity
  8
0
  6
Continuous
 62
     7
370
    25
100
AcDbLine
 10
156.0102196278
 20
106.1316569263
 30
0.0
 11
156.0102196278
 21
105.2105539675
 31
0.0
  0
LINE
  5
171
330
1F
100
AcDbEntity
  8
0
  6
Continuous
 62
     7
370
    25
100
AcDbLine
 10
155.8762450316
 20
105.2105539675
 30
0.0
 11
156.0102196278
 21
105.2105539675
 31
0.0
  0
SPLINE
  5
172
330
1F
100
AcDbEntity
  8
0
  6
Continuous
 62
     7
370
    25
100
AcDbSpline
210
0.0
220
0.0
230
1.0
 70
     8
 71
     3
 72
    16
 73
    12
 74
     0
 42
0.000000001
 43
0.00000001
 40
0.0
 40
0.0
 40
0.0
 40
0.0
 40
0.2499999999999999
 40
0.2499999999999999
 40
0.4999999999999999
 40
0.4999999999999999
 40
0.6249999999999999
 40
0.6249999999999999
 40
0.75
 40
0.75
 40
1.0
 40
1.0
 40
1.0
 40
1.0
 10
141.4814778996376
 20
128.2105539674578
 30
0.0
 10
141.7808264578206
 20
127.3125082929087
 30
0.0
 10
142.0275438846822
 20
126.4079151920002
 30
0.0
 10
142.3693276170385
 20
124.5798632632919
 30
0.0
 10
142.4632665254234
 20
123.6562641848578
 30
0.0
 10
142.464298346903
 20
122.2534646235206
 30
0.0
 10
142.4413339400466
 20
121.7836642795755
 30
0.0
 10
142.351784813761
 20
120.8543496951684
 30
0.0
 10
142.2852909796935
 20
120.3928080481454
 30
0.0
 10
142.0285276828797
 20
119.0164002220951
 30
0.0
 10
141.7811996238592
 20
118.1097191401232
 30
0.0
 10
141.4814778996374
 20
117.2105539674577
 30
0.0
  0
SPLINE
  5
173
330
1F
100
AcDbEntity
  8
0
  6
Continuous
 62
     7
370
    25
100
AcDbSpline
210
0.0
220
0.0
230
1.0
 70
    24
 71
     3
 72
    12
 73
     8
 74
     0
 42
0.000000001
 43
0.00000001
 40
0.0
 40
0.0
 40
0.0
 40
0.0
 40
0.2463835164551645
 40
0.4334834883408993
 40
0.6211888230875384
 40
0.8104054478701584
 40
0.9999999999999999
 40
0.9999999999999999
 40
0.9999999999999999
 40
0.9999999999999999
 10
142.4607924343352
 20
128.2105539674578
 30
0.0
 10
142.44954850389
 20
128.2105539674578
 30
0.0
 10
142.4297661001719
 20
128.2105539674578
 30
0.0
 10
142.2734368963436
 20
128.2105539674578
 30
0.0
 10
142.0704008619478
 20
128.2105539674578
 30
0.0
 10
141.8077269903844
 20
128.2105539674578
 30
0.0
 10
141.5902999031508
 20
128.2105539674578
 30
0.0
 10
141.4814778996373
 20
128.2105539674578
 30
0.0
  0
SPLINE
  5
174
330
1F
100
AcDbEntity
  8
0
  6
Continuous
 62
     7
370
    25
100
AcDbSpline
210
0.0
220
0.0
230
1.0
 70
    24
 71
     3
 72
    12
 73
     8
 74
     0
 42
0.000000001
 43
0.00000001
 40
0.0
 40
0.0
 40
0.0
 40
0.0
 40
0.1873679190935504
 40
0.3750656457080209
 40
0.5640487141878238
 40
0.7536135345631048
 40
0.9999999999999999
 40
0.9999999999999999
 40
0.9999999999999999
 40
0.9999999999999999
 10
141.4814778996373
 20
106.2105539674578
 30
0.0
 10
141.5890712646432
 20
106.2105539674578
 30
0.0
 10
141.8044473819374
 20
106.2105539674578
 30
0.0
 10
142.0668271236265
 20
106.2105539674578
 30
0.0
 10
142.2718562679617
 20
106.2105539674578
 30
0.0
 10
142.4291774373405
 20
106.2105539674578
 30
0.0
 10
142.4507896197662
 20
106.2105539674578
 30
0.0
 10
142.4630041708216
 20
106.2105539674578
 30
0.0
  0
SPLINE
  5
175
330
1F
100
AcDbEntity
  8
0
  6
Continuous
 62
     7
370
    25
100
AcDbSpline
210
0.0
220
0.0
230
1.0
 70
     8
 71
     3
 72
    16
 73
    12
 74
     0
 42
0.000000001
 43
0.00000001
 40
0.0
 40
0.0
 40
0.0
 40
0.0
 40
0.2499999999999998
 40
0.2499999999999998
 40
0.4999999999999997
 40
0.4999999999999997
 40
0.6249999999999997
 40
0.6249999999999997
 40
0.7499999999999997
 40
0.7499999999999997
 40
1.0
 40
1.0
 40
1.0
 40
1.0
 10
141.4814778996376
 20
117.2105539674578
 30
0.0
 10
141.7808264578206
 20
116.3125082929087
 30
0.0
 10
142.0275438846822
 20
115.4079151920002
 30
0.0
 10
142.3693276170384
 20
113.5798632632919
 30
0.0
 10
142.4632665254234
 20
112.6562641848578
 30
0.0
 10
142.4642983469029
 20
111.2534646235206
 30
0.0
 10
142.4413339400466
 20
110.7836642795755
 30
0.0
 10
142.351784813761
 20
109.8543496951685
 30
0.0
 10
142.2852909796935
 20
109.3928080481455
 30
0.0
 10
142.0285276828797
 20
108.0164002220952
 30
0.0
 10
141.7811996238592
 20
107.1097191401232
 30
0.0
 10
141.4814778996374
 20
106.2105539674578
 30
0.0
  0
LINE
  5
176
330
1F
100
AcDbEntity
  8
0
  6
Continuous
 62
     7
370
    25
100
AcDbLine
 10
142.6082958392
 20
127.9605539675
 30
0.0
 11
142.6082958392
 21
106.4605539675
 31
0.0
  0
LINE
  5
177
330
1F
100
AcDbEntity
  8
0
  6
Continuous
 62
     7
370
    25
100
AcDbLine
 10
136.6082958392
 20
117.2105539675
 30
0.0
 11
138.9645021117
 21
117.2105539675
 31
0.0
  0
LINE
  5
178
330
1F
100
AcDbEntity
  8
0
  6
Continuous
 62
     7
370
    25
100
AcDbLine
 10
136.6082958392
 20
128.2105539675
 30
0.0
 11
138.9645021117
 21
128.2105539675
 31
0.0
  0
SPLINE
  5
179
330
1F
100
AcDbEntity
  8
0
  6
Continuous
 62
     7
370
    25
100
AcDbSpline
210
0.0
220
0.0
230
1.0
 70
     8
 71
     3
 72
     8
 73
     4
 74
     0
 42
0.000000001
 43
0.00000001
 40
0.0
 40
0.0
 40
0.0
 40
0.0
 40
1.0
 40
1.0
 40
1.0
 40
1.0
 10
139.0448868694097
 20
127.6705673076639
 30
0.0
 10
139.0191459195764
 20
127.8507163523406
 30
0.0
 10
138.9923243753155
 20
128.0307080281572
 30
0.0
 10
138.9645021116804
 20
128.2105539674578
 30
0.0
  0
SPLINE
  5
17A
330
1F
100
AcDbEntity
  8
0
  6
Continuous
 62
     7
370
    25
100
AcDbSpline
210
0.0
220
0.0
230
1.0
 70
     8
 71
     3
 72
     8
 73
     4
 74
     0
 42
0.000000001
 43
0.00000001
 40
0.0
 40
0.0
 40
0.0
 40
0.0
 40
1.0
 40
1.0
 40
1.0
 40
1.0
 10
139.125271627139
 20
128.2105539674578
 30
0.0
 10
139.0974399540819
 20
128.0306472046974
 30
0.0
 10
139.0706188942159
 20
127.850653890189
 30
0.0
 10
139.0448868694097
 20
127.6705673076639
 30
0.0
  0
LINE
  5
17B
330
1F
100
AcDbEntity
  8
0
  6
Continuous
 62
     7
370
    25
100
AcDbLine
 10
139.1252716271
 20
128.2105539675
 30
0.0
 11
141.4814778996
 21
128.2105539675
 31
0.0
  0
LINE
  5
17C
330
1F
100
AcDbEntity
  8
0
  6
Continuous
 62
     7
370
    25
100
AcDbLine
 10
139.1252716271
 20
117.2105539675
 30
0.0
 11
141.4814778996
 21
117.2105539675
 31
0.0
  0
SPLINE
  5
17D
330
1F
100
AcDbEntity
  8
0
  6
Continuous
 62
     7
370
    25
100
AcDbSpline
210
0.0
220
0.0
230
1.0
 70
     8
 71
     3
 72
     8
 73
     4
 74
     0
 42
0.000000001
 43
0.00000001
 40
0.0
 40
0.0
 40
0.0
 40
0.0
 40
1.0
 40
1.0
 40
1.0
 40
1.0
 10
139.0448868694097
 20
117.7505406272516
 30
0.0
 10
139.070627819243
 20
117.5703915825749
 30
0.0
 10
139.0974493635039
 20
117.3903999067583
 30
0.0
 10
139.125271627139
 20
117.2105539674578
 30
0.0
  0
SPLINE
  5
17E
330
1F
100
AcDbEntity
  8
0
  6
Continuous
 62
     7
370
    25
100
AcDbSpline
210
0.0
220
0.0
230
1.0
 70
     8
 71
     3
 72
     8
 73
     4
 74
     0
 42
0.000000001
 43
0.00000001
 40
0.0
 40
0.0
 40
0.0
 40
0.0
 40
1.0
 40
1.0
 40
1.0
 40
1.0
 10
138.9645021116804
 20
117.2105539674577
 30
0.0
 10
138.9923337847375
 20
117.3904607302182
 30
0.0
 10
139.0191548446035
 20
117.5704540447265
 30
0.0
 10
139.0448868694097
 20
117.7505406272516
 30
0.0
  0
LINE
  5
17F
330
1F
100
AcDbEntity
  8
0
  6
Continuous
 62
     7
370
    25
100
AcDbLine
 10
136.6082958392
 20
117.2105539675
 30
0.0
 11
136.6082958392
 21
128.2105539675
 31
0.0
  0
SPLINE
  5
180
330
1F
100
AcDbEntity
  8
0
  6
Continuous
 62
     7
370
    25
100
AcDbSpline
210
0.0
220
0.0
230
1.0
 70
     8
 71
     3
 72
     8
 73
     4
 74
     0
 42
0.000000001
 43
0.00000001
 40
0.0
 40
0.0
 40
0.0
 40
0.0
 40
1.0
 40
1.0
 40
1.0
 40
1.0
 10
139.125271627139
 20
117.2105539674578
 30
0.0
 10
139.0974399540819
 20
117.0306472046974
 30
0.0
 10
139.0706188942159
 20
116.850653890189
 30
0.0
 10
139.0448868694097
 20
116.6705673076639
 30
0.0
  0
LINE
  5
181
330
1F
100
AcDbEntity
  8
0
  6
Continuous
 62
     7
370
    25
100
AcDbLine
 10
139.0448868694
 20
116.6705673077
 30
0.0
 11
139.0448868694
 21
117.7505406273
 31
0.0
  0
SPLINE
  5
182
330
1F
100
AcDbEntity
  8
0
  6
Continuous
 62
     7
370
    25
100
AcDbSpline
210
0.0
220
0.0
230
1.0
 70
     8
 71
     3
 72
     8
 73
     4
 74
     0
 42
0.000000001
 43
0.00000001
 40
0.0
 40
0.0
 40
0.0
 40
0.0
 40
1.0
 40
1.0
 40
1.0
 40
1.0
 10
139.0448868694097
 20
116.6705673076639
 30
0.0
 10
139.0191459195764
 20
116.8507163523406
 30
0.0
 10
138.9923243753155
 20
117.0307080281572
 30
0.0
 10
138.9645021116804
 20
117.2105539674577
 30
0.0
  0
LINE
  5
183
330
1F
100
AcDbEntity
  8
0
  6
Continuous
 62
     7
370
    25
100
AcDbLine
 10
136.6082958392
 20
106.2105539675
 30
0.0
 11
138.9645021117
 21
106.2105539675
 31
0.0
  0
LINE
  5
184
330
1F
100
AcDbEntity
  8
0
  6
Continuous
 62
     7
370
    25
100
AcDbLine
 10
139.1252716271
 20
106.2105539675
 30
0.0
 11
141.4814778996
 21
106.2105539675
 31
0.0
  0
SPLINE
  5
185
330
1F
100
AcDbEntity
  8
0
  6
Continuous
 62
     7
370
    25
100
AcDbSpline
210
0.0
220
0.0
230
1.0
 70
     8
 71
     3
 72
     8
 73
     4
 74
     0
 42
0.000000001
 43
0.00000001
 40
0.0
 40
0.0
 40
0.0
 40
0.0
 40
1.0
 40
1.0
 40
1.0
 40
1.0
 10
139.0448868694097
 20
106.7505406272517
 30
0.0
 10
139.070627819243
 20
106.570391582575
 30
0.0
 10
139.0974493635039
 20
106.3903999067584
 30
0.0
 10
139.125271627139
 20
106.2105539674578
 30
0.0
  0
SPLINE
  5
186
330
1F
100
AcDbEntity
  8
0
  6
Continuous
 62
     7
370
    25
100
AcDbSpline
210
0.0
220
0.0
230
1.0
 70
     8
 71
     3
 72
     8
 73
     4
 74
     0
 42
0.000000001
 43
0.00000001
 40
0.0
 40
0.0
 40
0.0
 40
0.0
 40
1.0
 40
1.0
 40
1.0
 40
1.0
 10
138.9645021116804
 20
106.2105539674578
 30
0.0
 10
138.9923337847375
 20
106.3904607302182
 30
0.0
 10
139.0191548446035
 20
106.5704540447266
 30
0.0
 10
139.0448868694097
 20
106.7505406272517
 30
0.0
  0
LINE
  5
187
330
1F
100
AcDbEntity
  8
0
  6
Continuous
 62
     7
370
    25
100
AcDbLine
 10
136.6082958392
 20
106.2105539675
 30
0.0
 11
136.6082958392
 21
117.2105539675
 31
0.0
  0
LINE
  5
188
330
1F
100
AcDbEntity
  8
0
  6
Continuous
 62
     7
370
    25
100
AcDbLine
 10
146.6082958392
 20
127.6880539675
 30
0.0
 11
146.6082958392
 21
106.7330539675
 31
0.0
  0
LINE
  5
189
330
1F
100
AcDbEntity
  8
0
  6
Continuous
 62
     7
370
    25
100
AcDbLine
 10
145.1307958392
 20
108.2105539675
 30
0.0
 11
145.1307958392
 21
126.2105539675
 31
0.0
  0
LINE
  5
18A
330
1F
100
AcDbEntity
  8
0
  6
Continuous
 62
     7
370
    25
100
AcDbLine
 10
126.6822052728
 20
125.4079261373
 30
0.0
 11
126.6822052728
 21
109.0131817977
 31
0.0
  0
LINE
  5
18B
330
1F
100
AcDbEntity
  8
0
  6
Continuous
 62
     7
370
    25
100
AcDbLine
 10
124.6082958392
 20
110.2105539675
 30
0.0
 11
124.6082958392
 21
124.2105539675
 31
0.0
  0
SPLINE
  5
18C
330
1F
100
AcDbEntity
  8
0
  6
Continuous
 62
     7
370
    25
100
AcDbSpline
210
0.0
220
0.0
230
1.0
 70
    24
 71
     3
 72
     8
 73
     4
 74
     0
 42
0.000000001
 43
0.00000001
 40
0.0
 40
0.0
 40
0.0
 40
0.0
 40
1.0
 40
1.0
 40
1.0
 40
1.0
 10
139.125271627139
 20
106.2105539674578
 30
0.0
 10
139.0974385735831
 20
106.2105539674578
 30
0.0
 10
139.0706175858128
 20
106.2105539674578
 30
0.0
 10
139.0448868694097
 20
106.2105539674578
 30
0.0
  0
LINE
  5
18D
330
1F
100
AcDbEntity
  8
0
  6
Continuous
 62
     7
370
    25
100
AcDbLine
 10
139.0448868694
 20
106.2105539675
 30
0.0
 11
139.0448868694
 21
106.7505406273
 31
0.0
  0
SPLINE
  5
18E
330
1F
100
AcDbEntity
  8
0
  6
Continuous
 62
     7
370
    25
100
AcDbSpline
210
0.0
220
0.0
230
1.0
 70
    24
 71
     3
 72
     8
 73
     4
 74
     0
 42
0.000000001
 43
0.00000001
 40
0.0
 40
0.0
 40
0.0
 40
0.0
 40
1.0
 40
1.0
 40
1.0
 40
1.0
 10
139.0448868694097
 20
106.2105539674578
 30
0.0
 10
139.0191463788401
 20
106.2105539674578
 30
0.0
 10
138.9923248591907
 20
106.2105539674578
 30
0.0
 10
138.9645021116804
 20
106.2105539674578
 30
0.0
  0
SPLINE
  5
18F
330
1F
100
AcDbEntity
  8
0
  6
Continuous
 62
     7
370
    25
100
AcDbSpline
210
0.0
220
0.0
230
1.0
 70
    24
 71
     3
 72
     8
 73
     4
 74
     0
 42
0.000000001
 43
0.00000001
 40
0.0
 40
0.0
 40
0.0
 40
0.0
 40
1.0
 40
1.0
 40
1.0
 40
1.0
 10
138.9645021116804
 20
128.2105539674578
 30
0.0
 10
138.9923351652363
 20
128.2105539674578
 30
0.0
 10
139.0191561530065
 20
128.2105539674578
 30
0.0
 10
139.0448868694097
 20
128.2105539674578
 30
0.0
  0
LINE
  5
190
330
1F
100
AcDbEntity
  8
0
  6
Continuous
 62
     7
370
    25
100
AcDbLine
 10
139.0448868694
 20
127.6705673077
 30
0.0
 11
139.0448868694
 21
128.2105539675
 31
0.0
  0
SPLINE
  5
191
330
1F
100
AcDbEntity
  8
0
  6
Continuous
 62
     7
370
    25
100
AcDbSpline
210
0.0
220
0.0
230
1.0
 70
    24
 71
     3
 72
     8
 73
     4
 74
     0
 42
0.000000001
 43
0.00000001
 40
0.0
 40
0.0
 40
0.0
 40
0.0
 40
1.0
 40
1.0
 40
1.0
 40
1.0
 10
139.0448868694097
 20
128.2105539674578
 30
0.0
 10
139.0706273599793
 20
128.2105539674578
 30
0.0
 10
139.0974488796287
 20
128.2105539674578
 30
0.0
 10
139.125271627139
 20
128.2105539674578
 30
0.0
  0
LINE
  5
192
330
1F
100
AcDbEntity
  8
0
  6
Continuous
 62
     7
370
     0
100
AcDbLine
 10
125.3594222409
 20
124.6442169977
 30
0.0
 11
136.1082958392
 21
124.9801192977
 31
0.0
  0
LINE
  5
193
330
1F
100
AcDbEntity
  8
0
  6
Continuous
 62
     7
370
     0
100
AcDbLine
 10
125.3594222409
 20
109.7768909372
 30
0.0
 11
136.1082958392
 21
109.4409886373
 31
0.0
  0
LINE
  5
194
330
1F
100
AcDbEntity
  8
0
  6
Continuous
 62
     7
370
     0
100
AcDbLine
 10
136.1082958392
 20
108.7186164675
 30
0.0
 11
136.1082958392
 21
125.7024914675
 31
0.0
  0
LINE
  5
195
330
1F
100
AcDbEntity
  8
0
  6
CENTERX2
 62
     7
370
    18
100
AcDbLine
 10
197.0102196278
 20
117.2105539675
 30
0.0
 11
140.6082958392
 21
117.2105539675
 31
0.0
  0
LINE
  5
196
330
1F
100
AcDbEntity
  8
0
  6
CENTERX2
 62
     7
370
    18
100
AcDbLine
 10
122.6082958392
 20
117.2105539675
 30
0.0
 11
138.6082958392
 21
117.2105539675
 31
0.0
  0
ENDSEC
  0
SECTION
  2
OBJECTS
  0
DICTIONARY
  5
C
330
0
100
AcDbDictionary
281
     1
  3
ACAD_GROUP
350
D
  3
ACAD_LAYOUT
350
1A
  3
ACAD_MLINESTYLE
350
17
  3
ACAD_PLOTSETTINGS
350
19
  3
ACAD_PLOTSTYLENAME
350
E
  3
ACAD_SCALELIST
350
47
  0
DICTIONARY
  5
D
102
{ACAD_REACTORS
330
C
102
}
330
C
100
AcDbDictionary
281
     1
  0
DICTIONARY
  5
1A
102
{ACAD_REACTORS
330
C
102
}
330
C
100
AcDbDictionary
281
     1
  3
Layout1
350
1E
  3
Layout2
350
26
  3
Model
350
22
  0
DICTIONARY
  5
17
102
{ACAD_REACTORS
330
C
102
}
330
C
100
AcDbDictionary
281
     1
  3
Standard
350
18
  0
DICTIONARY
  5
19
102
{ACAD_REACTORS
330
C
102
}
330
C
100
AcDbDictionary
281
     1
  0
ACDBDICTIONARYWDFLT
  5
E
102
{ACAD_REACTORS
330
C
102
}
330
C
100
AcDbDictionary
281
     1
  3
Normal
350
F
100
AcDbDictionaryWithDefault
340
F
  0
DICTIONARY
  5
47
102
{ACAD_REACTORS
330
C
102
}
330
C
100
AcDbDictionary
281
     1
  3
A0
350
48
  3
A1
350
49
  3
A2
350
4A
  3
A3
350
4B
  3
A4
350
4C
  3
A5
350
4D
  3
A6
350
4E
  3
A7
350
4F
  3
A8
350
50
  3
A9
350
51
  3
B0
350
52
  3
B1
350
53
  3
B2
350
54
  3
B3
350
55
  3
B4
350
56
  3
B5
350
57
  3
B6
350
58
  3
B7
350
59
  3
B8
350
5A
  3
B9
350
5B
  3
C0
350
5C
  3
C1
350
5D
  3
C2
350
5E
  3
C3
350
5F
  3
C4
350
60
  3
C5
350
61
  3
C6
350
62
  3
C7
350
63
  3
C8
350
64
  3
C9
350
65
  3
D0
350
66
  3
D1
350
67
  3
D2
350
68
  0
LAYOUT
  5
1E
102
{ACAD_REACTORS
330
1A
102
}
330
1A
100
AcDbPlotSettings
  1

  2
none_device
  4

  6

 40
0.0
 41
0.0
 42
0.0
 43
0.0
 44
0.0
 45
0.0
 46
0.0
 47
0.0
 48
0.0
 49
0.0
140
0.0
141
0.0
142
1.0
143
1.0
 70
   688
 72
     1
 73
     0
 74
     5
  7

 75
    16
147
1.0
148
0.0
149
0.0
100
AcDbLayout
  1
Layout1
 70
     1
 71
     1
 10
0.0
 20
0.0
 11
420.0
 21
297.0
 12
0.0
 22
0.0
 32
0.0
 14
1.0000000000E+20
 24
1.0000000000E+20
 34
1.0000000000E+20
 15
-1.0000000000E+20
 25
-1.0000000000E+20
 35
-1.0000000000E+20
146
0.0
 13
0.0
 23
0.0
 33
0.0
 16
1.0
 26
0.0
 36
0.0
 17
0.0
 27
1.0
 37
0.0
 76
     0
330
1B
  0
LAYOUT
  5
26
102
{ACAD_REACTORS
330
1A
102
}
330
1A
100
AcDbPlotSettings
  1

  2
none_device
  4

  6

 40
0.0
 41
0.0
 42
0.0
 43
0.0
 44
0.0
 45
0.0
 46
0.0
 47
0.0
 48
0.0
 49
0.0
140
0.0
141
0.0
142
1.0
143
1.0
 70
   688
 72
     1
 73
     0
 74
     5
  7

 75
    16
147
1.0
148
0.0
149
0.0
100
AcDbLayout
  1
Layout2
 70
     1
 71
     2
 10
0.0
 20
0.0
 11
0.0
 21
0.0
 12
0.0
 22
0.0
 32
0.0
 14
0.0
 24
0.0
 34
0.0
 15
0.0
 25
0.0
 35
0.0
146
0.0
 13
0.0
 23
0.0
 33
0.0
 16
1.0
 26
0.0
 36
0.0
 17
0.0
 27
1.0
 37
0.0
 76
     0
330
23
  0
LAYOUT
  5
22
102
{ACAD_REACTORS
330
1A
102
}
330
1A
100
AcDbPlotSettings
  1

  2
none_device
  4
Letter_(8.50_x_11.00_Inches)
  6

 40
6.35
 41
6.35
 42
6.35000508
 43
6.35000508
 44
215.9
 45
279.4
 46
0.0
 47
0.0
 48
0.0
 49
0.0
140
0.0
141
0.0
142
1.0
143
1.0
 70
  1712
 72
     1
 73
     0
 74
     0
  7

 75
     0
147
1.0
148
0.0
149
0.0
100
AcDbLayout
  1
Model
 70
     1
 71
     0
 10
0.0
 20
0.0
 11
431.8
 21
279.4
 12
0.0
 22
0.0
 32
0.0
 14
0.0
 24
0.0
 34
0.0
 15
431.8
 25
279.4
 35
0.0
146
0.0
 13
0.0
 23
0.0
 33
0.0
 16
1.0
 26
0.0
 36
0.0
 17
0.0
 27
1.0
 37
0.0
 76
     0
330
1F
331
29
  0
MLINESTYLE
  5
18
102
{ACAD_REACTORS
330
17
102
}
330
17
100
AcDbMlineStyle
  2
Standard
 70
     0
  3

 62
   256
 51
90.0
 52
90.0
 71
     2
 49
0.5
 62
   256
  6
BYLAYER
 49
-0.5
 62
   256
  6
BYLAYER
  0
ACDBPLACEHOLDER
  5
F
102
{ACAD_REACTORS
330
E
102
}
330
E
  0
SCALE
  5
48
102
{ACAD_REACTORS
330
47
102
}
330
47
100
AcDbScale
 70
     0
300
1:1
140
1.0
141
1.0
290
     1
  0
SCALE
  5
49
102
{ACAD_REACTORS
330
47
102
}
330
47
100
AcDbScale
 70
     0
300
1:2
140
1.0
141
2.0
290
     0
  0
SCALE
  5
4A
102
{ACAD_REACTORS
330
47
102
}
330
47
100
AcDbScale
 70
     0
300
1:4
140
1.0
141
4.0
290
     0
  0
SCALE
  5
4B
102
{ACAD_REACTORS
330
47
102
}
330
47
100
AcDbScale
 70
     0
300
1:5
140
1.0
141
5.0
290
     0
  0
SCALE
  5
4C
102
{ACAD_REACTORS
330
47
102
}
330
47
100
AcDbScale
 70
     0
300
1:8
140
1.0
141
8.0
290
     0
  0
SCALE
  5
4D
102
{ACAD_REACTORS
330
47
102
}
330
47
100
AcDbScale
 70
     0
300
1:10
140
1.0
141
10.0
290
     0
  0
SCALE
  5
4E
102
{ACAD_REACTORS
330
47
102
}
330
47
100
AcDbScale
 70
     0
300
1:16
140
1.0
141
16.0
290
     0
  0
SCALE
  5
4F
102
{ACAD_REACTORS
330
47
102
}
330
47
100
AcDbScale
 70
     0
300
1:20
140
1.0
141
20.0
290
     0
  0
SCALE
  5
50
102
{ACAD_REACTORS
330
47
102
}
330
47
100
AcDbScale
 70
     0
300
1:30
140
1.0
141
30.0
290
     0
  0
SCALE
  5
51
102
{ACAD_REACTORS
330
47
102
}
330
47
100
AcDbScale
 70
     0
300
1:40
140
1.0
141
40.0
290
     0
  0
SCALE
  5
52
102
{ACAD_REACTORS
330
47
102
}
330
47
100
AcDbScale
 70
     0
300
1:50
140
1.0
141
50.0
290
     0
  0
SCALE
  5
53
102
{ACAD_REACTORS
330
47
102
}
330
47
100
AcDbScale
 70
     0
300
1:100
140
1.0
141
100.0
290
     0
  0
SCALE
  5
54
102
{ACAD_REACTORS
330
47
102
}
330
47
100
AcDbScale
 70
     0
300
2:1
140
2.0
141
1.0
290
     0
  0
SCALE
  5
55
102
{ACAD_REACTORS
330
47
102
}
330
47
100
AcDbScale
 70
     0
300
4:1
140
4.0
141
1.0
290
     0
  0
SCALE
  5
56
102
{ACAD_REACTORS
330
47
102
}
330
47
100
AcDbScale
 70
     0
300
8:1
140
8.0
141
1.0
290
     0
  0
SCALE
  5
57
102
{ACAD_REACTORS
330
47
102
}
330
47
100
AcDbScale
 70
     0
300
10:1
140
10.0
141
1.0
290
     0
  0
SCALE
  5
58
102
{ACAD_REACTORS
330
47
102
}
330
47
100
AcDbScale
 70
     0
300
100:1
140
100.0
141
1.0
290
     0
  0
SCALE
  5
59
102
{ACAD_REACTORS
330
47
102
}
330
47
100
AcDbScale
 70
     0
300
1/128" = 1'-0"
140
0.0078125
141
12.0
290
     0
  0
SCALE
  5
5A
102
{ACAD_REACTORS
330
47
102
}
330
47
100
AcDbScale
 70
     0
300
1/64" = 1'-0"
140
0.015625
141
12.0
290
     0
  0
SCALE
  5
5B
102
{ACAD_REACTORS
330
47
102
}
330
47
100
AcDbScale
 70
     0
300
1/32" = 1'-0"
140
0.03125
141
12.0
290
     0
  0
SCALE
  5
5C
102
{ACAD_REACTORS
330
47
102
}
330
47
100
AcDbScale
 70
     0
300
1/16" = 1'-0"
140
0.0625
141
12.0
290
     0
  0
SCALE
  5
5D
102
{ACAD_REACTORS
330
47
102
}
330
47
100
AcDbScale
 70
     0
300
3/32" = 1'-0"
140
0.09375
141
12.0
290
     0
  0
SCALE
  5
5E
102
{ACAD_REACTORS
330
47
102
}
330
47
100
AcDbScale
 70
     0
300
1/8" = 1'-0"
140
0.125
141
12.0
290
     0
  0
SCALE
  5
5F
102
{ACAD_REACTORS
330
47
102
}
330
47
100
AcDbScale
 70
     0
300
3/16" = 1'-0"
140
0.1875
141
12.0
290
     0
  0
SCALE
  5
60
102
{ACAD_REACTORS
330
47
102
}
330
47
100
AcDbScale
 70
     0
300
1/4" = 1'-0"
140
0.25
141
12.0
290
     0
  0
SCALE
  5
61
102
{ACAD_REACTORS
330
47
102
}
330
47
100
AcDbScale
 70
     0
300
3/8" = 1'-0"
140
0.375
141
12.0
290
     0
  0
SCALE
  5
62
102
{ACAD_REACTORS
330
47
102
}
330
47
100
AcDbScale
 70
     0
300
1/2" = 1'-0"
140
0.5
141
12.0
290
     0
  0
SCALE
  5
63
102
{ACAD_REACTORS
330
47
102
}
330
47
100
AcDbScale
 70
     0
300
3/4" = 1'-0"
140
0.75
141
12.0
290
     0
  0
SCALE
  5
64
102
{ACAD_REACTORS
330
47
102
}
330
47
100
AcDbScale
 70
     0
300
1" = 1'-0"
140
1.0
141
12.0
290
     0
  0
SCALE
  5
65
102
{ACAD_REACTORS
330
47
102
}
330
47
100
AcDbScale
 70
     0
300
1-1/2" = 1'-0"
140
1.5
141
12.0
290
     0
  0
SCALE
  5
66
102
{ACAD_REACTORS
330
47
102
}
330
47
100
AcDbScale
 70
     0
300
3" = 1'-0"
140
3.0
141
12.0
290
     0
  0
SCALE
  5
67
102
{ACAD_REACTORS
330
47
102
}
330
47
100
AcDbScale
 70
     0
300
6" = 1'-0"
140
6.0
141
12.0
290
     0
  0
SCALE
  5
68
102
{ACAD_REACTORS
330
47
102
}
330
47
100
AcDbScale
 70
     0
300
1'-0" = 1'-0"
140
12.0
141
12.0
290
     0
  0
ENDSEC
  0
EOF
