  0
SECTION
  2
HEADER
  9
$ACADVER
  1
AC1015
  9
$ACADMAINTVER
 70
     6
  9
$DWGCODEPAGE
  3
DOS932
  9
$INSBASE
 10
0.0
 20
0.0
 30
0.0
  9
$EXTMIN
 10
0.0
 20
0.0
 30
0.0
  9
$EXTMAX
 10
431.8
 20
279.4
 30
0.0
  9
$LIMMIN
 10
0.0
 20
0.0
  9
$LIMMAX
 10
431.8
 20
279.4
  9
$ORTHOMODE
 70
     0
  9
$REGENMODE
 70
     1
  9
$FILLMODE
 70
     1
  9
$QTEXTMODE
 70
     0
  9
$MIRRTEXT
 70
     1
  9
$LTSCALE
 40
1.0
  9
$ATTMODE
 70
     1
  9
$TEXTSIZE
 40
3.5
  9
$TRACEWID
 40
1.0
  9
$TEXTSTYLE
  7
Standard
  9
$CLAYER
  8
0
  9
$CELTYPE
  6
ByLayer
  9
$CECOLOR
 62
   256
  9
$CELTSCALE
 40
1.0
  9
$DISPSILH
 70
     0
  9
$DIMSCALE
 40
1.0
  9
$DIMASZ
 40
3.302
  9
$DIMEXO
 40
1.0
  9
$DIMDLI
 40
3.75
  9
$DIMRND
 40
0.0
  9
$DIMDLE
 40
0.0
  9
$DIMEXE
 40
1.0
  9
$DIMTP
 40
0.0
  9
$DIMTM
 40
0.0
  9
$DIMTXT
 40
3.5
  9
$DIMCEN
 40
2.5
  9
$DIMTSZ
 40
0.0
  9
$DIMTOL
 70
     0
  9
$DIMLIM
 70
     0
  9
$DIMTIH
 70
     1
  9
$DIMTOH
 70
     1
  9
$DIMSE1
 70
     0
  9
$DIMSE2
 70
     0
  9
$DIMTAD
 70
     1
  9
$DIMZIN
 70
     1
  9
$DIMBLK
  1

  9
$DIMASO
 70
     1
  9
$DIMSHO
 70
     1
  9
$DIMPOST
  1

  9
$DIMAPOST
  1

  9
$DIMALT
 70
     0
  9
$DIMALTD
 70
     3
  9
$DIMALTF
 40
0.0393700787
  9
$DIMLFAC
 40
1.0
  9
$DIMTOFL
 70
     1
  9
$DIMTVP
 40
0.0
  9
$DIMTIX
 70
     0
  9
$DIMSOXD
 70
     0
  9
$DIMSAH
 70
     0
  9
$DIMBLK1
  1

  9
$DIMBLK2
  1

  9
$DIMSTYLE
  2
ISO-25
  9
$DIMCLRD
 70
     0
  9
$DIMCLRE
 70
     0
  9
$DIMCLRT
 70
     0
  9
$DIMTFAC
 40
1.0
  9
$DIMGAP
 40
1.524
  9
$DIMJUST
 70
     0
  9
$DIMSD1
 70
     0
  9
$DIMSD2
 70
     0
  9
$DIMTOLJ
 70
     0
  9
$DIMTZIN
 70
     1
  9
$DIMALTZ
 70
     0
  9
$DIMALTTZ
 70
     0
  9
$DIMUPT
 70
     0
  9
$DIMDEC
 70
     2
  9
$DIMTDEC
 70
     2
  9
$DIMALTU
 70
     2
  9
$DIMALTTD
 70
     3
  9
$DIMTXSTY
  7
Standard
  9
$DIMAUNIT
 70
     0
  9
$DIMADEC
 70
     2
  9
$DIMALTRND
 40
0.0
  9
$DIMAZIN
 70
     0
  9
$DIMDSEP
 70
    44
  9
$DIMATFIT
 70
     3
  9
$DIMFRAC
 70
     0
  9
$DIMLDRBLK
  1

  9
$DIMLUNIT
 70
     2
  9
$DIMLWD
 70
    -2
  9
$DIMLWE
 70
    -2
  9
$DIMTMOVE
 70
     0
  9
$LUNITS
 70
     2
  9
$LUPREC
 70
     2
  9
$SKETCHINC
 40
1.0
  9
$FILLETRAD
 40
10.0
  9
$AUNITS
 70
     0
  9
$AUPREC
 70
     2
  9
$MENU
  1
.
  9
$ELEVATION
 40
0.0
  9
$PELEVATION
 40
0.0
  9
$THICKNESS
 40
0.0
  9
$LIMCHECK
 70
     0
  9
$CHAMFERA
 40
0.0
  9
$CHAMFERB
 40
0.0
  9
$CHAMFERC
 40
0.0
  9
$CHAMFERD
 40
0.0
  9
$SKPOLY
 70
     0
  9
$TDCREATE
 40
2459296.729016713
  9
$TDUCREATE
 40
2459296.354016713
  9
$TDUPDATE
 40
2459296.729017257
  9
$TDUUPDATE
 40
2459296.354017257
  9
$TDINDWG
 40
0.0000000116
  9
$TDUSRTIMER
 40
0.0000000116
  9
$USRTIMER
 70
     1
  9
$ANGBASE
 50
0.0
  9
$ANGDIR
 70
     0
  9
$PDMODE
 70
     0
  9
$PDSIZE
 40
-1.0
  9
$PLINEWID
 40
0.0
  9
$SPLFRAME
 70
     0
  9
$SPLINETYPE
 70
     6
  9
$SPLINESEGS
 70
     8
  9
$HANDSEED
  5
140
  9
$SURFTAB1
 70
     6
  9
$SURFTAB2
 70
     6
  9
$SURFTYPE
 70
     6
  9
$SURFU
 70
     6
  9
$SURFV
 70
     6
  9
$UCSBASE
  2

  9
$UCSNAME
  2

  9
$UCSORG
 10
0.0
 20
0.0
 30
0.0
  9
$UCSXDIR
 10
1.0
 20
0.0
 30
0.0
  9
$UCSYDIR
 10
0.0
 20
1.0
 30
0.0
  9
$UCSORTHOREF
  2

  9
$UCSORTHOVIEW
 70
     0
  9
$UCSORGTOP
 10
0.0
 20
0.0
 30
0.0
  9
$UCSORGBOTTOM
 10
0.0
 20
0.0
 30
0.0
  9
$UCSORGLEFT
 10
0.0
 20
0.0
 30
0.0
  9
$UCSORGRIGHT
 10
0.0
 20
0.0
 30
0.0
  9
$UCSORGFRONT
 10
0.0
 20
0.0
 30
0.0
  9
$UCSORGBACK
 10
0.0
 20
0.0
 30
0.0
  9
$PUCSBASE
  2

  9
$PUCSNAME
  2

  9
$PUCSORG
 10
0.0
 20
0.0
 30
0.0
  9
$PUCSXDIR
 10
1.0
 20
0.0
 30
0.0
  9
$PUCSYDIR
 10
0.0
 20
1.0
 30
0.0
  9
$PUCSORTHOREF
  2

  9
$PUCSORTHOVIEW
 70
     0
  9
$PUCSORGTOP
 10
0.0
 20
0.0
 30
0.0
  9
$PUCSORGBOTTOM
 10
0.0
 20
0.0
 30
0.0
  9
$PUCSORGLEFT
 10
0.0
 20
0.0
 30
0.0
  9
$PUCSORGRIGHT
 10
0.0
 20
0.0
 30
0.0
  9
$PUCSORGFRONT
 10
0.0
 20
0.0
 30
0.0
  9
$PUCSORGBACK
 10
0.0
 20
0.0
 30
0.0
  9
$USERI1
 70
     0
  9
$USERI2
 70
     0
  9
$USERI3
 70
     0
  9
$USERI4
 70
     0
  9
$USERI5
 70
     0
  9
$USERR1
 40
0.0
  9
$USERR2
 40
0.0
  9
$USERR3
 40
0.0
  9
$USERR4
 40
0.0
  9
$USERR5
 40
0.0
  9
$WORLDVIEW
 70
     1
  9
$SHADEDGE
 70
     3
  9
$SHADEDIF
 70
    70
  9
$TILEMODE
 70
     1
  9
$MAXACTVP
 70
    64
  9
$PINSBASE
 10
0.0
 20
0.0
 30
0.0
  9
$PLIMCHECK
 70
     0
  9
$PEXTMIN
 10
1.0000000000E+20
 20
1.0000000000E+20
 30
1.0000000000E+20
  9
$PEXTMAX
 10
-1.0000000000E+20
 20
-1.0000000000E+20
 30
-1.0000000000E+20
  9
$PLIMMIN
 10
0.0
 20
0.0
  9
$PLIMMAX
 10
420.0
 20
297.0
  9
$UNITMODE
 70
     0
  9
$VISRETAIN
 70
     1
  9
$PLINEGEN
 70
     0
  9
$PSLTSCALE
 70
     1
  9
$TREEDEPTH
 70
  3020
  9
$CMLSTYLE
  2
Standard
  9
$CMLJUST
 70
     0
  9
$CMLSCALE
 40
20.0
  9
$PROXYGRAPHICS
 70
     1
  9
$MEASUREMENT
 70
     1
  9
$CELWEIGHT
370
    -1
  9
$ENDCAPS
280
     0
  9
$JOINSTYLE
280
     0
  9
$LWDISPLAY
290
     1
  9
$INSUNITS
 70
     4
  9
$HYPERLINKBASE
  1

  9
$STYLESHEET
  1

  9
$XEDIT
290
     1
  9
$CEPSNTYPE
380
     0
  9
$PSTYLEMODE
290
     1
  9
$FINGERPRINTGUID
  2
{FB1D383F-C25C-4AD4-873D-D457978C8EAC}
  9
$VERSIONGUID
  2
{FAEB1C32-E019-11D5-929B-00C0DF256EC4}
  9
$EXTNAMES
290
     1
  9
$PSVPSCALE
 40
0.0
  9
$OLESTARTUP
290
     0
  0
ENDSEC
  0
SECTION
  2
CLASSES
  0
CLASS
  1
ACDBDICTIONARYWDFLT
  2
AcDbDictionaryWithDefault
  3
ObjectDBX Classes
 90
        0
280
     0
281
     0
  0
CLASS
  1
VISUALSTYLE
  2
AcDbVisualStyle
  3
ObjectDBX Classes
 90
     4095
280
     0
281
     0
  0
CLASS
  1
MATERIAL
  2
AcDbMaterial
  3
ObjectDBX Classes
 90
     1153
280
     0
281
     0
  0
CLASS
  1
SCALE
  2
AcDbScale
  3
ObjectDBX Classes
 90
     1153
280
     0
281
     0
  0
CLASS
  1
TABLESTYLE
  2
AcDbTableStyle
  3
ObjectDBX Classes
 90
     4095
280
     0
281
     0
  0
CLASS
  1
MLEADERSTYLE
  2
AcDbMLeaderStyle
  3
ACDB_MLEADERSTYLE_CLASS
 90
     4095
280
     0
281
     0
  0
CLASS
  1
SUN
  2
AcDbSun
  3
SCENEOE
 90
     1153
280
     0
281
     0
  0
CLASS
  1
ACDBPLACEHOLDER
  2
AcDbPlaceHolder
  3
ObjectDBX Classes
 90
        0
280
     0
281
     0
  0
CLASS
  1
LAYOUT
  2
AcDbLayout
  3
ObjectDBX Classes
 90
        0
280
     0
281
     0
  0
ENDSEC
  0
SECTION
  2
TABLES
  0
TABLE
  2
VPORT
  5
8
330
0
100
AcDbSymbolTable
 70
     1
  0
VPORT
  5
29
330
8
100
AcDbSymbolTableRecord
100
AcDbViewportTableRecord
  2
*Active
 70
     0
 10
0.0
 20
0.0
 11
1.0
 21
1.0
 12
215.9
 22
139.7
 13
0.0
 23
0.0
 14
10.0
 24
10.0
 15
10.0
 25
10.0
 16
0.0
 26
0.0
 36
1.0
 17
0.0
 27
0.0
 37
0.0
 40
279.4
 41
1.5454545455
 42
50.0
 43
0.0
 44
0.0
 50
0.0
 51
0.0
 71
     0
 72
  2000
 73
     1
 74
     3
 75
     0
 76
     0
 77
     0
 78
     0
281
     0
 65
     1
110
0.0
120
0.0
130
0.0
111
1.0
121
0.0
131
0.0
112
0.0
122
1.0
132
0.0
 79
     0
146
0.0
  0
ENDTAB
  0
TABLE
  2
LTYPE
  5
5
330
0
100
AcDbSymbolTable
 70
     6
  0
LTYPE
  5
14
330
5
100
AcDbSymbolTableRecord
100
AcDbLinetypeTableRecord
  2
ByBlock
 70
     0
  3

 72
    65
 73
     0
 40
0.0
  0
LTYPE
  5
15
330
5
100
AcDbSymbolTableRecord
100
AcDbLinetypeTableRecord
  2
ByLayer
 70
     0
  3

 72
    65
 73
     0
 40
0.0
  0
LTYPE
  5
16
330
5
100
AcDbSymbolTableRecord
100
AcDbLinetypeTableRecord
  2
Continuous
 70
     0
  3
Solid line
 72
    65
 73
     0
 40
0.0
  0
LTYPE
  5
6E
330
5
100
AcDbSymbolTableRecord
100
AcDbLinetypeTableRecord
  2
HIDDEN
 70
     0
  3
Hidden __ __ __ __ __ __ __ __ __ __ __ __ __ __
 72
    65
 73
     2
 40
1.905
 49
1.27
 74
     0
 49
-0.635
 74
     0
  0
LTYPE
  5
6F
330
5
100
AcDbSymbolTableRecord
100
AcDbLinetypeTableRecord
  2
PHANTOM
 70
     0
  3
Phantom ______  __  __  ______  __  __  ______
 72
    65
 73
     6
 40
12.7
 49
6.35
 74
     0
 49
-1.27
 74
     0
 49
1.27
 74
     0
 49
-1.27
 74
     0
 49
1.27
 74
     0
 49
-1.27
 74
     0
  0
LTYPE
  5
70
330
5
100
AcDbSymbolTableRecord
100
AcDbLinetypeTableRecord
  2
CENTER
 70
     0
  3
Center ____ _ ____ _ ____ _ ____ _ ____ _ ____
 72
    65
 73
     4
 40
10.16
 49
6.35
 74
     0
 49
-1.27
 74
     0
 49
1.27
 74
     0
 49
-1.27
 74
     0
  0
LTYPE
  5
71
330
5
100
AcDbSymbolTableRecord
100
AcDbLinetypeTableRecord
  2
CENTERX2
 70
     0
  3
Center (2x) ________  __  ________  __  _____
 72
    65
 73
     4
 40
20.32
 49
12.7
 74
     0
 49
-2.54
 74
     0
 49
2.54
 74
     0
 49
-2.54
 74
     0
  0
LTYPE
  5
72
330
5
100
AcDbSymbolTableRecord
100
AcDbLinetypeTableRecord
  2
DOT2
 70
     0
  3
Dot (.5x) ........................................
 72
    65
 73
     2
 40
0.635
 49
0.0
 74
     0
 49
-0.635
 74
     0
  0
ENDTAB
  0
TABLE
  2
LAYER
  5
2
330
0
100
AcDbSymbolTable
 70
     1
  0
LAYER
  5
10
330
2
100
AcDbSymbolTableRecord
100
AcDbLayerTableRecord
  2
0
 70
     0
 62
     7
  6
Continuous
370
    -3
390
F
  0
ENDTAB
  0
TABLE
  2
STYLE
  5
3
330
0
100
AcDbSymbolTable
 70
     2
  0
STYLE
  5
11
330
3
100
AcDbSymbolTableRecord
100
AcDbTextStyleTableRecord
  2
Standard
 70
     0
 40
0.0
 41
1.0
 50
0.0
 71
     0
 42
3.5
  3
txt
  4
bigfont
  0
STYLE
  5
73
330
3
100
AcDbSymbolTableRecord
100
AcDbTextStyleTableRecord
  2
SLDTEXTSTYLE0
 70
     0
 40
0.0
 41
0.7
 50
0.0
 71
     0
 42
3.5
  3
TXT
  4
bigfont
  0
ENDTAB
  0
TABLE
  2
VIEW
  5
6
330
0
100
AcDbSymbolTable
 70
     0
  0
ENDTAB
  0
TABLE
  2
UCS
  5
7
330
0
100
AcDbSymbolTable
 70
     0
  0
ENDTAB
  0
TABLE
  2
APPID
  5
9
330
0
100
AcDbSymbolTable
 70
     1
  0
APPID
  5
12
330
9
100
AcDbSymbolTableRecord
100
AcDbRegAppTableRecord
  2
ACAD
 70
     0
  0
ENDTAB
  0
TABLE
  2
DIMSTYLE
  5
A
330
0
100
AcDbSymbolTable
 70
     1
100
AcDbDimStyleTable
  0
DIMSTYLE
105
27
330
A
100
AcDbSymbolTableRecord
100
AcDbDimStyleTableRecord
  2
ISO-25
 70
     0
 41
2.5
 42
0.625
 43
3.75
 44
1.25
 73
     0
 74
     0
 77
     1
 78
     8
140
2.5
141
2.5
143
0.0393700787
147
0.625
171
     3
172
     1
178
     0
271
     2
272
     2
274
     3
278
    44
283
     0
284
     8
340
11
  0
ENDTAB
  0
TABLE
  2
BLOCK_RECORD
  5
1
330
0
100
AcDbSymbolTable
 70
     2
  0
BLOCK_RECORD
  5
1F
330
1
100
AcDbSymbolTableRecord
100
AcDbBlockTableRecord
  2
*Model_Space
340
22
  0
BLOCK_RECORD
  5
1B
330
1
100
AcDbSymbolTableRecord
100
AcDbBlockTableRecord
  2
*Paper_Space
340
1E
  0
BLOCK_RECORD
  5
23
330
1
100
AcDbSymbolTableRecord
100
AcDbBlockTableRecord
  2
*Paper_Space0
340
26
  0
BLOCK_RECORD
  5
F5
330
1
100
AcDbSymbolTableRecord
100
AcDbBlockTableRecord
  2
SW_CENTERMARKSYMBOL_0
340
0
102
{BLKREFS
331
100
102
}
  0
ENDTAB
  0
ENDSEC
  0
SECTION
  2
BLOCKS
  0
BLOCK
  5
20
330
1F
100
AcDbEntity
  8
0
100
AcDbBlockBegin
  2
*Model_Space
 70
     0
 10
0.0
 20
0.0
 30
0.0
  3
*Model_Space
  1

  0
ENDBLK
  5
21
330
1F
100
AcDbEntity
  8
0
100
AcDbBlockEnd
  0
BLOCK
  5
1C
330
1B
100
AcDbEntity
 67
     1
  8
0
100
AcDbBlockBegin
  2
*Paper_Space
 70
     0
 10
0.0
 20
0.0
 30
0.0
  3
*Paper_Space
  1

  0
ENDBLK
  5
1D
330
1B
100
AcDbEntity
 67
     1
  8
0
100
AcDbBlockEnd
  0
BLOCK
  5
24
330
23
100
AcDbEntity
  8
0
100
AcDbBlockBegin
  2
*Paper_Space0
 70
     0
 10
0.0
 20
0.0
 30
0.0
  3
*Paper_Space0
  1

  0
ENDBLK
  5
25
330
23
100
AcDbEntity
  8
0
100
AcDbBlockEnd
  0
BLOCK
  5
F6
330
F5
100
AcDbEntity
  8
0
100
AcDbBlockBegin
  2
SW_CENTERMARKSYMBOL_0
 70
     0
 10
0.0
 20
0.0
 30
0.0
  3
SW_CENTERMARKSYMBOL_0
  1

  0
LINE
  5
F8
330
F5
100
AcDbEntity
  8
0
  6
Continuous
 62
     0
370
    18
100
AcDbLine
 10
0.0
 20
0.0
 30
0.0
 11
0.0
 21
2.5
 31
0.0
  0
LINE
  5
F9
330
F5
100
AcDbEntity
  8
0
  6
Continuous
 62
     0
370
    18
100
AcDbLine
 10
0.0
 20
0.0
 30
0.0
 11
-2.5
 21
0.0
 31
0.0
  0
LINE
  5
FA
330
F5
100
AcDbEntity
  8
0
  6
Continuous
 62
     0
370
    18
100
AcDbLine
 10
0.0
 20
0.0
 30
0.0
 11
0.0
 21
-2.5
 31
0.0
  0
LINE
  5
FB
330
F5
100
AcDbEntity
  8
0
  6
Continuous
 62
     0
370
    18
100
AcDbLine
 10
0.0
 20
0.0
 30
0.0
 11
2.5
 21
0.0
 31
0.0
  0
LINE
  5
FC
330
F5
100
AcDbEntity
  8
0
  6
Continuous
 62
     0
370
    18
100
AcDbLine
 10
0.0
 20
5.0
 30
0.0
 11
0.0
 21
22.1405907835
 31
0.0
  0
LINE
  5
FD
330
F5
100
AcDbEntity
  8
0
  6
Continuous
 62
     0
370
    18
100
AcDbLine
 10
-5.0
 20
0.0
 30
0.0
 11
-19.9100079941
 21
0.0
 31
0.0
  0
LINE
  5
FE
330
F5
100
AcDbEntity
  8
0
  6
Continuous
 62
     0
370
    18
100
AcDbLine
 10
0.0
 20
-5.0
 30
0.0
 11
0.0
 21
-22.6163456461
 31
0.0
  0
LINE
  5
FF
330
F5
100
AcDbEntity
  8
0
  6
Continuous
 62
     0
370
    18
100
AcDbLine
 10
5.0
 20
0.0
 30
0.0
 11
19.653290761
 21
0.0
 31
0.0
  0
ENDBLK
  5
F7
330
F5
100
AcDbEntity
  8
0
100
AcDbBlockEnd
  0
ENDSEC
  0
SECTION
  2
ENTITIES
  0
MTEXT
  5
74
330
1F
100
AcDbEntity
  8
0
  6
Continuous
 62
     7
370
     0
100
AcDbMText
 10
248.9608520993
 20
162.0537045947
 30
0.0
 40
4.7625
 41
0.0
 71
     1
 72
     1
  1
HN-1827R
  7
SLDTEXTSTYLE0
 73
     1
 44
1.0
  0
LINE
  5
75
330
1F
100
AcDbEntity
  8
0
  6
Continuous
 62
     7
370
    25
100
AcDbLine
 10
188.2857728818
 20
141.6626454883
 30
0.0
 11
170.5752328974
 21
141.1091911138
 31
0.0
  0
LINE
  5
76
330
1F
100
AcDbEntity
  8
0
  6
Continuous
 62
     7
370
    25
100
AcDbLine
 10
170.5752328974
 20
108.3108498628
 30
0.0
 11
188.2857728818
 21
107.7573954883
 31
0.0
  0
LINE
  5
77
330
1F
100
AcDbEntity
  8
0
  6
Continuous
 62
     7
370
    25
100
AcDbLine
 10
170.5752328974
 20
141.1091911138
 30
0.0
 11
167.2857728818
 21
139.2100204883
 31
0.0
  0
LINE
  5
78
330
1F
100
AcDbEntity
  8
0
  6
Continuous
 62
     7
370
    25
100
AcDbLine
 10
167.2857728818
 20
110.2100204883
 30
0.0
 11
170.5752328974
 21
108.3108498628
 31
0.0
  0
LINE
  5
79
330
1F
100
AcDbEntity
  8
0
  6
Continuous
 62
     7
370
    25
100
AcDbLine
 10
217.2857728818
 20
111.2100204883
 30
0.0
 11
224.2857728818
 21
112.2100204883
 31
0.0
  0
LINE
  5
7A
330
1F
100
AcDbEntity
  8
0
  6
Continuous
 62
     7
370
    25
100
AcDbLine
 10
224.2857728818
 20
137.2100204883
 30
0.0
 11
217.2857728818
 21
138.2100204883
 31
0.0
  0
LINE
  5
7B
330
1F
100
AcDbEntity
  8
0
  6
Continuous
 62
     7
370
    25
100
AcDbLine
 10
224.2857728818
 20
111.2100204883
 30
0.0
 11
231.2857728818
 21
112.2100204883
 31
0.0
  0
LINE
  5
7C
330
1F
100
AcDbEntity
  8
0
  6
Continuous
 62
     7
370
    25
100
AcDbLine
 10
231.2857728818
 20
137.2100204883
 30
0.0
 11
224.2857728818
 21
138.2100204883
 31
0.0
  0
LINE
  5
7D
330
1F
100
AcDbEntity
  8
0
  6
Continuous
 62
     7
370
    25
100
AcDbLine
 10
231.2857728818
 20
111.2100204883
 30
0.0
 11
239.7912674289
 21
112.1053357038
 31
0.0
  0
LINE
  5
7E
330
1F
100
AcDbEntity
  8
0
  6
Continuous
 62
     7
370
    25
100
AcDbLine
 10
239.7912674289
 20
137.3147052728
 30
0.0
 11
231.2857728818
 21
138.2100204883
 31
0.0
  0
LINE
  5
7F
330
1F
100
AcDbEntity
  8
0
  6
Continuous
 62
     7
370
    25
100
AcDbLine
 10
210.2857728818
 20
111.2100204883
 30
0.0
 11
217.2857728818
 21
112.2100204883
 31
0.0
  0
LINE
  5
80
330
1F
100
AcDbEntity
  8
0
  6
Continuous
 62
     7
370
    25
100
AcDbLine
 10
217.2857728818
 20
137.2100204883
 30
0.0
 11
210.2857728818
 21
138.2100204883
 31
0.0
  0
LINE
  5
81
330
1F
100
AcDbEntity
  8
0
  6
Continuous
 62
     7
370
    25
100
AcDbLine
 10
204.2857728818
 20
138.2100204883
 30
0.0
 11
199.2857728818
 21
138.2100204883
 31
0.0
  0
LINE
  5
82
330
1F
100
AcDbEntity
  8
0
  6
Continuous
 62
     7
370
    25
100
AcDbLine
 10
199.2857728818
 20
111.2100204883
 30
0.0
 11
204.2857728818
 21
111.2100204883
 31
0.0
  0
LINE
  5
83
330
1F
100
AcDbEntity
  8
0
  6
Continuous
 62
     7
370
    25
100
AcDbLine
 10
204.2857728818
 20
111.2100204883
 30
0.0
 11
210.2857728818
 21
112.2100204883
 31
0.0
  0
LINE
  5
84
330
1F
100
AcDbEntity
  8
0
  6
Continuous
 62
     7
370
    25
100
AcDbLine
 10
210.2857728818
 20
137.2100204883
 30
0.0
 11
204.2857728818
 21
138.2100204883
 31
0.0
  0
LINE
  5
85
330
1F
100
AcDbEntity
  8
0
  6
Continuous
 62
     7
370
    25
100
AcDbLine
 10
239.7912674289
 20
112.1053357038
 30
0.0
 11
240.7857728818
 21
113.3338424397
 31
0.0
  0
LINE
  5
86
330
1F
100
AcDbEntity
  8
0
  6
Continuous
 62
     7
370
    25
100
AcDbLine
 10
240.7857728818
 20
136.0861985368
 30
0.0
 11
239.7912674289
 21
137.3147052728
 31
0.0
  0
LINE
  5
87
330
1F
100
AcDbEntity
  8
0
  6
Continuous
 62
     7
370
    25
100
AcDbLine
 10
199.2857728818
 20
142.2100204883
 30
0.0
 11
197.9013687209
 21
144.6078788332
 31
0.0
  0
LINE
  5
88
330
1F
100
AcDbEntity
  8
0
  6
Continuous
 62
     7
370
    25
100
AcDbLine
 10
197.9013687209
 20
104.8121621434
 30
0.0
 11
199.2857728818
 21
107.2100204883
 31
0.0
  0
LINE
  5
89
330
1F
100
AcDbEntity
  8
0
  6
Continuous
 62
     7
370
    25
100
AcDbLine
 10
197.9115576721
 20
144.6078788332
 30
0.0
 11
188.2857728818
 21
144.6078788332
 31
0.0
  0
LINE
  5
8A
330
1F
100
AcDbEntity
  8
0
  6
Continuous
 62
     7
370
    25
100
AcDbLine
 10
188.2857728818
 20
104.8121621434
 30
0.0
 11
197.9115576721
 21
104.8121621434
 31
0.0
  0
LINE
  5
8B
330
1F
100
AcDbEntity
  8
0
  6
Continuous
 62
     7
370
    25
100
AcDbLine
 10
199.2857728818
 20
139.8654650545
 30
0.0
 11
199.2857728818
 21
124.7100204883
 31
0.0
  0
SPLINE
  5
8C
330
1F
100
AcDbEntity
  8
0
  6
Continuous
 62
     7
370
    25
100
AcDbSpline
210
0.0
220
0.0
230
1.0
 70
     8
 71
     3
 72
    12
 73
     8
 74
     0
 42
0.000000001
 43
0.00000001
 40
0.0
 40
0.0
 40
0.0
 40
0.0
 40
0.2500000000000001
 40
0.2500000000000001
 40
0.5000000000000001
 40
0.5000000000000001
 40
1.0
 40
1.0
 40
1.0
 40
1.0
 10
199.2857728818131
 20
124.7100204882903
 30
0.0
 10
199.2857728818131
 20
125.4645028343342
 30
0.0
 10
199.2574847361907
 20
126.2213413903897
 30
0.0
 10
199.144694201344
 20
127.7397007664189
 30
0.0
 10
199.0605510822022
 20
128.4954166770248
 30
0.0
 10
198.7358777351149
 20
130.7380873921948
 30
0.0
 10
198.4228787147713
 20
132.207600846304
 30
0.0
 10
198.0413729055987
 20
133.6589496607295
 30
0.0
  0
SPLINE
  5
8D
330
1F
100
AcDbEntity
  8
0
  6
Continuous
 62
     7
370
    25
100
AcDbSpline
210
0.0
220
0.0
230
1.0
 70
     8
 71
     3
 72
    14
 73
    10
 74
     0
 42
0.000000001
 43
0.00000001
 40
0.0
 40
0.0
 40
0.0
 40
0.0
 40
0.25
 40
0.25
 40
0.5
 40
0.5
 40
0.75
 40
0.75
 40
1.0
 40
1.0
 40
1.0
 40
1.0
 10
198.0413729055987
 20
135.3910004682984
 30
0.0
 10
197.9961243418352
 20
135.3049317272809
 30
0.0
 10
197.9614254639563
 20
135.2005989706207
 30
0.0
 10
197.9136890395132
 20
134.953471717664
 30
0.0
 10
197.9014478782562
 20
134.8127011775775
 30
0.0
 10
197.9012903359012
 20
134.5081845502509
 30
0.0
 10
197.9135782660186
 20
134.3422816290829
 30
0.0
 10
197.960768657777
 20
134.0057570225359
 30
0.0
 10
197.996110159755
 20
133.8311410951413
 30
0.0
 10
198.0413729055987
 20
133.6589496607295
 30
0.0
  0
SPLINE
  5
8E
330
1F
100
AcDbEntity
  8
0
  6
Continuous
 62
     7
370
    25
100
AcDbSpline
210
0.0
220
0.0
230
1.0
 70
     8
 71
     3
 72
    12
 73
     8
 74
     0
 42
0.000000001
 43
0.00000001
 40
0.0
 40
0.0
 40
0.0
 40
0.0
 40
0.2500000000000001
 40
0.2500000000000001
 40
0.5000000000000001
 40
0.5000000000000001
 40
1.0
 40
1.0
 40
1.0
 40
1.0
 10
199.2857728818131
 20
139.865465054518
 30
0.0
 10
199.2857728818131
 20
139.4866792147744
 30
0.0
 10
199.2569777520523
 20
139.1060289523649
 30
0.0
 10
199.1448700160034
 20
138.3521725791654
 30
0.0
 10
199.0616566207049
 20
137.9774937778679
 30
0.0
 10
198.7387414290298
 20
136.8595260996701
 30
0.0
 10
198.4258360074971
 20
136.1223000366336
 30
0.0
 10
198.0413729055987
 20
135.3910004682984
 30
0.0
  0
LINE
  5
8F
330
1F
100
AcDbEntity
  8
0
  6
Continuous
 62
     7
370
    25
100
AcDbLine
 10
195.6358139847
 20
118.4331673503
 30
0.0
 11
195.6358139847
 21
120.9826465169
 31
0.0
  0
LINE
  5
90
330
1F
100
AcDbEntity
  8
0
  6
Continuous
 62
     7
370
    25
100
AcDbLine
 10
190.7935663886
 20
120.9154389849
 30
0.0
 11
195.6358139847
 21
118.4331673503
 31
0.0
  0
LINE
  5
91
330
1F
100
AcDbEntity
  8
0
  6
Continuous
 62
     7
370
    25
100
AcDbLine
 10
190.5588909078
 20
120.4890567733
 30
0.0
 11
190.7935663886
 21
120.9154389849
 31
0.0
  0
LINE
  5
92
330
1F
100
AcDbEntity
  8
0
  6
Continuous
 62
     7
370
    25
100
AcDbLine
 10
196.1999165488
 20
117.5980311323
 30
0.0
 11
190.5588909078
 21
120.4890567733
 31
0.0
  0
LINE
  5
93
330
1F
100
AcDbEntity
  8
0
  6
Continuous
 62
     7
370
    25
100
AcDbLine
 10
196.1999165488
 20
120.9826465169
 30
0.0
 11
196.1999165488
 21
117.5980311323
 31
0.0
  0
LINE
  5
94
330
1F
100
AcDbEntity
  8
0
  6
Continuous
 62
     7
370
    25
100
AcDbLine
 10
195.6358139847
 20
120.9826465169
 30
0.0
 11
196.1999165488
 21
120.9826465169
 31
0.0
  0
LINE
  5
95
330
1F
100
AcDbEntity
  8
0
  6
Continuous
 62
     7
370
    25
100
AcDbLine
 10
198.0413729056
 20
133.6589496607
 30
0.0
 11
188.2857728818
 21
133.6589496607
 31
0.0
  0
SPLINE
  5
96
330
1F
100
AcDbEntity
  8
0
  6
Continuous
 62
     7
370
    25
100
AcDbSpline
210
0.0
220
0.0
230
1.0
 70
     8
 71
     3
 72
    12
 73
     8
 74
     0
 42
0.000000001
 43
0.00000001
 40
0.0
 40
0.0
 40
0.0
 40
0.0
 40
0.25
 40
0.25
 40
0.5
 40
0.5
 40
1.0
 40
1.0
 40
1.0
 40
1.0
 10
198.041372905599
 20
115.7610913158523
 30
0.0
 10
198.234078311393
 20
116.4941935531134
 30
0.0
 10
198.4100587462766
 20
117.2355663663723
 30
0.0
 10
198.7176679625765
 20
118.7194236420544
 30
0.0
 10
198.8496722520317
 20
119.4631680980776
 30
0.0
 10
199.1714469949321
 20
121.7005849967609
 30
0.0
 10
199.2857728818131
 20
123.2005414583673
 30
0.0
 10
199.2857728818131
 20
124.7100204882903
 30
0.0
  0
LINE
  5
97
330
1F
100
AcDbEntity
  8
0
  6
Continuous
 62
     7
370
    25
100
AcDbLine
 10
188.2857728818
 20
115.7610913159
 30
0.0
 11
198.0413729056
 21
115.7610913159
 31
0.0
  0
LINE
  5
98
330
1F
100
AcDbEntity
  8
0
  6
Continuous
 62
     7
370
    25
100
AcDbLine
 10
188.2857728818
 20
133.6589496607
 30
0.0
 11
188.2857728818
 21
115.7610913159
 31
0.0
  0
LINE
  5
99
330
1F
100
AcDbEntity
  8
0
  6
Continuous
 62
     7
370
    25
100
AcDbLine
 10
196.3300631514
 20
129.8759496607
 30
0.0
 11
192.1506295368
 21
131.1797668492
 31
0.0
  0
ARC
  5
9A
330
1F
100
AcDbEntity
  8
0
  6
Continuous
 62
     7
370
    25
100
AcDbCircle
 10
192.5350631514
 20
131.7460571188
 30
0.0
 40
0.6844515129257921
100
AcDbArc
 50
145.8288611073
 51
235.8288611073
  0
LINE
  5
9B
330
1F
100
AcDbEntity
  8
0
  6
Continuous
 62
     7
370
    25
100
AcDbLine
 10
191.9687728818
 20
132.1304907335
 30
0.0
 11
190.2287728818
 21
131.3404907335
 31
0.0
  0
ARC
  5
9C
330
1F
100
AcDbEntity
  8
0
  6
Continuous
 62
     7
370
    25
100
AcDbCircle
 10
190.2624525859
 20
131.2663101195
 30
0.0
 40
0.0814683126089454
100
AcDbArc
 50
114.4191406722
 51
221.8558582452
  0
ARC
  5
9D
330
1F
100
AcDbEntity
  8
0
  6
Continuous
 62
     7
370
    25
100
AcDbCircle
 10
188.160905498
 20
129.2954496607
 30
0.0
 40
2.799662824013491
100
AcDbArc
 50
316.8000304256
 51
43.1999695744
  0
ARC
  5
9E
330
1F
100
AcDbEntity
  8
0
  6
Continuous
 62
     7
370
    25
100
AcDbCircle
 10
190.262630083
 20
127.3218010057
 30
0.0
 40
0.0834839368774162
100
AcDbArc
 50
136.8000304256
 51
246.0741842311
  0
LINE
  5
9F
330
1F
100
AcDbEntity
  8
0
  6
Continuous
 62
     7
370
    25
100
AcDbLine
 10
191.9687728818
 20
126.4734907335
 30
0.0
 11
190.2287728818
 21
127.2454907335
 31
0.0
  0
ARC
  5
A0
330
1F
100
AcDbEntity
  8
0
  6
Continuous
 62
     7
370
    25
100
AcDbCircle
 10
192.5350631514
 20
126.8550571188
 30
0.0
 40
0.6828452064026189
100
AcDbArc
 50
128.7071211096
 51
213.9720898571
  0
LINE
  5
A1
330
1F
100
AcDbEntity
  8
0
  6
Continuous
 62
     7
370
    25
100
AcDbLine
 10
192.1080529699
 20
127.3879172138
 30
0.0
 11
196.3300631514
 21
128.7059496607
 31
0.0
  0
ARC
  5
A2
330
1F
100
AcDbEntity
  8
0
  6
Continuous
 62
     7
370
    25
100
AcDbCircle
 10
196.0300631514
 20
129.2909496607
 30
0.0
 40
0.6574382100243331
100
AcDbArc
 50
297.1496816978
 51
62.8503183022
  0
SPLINE
  5
A3
330
1F
100
AcDbEntity
  8
0
  6
Continuous
 62
     7
370
    25
100
AcDbSpline
210
0.0
220
0.0
230
1.0
 70
     8
 71
     3
 72
    19
 73
    15
 74
     0
 42
0.000000001
 43
0.00000001
 40
0.0
 40
0.0
 40
0.0
 40
0.0
 40
0.1107941734871624
 40
0.2128129326077741
 40
0.3060779098917654
 40
0.3906174580602143
 40
0.4672327266979069
 40
0.5344506183816972
 40
0.5938668014988501
 40
0.6448329686326041
 40
0.736220618800178
 40
0.8250374016667814
 40
0.9119923130965325
 40
1.0
 40
1.0
 40
1.0
 40
1.0
 10
192.9761585359915
 20
123.4329670297487
 30
0.0
 10
193.0303672037634
 20
123.381030959426
 30
0.0
 10
193.1344909604395
 20
123.2812723973497
 30
0.0
 10
193.286554513213
 20
123.1402338642483
 30
0.0
 10
193.4274603267534
 20
123.0133548206913
 30
0.0
 10
193.5578327881776
 20
122.900551102207
 30
0.0
 10
193.67693280752
 20
122.8017298931006
 30
0.0
 10
193.7856937435483
 20
122.7172073778782
 30
0.0
 10
193.8831822416538
 20
122.6466099822669
 30
0.0
 10
193.9977076529327
 20
122.5717914544182
 30
0.0
 10
194.1377023434611
 20
122.5004470233249
 30
0.0
 10
194.3079226204412
 20
122.4377425685514
 30
0.0
 10
194.48353855263
 20
122.3997821447236
 30
0.0
 10
194.6021786601835
 20
122.3952051797861
 30
0.0
 10
194.6618556513761
 20
122.3929029271846
 30
0.0
  0
LINE
  5
A4
330
1F
100
AcDbEntity
  8
0
  6
Continuous
 62
     7
370
    25
100
AcDbLine
 10
190.6999165488
 20
125.5659798503
 30
0.0
 11
192.976158536
 21
123.4329670297
 31
0.0
  0
LINE
  5
A5
330
1F
100
AcDbEntity
  8
0
  6
Continuous
 62
     7
370
    25
100
AcDbLine
 10
190.6999165488
 20
121.8288003631
 30
0.0
 11
190.6999165488
 21
125.5659798503
 31
0.0
  0
LINE
  5
A6
330
1F
100
AcDbEntity
  8
0
  6
Continuous
 62
     7
370
    25
100
AcDbLine
 10
191.2640191129
 20
121.8288003631
 30
0.0
 11
190.6999165488
 21
121.8288003631
 31
0.0
  0
LINE
  5
A7
330
1F
100
AcDbEntity
  8
0
  6
Continuous
 62
     7
370
    25
100
AcDbLine
 10
191.2640191129
 20
124.3881953951
 30
0.0
 11
191.2640191129
 21
121.8288003631
 31
0.0
  0
LINE
  5
A8
330
1F
100
AcDbEntity
  8
0
  6
Continuous
 62
     7
370
    25
100
AcDbLine
 10
192.7326689527
 20
123.0120936323
 30
0.0
 11
191.2640191129
 21
124.3881953951
 31
0.0
  0
SPLINE
  5
A9
330
1F
100
AcDbEntity
  8
0
  6
Continuous
 62
     7
370
    25
100
AcDbSpline
210
0.0
220
0.0
230
1.0
 70
     8
 71
     3
 72
    19
 73
    15
 74
     0
 42
0.000000001
 43
0.00000001
 40
0.0
 40
0.0
 40
0.0
 40
0.0
 40
0.0987021963061526
 40
0.1956723088106641
 40
0.2924224265079542
 40
0.3913425437998248
 40
0.4444624406718921
 40
0.5042287754493161
 40
0.5703523379946782
 40
0.6425457530977479
 40
0.7222875053440184
 40
0.8079211226827118
 40
0.9004695379850147
 40
0.9999999999999999
 40
0.9999999999999999
 40
0.9999999999999999
 40
0.9999999999999999
 10
194.7059261641966
 20
121.8993131835949
 30
0.0
 10
194.6293224241504
 20
121.9019740252265
 30
0.0
 10
194.4774592312396
 20
121.9072490144863
 30
0.0
 10
194.2542930183481
 20
121.9523716062351
 30
0.0
 10
194.0380747883547
 20
122.0228446950994
 30
0.0
 10
193.8640590279363
 20
122.1076976844341
 30
0.0
 10
193.7238349663181
 20
122.1932972393881
 30
0.0
 10
193.6083841443014
 20
122.270434751321
 30
0.0
 10
193.484075551118
 20
122.3607365972124
 30
0.0
 10
193.3513254495304
 20
122.4655170940109
 30
0.0
 10
193.2090940272327
 20
122.5826087502478
 30
0.0
 10
193.0574672058923
 20
122.7130721498082
 30
0.0
 10
192.8980115676036
 20
122.8578376215562
 30
0.0
 10
192.7891027654228
 20
122.9594438370273
 30
0.0
 10
192.7326689526581
 20
123.0120936323128
 30
0.0
  0
SPLINE
  5
AA
330
1F
100
AcDbEntity
  8
0
  6
Continuous
 62
     7
370
    25
100
AcDbSpline
210
0.0
220
0.0
230
1.0
 70
     8
 71
     3
 72
    23
 73
    19
 74
     0
 42
0.000000001
 43
0.00000001
 40
0.0
 40
0.0
 40
0.0
 40
0.0
 40
0.0694754602496704
 40
0.1365167976177991
 40
0.200788823609261
 40
0.2638296728558261
 40
0.3257350229654199
 40
0.3872906922152912
 40
0.4495092187626026
 40
0.5129678195454415
 40
0.576275215493061
 40
0.6375801002639243
 40
0.697902605917102
 40
0.7571720884269854
 40
0.8165985284886557
 40
0.8766531708928197
 40
0.9372896424102403
 40
1.0
 40
1.0
 40
1.0
 40
1.0
 10
196.3409421898376
 20
123.5607715169282
 30
0.0
 10
196.3395303297091
 20
123.5004631147909
 30
0.0
 10
196.3367560749904
 20
123.3819592589023
 30
0.0
 10
196.3129316004276
 20
123.209004664762
 30
0.0
 10
196.2756170992864
 20
123.0443546306053
 30
0.0
 10
196.2232643022227
 20
122.8883309974995
 30
0.0
 10
196.152888773463
 20
122.7421786103161
 30
0.0
 10
196.0683497841431
 20
122.6047995402989
 30
0.0
 10
195.9705757634154
 20
122.4745582661988
 30
0.0
 10
195.8554626279965
 20
122.3573190348083
 30
0.0
 10
195.7325731666859
 20
122.2496634817227
 30
0.0
 10
195.6013778895811
 20
122.1567885093531
 30
0.0
 10
195.4658747263146
 20
122.0772535381808
 30
0.0
 10
195.3250304095437
 20
122.0109586126532
 30
0.0
 10
195.1775187934666
 20
121.962156108606
 30
0.0
 10
195.025487474794
 20
121.9251046388456
 30
0.0
 10
194.8673627717837
 20
121.9041615601928
 30
0.0
 10
194.7603381843373
 20
121.9009473232676
 30
0.0
 10
194.7059261641966
 20
121.8993131835949
 30
0.0
  0
SPLINE
  5
AB
330
1F
100
AcDbEntity
  8
0
  6
Continuous
 62
     7
370
    25
100
AcDbSpline
210
0.0
220
0.0
230
1.0
 70
     8
 71
     3
 72
    23
 73
    19
 74
     0
 42
0.000000001
 43
0.00000001
 40
0.0
 40
0.0
 40
0.0
 40
0.0
 40
0.0687985167452402
 40
0.135118455930088
 40
0.1990010113675044
 40
0.2619337007769908
 40
0.3235312844431778
 40
0.3854347205665484
 40
0.447215515985122
 40
0.510018103283327
 40
0.5725109099917944
 40
0.6333640222588511
 40
0.6932167277430219
 40
0.752555388131032
 40
0.8125582265741702
 40
0.8732608589653619
 40
0.9355427078252674
 40
1.0
 40
1.0
 40
1.0
 40
1.0
 10
194.5076088565043
 20
125.3544413887231
 30
0.0
 10
194.5730920029275
 20
125.3512249815636
 30
0.0
 10
194.701699159778
 20
125.3449080435018
 30
0.0
 10
194.8892035881062
 20
125.3153129837427
 30
0.0
 10
195.0684490881251
 20
125.2730053615347
 30
0.0
 10
195.2378989590568
 20
125.2130455906728
 30
0.0
 10
195.3995774217759
 20
125.1390005133804
 30
0.0
 10
195.5513375733276
 20
125.0483479109521
 30
0.0
 10
195.6946856152228
 20
124.9430203500504
 30
0.0
 10
195.826907493653
 20
124.82321105829
 30
0.0
 10
195.9477748220667
 20
124.6932069346473
 30
0.0
 10
196.0532544736534
 20
124.553786905941
 30
0.0
 10
196.1413548115131
 20
124.4063839465731
 30
0.0
 10
196.2154051772969
 20
124.2522765666984
 30
0.0
 10
196.2709214786231
 20
124.089682468967
 30
0.0
 10
196.3121317562912
 20
123.9201558709762
 30
0.0
 10
196.3369218354594
 20
123.7429305298648
 30
0.0
 10
196.3395868237754
 20
123.6221820595938
 30
0.0
 10
196.3409421898376
 20
123.5607715169282
 30
0.0
  0
LINE
  5
AC
330
1F
100
AcDbEntity
  8
0
  6
Continuous
 62
     7
370
    25
100
AcDbLine
 10
194.5076088565
 20
124.8608516451
 30
0.0
 11
194.5076088565
 21
125.3544413887
 31
0.0
  0
SPLINE
  5
AD
330
1F
100
AcDbEntity
  8
0
  6
Continuous
 62
     7
370
    25
100
AcDbSpline
210
0.0
220
0.0
230
1.0
 70
     8
 71
     3
 72
    23
 73
    19
 74
     0
 42
0.000000001
 43
0.00000001
 40
0.0
 40
0.0
 40
0.0
 40
0.0
 40
0.0644508040395046
 40
0.1265707373889683
 40
0.1869223403502072
 40
0.2459238291492369
 40
0.3040981291842934
 40
0.3617809244373671
 40
0.420576707079651
 40
0.480272294873434
 40
0.540223571985137
 40
0.600657929141345
 40
0.6619161520107286
 40
0.724434636865271
 40
0.7888525350546833
 40
0.8562867039586417
 40
0.9263381618443969
 40
1.0
 40
1.0
 40
1.0
 40
1.0
 10
195.7768396257351
 20
123.5861120618
 30
0.0
 10
195.7757163434528
 20
123.6291235613322
 30
0.0
 10
195.7735104025205
 20
123.713591044603
 30
0.0
 10
195.7580699664382
 20
123.8376039593712
 30
0.0
 10
195.7314583373663
 20
123.9559200394923
 30
0.0
 10
195.6949743577916
 20
124.0687787910545
 30
0.0
 10
195.6490407382668
 20
124.1762889518922
 30
0.0
 10
195.5907245498499
 20
124.277478415514
 30
0.0
 10
195.5223026716259
 20
124.373271008165
 30
0.0
 10
195.4443054654185
 20
124.4634907933634
 30
0.0
 10
195.3570563462276
 20
124.5463886205081
 30
0.0
 10
195.2609937121424
 20
124.6207547072163
 30
0.0
 10
195.1554926878146
 20
124.6841811180644
 30
0.0
 10
195.0429362224394
 20
124.7404057766461
 30
0.0
 10
194.9203315804718
 20
124.7834259616517
 30
0.0
 10
194.7906497538015
 20
124.8201992017821
 30
0.0
 10
194.6520482742322
 20
124.8469122417433
 30
0.0
 10
194.5565549931048
 20
124.8561280042243
 30
0.0
 10
194.5076088565043
 20
124.8608516451333
 30
0.0
  0
SPLINE
  5
AE
330
1F
100
AcDbEntity
  8
0
  6
Continuous
 62
     7
370
    25
100
AcDbSpline
210
0.0
220
0.0
230
1.0
 70
     8
 71
     3
 72
    23
 73
    19
 74
     0
 42
0.000000001
 43
0.00000001
 40
0.0
 40
0.0
 40
0.0
 40
0.0
 40
0.0619690391917483
 40
0.122129076432336
 40
0.1809991241916586
 40
0.2401624165448508
 40
0.2998647227478909
 40
0.3599512670925815
 40
0.421741789380328
 40
0.4865456790123974
 40
0.5515084714935626
 40
0.6149949372340047
 40
0.6772396658274384
 40
0.7397146797414259
 40
0.803038538094394
 40
0.8664872928331478
 40
0.9319694797733322
 40
1.0
 40
1.0
 40
1.0
 40
1.0
 10
194.6618556513761
 20
122.3929029271846
 30
0.0
 10
194.6993877101706
 20
122.393891688856
 30
0.0
 10
194.7733561908338
 20
122.3958403482402
 30
0.0
 10
194.8817343100592
 20
122.413363970454
 30
0.0
 10
194.9866830010999
 20
122.4391096495446
 30
0.0
 10
195.0869046486021
 20
122.4787916941952
 30
0.0
 10
195.184370418639
 20
122.5264682097556
 30
0.0
 10
195.2761170478344
 20
122.587378474121
 30
0.0
 10
195.3652719585741
 20
122.6569829113208
 30
0.0
 10
195.4487781028631
 20
122.7377206443805
 30
0.0
 10
195.5252826980995
 20
122.8263556734324
 30
0.0
 10
195.5930476663483
 20
122.9200068214232
 30
0.0
 10
195.6496809336353
 20
123.0190847628609
 30
0.0
 10
195.6961063277072
 20
123.1231765960749
 30
0.0
 10
195.7325248114599
 20
123.2319908473462
 30
0.0
 10
195.7577597145049
 20
123.3457383196326
 30
0.0
 10
195.7736036198958
 20
123.4641046266466
 30
0.0
 10
195.7757473183251
 20
123.5449286918979
 30
0.0
 10
195.7768396257351
 20
123.5861120618
 30
0.0
  0
LINE
  5
AF
330
1F
100
AcDbEntity
  8
0
  6
Continuous
 62
     7
370
    25
100
AcDbLine
 10
199.2857728818
 20
124.7100204883
 30
0.0
 11
199.2857728818
 21
109.5545759221
 31
0.0
  0
SPLINE
  5
B0
330
1F
100
AcDbEntity
  8
0
  6
Continuous
 62
     7
370
    25
100
AcDbSpline
210
0.0
220
0.0
230
1.0
 70
     8
 71
     3
 72
    10
 73
     6
 74
     0
 42
0.000000001
 43
0.00000001
 40
0.0
 40
0.0
 40
0.0
 40
0.0
 40
0.5
 40
0.5
 40
1.0
 40
1.0
 40
1.0
 40
1.0
 10
198.0413729055987
 20
114.0290405082822
 30
0.0
 10
198.4267111665058
 20
113.2960762719927
 30
0.0
 10
198.7397131695197
 20
112.5579167093818
 30
0.0
 10
199.1697569596137
 20
111.0675233522681
 30
0.0
 10
199.2857728818131
 20
110.3152158782169
 30
0.0
 10
199.2857728818131
 20
109.5545759220626
 30
0.0
  0
SPLINE
  5
B1
330
1F
100
AcDbEntity
  8
0
  6
Continuous
 62
     7
370
    25
100
AcDbSpline
210
0.0
220
0.0
230
1.0
 70
     8
 71
     3
 72
    14
 73
    10
 74
     0
 42
0.000000001
 43
0.00000001
 40
0.0
 40
0.0
 40
0.0
 40
0.0
 40
0.25
 40
0.25
 40
0.5
 40
0.5
 40
0.75
 40
0.75
 40
1.0
 40
1.0
 40
1.0
 40
1.0
 10
198.0413729056024
 20
115.761091315851
 30
0.0
 10
197.9961243418389
 20
115.5889538338163
 30
0.0
 10
197.9614254639563
 20
115.4181313039831
 30
0.0
 10
197.9136890395133
 20
115.0793723922018
 30
0.0
 10
197.9014478782562
 20
114.9149952579989
 30
0.0
 10
197.9012903359012
 20
114.6101752672507
 30
0.0
 10
197.9135782660186
 20
114.4679681399792
 30
0.0
 10
197.9607686577769
 20
114.2220301000658
 30
0.0
 10
197.996110159755
 20
114.1151362254881
 30
0.0
 10
198.0413729055987
 20
114.0290405082822
 30
0.0
  0
LINE
  5
B2
330
1F
100
AcDbEntity
  8
0
  6
Continuous
 62
     7
370
    25
100
AcDbLine
 10
188.2857728818
 20
133.6589496607
 30
0.0
 11
188.2857728818
 21
135.3910004683
 31
0.0
  0
LINE
  5
B3
330
1F
100
AcDbEntity
  8
0
  6
Continuous
 62
     7
370
    25
100
AcDbLine
 10
188.2857728818
 20
135.3910004683
 30
0.0
 11
198.0413729056
 21
135.3910004683
 31
0.0
  0
ARC
  5
B4
330
1F
100
AcDbEntity
  8
0
  6
Continuous
 62
     7
370
    25
100
AcDbCircle
 10
193.0967728818
 20
129.2909496607
 30
0.0
 40
0.0848645980371042
100
AcDbArc
 50
278.4771169378
 51
68.5747062019
  0
LINE
  5
B5
330
1F
100
AcDbEntity
  8
0
  6
Continuous
 62
     7
370
    25
100
AcDbLine
 10
192.1997728818
 20
128.9149496607
 30
0.0
 11
193.1092831457
 21
129.2070122239
 31
0.0
  0
ARC
  5
B6
330
1F
100
AcDbEntity
  8
0
  6
Continuous
 62
     7
370
    25
100
AcDbCircle
 10
192.1623051399
 20
128.9929496607
 30
0.0
 40
0.0865322580645227
100
AcDbArc
 50
180.0
 51
295.6575657429
  0
LINE
  5
B7
330
1F
100
AcDbEntity
  8
0
  6
Continuous
 62
     7
370
    25
100
AcDbLine
 10
192.0757728818
 20
129.5889496607
 30
0.0
 11
192.0757728818
 21
128.9929496607
 31
0.0
  0
ARC
  5
B8
330
1F
100
AcDbEntity
  8
0
  6
Continuous
 62
     7
370
    25
100
AcDbCircle
 10
192.1629382044
 20
129.5889496607
 30
0.0
 40
0.087165322580656
100
AcDbArc
 50
65.0021610807
 51
180.0
  0
LINE
  5
B9
330
1F
100
AcDbEntity
  8
0
  6
Continuous
 62
     7
370
    25
100
AcDbLine
 10
193.1277728818
 20
129.3699496607
 30
0.0
 11
192.1997728818
 21
129.6679496607
 31
0.0
  0
LINE
  5
BA
330
1F
100
AcDbEntity
  8
0
  6
Continuous
 62
     7
370
    25
100
AcDbLine
 10
198.0413729056
 20
114.0290405083
 30
0.0
 11
188.2857728818
 21
114.0290405083
 31
0.0
  0
LINE
  5
BB
330
1F
100
AcDbEntity
  8
0
  6
Continuous
 62
     7
370
    25
100
AcDbLine
 10
188.2857728818
 20
114.0290405083
 30
0.0
 11
188.2857728818
 21
115.7610913159
 31
0.0
  0
LINE
  5
BC
330
1F
100
AcDbEntity
  8
0
  6
Continuous
 62
     7
370
    25
100
AcDbLine
 10
170.5752328974
 20
141.1091911138
 30
0.0
 11
170.5752328974
 21
108.3108498628
 31
0.0
  0
LINE
  5
BD
330
1F
100
AcDbEntity
  8
0
  6
Continuous
 62
     7
370
    25
100
AcDbLine
 10
198.0413729056
 20
144.3399296407
 30
0.0
 11
188.2857728818
 21
144.3399296407
 31
0.0
  0
SPLINE
  5
BE
330
1F
100
AcDbEntity
  8
0
  6
Continuous
 62
     7
370
    25
100
AcDbSpline
210
0.0
220
0.0
230
1.0
 70
     8
 71
     3
 72
    10
 73
     6
 74
     0
 42
0.000000001
 43
0.00000001
 40
0.0
 40
0.0
 40
0.0
 40
0.0
 40
0.5
 40
0.5
 40
1.0
 40
1.0
 40
1.0
 40
1.0
 10
198.0413729055987
 20
144.3399296407376
 30
0.0
 10
198.4267111665058
 20
143.6069654044481
 30
0.0
 10
198.7397131695197
 20
142.8688058418372
 30
0.0
 10
199.1697569596136
 20
141.3784124847236
 30
0.0
 10
199.2857728818131
 20
140.6261050106723
 30
0.0
 10
199.2857728818131
 20
139.865465054518
 30
0.0
  0
LINE
  5
BF
330
1F
100
AcDbEntity
  8
0
  6
Continuous
 62
     7
370
    25
100
AcDbLine
 10
188.2857728818
 20
144.3399296407
 30
0.0
 11
188.2857728818
 21
135.3910004683
 31
0.0
  0
SPLINE
  5
C0
330
1F
100
AcDbEntity
  8
0
  6
Continuous
 62
     7
370
    25
100
AcDbSpline
210
0.0
220
0.0
230
1.0
 70
     8
 71
     3
 72
    12
 73
     8
 74
     0
 42
0.000000001
 43
0.00000001
 40
0.0
 40
0.0
 40
0.0
 40
0.0
 40
0.2499999999999998
 40
0.2499999999999998
 40
0.4999999999999996
 40
0.4999999999999996
 40
1.0
 40
1.0
 40
1.0
 40
1.0
 10
199.2857728818131
 20
109.5545759220626
 30
0.0
 10
199.2857728818131
 20
109.175790082319
 30
0.0
 10
199.2569777520523
 20
108.7951398199094
 30
0.0
 10
199.1448700160034
 20
108.04128344671
 30
0.0
 10
199.0616566207049
 20
107.6666046454126
 30
0.0
 10
198.7387414290298
 20
106.5486369672147
 30
0.0
 10
198.4258360074971
 20
105.8114109041783
 30
0.0
 10
198.0413729055987
 20
105.080111335843
 30
0.0
  0
LINE
  5
C1
330
1F
100
AcDbEntity
  8
0
  6
Continuous
 62
     7
370
    25
100
AcDbLine
 10
188.2857728818
 20
105.0801113358
 30
0.0
 11
198.0413729056
 21
105.0801113358
 31
0.0
  0
LINE
  5
C2
330
1F
100
AcDbEntity
  8
0
  6
Continuous
 62
     7
370
    25
100
AcDbLine
 10
188.2857728818
 20
114.0290405083
 30
0.0
 11
188.2857728818
 21
105.0801113358
 31
0.0
  0
LINE
  5
C3
330
1F
100
AcDbEntity
  8
0
  6
Continuous
 62
     7
370
    25
100
AcDbLine
 10
167.2857728818
 20
124.7100204883
 30
0.0
 11
167.2857728818
 21
139.2100204883
 31
0.0
  0
LINE
  5
C4
330
1F
100
AcDbEntity
  8
0
  6
Continuous
 62
     7
370
    25
100
AcDbLine
 10
167.2857728818
 20
110.2100204883
 30
0.0
 11
167.2857728818
 21
124.7100204883
 31
0.0
  0
LINE
  5
C5
330
1F
100
AcDbEntity
  8
0
  6
Continuous
 62
     7
370
    25
100
AcDbLine
 10
217.2857728818
 20
138.2100204883
 30
0.0
 11
217.2857728818
 21
111.2100204883
 31
0.0
  0
LINE
  5
C6
330
1F
100
AcDbEntity
  8
0
  6
Continuous
 62
     7
370
    25
100
AcDbLine
 10
224.2857728818
 20
138.2100204883
 30
0.0
 11
224.2857728818
 21
111.2100204883
 31
0.0
  0
LINE
  5
C7
330
1F
100
AcDbEntity
  8
0
  6
Continuous
 62
     7
370
    25
100
AcDbLine
 10
239.7912674289
 20
112.1053357038
 30
0.0
 11
239.7912674289
 21
137.3147052728
 31
0.0
  0
LINE
  5
C8
330
1F
100
AcDbEntity
  8
0
  6
Continuous
 62
     7
370
    25
100
AcDbLine
 10
231.2857728818
 20
138.2100204883
 30
0.0
 11
231.2857728818
 21
111.2100204883
 31
0.0
  0
LINE
  5
C9
330
1F
100
AcDbEntity
  8
0
  6
Continuous
 62
     7
370
    25
100
AcDbLine
 10
210.2857728818
 20
138.2100204883
 30
0.0
 11
210.2857728818
 21
111.2100204883
 31
0.0
  0
LINE
  5
CA
330
1F
100
AcDbEntity
  8
0
  6
Continuous
 62
     7
370
    25
100
AcDbLine
 10
204.2857728818
 20
138.2100204883
 30
0.0
 11
204.2857728818
 21
111.2100204883
 31
0.0
  0
LINE
  5
CB
330
1F
100
AcDbEntity
  8
0
  6
Continuous
 62
     7
370
    25
100
AcDbLine
 10
240.7857728818
 20
136.0861985368
 30
0.0
 11
240.7857728818
 21
113.3338424397
 31
0.0
  0
SPLINE
  5
CC
330
1F
100
AcDbEntity
  8
0
  6
Continuous
 62
     7
370
    25
100
AcDbSpline
210
0.0
220
0.0
230
1.0
 70
     8
 71
     3
 72
    10
 73
     6
 74
     0
 42
0.000000001
 43
0.00000001
 40
0.0
 40
0.0
 40
0.0
 40
0.0
 40
0.1696856155711462
 40
0.7361377052034008
 40
1.0
 40
1.0
 40
1.0
 40
1.0
 10
197.911601033362
 20
144.5881918154165
 30
0.0
 10
197.908616652456
 20
144.5939351208934
 30
0.0
 10
197.8956696781106
 20
144.6188509848564
 30
0.0
 10
197.95174667839
 20
144.5107310082621
 30
0.0
 10
198.0197594107818
 20
144.3811186384974
 30
0.0
 10
198.0413729055987
 20
144.3399296407376
 30
0.0
  0
LINE
  5
CD
330
1F
100
AcDbEntity
  8
0
  6
Continuous
 62
     7
370
    25
100
AcDbLine
 10
199.2857728818
 20
142.2100204883
 30
0.0
 11
199.2857728818
 21
139.8654650545
 31
0.0
  0
SPLINE
  5
CE
330
1F
100
AcDbEntity
  8
0
  6
Continuous
 62
     7
370
    25
100
AcDbSpline
210
0.0
220
0.0
230
1.0
 70
     8
 71
     3
 72
     9
 73
     5
 74
     0
 42
0.000000001
 43
0.00000001
 40
0.0
 40
0.0
 40
0.0
 40
0.0
 40
0.5846135155801255
 40
1.0
 40
1.0
 40
1.0
 40
1.0
 10
198.0413729055987
 20
105.080111335843
 30
0.0
 10
197.9938858483675
 20
104.98935031617
 30
0.0
 10
197.912657727625
 20
104.834100707233
 30
0.0
 10
197.9119111511425
 20
104.8325099430893
 30
0.0
 10
197.911601033362
 20
104.8318491611642
 30
0.0
  0
LINE
  5
CF
330
1F
100
AcDbEntity
  8
0
  6
Continuous
 62
     7
370
    25
100
AcDbLine
 10
199.2857728818
 20
109.5545759221
 30
0.0
 11
199.2857728818
 21
107.2100204883
 31
0.0
  0
LINE
  5
D0
330
1F
100
AcDbEntity
  8
0
  6
Continuous
 62
     7
370
    25
100
AcDbLine
 10
188.2857728818
 20
144.3399296407
 30
0.0
 11
188.2857728818
 21
144.6078788332
 31
0.0
  0
LINE
  5
D1
330
1F
100
AcDbEntity
  8
0
  6
Continuous
 62
     7
370
    25
100
AcDbLine
 10
188.2857728818
 20
104.8121621434
 30
0.0
 11
188.2857728818
 21
105.0801113358
 31
0.0
  0
LINE
  5
D2
330
1F
100
AcDbEntity
  8
0
  6
Continuous
 62
     7
370
    18
100
AcDbLine
 10
168.4677902446
 20
139.8924585309
 30
0.0
 11
187.7857728818
 21
140.4961454883
 31
0.0
  0
LINE
  5
D3
330
1F
100
AcDbEntity
  8
0
  6
Continuous
 62
     7
370
    18
100
AcDbLine
 10
168.4677902446
 20
109.5275824457
 30
0.0
 11
187.7857728818
 21
108.9238954883
 31
0.0
  0
LINE
  5
D4
330
1F
100
AcDbEntity
  8
0
  6
Continuous
 62
     7
370
    18
100
AcDbLine
 10
187.7857728818
 20
107.7730204883
 30
0.0
 11
187.7857728818
 21
141.6470204883
 31
0.0
  0
LINE
  5
D5
330
1F
100
AcDbEntity
  8
0
  6
CENTERX2
 62
     7
370
    18
100
AcDbLine
 10
165.2857728818
 20
124.7100204883
 30
0.0
 11
190.2857728818
 21
124.7100204883
 31
0.0
  0
LINE
  5
D6
330
1F
100
AcDbEntity
  8
0
  6
CENTERX2
 62
     7
370
    18
100
AcDbLine
 10
242.7857728818
 20
124.7100204883
 30
0.0
 11
197.2857728818
 21
124.7100204883
 31
0.0
  0
LINE
  5
D7
330
1F
100
AcDbEntity
  8
0
  6
CENTERX2
 62
     7
370
    18
100
AcDbLine
 10
188.2857728818
 20
124.7100204883
 30
0.0
 11
200.0413729056
 21
124.7100204883
 31
0.0
  0
CIRCLE
  5
D8
330
1F
100
AcDbEntity
  8
0
  6
Continuous
 62
     7
370
    25
100
AcDbCircle
 10
281.2083720954
 20
124.7100204883
 30
0.0
 40
11.37617804855631
  0
CIRCLE
  5
D9
330
1F
100
AcDbEntity
  8
0
  6
Continuous
 62
     7
370
    25
100
AcDbCircle
 10
281.2083720954
 20
124.7100204883
 30
0.0
 40
10.34999999999997
  0
CIRCLE
  5
DA
330
1F
100
AcDbEntity
  8
0
  6
Continuous
 62
     7
370
    25
100
AcDbCircle
 10
281.2083720954
 20
124.7100204883
 30
0.0
 40
12.60468478451804
  0
CIRCLE
  5
DB
330
1F
100
AcDbEntity
  8
0
  6
Continuous
 62
     7
370
    25
100
AcDbCircle
 10
281.2083720954
 20
124.7100204883
 30
0.0
 40
10.25
  0
CIRCLE
  5
DC
330
1F
100
AcDbEntity
  8
0
  6
Continuous
 62
     7
370
    25
100
AcDbCircle
 10
281.2083720954
 20
124.7100204883
 30
0.0
 40
13.5
  0
ARC
  5
DD
330
1F
100
AcDbEntity
  8
0
  6
Continuous
 62
     7
370
    25
100
AcDbCircle
 10
281.2083720954
 20
124.7100204883
 30
0.0
 40
17.50000000000006
100
AcDbArc
 50
300.0
 51
0.0
  0
SPLINE
  5
DE
330
1F
100
AcDbEntity
  8
0
  6
Continuous
 62
     7
370
    25
100
AcDbSpline
210
0.0
220
0.0
230
1.0
 70
    24
 71
     3
 72
    12
 73
     8
 74
     0
 42
0.000000001
 43
0.00000001
 40
0.0
 40
0.0
 40
0.0
 40
0.0
 40
0.2500000000000001
 40
0.2500000000000001
 40
0.5000000000000001
 40
0.5000000000000001
 40
1.0
 40
1.0
 40
1.0
 40
1.0
 10
298.7083720954438
 20
115.7610913158526
 30
0.0
 10
298.7083720954438
 20
116.4941935531136
 30
0.0
 10
298.7083720954438
 20
117.2355663663725
 30
0.0
 10
298.7083720954438
 20
118.7194236420546
 30
0.0
 10
298.7083720954438
 20
119.4631680980779
 30
0.0
 10
298.7083720954437
 20
121.7005849967611
 30
0.0
 10
298.7083720954437
 20
123.2005414583675
 30
0.0
 10
298.7083720954437
 20
124.7100204882905
 30
0.0
  0
SPLINE
  5
DF
330
1F
100
AcDbEntity
  8
0
  6
Continuous
 62
     7
370
    25
100
AcDbSpline
210
0.0
220
0.0
230
1.0
 70
     8
 71
     3
 72
    14
 73
    10
 74
     0
 42
0.000000001
 43
0.00000001
 40
0.0
 40
0.0
 40
0.0
 40
0.0
 40
0.25
 40
0.25
 40
0.5
 40
0.5
 40
0.75
 40
0.75
 40
1.0
 40
1.0
 40
1.0
 40
1.0
 10
297.7083720954438
 20
114.0290405082824
 30
0.0
 10
297.8574475278295
 20
114.1151092492999
 30
0.0
 10
297.9944598498524
 20
114.2194420059602
 30
0.0
 10
298.2429459616484
 20
114.4665692589171
 30
0.0
 10
298.3514784177968
 20
114.6073397990037
 30
0.0
 10
298.5276414684629
 20
114.9118564263305
 30
0.0
 10
298.5960640186888
 20
115.0777593474986
 30
0.0
 10
298.6857562336058
 20
115.4142839540459
 30
0.0
 10
298.7083720954438
 20
115.5888998814401
 30
0.0
 10
298.7083720954438
 20
115.761091315852
 30
0.0
  0
SPLINE
  5
E0
330
1F
100
AcDbEntity
  8
0
  6
Continuous
 62
     7
370
    25
100
AcDbSpline
210
0.0
220
0.0
230
1.0
 70
    24
 71
     3
 72
    12
 73
     8
 74
     0
 42
0.000000001
 43
0.00000001
 40
0.0
 40
0.0
 40
0.0
 40
0.0
 40
0.2499999999999999
 40
0.2499999999999999
 40
0.4999999999999998
 40
0.4999999999999998
 40
1.0
 40
1.0
 40
1.0
 40
1.0
 10
289.9583720954438
 20
109.5545759220627
 30
0.0
 10
290.6144484150674
 20
109.9333617618064
 30
0.0
 10
291.2737540094751
 20
110.3140120242159
 30
0.0
 10
292.5794715494661
 20
111.0678683974153
 30
0.0
 10
293.2284342698323
 20
111.4425471987128
 30
0.0
 10
295.1648110896909
 20
112.5605148769107
 30
0.0
 10
296.4417240875339
 20
113.2977409399471
 30
0.0
 10
297.7083720954438
 20
114.0290405082824
 30
0.0
  0
ARC
  5
E1
330
1F
100
AcDbEntity
  8
0
  6
Continuous
 62
     7
370
    25
100
AcDbCircle
 10
281.2083720954
 20
124.7100204883
 30
0.0
 40
17.50000000000002
100
AcDbArc
 50
240.0
 51
300.0
  0
ARC
  5
E2
330
1F
100
AcDbEntity
  8
0
  6
Continuous
 62
     7
370
    25
100
AcDbCircle
 10
281.2083720954
 20
124.7100204883
 30
0.0
 40
17.5
100
AcDbArc
 50
180.0
 51
240.0
  0
ARC
  5
E3
330
1F
100
AcDbEntity
  8
0
  6
Continuous
 62
     7
370
    25
100
AcDbCircle
 10
281.2083720954
 20
124.7100204883
 30
0.0
 40
17.5
100
AcDbArc
 50
120.0
 51
180.0
  0
ARC
  5
E4
330
1F
100
AcDbEntity
  8
0
  6
Continuous
 62
     7
370
    25
100
AcDbCircle
 10
281.2083720954
 20
124.7100204883
 30
0.0
 40
17.5
100
AcDbArc
 50
60.0
 51
120.0
  0
ARC
  5
E5
330
1F
100
AcDbEntity
  8
0
  6
Continuous
 62
     7
370
    25
100
AcDbCircle
 10
281.2083720954
 20
124.7100204883
 30
0.0
 40
17.50000000000006
100
AcDbArc
 50
0.0
 51
60.0
  0
SPLINE
  5
E6
330
1F
100
AcDbEntity
  8
0
  6
Continuous
 62
     7
370
    25
100
AcDbSpline
210
0.0
220
0.0
230
1.0
 70
    24
 71
     3
 72
    10
 73
     6
 74
     0
 42
0.000000001
 43
0.00000001
 40
0.0
 40
0.0
 40
0.0
 40
0.0
 40
0.5
 40
0.5
 40
1.0
 40
1.0
 40
1.0
 40
1.0
 10
297.7083720954436
 20
135.3910004682986
 30
0.0
 10
296.4388407980593
 20
136.1239647045881
 30
0.0
 10
295.1603109315244
 20
136.862124267199
 30
0.0
 10
292.5788739137404
 20
138.3525176243126
 30
0.0
 10
291.2758391457699
 20
139.1048250983638
 30
0.0
 10
289.9583720954436
 20
139.8654650545181
 30
0.0
  0
SPLINE
  5
E7
330
1F
100
AcDbEntity
  8
0
  6
Continuous
 62
     7
370
    25
100
AcDbSpline
210
0.0
220
0.0
230
1.0
 70
     8
 71
     3
 72
    14
 73
    10
 74
     0
 42
0.000000001
 43
0.00000001
 40
0.0
 40
0.0
 40
0.0
 40
0.0
 40
0.25
 40
0.25
 40
0.5
 40
0.5
 40
0.75
 40
0.75
 40
1.0
 40
1.0
 40
1.0
 40
1.0
 10
298.7083720954436
 20
133.6589496607297
 30
0.0
 10
298.7083720954436
 20
133.8310871427646
 30
0.0
 10
298.6865234387404
 20
134.0019096725979
 30
0.0
 10
298.5967480156103
 20
134.3406685843792
 30
0.0
 10
298.5291033798651
 20
134.505045718582
 30
0.0
 10
298.3534657700586
 20
134.8098657093302
 30
0.0
 10
298.2440009008781
 20
134.9520728366016
 30
0.0
 10
297.9974081500683
 20
135.198010876515
 30
0.0
 10
297.8574942519583
 20
135.3049047510927
 30
0.0
 10
297.7083720954436
 20
135.3910004682986
 30
0.0
  0
SPLINE
  5
E8
330
1F
100
AcDbEntity
  8
0
  6
Continuous
 62
     7
370
    25
100
AcDbSpline
210
0.0
220
0.0
230
1.0
 70
    24
 71
     3
 72
    12
 73
     8
 74
     0
 42
0.000000001
 43
0.00000001
 40
0.0
 40
0.0
 40
0.0
 40
0.0
 40
0.25
 40
0.25
 40
0.5
 40
0.5
 40
1.0
 40
1.0
 40
1.0
 40
1.0
 10
298.7083720954437
 20
124.7100204882905
 30
0.0
 10
298.7083720954437
 20
125.4645028343345
 30
0.0
 10
298.7083720954437
 20
126.2213413903899
 30
0.0
 10
298.7083720954437
 20
127.7397007664191
 30
0.0
 10
298.7083720954437
 20
128.4954166770251
 30
0.0
 10
298.7083720954437
 20
130.7380873921951
 30
0.0
 10
298.7083720954436
 20
132.2076008463042
 30
0.0
 10
298.7083720954436
 20
133.6589496607297
 30
0.0
  0
SPLINE
  5
E9
330
1F
100
AcDbEntity
  8
0
  6
Continuous
 62
     7
370
    25
100
AcDbSpline
210
0.0
220
0.0
230
1.0
 70
    24
 71
     3
 72
    10
 73
     6
 74
     0
 42
0.000000001
 43
0.00000001
 40
0.0
 40
0.0
 40
0.0
 40
0.0
 40
0.5
 40
0.5
 40
1.0
 40
1.0
 40
1.0
 40
1.0
 10
280.2083720954437
 20
144.3399296407376
 30
0.0
 10
278.9388407980593
 20
143.6069654044481
 30
0.0
 10
277.6603109315245
 20
142.8688058418372
 30
0.0
 10
275.0788739137405
 20
141.3784124847236
 30
0.0
 10
273.7758391457699
 20
140.6261050106723
 30
0.0
 10
272.4583720954437
 20
139.865465054518
 30
0.0
  0
SPLINE
  5
EA
330
1F
100
AcDbEntity
  8
0
  6
Continuous
 62
     7
370
    25
100
AcDbSpline
210
0.0
220
0.0
230
1.0
 70
     8
 71
     3
 72
    14
 73
    10
 74
     0
 42
0.000000001
 43
0.00000001
 40
0.0
 40
0.0
 40
0.0
 40
0.0
 40
0.25
 40
0.25
 40
0.5
 40
0.5
 40
0.75
 40
0.75
 40
1.0
 40
1.0
 40
1.0
 40
1.0
 10
282.2083720954437
 20
144.3399296407376
 30
0.0
 10
282.059296663058
 20
144.4259983817551
 30
0.0
 10
281.900435684332
 20
144.4924881549282
 30
0.0
 10
281.562174149406
 20
144.5841198137527
 30
0.0
 10
281.3859970575126
 20
144.607726407869
 30
0.0
 10
281.03419639704
 20
144.6080297712907
 30
0.0
 10
280.8563089776335
 20
144.5843339773941
 30
0.0
 10
280.5200240119066
 20
144.4937474107605
 30
0.0
 10
280.3574942519584
 20
144.4260253579435
 30
0.0
 10
280.2083720954437
 20
144.3399296407376
 30
0.0
  0
SPLINE
  5
EB
330
1F
100
AcDbEntity
  8
0
  6
Continuous
 62
     7
370
    25
100
AcDbSpline
210
0.0
220
0.0
230
1.0
 70
    24
 71
     3
 72
    12
 73
     8
 74
     0
 42
0.000000001
 43
0.00000001
 40
0.0
 40
0.0
 40
0.0
 40
0.0
 40
0.25
 40
0.25
 40
0.5
 40
0.5
 40
1.0
 40
1.0
 40
1.0
 40
1.0
 10
289.9583720954436
 20
139.8654650545181
 30
0.0
 10
289.30229577582
 20
140.2442508942618
 30
0.0
 10
288.6429901814123
 20
140.6249011566713
 30
0.0
 10
287.3372726414214
 20
141.3787575298707
 30
0.0
 10
286.6883099210551
 20
141.7534363311681
 30
0.0
 10
284.7519331011966
 20
142.871404009366
 30
0.0
 10
283.4750201033536
 20
143.6086300724024
 30
0.0
 10
282.2083720954437
 20
144.3399296407376
 30
0.0
  0
SPLINE
  5
EC
330
1F
100
AcDbEntity
  8
0
  6
Continuous
 62
     7
370
    25
100
AcDbSpline
210
0.0
220
0.0
230
1.0
 70
     8
 71
     3
 72
    14
 73
    10
 74
     0
 42
0.000000001
 43
0.00000001
 40
0.0
 40
0.0
 40
0.0
 40
0.0
 40
0.25
 40
0.25
 40
0.5
 40
0.5
 40
0.75
 40
0.75
 40
1.0
 40
1.0
 40
1.0
 40
1.0
 10
280.2083720954438
 20
105.080111335843
 30
0.0
 10
280.3574475278295
 20
104.9940425948256
 30
0.0
 10
280.5163085065555
 20
104.9275528216525
 30
0.0
 10
280.8545700414815
 20
104.835921162828
 30
0.0
 10
281.030747133375
 20
104.8123145687116
 30
0.0
 10
281.3825477938476
 20
104.8120112052899
 30
0.0
 10
281.5604352132541
 20
104.8357069991866
 30
0.0
 10
281.896720178981
 20
104.9262935658202
 30
0.0
 10
282.0592499389291
 20
104.9940156186371
 30
0.0
 10
282.2083720954438
 20
105.080111335843
 30
0.0
  0
SPLINE
  5
ED
330
1F
100
AcDbEntity
  8
0
  6
Continuous
 62
     7
370
    25
100
AcDbSpline
210
0.0
220
0.0
230
1.0
 70
    24
 71
     3
 72
    12
 73
     8
 74
     0
 42
0.000000001
 43
0.00000001
 40
0.0
 40
0.0
 40
0.0
 40
0.0
 40
0.2499999999999998
 40
0.2499999999999998
 40
0.4999999999999996
 40
0.4999999999999996
 40
1.0
 40
1.0
 40
1.0
 40
1.0
 10
272.4583720954438
 20
109.5545759220626
 30
0.0
 10
273.1144484150674
 20
109.175790082319
 30
0.0
 10
273.7737540094751
 20
108.7951398199094
 30
0.0
 10
275.0794715494661
 20
108.04128344671
 30
0.0
 10
275.7284342698323
 20
107.6666046454126
 30
0.0
 10
277.6648110896909
 20
106.5486369672147
 30
0.0
 10
278.941724087534
 20
105.8114109041783
 30
0.0
 10
280.2083720954438
 20
105.080111335843
 30
0.0
  0
SPLINE
  5
EE
330
1F
100
AcDbEntity
  8
0
  6
Continuous
 62
     7
370
    25
100
AcDbSpline
210
0.0
220
0.0
230
1.0
 70
    24
 71
     3
 72
    10
 73
     6
 74
     0
 42
0.000000001
 43
0.00000001
 40
0.0
 40
0.0
 40
0.0
 40
0.0
 40
0.5
 40
0.5
 40
1.0
 40
1.0
 40
1.0
 40
1.0
 10
282.2083720954438
 20
105.080111335843
 30
0.0
 10
283.4779033928282
 20
105.8130755721326
 30
0.0
 10
284.7564332593631
 20
106.5512351347435
 30
0.0
 10
287.3378702771471
 20
108.0416284918571
 30
0.0
 10
288.6409050451176
 20
108.7939359659084
 30
0.0
 10
289.9583720954438
 20
109.5545759220627
 30
0.0
  0
SPLINE
  5
EF
330
1F
100
AcDbEntity
  8
0
  6
Continuous
 62
     7
370
    25
100
AcDbSpline
210
0.0
220
0.0
230
1.0
 70
     8
 71
     3
 72
    14
 73
    10
 74
     0
 42
0.000000001
 43
0.00000001
 40
0.0
 40
0.0
 40
0.0
 40
0.0
 40
0.25
 40
0.25
 40
0.5
 40
0.5
 40
0.75
 40
0.75
 40
1.0
 40
1.0
 40
1.0
 40
1.0
 10
263.7083720954437
 20
115.761091315851
 30
0.0
 10
263.7083720954437
 20
115.5889538338163
 30
0.0
 10
263.7302207521469
 20
115.4181313039831
 30
0.0
 10
263.8199961752769
 20
115.0793723922018
 30
0.0
 10
263.887640811022
 20
114.9149952579989
 30
0.0
 10
264.0632784208286
 20
114.6101752672507
 30
0.0
 10
264.1727432900092
 20
114.4679681399792
 30
0.0
 10
264.419336040819
 20
114.2220301000658
 30
0.0
 10
264.559249938929
 20
114.1151362254881
 30
0.0
 10
264.7083720954437
 20
114.0290405082822
 30
0.0
  0
SPLINE
  5
F0
330
1F
100
AcDbEntity
  8
0
  6
Continuous
 62
     7
370
    25
100
AcDbSpline
210
0.0
220
0.0
230
1.0
 70
    24
 71
     3
 72
    12
 73
     8
 74
     0
 42
0.000000001
 43
0.00000001
 40
0.0
 40
0.0
 40
0.0
 40
0.0
 40
0.25
 40
0.25
 40
0.5
 40
0.5
 40
1.0
 40
1.0
 40
1.0
 40
1.0
 10
263.7083720954437
 20
115.7610913158523
 30
0.0
 10
263.7083720954437
 20
116.4941935531134
 30
0.0
 10
263.7083720954437
 20
117.2355663663723
 30
0.0
 10
263.7083720954437
 20
118.7194236420544
 30
0.0
 10
263.7083720954437
 20
119.4631680980776
 30
0.0
 10
263.7083720954437
 20
121.7005849967609
 30
0.0
 10
263.7083720954437
 20
123.2005414583673
 30
0.0
 10
263.7083720954437
 20
124.7100204882903
 30
0.0
  0
SPLINE
  5
F1
330
1F
100
AcDbEntity
  8
0
  6
Continuous
 62
     7
370
    25
100
AcDbSpline
210
0.0
220
0.0
230
1.0
 70
    24
 71
     3
 72
    10
 73
     6
 74
     0
 42
0.000000001
 43
0.00000001
 40
0.0
 40
0.0
 40
0.0
 40
0.0
 40
0.5
 40
0.5
 40
1.0
 40
1.0
 40
1.0
 40
1.0
 10
264.7083720954437
 20
114.0290405082822
 30
0.0
 10
265.9779033928281
 20
113.2960762719927
 30
0.0
 10
267.256433259363
 20
112.5579167093818
 30
0.0
 10
269.837870277147
 20
111.0675233522681
 30
0.0
 10
271.1409050451175
 20
110.3152158782169
 30
0.0
 10
272.4583720954438
 20
109.5545759220626
 30
0.0
  0
SPLINE
  5
F2
330
1F
100
AcDbEntity
  8
0
  6
Continuous
 62
     7
370
    25
100
AcDbSpline
210
0.0
220
0.0
230
1.0
 70
    24
 71
     3
 72
    12
 73
     8
 74
     0
 42
0.000000001
 43
0.00000001
 40
0.0
 40
0.0
 40
0.0
 40
0.0
 40
0.2500000000000001
 40
0.2500000000000001
 40
0.5000000000000001
 40
0.5000000000000001
 40
1.0
 40
1.0
 40
1.0
 40
1.0
 10
263.7083720954437
 20
124.7100204882903
 30
0.0
 10
263.7083720954437
 20
125.4645028343342
 30
0.0
 10
263.7083720954437
 20
126.2213413903897
 30
0.0
 10
263.7083720954437
 20
127.7397007664189
 30
0.0
 10
263.7083720954437
 20
128.4954166770248
 30
0.0
 10
263.7083720954437
 20
130.7380873921948
 30
0.0
 10
263.7083720954437
 20
132.207600846304
 30
0.0
 10
263.7083720954437
 20
133.6589496607295
 30
0.0
  0
SPLINE
  5
F3
330
1F
100
AcDbEntity
  8
0
  6
Continuous
 62
     7
370
    25
100
AcDbSpline
210
0.0
220
0.0
230
1.0
 70
     8
 71
     3
 72
    14
 73
    10
 74
     0
 42
0.000000001
 43
0.00000001
 40
0.0
 40
0.0
 40
0.0
 40
0.0
 40
0.25
 40
0.25
 40
0.5
 40
0.5
 40
0.75
 40
0.75
 40
1.0
 40
1.0
 40
1.0
 40
1.0
 10
264.7083720954437
 20
135.3910004682984
 30
0.0
 10
264.559296663058
 20
135.3049317272809
 30
0.0
 10
264.4222843410352
 20
135.2005989706207
 30
0.0
 10
264.1737982292393
 20
134.953471717664
 30
0.0
 10
264.0652657730909
 20
134.8127011775775
 30
0.0
 10
263.8891027224249
 20
134.5081845502509
 30
0.0
 10
263.8206801721989
 20
134.3422816290829
 30
0.0
 10
263.7309879572819
 20
134.0057570225359
 30
0.0
 10
263.7083720954436
 20
133.8311410951413
 30
0.0
 10
263.7083720954436
 20
133.6589496607295
 30
0.0
  0
SPLINE
  5
F4
330
1F
100
AcDbEntity
  8
0
  6
Continuous
 62
     7
370
    25
100
AcDbSpline
210
0.0
220
0.0
230
1.0
 70
    24
 71
     3
 72
    12
 73
     8
 74
     0
 42
0.000000001
 43
0.00000001
 40
0.0
 40
0.0
 40
0.0
 40
0.0
 40
0.2500000000000001
 40
0.2500000000000001
 40
0.5000000000000001
 40
0.5000000000000001
 40
1.0
 40
1.0
 40
1.0
 40
1.0
 10
272.4583720954437
 20
139.865465054518
 30
0.0
 10
271.80229577582
 20
139.4866792147744
 30
0.0
 10
271.1429901814124
 20
139.1060289523649
 30
0.0
 10
269.8372726414214
 20
138.3521725791654
 30
0.0
 10
269.1883099210551
 20
137.9774937778679
 30
0.0
 10
267.2519331011966
 20
136.8595260996701
 30
0.0
 10
265.9750201033535
 20
136.1223000366336
 30
0.0
 10
264.7083720954437
 20
135.3910004682984
 30
0.0
  0
INSERT
  5
100
330
1F
100
AcDbEntity
  8
0
  6
Continuous
 62
     7
370
    18
100
AcDbBlockReference
  2
SW_CENTERMARKSYMBOL_0
 10
281.2083720954
 20
124.7100204883
 30
0.0
  0
LINE
  5
101
330
1F
100
AcDbEntity
  8
0
  6
Continuous
 62
     7
370
    25
100
AcDbLine
 10
188.2857728818
 20
207.7829099955
 30
0.0
 11
170.5752328974
 21
207.229455621
 31
0.0
  0
LINE
  5
102
330
1F
100
AcDbEntity
  8
0
  6
Continuous
 62
     7
370
    25
100
AcDbLine
 10
170.5752328974
 20
174.43111437
 30
0.0
 11
188.2857728818
 21
173.8776599955
 31
0.0
  0
LINE
  5
103
330
1F
100
AcDbEntity
  8
0
  6
Continuous
 62
     7
370
    25
100
AcDbLine
 10
170.5752328974
 20
207.229455621
 30
0.0
 11
167.2857728818
 21
205.3302849955
 31
0.0
  0
LINE
  5
104
330
1F
100
AcDbEntity
  8
0
  6
Continuous
 62
     7
370
    25
100
AcDbLine
 10
167.2857728818
 20
176.3302849955
 30
0.0
 11
170.5752328974
 21
174.43111437
 31
0.0
  0
LINE
  5
105
330
1F
100
AcDbEntity
  8
0
  6
Continuous
 62
     7
370
    25
100
AcDbLine
 10
210.2857728818
 20
177.3302849955
 30
0.0
 11
217.2857728818
 21
178.3302849955
 31
0.0
  0
LINE
  5
106
330
1F
100
AcDbEntity
  8
0
  6
Continuous
 62
     7
370
    25
100
AcDbLine
 10
217.2857728818
 20
203.3302849955
 30
0.0
 11
210.2857728818
 21
204.3302849955
 31
0.0
  0
LINE
  5
107
330
1F
100
AcDbEntity
  8
0
  6
Continuous
 62
     7
370
    25
100
AcDbLine
 10
224.2857728818
 20
177.3302849955
 30
0.0
 11
231.2857728818
 21
178.3302849955
 31
0.0
  0
LINE
  5
108
330
1F
100
AcDbEntity
  8
0
  6
Continuous
 62
     7
370
    25
100
AcDbLine
 10
231.2857728818
 20
203.3302849955
 30
0.0
 11
224.2857728818
 21
204.3302849955
 31
0.0
  0
LINE
  5
109
330
1F
100
AcDbEntity
  8
0
  6
Continuous
 62
     7
370
    25
100
AcDbLine
 10
217.2857728818
 20
177.3302849955
 30
0.0
 11
224.2857728818
 21
178.3302849955
 31
0.0
  0
LINE
  5
10A
330
1F
100
AcDbEntity
  8
0
  6
Continuous
 62
     7
370
    25
100
AcDbLine
 10
224.2857728818
 20
203.3302849955
 30
0.0
 11
217.2857728818
 21
204.3302849955
 31
0.0
  0
LINE
  5
10B
330
1F
100
AcDbEntity
  8
0
  6
Continuous
 62
     7
370
    25
100
AcDbLine
 10
231.2857728818
 20
177.3302849955
 30
0.0
 11
239.7912674289
 21
178.225600211
 31
0.0
  0
LINE
  5
10C
330
1F
100
AcDbEntity
  8
0
  6
Continuous
 62
     7
370
    25
100
AcDbLine
 10
239.7912674289
 20
203.43496978
 30
0.0
 11
231.2857728818
 21
204.3302849955
 31
0.0
  0
LINE
  5
10D
330
1F
100
AcDbEntity
  8
0
  6
Continuous
 62
     7
370
    25
100
AcDbLine
 10
204.2857728818
 20
177.3302849955
 30
0.0
 11
210.2857728818
 21
178.3302849955
 31
0.0
  0
LINE
  5
10E
330
1F
100
AcDbEntity
  8
0
  6
Continuous
 62
     7
370
    25
100
AcDbLine
 10
210.2857728818
 20
203.3302849955
 30
0.0
 11
204.2857728818
 21
204.3302849955
 31
0.0
  0
LINE
  5
10F
330
1F
100
AcDbEntity
  8
0
  6
Continuous
 62
     7
370
    25
100
AcDbLine
 10
204.2857728818
 20
204.3302849955
 30
0.0
 11
199.2857728818
 21
204.3302849955
 31
0.0
  0
LINE
  5
110
330
1F
100
AcDbEntity
  8
0
  6
Continuous
 62
     7
370
    25
100
AcDbLine
 10
199.2857728818
 20
177.3302849955
 30
0.0
 11
204.2857728818
 21
177.3302849955
 31
0.0
  0
LINE
  5
111
330
1F
100
AcDbEntity
  8
0
  6
Continuous
 62
     7
370
    25
100
AcDbLine
 10
239.7912674289
 20
178.225600211
 30
0.0
 11
240.7857728818
 21
179.4541069469
 31
0.0
  0
LINE
  5
112
330
1F
100
AcDbEntity
  8
0
  6
Continuous
 62
     7
370
    25
100
AcDbLine
 10
240.7857728818
 20
202.206463044
 30
0.0
 11
239.7912674289
 21
203.43496978
 31
0.0
  0
LINE
  5
113
330
1F
100
AcDbEntity
  8
0
  6
Continuous
 62
     7
370
    25
100
AcDbLine
 10
199.2857728818
 20
199.5802849955
 30
0.0
 11
199.2857728818
 21
182.0802849955
 31
0.0
  0
SPLINE
  5
114
330
1F
100
AcDbEntity
  8
0
  6
Continuous
 62
     7
370
    25
100
AcDbSpline
210
0.0
220
0.0
230
1.0
 70
     8
 71
     3
 72
    10
 73
     6
 74
     0
 42
0.000000001
 43
0.00000001
 40
0.0
 40
0.0
 40
0.0
 40
0.0
 40
0.5
 40
0.5
 40
1.0
 40
1.0
 40
1.0
 40
1.0
 10
198.0413729055987
 20
189.8302849954922
 30
0.0
 10
198.4267111665058
 20
188.5607536981079
 30
0.0
 10
198.7397131695197
 20
187.282223831573
 30
0.0
 10
199.1697569596136
 20
184.700786813789
 30
0.0
 10
199.2857728818131
 20
183.3977520458185
 30
0.0
 10
199.2857728818131
 20
182.0802849954922
 30
0.0
  0
SPLINE
  5
115
330
1F
100
AcDbEntity
  8
0
  6
Continuous
 62
     7
370
    25
100
AcDbSpline
210
0.0
220
0.0
230
1.0
 70
     8
 71
     3
 72
    14
 73
    10
 74
     0
 42
0.000000001
 43
0.00000001
 40
0.0
 40
0.0
 40
0.0
 40
0.0
 40
0.25
 40
0.25
 40
0.5
 40
0.5
 40
0.75
 40
0.75
 40
1.0
 40
1.0
 40
1.0
 40
1.0
 10
198.0413729055987
 20
191.8302849954922
 30
0.0
 10
197.9961243418352
 20
191.6812095631066
 30
0.0
 10
197.9614254639563
 20
191.5223485843805
 30
0.0
 10
197.9136890395132
 20
191.1840870494546
 30
0.0
 10
197.9014478782561
 20
191.0079099575611
 30
0.0
 10
197.9012903359012
 20
190.6561092970885
 30
0.0
 10
197.9135782660186
 20
190.478221877682
 30
0.0
 10
197.960768657777
 20
190.1419369119552
 30
0.0
 10
197.996110159755
 20
189.9794071520069
 30
0.0
 10
198.0413729055987
 20
189.8302849954922
 30
0.0
  0
SPLINE
  5
116
330
1F
100
AcDbEntity
  8
0
  6
Continuous
 62
     7
370
    25
100
AcDbSpline
210
0.0
220
0.0
230
1.0
 70
     8
 71
     3
 72
    12
 73
     8
 74
     0
 42
0.000000001
 43
0.00000001
 40
0.0
 40
0.0
 40
0.0
 40
0.0
 40
0.25
 40
0.25
 40
0.5
 40
0.5
 40
1.0
 40
1.0
 40
1.0
 40
1.0
 10
199.285772881813
 20
199.5802849954921
 30
0.0
 10
199.285772881813
 20
198.9242086758686
 30
0.0
 10
199.2569777520522
 20
198.2649030814609
 30
0.0
 10
199.1448700160034
 20
196.9591855414699
 30
0.0
 10
199.0616566207049
 20
196.3102228211036
 30
0.0
 10
198.7387414290298
 20
194.3738460012451
 30
0.0
 10
198.4258360074971
 20
193.0969330034021
 30
0.0
 10
198.0413729055987
 20
191.8302849954922
 30
0.0
  0
LINE
  5
117
330
1F
100
AcDbEntity
  8
0
  6
Continuous
 62
     7
370
    25
100
AcDbLine
 10
198.0413729056
 20
189.8302849955
 30
0.0
 11
188.2857728818
 21
189.8302849955
 31
0.0
  0
LINE
  5
118
330
1F
100
AcDbEntity
  8
0
  6
Continuous
 62
     7
370
    25
100
AcDbLine
 10
188.2857728818
 20
191.8302849955
 30
0.0
 11
198.0413729056
 21
191.8302849955
 31
0.0
  0
LINE
  5
119
330
1F
100
AcDbEntity
  8
0
  6
Continuous
 62
     7
370
    25
100
AcDbLine
 10
188.2857728818
 20
189.8302849955
 30
0.0
 11
188.2857728818
 21
191.8302849955
 31
0.0
  0
LINE
  5
11A
330
1F
100
AcDbEntity
  8
0
  6
Continuous
 62
     7
370
    25
100
AcDbLine
 10
198.0413729056
 20
207.3302849955
 30
0.0
 11
188.2857728818
 21
207.3302849955
 31
0.0
  0
SPLINE
  5
11B
330
1F
100
AcDbEntity
  8
0
  6
Continuous
 62
     7
370
    25
100
AcDbSpline
210
0.0
220
0.0
230
1.0
 70
     8
 71
     3
 72
    10
 73
     6
 74
     0
 42
0.000000001
 43
0.00000001
 40
0.0
 40
0.0
 40
0.0
 40
0.0
 40
0.5
 40
0.5
 40
1.0
 40
1.0
 40
1.0
 40
1.0
 10
198.0413729055987
 20
207.3302849954921
 30
0.0
 10
198.4267111665058
 20
206.0607536981078
 30
0.0
 10
198.7397131695196
 20
204.7822238315729
 30
0.0
 10
199.1697569596136
 20
202.2007868137889
 30
0.0
 10
199.285772881813
 20
200.8977520458184
 30
0.0
 10
199.285772881813
 20
199.5802849954921
 30
0.0
  0
LINE
  5
11C
330
1F
100
AcDbEntity
  8
0
  6
Continuous
 62
     7
370
    25
100
AcDbLine
 10
188.2857728818
 20
207.3302849955
 30
0.0
 11
188.2857728818
 21
191.8302849955
 31
0.0
  0
SPLINE
  5
11D
330
1F
100
AcDbEntity
  8
0
  6
Continuous
 62
     7
370
    25
100
AcDbSpline
210
0.0
220
0.0
230
1.0
 70
     8
 71
     3
 72
    12
 73
     8
 74
     0
 42
0.000000001
 43
0.00000001
 40
0.0
 40
0.0
 40
0.0
 40
0.0
 40
0.2500000000000001
 40
0.2500000000000001
 40
0.5000000000000001
 40
0.5000000000000001
 40
1.0
 40
1.0
 40
1.0
 40
1.0
 10
199.2857728818131
 20
182.0802849954922
 30
0.0
 10
199.2857728818131
 20
181.4242086758686
 30
0.0
 10
199.2569777520523
 20
180.7649030814609
 30
0.0
 10
199.1448700160034
 20
179.4591855414699
 30
0.0
 10
199.0616566207049
 20
178.8102228211037
 30
0.0
 10
198.7387414290298
 20
176.8738460012451
 30
0.0
 10
198.4258360074971
 20
175.5969330034021
 30
0.0
 10
198.0413729055987
 20
174.3302849954922
 30
0.0
  0
LINE
  5
11E
330
1F
100
AcDbEntity
  8
0
  6
Continuous
 62
     7
370
    25
100
AcDbLine
 10
188.2857728818
 20
174.3302849955
 30
0.0
 11
198.0413729056
 21
174.3302849955
 31
0.0
  0
LINE
  5
11F
330
1F
100
AcDbEntity
  8
0
  6
Continuous
 62
     7
370
    25
100
AcDbLine
 10
188.2857728818
 20
189.8302849955
 30
0.0
 11
188.2857728818
 21
174.3302849955
 31
0.0
  0
LINE
  5
120
330
1F
100
AcDbEntity
  8
0
  6
Continuous
 62
     7
370
    25
100
AcDbLine
 10
170.5752328974
 20
207.229455621
 30
0.0
 11
170.5752328974
 21
174.43111437
 31
0.0
  0
LINE
  5
121
330
1F
100
AcDbEntity
  8
0
  6
Continuous
 62
     7
370
    25
100
AcDbLine
 10
167.2857728818
 20
176.3302849955
 30
0.0
 11
167.2857728818
 21
205.3302849955
 31
0.0
  0
SPLINE
  5
122
330
1F
100
AcDbEntity
  8
0
  6
Continuous
 62
     7
370
    25
100
AcDbSpline
210
0.0
220
0.0
230
1.0
 70
     8
 71
     3
 72
    14
 73
    10
 74
     0
 42
0.000000001
 43
0.00000001
 40
0.0
 40
0.0
 40
0.0
 40
0.0
 40
0.25
 40
0.25
 40
0.5
 40
0.5
 40
0.75
 40
0.75
 40
1.0
 40
1.0
 40
1.0
 40
1.0
 10
198.0413729055987
 20
208.3302849954921
 30
0.0
 10
197.9961243418352
 20
208.3302849954921
 30
0.0
 10
197.9614254639563
 20
208.3084363387889
 30
0.0
 10
197.9136890395132
 20
208.2186609156589
 30
0.0
 10
197.9014478782561
 20
208.1510162799137
 30
0.0
 10
197.9012903359012
 20
207.9753786701071
 30
0.0
 10
197.9135782660186
 20
207.8659138009266
 30
0.0
 10
197.9607686577769
 20
207.6193210501169
 30
0.0
 10
197.996110159755
 20
207.4794071520068
 30
0.0
 10
198.0413729055987
 20
207.3302849954921
 30
0.0
  0
SPLINE
  5
123
330
1F
100
AcDbEntity
  8
0
  6
Continuous
 62
     7
370
    25
100
AcDbSpline
210
0.0
220
0.0
230
1.0
 70
    24
 71
     3
 72
    12
 73
     8
 74
     0
 42
0.000000001
 43
0.00000001
 40
0.0
 40
0.0
 40
0.0
 40
0.0
 40
0.25
 40
0.25
 40
0.5
 40
0.5
 40
1.0
 40
1.0
 40
1.0
 40
1.0
 10
199.2857728818131
 20
208.3302849954922
 30
0.0
 10
199.2857728818131
 20
208.3302849954922
 30
0.0
 10
199.2574847361907
 20
208.3302849954922
 30
0.0
 10
199.144694201344
 20
208.3302849954922
 30
0.0
 10
199.0605510822022
 20
208.3302849954922
 30
0.0
 10
198.7358777351149
 20
208.3302849954922
 30
0.0
 10
198.4228787147713
 20
208.3302849954922
 30
0.0
 10
198.0413729055987
 20
208.3302849954921
 30
0.0
  0
LINE
  5
124
330
1F
100
AcDbEntity
  8
0
  6
Continuous
 62
     7
370
    25
100
AcDbLine
 10
199.2857728818
 20
208.3302849955
 30
0.0
 11
199.2857728818
 21
199.5802849955
 31
0.0
  0
SPLINE
  5
125
330
1F
100
AcDbEntity
  8
0
  6
Continuous
 62
     7
370
    25
100
AcDbSpline
210
0.0
220
0.0
230
1.0
 70
    24
 71
     3
 72
    12
 73
     8
 74
     0
 42
0.000000001
 43
0.00000001
 40
0.0
 40
0.0
 40
0.0
 40
0.0
 40
0.2500000000000001
 40
0.2500000000000001
 40
0.5000000000000001
 40
0.5000000000000001
 40
1.0
 40
1.0
 40
1.0
 40
1.0
 10
199.2857728818131
 20
173.3302849954922
 30
0.0
 10
199.2857728818131
 20
173.3302849954922
 30
0.0
 10
199.2574847361907
 20
173.3302849954922
 30
0.0
 10
199.144694201344
 20
173.3302849954922
 30
0.0
 10
199.0605510822022
 20
173.3302849954922
 30
0.0
 10
198.7358777351149
 20
173.3302849954922
 30
0.0
 10
198.4228787147713
 20
173.3302849954922
 30
0.0
 10
198.0413729055987
 20
173.3302849954922
 30
0.0
  0
SPLINE
  5
126
330
1F
100
AcDbEntity
  8
0
  6
Continuous
 62
     7
370
    25
100
AcDbSpline
210
0.0
220
0.0
230
1.0
 70
     8
 71
     3
 72
    14
 73
    10
 74
     0
 42
0.000000001
 43
0.00000001
 40
0.0
 40
0.0
 40
0.0
 40
0.0
 40
0.25
 40
0.25
 40
0.5
 40
0.5
 40
0.75
 40
0.75
 40
1.0
 40
1.0
 40
1.0
 40
1.0
 10
198.0413729055987
 20
174.3302849954922
 30
0.0
 10
197.9961243418352
 20
174.1812095631065
 30
0.0
 10
197.9614254639563
 20
174.0441972410837
 30
0.0
 10
197.9136890395132
 20
173.7957111292878
 30
0.0
 10
197.9014478782562
 20
173.6871786731395
 30
0.0
 10
197.9012903359012
 20
173.5110156224734
 30
0.0
 10
197.9135782660186
 20
173.4425930722475
 30
0.0
 10
197.960768657777
 20
173.3529008573304
 30
0.0
 10
197.996110159755
 20
173.3302849954922
 30
0.0
 10
198.0413729055987
 20
173.3302849954922
 30
0.0
  0
LINE
  5
127
330
1F
100
AcDbEntity
  8
0
  6
Continuous
 62
     7
370
    25
100
AcDbLine
 10
199.2857728818
 20
182.0802849955
 30
0.0
 11
199.2857728818
 21
173.3302849955
 31
0.0
  0
LINE
  5
128
330
1F
100
AcDbEntity
  8
0
  6
Continuous
 62
     7
370
    25
100
AcDbLine
 10
210.2857728818
 20
190.8302849955
 30
0.0
 11
210.2857728818
 21
177.3302849955
 31
0.0
  0
LINE
  5
129
330
1F
100
AcDbEntity
  8
0
  6
Continuous
 62
     7
370
    25
100
AcDbLine
 10
210.2857728818
 20
204.3302849955
 30
0.0
 11
210.2857728818
 21
190.8302849955
 31
0.0
  0
LINE
  5
12A
330
1F
100
AcDbEntity
  8
0
  6
Continuous
 62
     7
370
    25
100
AcDbLine
 10
224.2857728818
 20
190.8302849955
 30
0.0
 11
224.2857728818
 21
177.3302849955
 31
0.0
  0
LINE
  5
12B
330
1F
100
AcDbEntity
  8
0
  6
Continuous
 62
     7
370
    25
100
AcDbLine
 10
224.2857728818
 20
204.3302849955
 30
0.0
 11
224.2857728818
 21
190.8302849955
 31
0.0
  0
LINE
  5
12C
330
1F
100
AcDbEntity
  8
0
  6
Continuous
 62
     7
370
    25
100
AcDbLine
 10
217.2857728818
 20
190.8302849955
 30
0.0
 11
217.2857728818
 21
177.3302849955
 31
0.0
  0
LINE
  5
12D
330
1F
100
AcDbEntity
  8
0
  6
Continuous
 62
     7
370
    25
100
AcDbLine
 10
217.2857728818
 20
204.3302849955
 30
0.0
 11
217.2857728818
 21
190.8302849955
 31
0.0
  0
LINE
  5
12E
330
1F
100
AcDbEntity
  8
0
  6
Continuous
 62
     7
370
    25
100
AcDbLine
 10
239.7912674289
 20
190.8302849955
 30
0.0
 11
239.7912674289
 21
203.43496978
 31
0.0
  0
LINE
  5
12F
330
1F
100
AcDbEntity
  8
0
  6
Continuous
 62
     7
370
    25
100
AcDbLine
 10
239.7912674289
 20
178.225600211
 30
0.0
 11
239.7912674289
 21
190.8302849955
 31
0.0
  0
LINE
  5
130
330
1F
100
AcDbEntity
  8
0
  6
Continuous
 62
     7
370
    25
100
AcDbLine
 10
231.2857728818
 20
190.8302849955
 30
0.0
 11
231.2857728818
 21
177.3302849955
 31
0.0
  0
LINE
  5
131
330
1F
100
AcDbEntity
  8
0
  6
Continuous
 62
     7
370
    25
100
AcDbLine
 10
231.2857728818
 20
204.3302849955
 30
0.0
 11
231.2857728818
 21
190.8302849955
 31
0.0
  0
LINE
  5
132
330
1F
100
AcDbEntity
  8
0
  6
Continuous
 62
     7
370
    25
100
AcDbLine
 10
204.2857728818
 20
190.8302849955
 30
0.0
 11
204.2857728818
 21
177.3302849955
 31
0.0
  0
LINE
  5
133
330
1F
100
AcDbEntity
  8
0
  6
Continuous
 62
     7
370
    25
100
AcDbLine
 10
204.2857728818
 20
204.3302849955
 30
0.0
 11
204.2857728818
 21
190.8302849955
 31
0.0
  0
LINE
  5
134
330
1F
100
AcDbEntity
  8
0
  6
Continuous
 62
     7
370
    25
100
AcDbLine
 10
240.7857728818
 20
190.8302849955
 30
0.0
 11
240.7857728818
 21
179.4541069469
 31
0.0
  0
LINE
  5
135
330
1F
100
AcDbEntity
  8
0
  6
Continuous
 62
     7
370
    25
100
AcDbLine
 10
240.7857728818
 20
202.206463044
 30
0.0
 11
240.7857728818
 21
190.8302849955
 31
0.0
  0
LINE
  5
136
330
1F
100
AcDbEntity
  8
0
  6
Continuous
 62
     7
370
    25
100
AcDbLine
 10
188.2857728818
 20
208.3302849955
 30
0.0
 11
198.0413729056
 21
208.3302849955
 31
0.0
  0
LINE
  5
137
330
1F
100
AcDbEntity
  8
0
  6
Continuous
 62
     7
370
    25
100
AcDbLine
 10
188.2857728818
 20
207.3302849955
 30
0.0
 11
188.2857728818
 21
208.3302849955
 31
0.0
  0
LINE
  5
138
330
1F
100
AcDbEntity
  8
0
  6
Continuous
 62
     7
370
    25
100
AcDbLine
 10
198.0413729056
 20
173.3302849955
 30
0.0
 11
188.2857728818
 21
173.3302849955
 31
0.0
  0
LINE
  5
139
330
1F
100
AcDbEntity
  8
0
  6
Continuous
 62
     7
370
    25
100
AcDbLine
 10
188.2857728818
 20
173.3302849955
 30
0.0
 11
188.2857728818
 21
174.3302849955
 31
0.0
  0
LINE
  5
13A
330
1F
100
AcDbEntity
  8
0
  6
Continuous
 62
     7
370
    18
100
AcDbLine
 10
168.4677902446
 20
206.0127230381
 30
0.0
 11
187.7857728818
 21
206.6164099955
 31
0.0
  0
LINE
  5
13B
330
1F
100
AcDbEntity
  8
0
  6
Continuous
 62
     7
370
    18
100
AcDbLine
 10
168.4677902446
 20
175.6478469529
 30
0.0
 11
187.7857728818
 21
175.0441599955
 31
0.0
  0
LINE
  5
13C
330
1F
100
AcDbEntity
  8
0
  6
Continuous
 62
     7
370
    18
100
AcDbLine
 10
187.7857728818
 20
173.8932849955
 30
0.0
 11
187.7857728818
 21
207.7672849955
 31
0.0
  0
LINE
  5
13D
330
1F
100
AcDbEntity
  8
0
  6
CENTERX2
 62
     7
370
    18
100
AcDbLine
 10
165.2857728818
 20
190.8302849955
 30
0.0
 11
190.2857728818
 21
190.8302849955
 31
0.0
  0
LINE
  5
13E
330
1F
100
AcDbEntity
  8
0
  6
CENTERX2
 62
     7
370
    18
100
AcDbLine
 10
242.7857728818
 20
190.8302849955
 30
0.0
 11
197.2857728818
 21
190.8302849955
 31
0.0
  0
LINE
  5
13F
330
1F
100
AcDbEntity
  8
0
  6
CENTERX2
 62
     7
370
    18
100
AcDbLine
 10
200.0413729056
 20
190.8302849955
 30
0.0
 11
188.2857728818
 21
190.8302849955
 31
0.0
  0
ENDSEC
  0
SECTION
  2
OBJECTS
  0
DICTIONARY
  5
C
330
0
100
AcDbDictionary
281
     1
  3
ACAD_GROUP
350
D
  3
ACAD_LAYOUT
350
1A
  3
ACAD_MLINESTYLE
350
17
  3
ACAD_PLOTSETTINGS
350
19
  3
ACAD_PLOTSTYLENAME
350
E
  3
ACAD_SCALELIST
350
47
  0
DICTIONARY
  5
D
102
{ACAD_REACTORS
330
C
102
}
330
C
100
AcDbDictionary
281
     1
  0
DICTIONARY
  5
1A
102
{ACAD_REACTORS
330
C
102
}
330
C
100
AcDbDictionary
281
     1
  3
Layout1
350
1E
  3
Layout2
350
26
  3
Model
350
22
  0
DICTIONARY
  5
17
102
{ACAD_REACTORS
330
C
102
}
330
C
100
AcDbDictionary
281
     1
  3
Standard
350
18
  0
DICTIONARY
  5
19
102
{ACAD_REACTORS
330
C
102
}
330
C
100
AcDbDictionary
281
     1
  0
ACDBDICTIONARYWDFLT
  5
E
102
{ACAD_REACTORS
330
C
102
}
330
C
100
AcDbDictionary
281
     1
  3
Normal
350
F
100
AcDbDictionaryWithDefault
340
F
  0
DICTIONARY
  5
47
102
{ACAD_REACTORS
330
C
102
}
330
C
100
AcDbDictionary
281
     1
  3
A0
350
48
  3
A1
350
49
  3
A2
350
4A
  3
A3
350
4B
  3
A4
350
4C
  3
A5
350
4D
  3
A6
350
4E
  3
A7
350
4F
  3
A8
350
50
  3
A9
350
51
  3
B0
350
52
  3
B1
350
53
  3
B2
350
54
  3
B3
350
55
  3
B4
350
56
  3
B5
350
57
  3
B6
350
58
  3
B7
350
59
  3
B8
350
5A
  3
B9
350
5B
  3
C0
350
5C
  3
C1
350
5D
  3
C2
350
5E
  3
C3
350
5F
  3
C4
350
60
  3
C5
350
61
  3
C6
350
62
  3
C7
350
63
  3
C8
350
64
  3
C9
350
65
  3
D0
350
66
  3
D1
350
67
  3
D2
350
68
  0
LAYOUT
  5
1E
102
{ACAD_REACTORS
330
1A
102
}
330
1A
100
AcDbPlotSettings
  1

  2
none_device
  4

  6

 40
0.0
 41
0.0
 42
0.0
 43
0.0
 44
0.0
 45
0.0
 46
0.0
 47
0.0
 48
0.0
 49
0.0
140
0.0
141
0.0
142
1.0
143
1.0
 70
   688
 72
     1
 73
     0
 74
     5
  7

 75
    16
147
1.0
148
0.0
149
0.0
100
AcDbLayout
  1
Layout1
 70
     1
 71
     1
 10
0.0
 20
0.0
 11
420.0
 21
297.0
 12
0.0
 22
0.0
 32
0.0
 14
1.0000000000E+20
 24
1.0000000000E+20
 34
1.0000000000E+20
 15
-1.0000000000E+20
 25
-1.0000000000E+20
 35
-1.0000000000E+20
146
0.0
 13
0.0
 23
0.0
 33
0.0
 16
1.0
 26
0.0
 36
0.0
 17
0.0
 27
1.0
 37
0.0
 76
     0
330
1B
  0
LAYOUT
  5
26
102
{ACAD_REACTORS
330
1A
102
}
330
1A
100
AcDbPlotSettings
  1

  2
none_device
  4

  6

 40
0.0
 41
0.0
 42
0.0
 43
0.0
 44
0.0
 45
0.0
 46
0.0
 47
0.0
 48
0.0
 49
0.0
140
0.0
141
0.0
142
1.0
143
1.0
 70
   688
 72
     1
 73
     0
 74
     5
  7

 75
    16
147
1.0
148
0.0
149
0.0
100
AcDbLayout
  1
Layout2
 70
     1
 71
     2
 10
0.0
 20
0.0
 11
0.0
 21
0.0
 12
0.0
 22
0.0
 32
0.0
 14
0.0
 24
0.0
 34
0.0
 15
0.0
 25
0.0
 35
0.0
146
0.0
 13
0.0
 23
0.0
 33
0.0
 16
1.0
 26
0.0
 36
0.0
 17
0.0
 27
1.0
 37
0.0
 76
     0
330
23
  0
LAYOUT
  5
22
102
{ACAD_REACTORS
330
1A
102
}
330
1A
100
AcDbPlotSettings
  1

  2
none_device
  4
Letter_(8.50_x_11.00_Inches)
  6

 40
6.35
 41
6.35
 42
6.35000508
 43
6.35000508
 44
215.9
 45
279.4
 46
0.0
 47
0.0
 48
0.0
 49
0.0
140
0.0
141
0.0
142
1.0
143
1.0
 70
  1712
 72
     1
 73
     0
 74
     0
  7

 75
     0
147
1.0
148
0.0
149
0.0
100
AcDbLayout
  1
Model
 70
     1
 71
     0
 10
0.0
 20
0.0
 11
431.8
 21
279.4
 12
0.0
 22
0.0
 32
0.0
 14
0.0
 24
0.0
 34
0.0
 15
431.8
 25
279.4
 35
0.0
146
0.0
 13
0.0
 23
0.0
 33
0.0
 16
1.0
 26
0.0
 36
0.0
 17
0.0
 27
1.0
 37
0.0
 76
     0
330
1F
331
29
  0
MLINESTYLE
  5
18
102
{ACAD_REACTORS
330
17
102
}
330
17
100
AcDbMlineStyle
  2
Standard
 70
     0
  3

 62
   256
 51
90.0
 52
90.0
 71
     2
 49
0.5
 62
   256
  6
BYLAYER
 49
-0.5
 62
   256
  6
BYLAYER
  0
ACDBPLACEHOLDER
  5
F
102
{ACAD_REACTORS
330
E
102
}
330
E
  0
SCALE
  5
48
102
{ACAD_REACTORS
330
47
102
}
330
47
100
AcDbScale
 70
     0
300
1:1
140
1.0
141
1.0
290
     1
  0
SCALE
  5
49
102
{ACAD_REACTORS
330
47
102
}
330
47
100
AcDbScale
 70
     0
300
1:2
140
1.0
141
2.0
290
     0
  0
SCALE
  5
4A
102
{ACAD_REACTORS
330
47
102
}
330
47
100
AcDbScale
 70
     0
300
1:4
140
1.0
141
4.0
290
     0
  0
SCALE
  5
4B
102
{ACAD_REACTORS
330
47
102
}
330
47
100
AcDbScale
 70
     0
300
1:5
140
1.0
141
5.0
290
     0
  0
SCALE
  5
4C
102
{ACAD_REACTORS
330
47
102
}
330
47
100
AcDbScale
 70
     0
300
1:8
140
1.0
141
8.0
290
     0
  0
SCALE
  5
4D
102
{ACAD_REACTORS
330
47
102
}
330
47
100
AcDbScale
 70
     0
300
1:10
140
1.0
141
10.0
290
     0
  0
SCALE
  5
4E
102
{ACAD_REACTORS
330
47
102
}
330
47
100
AcDbScale
 70
     0
300
1:16
140
1.0
141
16.0
290
     0
  0
SCALE
  5
4F
102
{ACAD_REACTORS
330
47
102
}
330
47
100
AcDbScale
 70
     0
300
1:20
140
1.0
141
20.0
290
     0
  0
SCALE
  5
50
102
{ACAD_REACTORS
330
47
102
}
330
47
100
AcDbScale
 70
     0
300
1:30
140
1.0
141
30.0
290
     0
  0
SCALE
  5
51
102
{ACAD_REACTORS
330
47
102
}
330
47
100
AcDbScale
 70
     0
300
1:40
140
1.0
141
40.0
290
     0
  0
SCALE
  5
52
102
{ACAD_REACTORS
330
47
102
}
330
47
100
AcDbScale
 70
     0
300
1:50
140
1.0
141
50.0
290
     0
  0
SCALE
  5
53
102
{ACAD_REACTORS
330
47
102
}
330
47
100
AcDbScale
 70
     0
300
1:100
140
1.0
141
100.0
290
     0
  0
SCALE
  5
54
102
{ACAD_REACTORS
330
47
102
}
330
47
100
AcDbScale
 70
     0
300
2:1
140
2.0
141
1.0
290
     0
  0
SCALE
  5
55
102
{ACAD_REACTORS
330
47
102
}
330
47
100
AcDbScale
 70
     0
300
4:1
140
4.0
141
1.0
290
     0
  0
SCALE
  5
56
102
{ACAD_REACTORS
330
47
102
}
330
47
100
AcDbScale
 70
     0
300
8:1
140
8.0
141
1.0
290
     0
  0
SCALE
  5
57
102
{ACAD_REACTORS
330
47
102
}
330
47
100
AcDbScale
 70
     0
300
10:1
140
10.0
141
1.0
290
     0
  0
SCALE
  5
58
102
{ACAD_REACTORS
330
47
102
}
330
47
100
AcDbScale
 70
     0
300
100:1
140
100.0
141
1.0
290
     0
  0
SCALE
  5
59
102
{ACAD_REACTORS
330
47
102
}
330
47
100
AcDbScale
 70
     0
300
1/128" = 1'-0"
140
0.0078125
141
12.0
290
     0
  0
SCALE
  5
5A
102
{ACAD_REACTORS
330
47
102
}
330
47
100
AcDbScale
 70
     0
300
1/64" = 1'-0"
140
0.015625
141
12.0
290
     0
  0
SCALE
  5
5B
102
{ACAD_REACTORS
330
47
102
}
330
47
100
AcDbScale
 70
     0
300
1/32" = 1'-0"
140
0.03125
141
12.0
290
     0
  0
SCALE
  5
5C
102
{ACAD_REACTORS
330
47
102
}
330
47
100
AcDbScale
 70
     0
300
1/16" = 1'-0"
140
0.0625
141
12.0
290
     0
  0
SCALE
  5
5D
102
{ACAD_REACTORS
330
47
102
}
330
47
100
AcDbScale
 70
     0
300
3/32" = 1'-0"
140
0.09375
141
12.0
290
     0
  0
SCALE
  5
5E
102
{ACAD_REACTORS
330
47
102
}
330
47
100
AcDbScale
 70
     0
300
1/8" = 1'-0"
140
0.125
141
12.0
290
     0
  0
SCALE
  5
5F
102
{ACAD_REACTORS
330
47
102
}
330
47
100
AcDbScale
 70
     0
300
3/16" = 1'-0"
140
0.1875
141
12.0
290
     0
  0
SCALE
  5
60
102
{ACAD_REACTORS
330
47
102
}
330
47
100
AcDbScale
 70
     0
300
1/4" = 1'-0"
140
0.25
141
12.0
290
     0
  0
SCALE
  5
61
102
{ACAD_REACTORS
330
47
102
}
330
47
100
AcDbScale
 70
     0
300
3/8" = 1'-0"
140
0.375
141
12.0
290
     0
  0
SCALE
  5
62
102
{ACAD_REACTORS
330
47
102
}
330
47
100
AcDbScale
 70
     0
300
1/2" = 1'-0"
140
0.5
141
12.0
290
     0
  0
SCALE
  5
63
102
{ACAD_REACTORS
330
47
102
}
330
47
100
AcDbScale
 70
     0
300
3/4" = 1'-0"
140
0.75
141
12.0
290
     0
  0
SCALE
  5
64
102
{ACAD_REACTORS
330
47
102
}
330
47
100
AcDbScale
 70
     0
300
1" = 1'-0"
140
1.0
141
12.0
290
     0
  0
SCALE
  5
65
102
{ACAD_REACTORS
330
47
102
}
330
47
100
AcDbScale
 70
     0
300
1-1/2" = 1'-0"
140
1.5
141
12.0
290
     0
  0
SCALE
  5
66
102
{ACAD_REACTORS
330
47
102
}
330
47
100
AcDbScale
 70
     0
300
3" = 1'-0"
140
3.0
141
12.0
290
     0
  0
SCALE
  5
67
102
{ACAD_REACTORS
330
47
102
}
330
47
100
AcDbScale
 70
     0
300
6" = 1'-0"
140
6.0
141
12.0
290
     0
  0
SCALE
  5
68
102
{ACAD_REACTORS
330
47
102
}
330
47
100
AcDbScale
 70
     0
300
1'-0" = 1'-0"
140
12.0
141
12.0
290
     0
  0
ENDSEC
  0
EOF
