  0
SECTION
  2
HEADER
  9
$ACADVER
  1
AC1015
  9
$ACADMAINTVER
 70
     6
  9
$DWGCODEPAGE
  3
DOS932
  9
$INSBASE
 10
0.0
 20
0.0
 30
0.0
  9
$EXTMIN
 10
0.0
 20
0.0
 30
0.0
  9
$EXTMAX
 10
863.6
 20
558.8
 30
0.0
  9
$LIMMIN
 10
0.0
 20
0.0
  9
$LIMMAX
 10
863.6
 20
558.8
  9
$ORTHOMODE
 70
     0
  9
$REGENMODE
 70
     1
  9
$FILLMODE
 70
     1
  9
$QTEXTMODE
 70
     0
  9
$MIRRTEXT
 70
     1
  9
$LTSCALE
 40
2.0
  9
$ATTMODE
 70
     1
  9
$TEXTSIZE
 40
7.0
  9
$TRACEWID
 40
1.0
  9
$TEXTSTYLE
  7
Standard
  9
$CLAYER
  8
0
  9
$CELTYPE
  6
ByLayer
  9
$CECOLOR
 62
   256
  9
$CELTSCALE
 40
1.0
  9
$DISPSILH
 70
     0
  9
$DIMSCALE
 40
1.0
  9
$DIMASZ
 40
6.604
  9
$DIMEXO
 40
2.0
  9
$DIMDLI
 40
3.75
  9
$DIMRND
 40
0.0
  9
$DIMDLE
 40
0.0
  9
$DIMEXE
 40
2.0
  9
$DIMTP
 40
0.0
  9
$DIMTM
 40
0.0
  9
$DIMTXT
 40
7.0
  9
$DIMCEN
 40
2.5
  9
$DIMTSZ
 40
0.0
  9
$DIMTOL
 70
     0
  9
$DIMLIM
 70
     0
  9
$DIMTIH
 70
     1
  9
$DIMTOH
 70
     1
  9
$DIMSE1
 70
     0
  9
$DIMSE2
 70
     0
  9
$DIMTAD
 70
     1
  9
$DIMZIN
 70
     1
  9
$DIMBLK
  1

  9
$DIMASO
 70
     1
  9
$DIMSHO
 70
     1
  9
$DIMPOST
  1

  9
$DIMAPOST
  1

  9
$DIMALT
 70
     0
  9
$DIMALTD
 70
     3
  9
$DIMALTF
 40
0.0393700787
  9
$DIMLFAC
 40
1.0
  9
$DIMTOFL
 70
     1
  9
$DIMTVP
 40
0.0
  9
$DIMTIX
 70
     0
  9
$DIMSOXD
 70
     0
  9
$DIMSAH
 70
     0
  9
$DIMBLK1
  1

  9
$DIMBLK2
  1

  9
$DIMSTYLE
  2
ISO-25
  9
$DIMCLRD
 70
     0
  9
$DIMCLRE
 70
     0
  9
$DIMCLRT
 70
     0
  9
$DIMTFAC
 40
1.0
  9
$DIMGAP
 40
3.048
  9
$DIMJUST
 70
     0
  9
$DIMSD1
 70
     0
  9
$DIMSD2
 70
     0
  9
$DIMTOLJ
 70
     0
  9
$DIMTZIN
 70
     1
  9
$DIMALTZ
 70
     0
  9
$DIMALTTZ
 70
     0
  9
$DIMUPT
 70
     0
  9
$DIMDEC
 70
     2
  9
$DIMTDEC
 70
     2
  9
$DIMALTU
 70
     2
  9
$DIMALTTD
 70
     3
  9
$DIMTXSTY
  7
Standard
  9
$DIMAUNIT
 70
     0
  9
$DIMADEC
 70
     2
  9
$DIMALTRND
 40
0.0
  9
$DIMAZIN
 70
     0
  9
$DIMDSEP
 70
    44
  9
$DIMATFIT
 70
     3
  9
$DIMFRAC
 70
     0
  9
$DIMLDRBLK
  1

  9
$DIMLUNIT
 70
     2
  9
$DIMLWD
 70
    -2
  9
$DIMLWE
 70
    -2
  9
$DIMTMOVE
 70
     0
  9
$LUNITS
 70
     2
  9
$LUPREC
 70
     2
  9
$SKETCHINC
 40
1.0
  9
$FILLETRAD
 40
10.0
  9
$AUNITS
 70
     0
  9
$AUPREC
 70
     2
  9
$MENU
  1
.
  9
$ELEVATION
 40
0.0
  9
$PELEVATION
 40
0.0
  9
$THICKNESS
 40
0.0
  9
$LIMCHECK
 70
     0
  9
$CHAMFERA
 40
0.0
  9
$CHAMFERB
 40
0.0
  9
$CHAMFERC
 40
0.0
  9
$CHAMFERD
 40
0.0
  9
$SKPOLY
 70
     0
  9
$TDCREATE
 40
2459296.734441377
  9
$TDUCREATE
 40
2459296.359441377
  9
$TDUPDATE
 40
2459296.73444191
  9
$TDUUPDATE
 40
2459296.35944191
  9
$TDINDWG
 40
0.0000000116
  9
$TDUSRTIMER
 40
0.0000000116
  9
$USRTIMER
 70
     1
  9
$ANGBASE
 50
0.0
  9
$ANGDIR
 70
     0
  9
$PDMODE
 70
     0
  9
$PDSIZE
 40
-1.0
  9
$PLINEWID
 40
0.0
  9
$SPLFRAME
 70
     0
  9
$SPLINETYPE
 70
     6
  9
$SPLINESEGS
 70
     8
  9
$HANDSEED
  5
190
  9
$SURFTAB1
 70
     6
  9
$SURFTAB2
 70
     6
  9
$SURFTYPE
 70
     6
  9
$SURFU
 70
     6
  9
$SURFV
 70
     6
  9
$UCSBASE
  2

  9
$UCSNAME
  2

  9
$UCSORG
 10
0.0
 20
0.0
 30
0.0
  9
$UCSXDIR
 10
1.0
 20
0.0
 30
0.0
  9
$UCSYDIR
 10
0.0
 20
1.0
 30
0.0
  9
$UCSORTHOREF
  2

  9
$UCSORTHOVIEW
 70
     0
  9
$UCSORGTOP
 10
0.0
 20
0.0
 30
0.0
  9
$UCSORGBOTTOM
 10
0.0
 20
0.0
 30
0.0
  9
$UCSORGLEFT
 10
0.0
 20
0.0
 30
0.0
  9
$UCSORGRIGHT
 10
0.0
 20
0.0
 30
0.0
  9
$UCSORGFRONT
 10
0.0
 20
0.0
 30
0.0
  9
$UCSORGBACK
 10
0.0
 20
0.0
 30
0.0
  9
$PUCSBASE
  2

  9
$PUCSNAME
  2

  9
$PUCSORG
 10
0.0
 20
0.0
 30
0.0
  9
$PUCSXDIR
 10
1.0
 20
0.0
 30
0.0
  9
$PUCSYDIR
 10
0.0
 20
1.0
 30
0.0
  9
$PUCSORTHOREF
  2

  9
$PUCSORTHOVIEW
 70
     0
  9
$PUCSORGTOP
 10
0.0
 20
0.0
 30
0.0
  9
$PUCSORGBOTTOM
 10
0.0
 20
0.0
 30
0.0
  9
$PUCSORGLEFT
 10
0.0
 20
0.0
 30
0.0
  9
$PUCSORGRIGHT
 10
0.0
 20
0.0
 30
0.0
  9
$PUCSORGFRONT
 10
0.0
 20
0.0
 30
0.0
  9
$PUCSORGBACK
 10
0.0
 20
0.0
 30
0.0
  9
$USERI1
 70
     0
  9
$USERI2
 70
     0
  9
$USERI3
 70
     0
  9
$USERI4
 70
     0
  9
$USERI5
 70
     0
  9
$USERR1
 40
0.0
  9
$USERR2
 40
0.0
  9
$USERR3
 40
0.0
  9
$USERR4
 40
0.0
  9
$USERR5
 40
0.0
  9
$WORLDVIEW
 70
     1
  9
$SHADEDGE
 70
     3
  9
$SHADEDIF
 70
    70
  9
$TILEMODE
 70
     1
  9
$MAXACTVP
 70
    64
  9
$PINSBASE
 10
0.0
 20
0.0
 30
0.0
  9
$PLIMCHECK
 70
     0
  9
$PEXTMIN
 10
1.0000000000E+20
 20
1.0000000000E+20
 30
1.0000000000E+20
  9
$PEXTMAX
 10
-1.0000000000E+20
 20
-1.0000000000E+20
 30
-1.0000000000E+20
  9
$PLIMMIN
 10
0.0
 20
0.0
  9
$PLIMMAX
 10
420.0
 20
297.0
  9
$UNITMODE
 70
     0
  9
$VISRETAIN
 70
     1
  9
$PLINEGEN
 70
     0
  9
$PSLTSCALE
 70
     1
  9
$TREEDEPTH
 70
  3020
  9
$CMLSTYLE
  2
Standard
  9
$CMLJUST
 70
     0
  9
$CMLSCALE
 40
20.0
  9
$PROXYGRAPHICS
 70
     1
  9
$MEASUREMENT
 70
     1
  9
$CELWEIGHT
370
    -1
  9
$ENDCAPS
280
     0
  9
$JOINSTYLE
280
     0
  9
$LWDISPLAY
290
     1
  9
$INSUNITS
 70
     4
  9
$HYPERLINKBASE
  1

  9
$STYLESHEET
  1

  9
$XEDIT
290
     1
  9
$CEPSNTYPE
380
     0
  9
$PSTYLEMODE
290
     1
  9
$FINGERPRINTGUID
  2
{07DA4E7F-6CBE-416E-A23C-6B767AD68AC1}
  9
$VERSIONGUID
  2
{FAEB1C32-E019-11D5-929B-00C0DF256EC4}
  9
$EXTNAMES
290
     1
  9
$PSVPSCALE
 40
0.0
  9
$OLESTARTUP
290
     0
  0
ENDSEC
  0
SECTION
  2
CLASSES
  0
CLASS
  1
ACDBDICTIONARYWDFLT
  2
AcDbDictionaryWithDefault
  3
ObjectDBX Classes
 90
        0
280
     0
281
     0
  0
CLASS
  1
VISUALSTYLE
  2
AcDbVisualStyle
  3
ObjectDBX Classes
 90
     4095
280
     0
281
     0
  0
CLASS
  1
MATERIAL
  2
AcDbMaterial
  3
ObjectDBX Classes
 90
     1153
280
     0
281
     0
  0
CLASS
  1
SCALE
  2
AcDbScale
  3
ObjectDBX Classes
 90
     1153
280
     0
281
     0
  0
CLASS
  1
TABLESTYLE
  2
AcDbTableStyle
  3
ObjectDBX Classes
 90
     4095
280
     0
281
     0
  0
CLASS
  1
MLEADERSTYLE
  2
AcDbMLeaderStyle
  3
ACDB_MLEADERSTYLE_CLASS
 90
     4095
280
     0
281
     0
  0
CLASS
  1
SUN
  2
AcDbSun
  3
SCENEOE
 90
     1153
280
     0
281
     0
  0
CLASS
  1
ACDBPLACEHOLDER
  2
AcDbPlaceHolder
  3
ObjectDBX Classes
 90
        0
280
     0
281
     0
  0
CLASS
  1
LAYOUT
  2
AcDbLayout
  3
ObjectDBX Classes
 90
        0
280
     0
281
     0
  0
ENDSEC
  0
SECTION
  2
TABLES
  0
TABLE
  2
VPORT
  5
8
330
0
100
AcDbSymbolTable
 70
     1
  0
VPORT
  5
29
330
8
100
AcDbSymbolTableRecord
100
AcDbViewportTableRecord
  2
*Active
 70
     0
 10
0.0
 20
0.0
 11
1.0
 21
1.0
 12
431.8
 22
279.4
 13
0.0
 23
0.0
 14
10.0
 24
10.0
 15
10.0
 25
10.0
 16
0.0
 26
0.0
 36
1.0
 17
0.0
 27
0.0
 37
0.0
 40
558.8
 41
1.5454545455
 42
50.0
 43
0.0
 44
0.0
 50
0.0
 51
0.0
 71
     0
 72
  2000
 73
     1
 74
     3
 75
     0
 76
     0
 77
     0
 78
     0
281
     0
 65
     1
110
0.0
120
0.0
130
0.0
111
1.0
121
0.0
131
0.0
112
0.0
122
1.0
132
0.0
 79
     0
146
0.0
  0
ENDTAB
  0
TABLE
  2
LTYPE
  5
5
330
0
100
AcDbSymbolTable
 70
     6
  0
LTYPE
  5
14
330
5
100
AcDbSymbolTableRecord
100
AcDbLinetypeTableRecord
  2
ByBlock
 70
     0
  3

 72
    65
 73
     0
 40
0.0
  0
LTYPE
  5
15
330
5
100
AcDbSymbolTableRecord
100
AcDbLinetypeTableRecord
  2
ByLayer
 70
     0
  3

 72
    65
 73
     0
 40
0.0
  0
LTYPE
  5
16
330
5
100
AcDbSymbolTableRecord
100
AcDbLinetypeTableRecord
  2
Continuous
 70
     0
  3
Solid line
 72
    65
 73
     0
 40
0.0
  0
LTYPE
  5
6E
330
5
100
AcDbSymbolTableRecord
100
AcDbLinetypeTableRecord
  2
HIDDEN
 70
     0
  3
Hidden __ __ __ __ __ __ __ __ __ __ __ __ __ __
 72
    65
 73
     2
 40
1.905
 49
1.27
 74
     0
 49
-0.635
 74
     0
  0
LTYPE
  5
6F
330
5
100
AcDbSymbolTableRecord
100
AcDbLinetypeTableRecord
  2
PHANTOM
 70
     0
  3
Phantom ______  __  __  ______  __  __  ______
 72
    65
 73
     6
 40
12.7
 49
6.35
 74
     0
 49
-1.27
 74
     0
 49
1.27
 74
     0
 49
-1.27
 74
     0
 49
1.27
 74
     0
 49
-1.27
 74
     0
  0
LTYPE
  5
70
330
5
100
AcDbSymbolTableRecord
100
AcDbLinetypeTableRecord
  2
CENTER
 70
     0
  3
Center ____ _ ____ _ ____ _ ____ _ ____ _ ____
 72
    65
 73
     4
 40
10.16
 49
6.35
 74
     0
 49
-1.27
 74
     0
 49
1.27
 74
     0
 49
-1.27
 74
     0
  0
LTYPE
  5
71
330
5
100
AcDbSymbolTableRecord
100
AcDbLinetypeTableRecord
  2
CENTERX2
 70
     0
  3
Center (2x) ________  __  ________  __  _____
 72
    65
 73
     4
 40
20.32
 49
12.7
 74
     0
 49
-2.54
 74
     0
 49
2.54
 74
     0
 49
-2.54
 74
     0
  0
LTYPE
  5
72
330
5
100
AcDbSymbolTableRecord
100
AcDbLinetypeTableRecord
  2
DOT2
 70
     0
  3
Dot (.5x) ........................................
 72
    65
 73
     2
 40
0.635
 49
0.0
 74
     0
 49
-0.635
 74
     0
  0
ENDTAB
  0
TABLE
  2
LAYER
  5
2
330
0
100
AcDbSymbolTable
 70
     1
  0
LAYER
  5
10
330
2
100
AcDbSymbolTableRecord
100
AcDbLayerTableRecord
  2
0
 70
     0
 62
     7
  6
Continuous
370
    -3
390
F
  0
ENDTAB
  0
TABLE
  2
STYLE
  5
3
330
0
100
AcDbSymbolTable
 70
     2
  0
STYLE
  5
11
330
3
100
AcDbSymbolTableRecord
100
AcDbTextStyleTableRecord
  2
Standard
 70
     0
 40
0.0
 41
1.0
 50
0.0
 71
     0
 42
7.0
  3
txt
  4
bigfont
  0
STYLE
  5
73
330
3
100
AcDbSymbolTableRecord
100
AcDbTextStyleTableRecord
  2
SLDTEXTSTYLE0
 70
     0
 40
0.0
 41
0.7
 50
0.0
 71
     0
 42
7.0
  3
TXT
  4
bigfont
  0
ENDTAB
  0
TABLE
  2
VIEW
  5
6
330
0
100
AcDbSymbolTable
 70
     0
  0
ENDTAB
  0
TABLE
  2
UCS
  5
7
330
0
100
AcDbSymbolTable
 70
     0
  0
ENDTAB
  0
TABLE
  2
APPID
  5
9
330
0
100
AcDbSymbolTable
 70
     1
  0
APPID
  5
12
330
9
100
AcDbSymbolTableRecord
100
AcDbRegAppTableRecord
  2
ACAD
 70
     0
  0
ENDTAB
  0
TABLE
  2
DIMSTYLE
  5
A
330
0
100
AcDbSymbolTable
 70
     1
100
AcDbDimStyleTable
  0
DIMSTYLE
105
27
330
A
100
AcDbSymbolTableRecord
100
AcDbDimStyleTableRecord
  2
ISO-25
 70
     0
 41
2.5
 42
0.625
 43
3.75
 44
1.25
 73
     0
 74
     0
 77
     1
 78
     8
140
2.5
141
2.5
143
0.0393700787
147
0.625
171
     3
172
     1
178
     0
271
     2
272
     2
274
     3
278
    44
283
     0
284
     8
340
11
  0
ENDTAB
  0
TABLE
  2
BLOCK_RECORD
  5
1
330
0
100
AcDbSymbolTable
 70
     2
  0
BLOCK_RECORD
  5
1F
330
1
100
AcDbSymbolTableRecord
100
AcDbBlockTableRecord
  2
*Model_Space
340
22
  0
BLOCK_RECORD
  5
1B
330
1
100
AcDbSymbolTableRecord
100
AcDbBlockTableRecord
  2
*Paper_Space
340
1E
  0
BLOCK_RECORD
  5
23
330
1
100
AcDbSymbolTableRecord
100
AcDbBlockTableRecord
  2
*Paper_Space0
340
26
  0
BLOCK_RECORD
  5
12C
330
1
100
AcDbSymbolTableRecord
100
AcDbBlockTableRecord
  2
SW_CENTERMARKSYMBOL_0
340
0
102
{BLKREFS
331
137
102
}
  0
ENDTAB
  0
ENDSEC
  0
SECTION
  2
BLOCKS
  0
BLOCK
  5
20
330
1F
100
AcDbEntity
  8
0
100
AcDbBlockBegin
  2
*Model_Space
 70
     0
 10
0.0
 20
0.0
 30
0.0
  3
*Model_Space
  1

  0
ENDBLK
  5
21
330
1F
100
AcDbEntity
  8
0
100
AcDbBlockEnd
  0
BLOCK
  5
1C
330
1B
100
AcDbEntity
 67
     1
  8
0
100
AcDbBlockBegin
  2
*Paper_Space
 70
     0
 10
0.0
 20
0.0
 30
0.0
  3
*Paper_Space
  1

  0
ENDBLK
  5
1D
330
1B
100
AcDbEntity
 67
     1
  8
0
100
AcDbBlockEnd
  0
BLOCK
  5
24
330
23
100
AcDbEntity
  8
0
100
AcDbBlockBegin
  2
*Paper_Space0
 70
     0
 10
0.0
 20
0.0
 30
0.0
  3
*Paper_Space0
  1

  0
ENDBLK
  5
25
330
23
100
AcDbEntity
  8
0
100
AcDbBlockEnd
  0
BLOCK
  5
12D
330
12C
100
AcDbEntity
  8
0
100
AcDbBlockBegin
  2
SW_CENTERMARKSYMBOL_0
 70
     0
 10
0.0
 20
0.0
 30
0.0
  3
SW_CENTERMARKSYMBOL_0
  1

  0
LINE
  5
12F
330
12C
100
AcDbEntity
  8
0
  6
Continuous
 62
     0
370
    18
100
AcDbLine
 10
0.0
 20
0.0
 30
0.0
 11
0.0
 21
2.5
 31
0.0
  0
LINE
  5
130
330
12C
100
AcDbEntity
  8
0
  6
Continuous
 62
     0
370
    18
100
AcDbLine
 10
0.0
 20
0.0
 30
0.0
 11
-2.5
 21
0.0
 31
0.0
  0
LINE
  5
131
330
12C
100
AcDbEntity
  8
0
  6
Continuous
 62
     0
370
    18
100
AcDbLine
 10
0.0
 20
0.0
 30
0.0
 11
0.0
 21
-2.5
 31
0.0
  0
LINE
  5
132
330
12C
100
AcDbEntity
  8
0
  6
Continuous
 62
     0
370
    18
100
AcDbLine
 10
0.0
 20
0.0
 30
0.0
 11
2.5
 21
0.0
 31
0.0
  0
LINE
  5
133
330
12C
100
AcDbEntity
  8
0
  6
Continuous
 62
     0
370
    18
100
AcDbLine
 10
0.0
 20
5.0
 30
0.0
 11
0.0
 21
41.7161124892
 31
0.0
  0
LINE
  5
134
330
12C
100
AcDbEntity
  8
0
  6
Continuous
 62
     0
370
    18
100
AcDbLine
 10
-5.0
 20
0.0
 30
0.0
 11
-37.4389991103
 21
0.0
 31
0.0
  0
LINE
  5
135
330
12C
100
AcDbEntity
  8
0
  6
Continuous
 62
     0
370
    18
100
AcDbLine
 10
0.0
 20
-5.0
 30
0.0
 11
0.0
 21
-42.1153097379
 31
0.0
  0
LINE
  5
136
330
12C
100
AcDbEntity
  8
0
  6
Continuous
 62
     0
370
    18
100
AcDbLine
 10
5.0
 20
0.0
 30
0.0
 11
35.7851819371
 21
0.0
 31
0.0
  0
ENDBLK
  5
12E
330
12C
100
AcDbEntity
  8
0
100
AcDbBlockEnd
  0
ENDSEC
  0
SECTION
  2
ENTITIES
  0
MTEXT
  5
74
330
1F
100
AcDbEntity
  8
0
  6
Continuous
 62
     7
370
     0
100
AcDbMText
 10
497.9217041986
 20
324.1074091894
 30
0.0
 40
9.525
 41
0.0
 71
     1
 72
     1
  1
HN-1052R
  7
SLDTEXTSTYLE0
 73
     1
 44
1.0
  0
LINE
  5
75
330
1F
100
AcDbEntity
  8
0
  6
Continuous
 62
     7
370
    25
100
AcDbLine
 10
388.5009939832
 20
296.272004058
 30
0.0
 11
385.4881687256
 21
291.0536376374
 31
0.0
  0
LINE
  5
76
330
1F
100
AcDbEntity
  8
0
  6
Continuous
 62
     7
370
    25
100
AcDbLine
 10
385.4881687256
 20
229.0536376374
 30
0.0
 11
388.5009939832
 21
223.8352712168
 31
0.0
  0
LINE
  5
77
330
1F
100
AcDbEntity
  8
0
  6
Continuous
 62
     7
370
    25
100
AcDbLine
 10
398.4753434679
 20
223.8352712168
 30
0.0
 11
401.4881687256
 21
229.0536376374
 31
0.0
  0
LINE
  5
78
330
1F
100
AcDbEntity
  8
0
  6
Continuous
 62
     7
370
    25
100
AcDbLine
 10
401.4881687256
 20
291.0536376374
 30
0.0
 11
398.4753434679
 21
296.272004058
 31
0.0
  0
LINE
  5
79
330
1F
100
AcDbEntity
  8
0
  6
Continuous
 62
     7
370
    25
100
AcDbLine
 10
385.4881687256
 20
290.3018876374
 30
0.0
 11
357.4907493707
 21
289.4269682825
 31
0.0
  0
LINE
  5
7A
330
1F
100
AcDbEntity
  8
0
  6
Continuous
 62
     7
370
    25
100
AcDbLine
 10
357.4907493707
 20
230.6803069922
 30
0.0
 11
385.4881687256
 21
229.8053876374
 31
0.0
  0
LINE
  5
7B
330
1F
100
AcDbEntity
  8
0
  6
Continuous
 62
     7
370
    25
100
AcDbLine
 10
357.4907493707
 20
289.4269682825
 30
0.0
 11
355.4881687256
 21
287.4243876374
 31
0.0
  0
LINE
  5
7C
330
1F
100
AcDbEntity
  8
0
  6
Continuous
 62
     7
370
    25
100
AcDbLine
 10
355.4881687256
 20
232.6828876374
 30
0.0
 11
357.4907493707
 21
230.6803069922
 31
0.0
  0
LINE
  5
7D
330
1F
100
AcDbEntity
  8
0
  6
Continuous
 62
     7
370
    25
100
AcDbLine
 10
401.4881687256
 20
234.0536376374
 30
0.0
 11
413.4881687256
 21
234.0536376374
 31
0.0
  0
LINE
  5
7E
330
1F
100
AcDbEntity
  8
0
  6
Continuous
 62
     7
370
    25
100
AcDbLine
 10
413.4881687256
 20
286.0536376374
 30
0.0
 11
401.4881687256
 21
286.0536376374
 31
0.0
  0
LINE
  5
7F
330
1F
100
AcDbEntity
  8
0
  6
Continuous
 62
     7
370
    25
100
AcDbLine
 10
413.4881687256
 20
234.0536376374
 30
0.0
 11
425.4881687256
 21
236.0536376374
 31
0.0
  0
LINE
  5
80
330
1F
100
AcDbEntity
  8
0
  6
Continuous
 62
     7
370
    25
100
AcDbLine
 10
425.4881687256
 20
284.0536376374
 30
0.0
 11
413.4881687256
 21
286.0536376374
 31
0.0
  0
ARC
  5
81
330
1F
100
AcDbEntity
  8
0
  6
Continuous
 62
     7
370
    25
100
AcDbCircle
 10
473.9881687256
 20
285.4771327937
 30
0.0
 40
0.5
100
AcDbArc
 50
81.8698976458
 51
180.0
  0
ARC
  5
82
330
1F
100
AcDbEntity
  8
0
  6
Continuous
 62
     7
370
    25
100
AcDbCircle
 10
473.9881687256
 20
234.6301424811
 30
0.0
 40
0.500000000000008
100
AcDbArc
 50
180.0
 51
278.1301023542
  0
LINE
  5
83
330
1F
100
AcDbEntity
  8
0
  6
Continuous
 62
     7
370
    25
100
AcDbLine
 10
474.0588794037
 20
234.1351677343
 30
0.0
 11
485.7710114381
 21
235.8083294535
 31
0.0
  0
LINE
  5
84
330
1F
100
AcDbEntity
  8
0
  6
Continuous
 62
     7
370
    25
100
AcDbLine
 10
485.7710114381
 20
284.2989458213
 30
0.0
 11
474.0588794037
 21
285.9721075405
 31
0.0
  0
ARC
  5
85
330
1F
100
AcDbEntity
  8
0
  6
Continuous
 62
     7
370
    25
100
AcDbCircle
 10
425.9881687256
 20
285.4634074265
 30
0.0
 40
0.5
100
AcDbArc
 50
80.537677792
 51
180.0
  0
ARC
  5
86
330
1F
100
AcDbEntity
  8
0
  6
Continuous
 62
     7
370
    25
100
AcDbCircle
 10
425.9881687256
 20
234.6438678482
 30
0.0
 40
0.5
100
AcDbArc
 50
180.0
 51
279.462322208
  0
ARC
  5
87
330
1F
100
AcDbEntity
  8
0
  6
Continuous
 62
     7
370
    25
100
AcDbCircle
 10
437.9881687256
 20
285.4634074265
 30
0.0
 40
0.5
100
AcDbArc
 50
80.537677792
 51
180.0
  0
ARC
  5
88
330
1F
100
AcDbEntity
  8
0
  6
Continuous
 62
     7
370
    25
100
AcDbCircle
 10
437.9881687256
 20
234.6438678482
 30
0.0
 40
0.5
100
AcDbArc
 50
180.0
 51
279.462322208
  0
ARC
  5
89
330
1F
100
AcDbEntity
  8
0
  6
Continuous
 62
     7
370
    25
100
AcDbCircle
 10
449.9881687256
 20
285.4634074265
 30
0.0
 40
0.5000000000000568
100
AcDbArc
 50
80.537677792
 51
180.0
  0
ARC
  5
8A
330
1F
100
AcDbEntity
  8
0
  6
Continuous
 62
     7
370
    25
100
AcDbCircle
 10
449.9881687256
 20
234.6438678482
 30
0.0
 40
0.5000000000000568
100
AcDbArc
 50
180.0
 51
279.462322208
  0
ARC
  5
8B
330
1F
100
AcDbEntity
  8
0
  6
Continuous
 62
     7
370
    25
100
AcDbCircle
 10
461.9881687256
 20
285.4634074265
 30
0.0
 40
0.5
100
AcDbArc
 50
80.537677792
 51
180.0
  0
ARC
  5
8C
330
1F
100
AcDbEntity
  8
0
  6
Continuous
 62
     7
370
    25
100
AcDbCircle
 10
461.9881687256
 20
234.6438678482
 30
0.0
 40
0.5
100
AcDbArc
 50
180.0
 51
279.462322208
  0
LINE
  5
8D
330
1F
100
AcDbEntity
  8
0
  6
Continuous
 62
     7
370
    25
100
AcDbLine
 10
426.0703682192
 20
234.1506708863
 30
0.0
 11
437.4881687256
 21
236.0536376374
 31
0.0
  0
LINE
  5
8E
330
1F
100
AcDbEntity
  8
0
  6
Continuous
 62
     7
370
    25
100
AcDbLine
 10
437.4881687256
 20
284.0536376374
 30
0.0
 11
426.0703682192
 21
285.9566043884
 31
0.0
  0
LINE
  5
8F
330
1F
100
AcDbEntity
  8
0
  6
Continuous
 62
     7
370
    25
100
AcDbLine
 10
450.0703682192
 20
234.1506708863
 30
0.0
 11
461.4881687256
 21
236.0536376374
 31
0.0
  0
LINE
  5
90
330
1F
100
AcDbEntity
  8
0
  6
Continuous
 62
     7
370
    25
100
AcDbLine
 10
461.4881687256
 20
284.0536376374
 30
0.0
 11
450.0703682192
 21
285.9566043884
 31
0.0
  0
LINE
  5
91
330
1F
100
AcDbEntity
  8
0
  6
Continuous
 62
     7
370
    25
100
AcDbLine
 10
438.0703682192
 20
234.1506708863
 30
0.0
 11
449.4881687256
 21
236.0536376374
 31
0.0
  0
LINE
  5
92
330
1F
100
AcDbEntity
  8
0
  6
Continuous
 62
     7
370
    25
100
AcDbLine
 10
449.4881687256
 20
284.0536376374
 30
0.0
 11
438.0703682192
 21
285.9566043884
 31
0.0
  0
LINE
  5
93
330
1F
100
AcDbEntity
  8
0
  6
Continuous
 62
     7
370
    25
100
AcDbLine
 10
462.0703682192
 20
234.1506708863
 30
0.0
 11
473.4881687256
 21
236.0536376374
 31
0.0
  0
LINE
  5
94
330
1F
100
AcDbEntity
  8
0
  6
Continuous
 62
     7
370
    25
100
AcDbLine
 10
473.4881687256
 20
284.0536376374
 30
0.0
 11
462.0703682192
 21
285.9566043884
 31
0.0
  0
ARC
  5
95
330
1F
100
AcDbEntity
  8
0
  6
Continuous
 62
     7
370
    25
100
AcDbCircle
 10
485.4881687256
 20
282.319046834
 30
0.0
 40
2.000000000000032
100
AcDbArc
 50
0.0
 51
81.8698976458
  0
ARC
  5
96
330
1F
100
AcDbEntity
  8
0
  6
Continuous
 62
     7
370
    25
100
AcDbCircle
 10
485.4881687256
 20
237.7882284408
 30
0.0
 40
2.0
100
AcDbArc
 50
278.1301023542
 51
0.0
  0
LINE
  5
97
330
1F
100
AcDbEntity
  8
0
  6
Continuous
 62
     7
370
    25
100
AcDbLine
 10
388.4958559693
 20
223.8352712168
 30
0.0
 11
398.4804814818
 21
223.8352712168
 31
0.0
  0
LINE
  5
98
330
1F
100
AcDbEntity
  8
0
  6
Continuous
 62
     7
370
    25
100
AcDbLine
 10
398.4804814818
 20
296.272004058
 30
0.0
 11
388.4958559693
 21
296.272004058
 31
0.0
  0
LINE
  5
99
330
1F
100
AcDbEntity
  8
0
  6
Continuous
 62
     7
370
    25
100
AcDbLine
 10
398.5506938331
 20
277.6628208477
 30
0.0
 11
388.425643618
 21
277.6628208477
 31
0.0
  0
SPLINE
  5
9A
330
1F
100
AcDbEntity
  8
0
  6
Continuous
 62
     7
370
    25
100
AcDbSpline
210
0.0
220
0.0
230
1.0
 70
     8
 71
     3
 72
    12
 73
     8
 74
     0
 42
0.000000001
 43
0.00000001
 40
0.0
 40
0.0
 40
0.0
 40
0.0
 40
0.4999999999999997
 40
0.4999999999999997
 40
0.7499999999999997
 40
0.7499999999999997
 40
1.0
 40
1.0
 40
1.0
 40
1.0
 10
398.5506938331165
 20
277.6628208476712
 30
0.0
 10
399.1384981806144
 20
275.5763357485795
 30
0.0
 10
399.6542005714558
 20
273.4650202181724
 30
0.0
 10
400.2798594918257
 20
270.2471150406312
 30
0.0
 10
400.4627099688883
 20
269.1701570814555
 30
0.0
 10
400.7697771074133
 20
267.019944008347
 30
0.0
 10
400.8943520284927
 20
265.9447974776012
 30
0.0
 10
400.9881687255807
 20
264.8696084673068
 30
0.0
  0
LINE
  5
9B
330
1F
100
AcDbEntity
  8
0
  6
Continuous
 62
     7
370
    25
100
AcDbLine
 10
400.9881687256
 20
255.2376668075
 30
0.0
 11
400.9881687256
 21
264.8696084673
 31
0.0
  0
SPLINE
  5
9C
330
1F
100
AcDbEntity
  8
0
  6
Continuous
 62
     7
370
    25
100
AcDbSpline
210
0.0
220
0.0
230
1.0
 70
     8
 71
     3
 72
    12
 73
     8
 74
     0
 42
0.000000001
 43
0.00000001
 40
0.0
 40
0.0
 40
0.0
 40
0.0
 40
0.2499999999999999
 40
0.2499999999999999
 40
0.4999999999999998
 40
0.4999999999999998
 40
1.0
 40
1.0
 40
1.0
 40
1.0
 10
400.9881687255806
 20
255.237666807468
 30
0.0
 10
400.894333265704
 20
254.1622627656839
 30
0.0
 10
400.7697195975568
 20
253.0868162167513
 30
0.0
 10
400.462511810954
 20
250.9358430432827
 30
0.0
 10
400.2794642855594
 20
249.8579729439435
 30
0.0
 10
399.6539209270387
 20
246.6411264895655
 30
0.0
 10
399.1383491507123
 20
244.5304105259059
 30
0.0
 10
398.5506938331166
 20
242.444454427104
 30
0.0
  0
LINE
  5
9D
330
1F
100
AcDbEntity
  8
0
  6
Continuous
 62
     7
370
    25
100
AcDbLine
 10
388.425643618
 20
242.4444544271
 30
0.0
 11
398.5506938331
 21
242.4444544271
 31
0.0
  0
SPLINE
  5
9E
330
1F
100
AcDbEntity
  8
0
  6
Continuous
 62
     7
370
    25
100
AcDbSpline
210
0.0
220
0.0
230
1.0
 70
     8
 71
     3
 72
    20
 73
    16
 74
     0
 42
0.000000001
 43
0.00000001
 40
0.0
 40
0.0
 40
0.0
 40
0.0
 40
0.1249999999999999
 40
0.1249999999999999
 40
0.2499999999999999
 40
0.2499999999999999
 40
0.5
 40
0.5
 40
0.6249999999999999
 40
0.6249999999999999
 40
0.6874999999999999
 40
0.6874999999999999
 40
0.7499999999999999
 40
0.7499999999999999
 40
1.0
 40
1.0
 40
1.0
 40
1.0
 10
388.4256436180448
 20
277.6628208476712
 30
0.0
 10
388.0216250480636
 20
276.228706367895
 30
0.0
 10
387.6512856259723
 20
274.7810335224117
 30
0.0
 10
386.9956780965978
 20
271.8550314003112
 30
0.0
 10
386.7132702091542
 20
270.3887778892475
 30
0.0
 10
386.023499745841
 20
265.978736405222
 30
0.0
 10
385.7766708203001
 20
263.0234467782582
 30
0.0
 10
385.7769305188855
 20
258.5639671349627
 30
0.0
 10
385.8380706199877
 20
257.0730996561155
 30
0.0
 10
386.0202247131571
 20
254.8303184573561
 30
0.0
 10
386.0960021748555
 20
254.0820670701966
 30
0.0
 10
386.2748096863832
 20
252.5964725184999
 30
0.0
 10
386.3779544869747
 20
251.8574520265288
 30
0.0
 10
386.9571726759029
 20
248.1798012103349
 30
0.0
 10
387.6230556555063
 20
245.2933408493891
 30
0.0
 10
388.4256436180448
 20
242.444454427104
 30
0.0
  0
ELLIPSE
  5
9F
330
1F
100
AcDbEntity
  8
0
  6
Continuous
 62
     7
370
    25
100
AcDbEllipse
 10
388.4683173703
 20
263.0969703427
 30
0.0
 11
-0.02047117638090868
 21
3.312155340488744
 31
0.0
210
0.0
220
0.0
230
1.0
 40
0.9457725718
 41
3.989303372285765
 42
5.470819608458021
  0
LINE
  5
A0
330
1F
100
AcDbEntity
  8
0
  6
Continuous
 62
     7
370
    25
100
AcDbLine
 10
390.8305442724
 20
260.9198291318
 30
0.0
 11
390.8397706673
 21
260.7491083374
 31
0.0
  0
LINE
  5
A1
330
1F
100
AcDbEntity
  8
0
  6
Continuous
 62
     7
370
    25
100
AcDbLine
 10
390.8397706673
 20
260.7491083374
 30
0.0
 11
392.4660119736
 21
259.8704749067
 31
0.0
  0
LINE
  5
A2
330
1F
100
AcDbEntity
  8
0
  6
Continuous
 62
     7
370
    25
100
AcDbLine
 10
392.4660119736
 20
259.8704749067
 30
0.0
 11
392.4337084513
 21
259.9291753797
 31
0.0
  0
ELLIPSE
  5
A3
330
1F
100
AcDbEntity
  8
0
  6
Continuous
 62
     7
370
    25
100
AcDbEllipse
 10
393.0710160913
 20
260.3152040773
 30
0.0
 11
1.705302565824241E-13
 21
-0.7720573952776135
 31
0.0
210
0.0
220
0.0
230
1.0
 40
0.9531667975
 41
3.47014582414082
 42
5.235987755983077
  0
LINE
  5
A4
330
1F
100
AcDbEntity
  8
0
  6
Continuous
 62
     7
370
    25
100
AcDbLine
 10
392.8335605172
 20
261.0459642678
 30
0.0
 11
396.8407147062
 21
262.4791607401
 31
0.0
  0
ELLIPSE
  5
A5
330
1F
100
AcDbEntity
  8
0
  6
Continuous
 62
     7
370
    25
100
AcDbEllipse
 10
396.5422051592
 20
263.1517188366
 30
0.0
 11
1.080024958355352E-12
 21
0.7418989032748868
 31
0.0
210
0.0
220
0.0
230
1.0
 40
0.9531667975
 41
3.577384552346494
 42
5.847393408425628
  0
LINE
  5
A6
330
1F
100
AcDbEntity
  8
0
  6
Continuous
 62
     7
370
    25
100
AcDbLine
 10
396.8407147062
 20
263.8242769332
 30
0.0
 11
392.8326264858
 21
265.2578074705
 31
0.0
  0
ELLIPSE
  5
A7
330
1F
100
AcDbEntity
  8
0
  6
Continuous
 62
     7
370
    25
100
AcDbEllipse
 10
393.0700820599
 20
265.988567661
 30
0.0
 11
-1.705302565824240E-13
 21
-0.7720573952779546
 31
0.0
210
0.0
220
0.0
230
1.0
 40
0.9531667975
 41
4.172308780231927
 42
5.954632136627926
  0
LINE
  5
A8
330
1F
100
AcDbEntity
  8
0
  6
Continuous
 62
     7
370
    25
100
AcDbLine
 10
392.4389250375
 20
266.3855632629
 30
0.0
 11
392.4660119736
 21
266.4329627666
 31
0.0
  0
LINE
  5
A9
330
1F
100
AcDbEntity
  8
0
  6
Continuous
 62
     7
370
    25
100
AcDbLine
 10
392.4660119736
 20
266.4329627666
 30
0.0
 11
390.7545118433
 21
265.5351660038
 31
0.0
  0
ELLIPSE
  5
AA
330
1F
100
AcDbEntity
  8
0
  6
Continuous
 62
     7
370
    25
100
AcDbEllipse
 10
390.7881766073
 20
265.4516102999
 30
0.0
 11
-0.0001485776788854309
 21
0.09159343699201372
 31
0.0
210
0.0
220
0.0
230
1.0
 40
0.8965169844
 41
0.4206116945208359
 42
2.32094577423292
  0
LINE
  5
AB
330
1F
100
AcDbEntity
  8
0
  6
Continuous
 62
     7
370
    25
100
AcDbLine
 10
396.122210939
 20
257.6545990422
 30
0.0
 11
396.122210939
 21
255.4836588713
 31
0.0
  0
LINE
  5
AC
330
1F
100
AcDbEntity
  8
0
  6
Continuous
 62
     7
370
    25
100
AcDbLine
 10
393.4763776057
 20
258.1973340849
 30
0.0
 11
396.122210939
 21
257.6545990422
 31
0.0
  0
SPLINE
  5
AD
330
1F
100
AcDbEntity
  8
0
  6
Continuous
 62
     7
370
    25
100
AcDbSpline
210
0.0
220
0.0
230
1.0
 70
     8
 71
     3
 72
    15
 73
    11
 74
     0
 42
0.000000001
 43
0.00000001
 40
0.0
 40
0.0
 40
0.0
 40
0.0
 40
0.1022030370352198
 40
0.2110233423738758
 40
0.3250996615652085
 40
0.4465020971348897
 40
0.573787717648856
 40
0.7089007097660665
 40
0.850357871293401
 40
1.0
 40
1.0
 40
1.0
 40
1.0
 10
393.7477451270581
 20
257.0313017665695
 30
0.0
 10
393.7468673285223
 20
257.0723181232174
 30
0.0
 10
393.7450548972448
 20
257.1570064937678
 30
0.0
 10
393.7317100746622
 20
257.2869136246561
 30
0.0
 10
393.7101816176101
 20
257.4234261105852
 30
0.0
 10
393.6805690767936
 20
257.5660206455332
 30
0.0
 10
393.6418173297895
 20
257.7151254613557
 30
0.0
 10
393.5953799300342
 20
257.8704259005505
 30
0.0
 10
393.5398597653124
 20
258.0322484940994
 30
0.0
 10
393.4979312992907
 20
258.1412836250356
 30
0.0
 10
393.4763776056906
 20
258.1973340849456
 30
0.0
  0
SPLINE
  5
AE
330
1F
100
AcDbEntity
  8
0
  6
Continuous
 62
     7
370
    25
100
AcDbSpline
210
0.0
220
0.0
230
1.0
 70
     8
 71
     3
 72
    23
 73
    19
 74
     0
 42
0.000000001
 43
0.00000001
 40
0.0
 40
0.0
 40
0.0
 40
0.0
 40
0.0653576972243548
 40
0.1273889086071896
 40
0.1883681164511443
 40
0.2472296756523014
 40
0.3056493723966352
 40
0.3633319549722099
 40
0.4226570474974943
 40
0.482689228294006
 40
0.5433080127427424
 40
0.604131623917271
 40
0.6649844397723434
 40
0.7272324816792616
 40
0.7914474737288116
 40
0.8580417259885739
 40
0.9270297638544173
 40
0.9999999999999999
 40
0.9999999999999999
 40
0.9999999999999999
 40
0.9999999999999999
 10
392.5795927499214
 20
255.7550263926379
 30
0.0
 10
392.6220456303191
 20
255.7559917017122
 30
0.0
 10
392.704790683018
 20
255.7578731888925
 30
0.0
 10
392.826273216005
 20
255.7741610966064
 30
0.0
 10
392.9414029230949
 20
255.8013697899509
 30
0.0
 10
393.0506807523954
 20
255.8401094415335
 30
0.0
 10
393.1537573174897
 20
255.8884577652516
 30
0.0
 10
393.2504054654096
 20
255.9491605517829
 30
0.0
 10
393.341533943394
 20
256.0196330226082
 30
0.0
 10
393.4247976317073
 20
256.1019080358445
 30
0.0
 10
393.5017671560284
 20
256.1914062187434
 30
0.0
 10
393.5671437211932
 20
256.2904263416847
 30
0.0
 10
393.6227411696396
 20
256.3963249358051
 30
0.0
 10
393.6682934515998
 20
256.5092982461327
 30
0.0
 10
393.7045793319672
 20
256.6294854310149
 30
0.0
 10
393.7296569985998
 20
256.7569512230702
 30
0.0
 10
393.7446630952518
 20
256.8917246730769
 30
0.0
 10
393.7466987484807
 20
256.9839140399937
 30
0.0
 10
393.7477451270581
 20
257.0313017665695
 30
0.0
  0
SPLINE
  5
AF
330
1F
100
AcDbEntity
  8
0
  6
Continuous
 62
     7
370
    25
100
AcDbSpline
210
0.0
220
0.0
230
1.0
 70
     8
 71
     3
 72
    23
 73
    19
 74
     0
 42
0.000000001
 43
0.00000001
 40
0.0
 40
0.0
 40
0.0
 40
0.0
 40
0.0642043039858555
 40
0.1264187998912176
 40
0.1876715405934559
 40
0.2480408217205966
 40
0.30833728477497
 40
0.3696903576340547
 40
0.4317250278824264
 40
0.495970375095064
 40
0.559778534017803
 40
0.6223130043727447
 40
0.6839253612931945
 40
0.7451042837219188
 40
0.8067492289987209
 40
0.8690927171294502
 40
0.9332931108680966
 40
1.0
 40
1.0
 40
1.0
 40
1.0
 10
391.2375955544085
 20
257.0980836175311
 30
0.0
 10
391.2388468754655
 20
257.0527931450937
 30
0.0
 10
391.2413107368655
 20
256.9636158342815
 30
0.0
 10
391.2599684103344
 20
256.8323101731341
 30
0.0
 10
391.2894581556034
 20
256.7059100152993
 30
0.0
 10
391.3307715996222
 20
256.584190983359
 30
0.0
 10
391.3854268638563
 20
256.4677511816918
 30
0.0
 10
391.4525677056986
 20
256.3567552437884
 30
0.0
 10
391.5305190222779
 20
256.2496219345855
 30
0.0
 10
391.619614531753
 20
256.1491708417239
 30
0.0
 10
391.7178535990784
 20
256.0571922380947
 30
0.0
 10
391.8228939058901
 20
255.9759168350575
 30
0.0
 10
391.9349522774338
 20
255.9082187384209
 30
0.0
 10
392.0520841050531
 20
255.8511682714938
 30
0.0
 10
392.1755743588575
 20
255.8078472363152
 30
0.0
 10
392.3048439779456
 20
255.7769424129854
 30
0.0
 10
392.4402123449319
 20
255.7587949329757
 30
0.0
 10
392.5325433246267
 20
255.7562985058672
 30
0.0
 10
392.5795927499214
 20
255.7550263926379
 30
0.0
  0
SPLINE
  5
B0
330
1F
100
AcDbEntity
  8
0
  6
Continuous
 62
     7
370
    25
100
AcDbSpline
210
0.0
220
0.0
230
1.0
 70
     8
 71
     3
 72
    19
 73
    15
 74
     0
 42
0.000000001
 43
0.00000001
 40
0.0
 40
0.0
 40
0.0
 40
0.0
 40
0.0946859008739597
 40
0.1819915590225709
 40
0.2643731764917001
 40
0.3416388458246975
 40
0.4185576903714564
 40
0.4964480435291888
 40
0.5773069060618145
 40
0.6614472063770033
 40
0.7466679488088039
 40
0.8313674585685807
 40
0.915206826056237
 40
1.0
 40
1.0
 40
1.0
 40
1.0
 10
392.1873818791949
 20
258.2651759652875
 30
0.0
 10
392.1369146078733
 20
258.2534984326584
 30
0.0
 10
392.0399137101404
 20
258.2310535665369
 30
0.0
 10
391.9037136234168
 20
258.1816594996088
 30
0.0
 10
391.782299840369
 20
258.1218531346378
 30
0.0
 10
391.6749300182462
 20
258.0490792061761
 30
0.0
 10
391.5796387752402
 20
257.9647249057061
 30
0.0
 10
391.4956206996501
 20
257.8666673908771
 30
0.0
 10
391.4197294354885
 20
257.7573580672203
 30
0.0
 10
391.3563617213746
 20
257.6358275663724
 30
0.0
 10
391.3029829677649
 20
257.5073639474952
 30
0.0
 10
391.2648901357052
 20
257.3736766440856
 30
0.0
 10
391.2418317254073
 20
257.2366896763963
 30
0.0
 10
391.2390129259007
 20
257.144459525523
 30
0.0
 10
391.2375955544085
 20
257.0980836175311
 30
0.0
  0
LINE
  5
B1
330
1F
100
AcDbEntity
  8
0
  6
Continuous
 62
     7
370
    25
100
AcDbLine
 10
392.1873818792
 20
258.7400691277
 30
0.0
 11
392.1873818792
 21
258.2651759653
 31
0.0
  0
SPLINE
  5
B2
330
1F
100
AcDbEntity
  8
0
  6
Continuous
 62
     7
370
    25
100
AcDbSpline
210
0.0
220
0.0
230
1.0
 70
     8
 71
     3
 72
    23
 73
    19
 74
     0
 42
0.000000001
 43
0.00000001
 40
0.0
 40
0.0
 40
0.0
 40
0.0
 40
0.0654295321714411
 40
0.1287248750926147
 40
0.1902605342716786
 40
0.2507565503513356
 40
0.3108550608925596
 40
0.3707755203927199
 40
0.4318826388436727
 40
0.4937988059782172
 40
0.5561672837585602
 40
0.6172933022929954
 40
0.6786268373557868
 40
0.7406781131058425
 40
0.8029601009541361
 40
0.8667855014612821
 40
0.9323384967828303
 40
0.9999999999999999
 40
0.9999999999999999
 40
0.9999999999999999
 40
0.9999999999999999
 10
390.6948605116735
 20
257.1256443814199
 30
0.0
 10
390.6959078018841
 20
257.1783694768122
 30
0.0
 10
390.6979682216527
 20
257.282099873368
 30
0.0
 10
390.7194251758752
 20
257.4340965626711
 30
0.0
 10
390.7503597014498
 20
257.5802498475894
 30
0.0
 10
390.7961908770433
 20
257.7199333359322
 30
0.0
 10
390.8562035387442
 20
257.8525644683131
 30
0.0
 10
390.9275076581271
 20
257.9800424918871
 30
0.0
 10
391.0123941211134
 20
258.100787373842
 30
0.0
 10
391.1100865003723
 20
258.2139736160423
 30
0.0
 10
391.2174298426676
 20
258.3180168630017
 30
0.0
 10
391.3328029069737
 20
258.4123640457287
 30
0.0
 10
391.4563526272289
 20
258.4953126400287
 30
0.0
 10
391.587677256237
 20
258.5671635379282
 30
0.0
 10
391.7265438585002
 20
258.6283739543252
 30
0.0
 10
391.8733803134805
 20
258.6764803541803
 30
0.0
 10
392.0274445854433
 20
258.715302165274
 30
0.0
 10
392.1335098505746
 20
258.7317268175395
 30
0.0
 10
392.1873818791949
 20
258.7400691276807
 30
0.0
  0
SPLINE
  5
B3
330
1F
100
AcDbEntity
  8
0
  6
Continuous
 62
     7
370
    25
100
AcDbSpline
210
0.0
220
0.0
230
1.0
 70
     8
 71
     3
 72
    31
 73
    27
 74
     0
 42
0.000000001
 43
0.00000001
 40
0.0
 40
0.0
 40
0.0
 40
0.0
 40
0.0440164130261001
 40
0.0874379823170951
 40
0.1301241410529551
 40
0.1725613097109424
 40
0.2142176203315095
 40
0.2563024923207569
 40
0.2984444850884292
 40
0.3405355360341022
 40
0.3824035700547522
 40
0.4236142451276406
 40
0.4642225993249143
 40
0.504051785203381
 40
0.5438417755474606
 40
0.5835483469147171
 40
0.6230776852221733
 40
0.6632141983679043
 40
0.7035381757130893
 40
0.7439265941338957
 40
0.7845317461583772
 40
0.8257424212312658
 40
0.8677515272464189
 40
0.9107412250311065
 40
0.9549124571724223
 40
1.0
 40
1.0
 40
1.0
 40
1.0
 10
392.5594521916948
 20
255.2801332302447
 30
0.0
 10
392.5163295803645
 20
255.2811396664927
 30
0.0
 10
392.4306671224825
 20
255.2831389378735
 30
0.0
 10
392.3034451543957
 20
255.2932835225403
 30
0.0
 10
392.1789350908081
 20
255.3128904965886
 30
0.0
 10
392.0573651995725
 20
255.3388954358629
 30
0.0
 10
391.9386216215869
 20
255.3736107454778
 30
0.0
 10
391.8220395170812
 20
255.4142166095005
 30
0.0
 10
391.7088954513782
 20
255.4646870117875
 30
0.0
 10
391.5986897132211
 20
255.5206390903588
 30
0.0
 10
391.49268357017
 20
255.5825954721151
 30
0.0
 10
391.3934187115518
 20
255.6522640471581
 30
0.0
 10
391.2986298915662
 20
255.7246537102365
 30
0.0
 10
391.2111321937177
 20
255.8037527817156
 30
0.0
 10
391.1305862287554
 20
255.8886619477562
 30
0.0
 10
391.0565937976101
 20
255.978908765876
 30
0.0
 10
390.9878269588124
 20
256.0736746832432
 30
0.0
 10
390.9270973970127
 20
256.1744522530046
 30
0.0
 10
390.8712126776248
 20
256.2789887798348
 30
0.0
 10
390.8253664443811
 20
256.3887958139207
 30
0.0
 10
390.7843778896955
 20
256.5013732780729
 30
0.0
 10
390.7517063469652
 20
256.6183416082971
 30
0.0
 10
390.7261059357872
 20
256.7394358232242
 30
0.0
 10
390.7087181233506
 20
256.8648555437873
 30
0.0
 10
390.696053747548
 20
256.9939429852371
 30
0.0
 10
390.6952609697915
 20
257.0814444923702
 30
0.0
 10
390.6948605116735
 20
257.1256443814199
 30
0.0
  0
SPLINE
  5
B4
330
1F
100
AcDbEntity
  8
0
  6
Continuous
 62
     7
370
    25
100
AcDbSpline
210
0.0
220
0.0
230
1.0
 70
     8
 71
     3
 72
    23
 73
    19
 74
     0
 42
0.000000001
 43
0.00000001
 40
0.0
 40
0.0
 40
0.0
 40
0.0
 40
0.0658003265884094
 40
0.1293798822483386
 40
0.1907832967406567
 40
0.2512930653898816
 40
0.3108203394786833
 40
0.3703697385539726
 40
0.4307602962224807
 40
0.4925975469737539
 40
0.5548133240123878
 40
0.616090414690663
 40
0.6769309484451126
 40
0.7382889163250838
 40
0.800784293902111
 40
0.8647926212089566
 40
0.9310529642421994
 40
1.0
 40
1.0
 40
1.0
 40
1.0
 10
394.2904801697932
 20
256.9454393867618
 30
0.0
 10
394.2892434337862
 20
256.8863376477666
 30
0.0
 10
394.2868117017987
 20
256.7701288623648
 30
0.0
 10
394.2620751803562
 20
256.6003656866116
 30
0.0
 10
394.2262463446851
 20
256.437492214367
 30
0.0
 10
394.1710452400895
 20
256.2839132580105
 30
0.0
 10
394.1036348463894
 20
256.1371990439542
 30
0.0
 10
394.0187299833894
 20
255.9998692101652
 30
0.0
 10
393.9196037652389
 20
255.8699963278558
 30
0.0
 10
393.8067667124127
 20
255.7484780113999
 30
0.0
 10
393.6812927990511
 20
255.6387545499124
 30
0.0
 10
393.5458253397301
 20
255.5434084780709
 30
0.0
 10
393.4033204615303
 20
255.460189044489
 30
0.0
 10
393.2504381424212
 20
255.3952853543655
 30
0.0
 10
393.090061794763
 20
255.3423176121893
 30
0.0
 10
392.9203401321609
 20
255.3073905507204
 30
0.0
 10
392.7427799052357
 20
255.2840607866044
 30
0.0
 10
392.6213656332868
 20
255.2814596447108
 30
0.0
 10
392.5594521916948
 20
255.2801332302447
 30
0.0
  0
SPLINE
  5
B5
330
1F
100
AcDbEntity
  8
0
  6
Continuous
 62
     7
370
    25
100
AcDbSpline
210
0.0
220
0.0
230
1.0
 70
     8
 71
     3
 72
    11
 73
     7
 74
     0
 42
0.000000001
 43
0.00000001
 40
0.0
 40
0.0
 40
0.0
 40
0.0
 40
0.2750683690187431
 40
0.5329014600899361
 40
0.7739734595924447
 40
0.9999999999999999
 40
0.9999999999999999
 40
0.9999999999999999
 40
0.9999999999999999
 10
394.1876573199
 20
257.5687366624029
 30
0.0
 10
394.2031245165655
 20
257.5127117094808
 30
0.0
 10
394.2330897638091
 20
257.4041722241151
 30
0.0
 10
394.2663603929108
 20
257.2439710057533
 30
0.0
 10
394.2864164809502
 20
257.0918851743151
 30
0.0
 10
394.2891550099388
 20
256.9931950309563
 30
0.0
 10
394.2904801697932
 20
256.9454393867618
 30
0.0
  0
LINE
  5
B6
330
1F
100
AcDbEntity
  8
0
  6
Continuous
 62
     7
370
    25
100
AcDbLine
 10
395.5794758963
 20
257.2835887591
 30
0.0
 11
394.1876573199
 21
257.5687366624
 31
0.0
  0
LINE
  5
B7
330
1F
100
AcDbEntity
  8
0
  6
Continuous
 62
     7
370
    25
100
AcDbLine
 10
395.5794758963
 20
255.4836588713
 30
0.0
 11
395.5794758963
 21
257.2835887591
 31
0.0
  0
LINE
  5
B8
330
1F
100
AcDbEntity
  8
0
  6
Continuous
 62
     7
370
    25
100
AcDbLine
 10
396.122210939
 20
255.4836588713
 30
0.0
 11
395.5794758963
 21
255.4836588713
 31
0.0
  0
SPLINE
  5
B9
330
1F
100
AcDbEntity
  8
0
  6
Continuous
 62
     7
370
    25
100
AcDbSpline
210
0.0
220
0.0
230
1.0
 70
     8
 71
     3
 72
    23
 73
    19
 74
     0
 42
0.000000001
 43
0.00000001
 40
0.0
 40
0.0
 40
0.0
 40
0.0
 40
0.0644298907154206
 40
0.1265296670735545
 40
0.186743666835524
 40
0.2458976834781377
 40
0.3040531068209927
 40
0.3621955162170456
 40
0.4206546388524617
 40
0.4803308563188677
 40
0.5406628760855982
 40
0.6007435113432726
 40
0.6619818568335173
 40
0.7244800553727143
 40
0.7890671410372118
 40
0.8563333367785129
 40
0.9263620640115918
 40
1.0
 40
1.0
 40
1.0
 40
1.0
 10
395.7151596569726
 20
252.8325253910353
 30
0.0
 10
395.7141212532017
 20
252.8739178700212
 30
0.0
 10
395.7120819996509
 20
252.9552058642624
 30
0.0
 10
395.6966356766794
 20
253.074301309325
 30
0.0
 10
395.6732190438858
 20
253.188697678428
 30
0.0
 10
395.6360283203401
 20
253.2966880759541
 30
0.0
 10
395.5920856318862
 20
253.4006109654291
 30
0.0
 10
395.5362611819099
 20
253.4982477574094
 30
0.0
 10
395.47139193069
 20
253.5912195216464
 30
0.0
 10
395.396173388425
 20
253.677997052697
 30
0.0
 10
395.3116599188466
 20
253.7572525570075
 30
0.0
 10
395.2185202411761
 20
253.8278680658289
 30
0.0
 10
395.1174248868999
 20
253.8891623192691
 30
0.0
 10
395.0087887708601
 20
253.9427156766437
 30
0.0
 10
394.8915302822701
 20
253.9861864968234
 30
0.0
 10
394.7660923072871
 20
254.0194092382797
 30
0.0
 10
394.6330119992447
 20
254.0456960937764
 30
0.0
 10
394.5411107908446
 20
254.0544780799977
 30
0.0
 10
394.4940058108188
 20
254.0589793840909
 30
0.0
  0
SPLINE
  5
BA
330
1F
100
AcDbEntity
  8
0
  6
Continuous
 62
     7
370
    25
100
AcDbSpline
210
0.0
220
0.0
230
1.0
 70
     8
 71
     3
 72
    23
 73
    19
 74
     0
 42
0.000000001
 43
0.00000001
 40
0.0
 40
0.0
 40
0.0
 40
0.0
 40
0.061965400687062
 40
0.1221219056382953
 40
0.1809884968498418
 40
0.2399332164519024
 40
0.2999058311065242
 40
0.3599888474769875
 40
0.4217757417416462
 40
0.4865758264211262
 40
0.5515348046197416
 40
0.6150175427599799
 40
0.6772586166616571
 40
0.7397299623627133
 40
0.8030501026629513
 40
0.866495132015698
 40
0.9319734741771493
 40
1.0
 40
1.0
 40
1.0
 40
1.0
 10
394.6424099240667
 20
251.6845135721251
 30
0.0
 10
394.6785163240449
 20
251.6854747539349
 30
0.0
 10
394.7496751049483
 20
251.6873690587079
 30
0.0
 10
394.8540052406074
 20
251.7040872442045
 30
0.0
 10
394.9546448995908
 20
251.7293519379426
 30
0.0
 10
395.0519036451619
 20
251.7655548876103
 30
0.0
 10
395.144803619119
 20
251.8133412684537
 30
0.0
 10
395.233457904665
 20
251.8715093547576
 30
0.0
 10
395.3191662210984
 20
251.9386229030204
 30
0.0
 10
395.3995289455434
 20
252.0162611316515
 30
0.0
 10
395.4731302919275
 20
252.1015499770734
 30
0.0
 10
395.5383298020183
 20
252.1916508068034
 30
0.0
 10
395.5928175052499
 20
252.2869765596726
 30
0.0
 10
395.6374844593203
 20
252.3871253158194
 30
0.0
 10
395.67252342851
 20
252.4918178707582
 30
0.0
 10
395.6968024712092
 20
252.601256711598
 30
0.0
 10
395.7120462267
 20
252.7151394505013
 30
0.0
 10
395.7141087247043
 20
252.7929019975574
 30
0.0
 10
395.7151596569726
 20
252.8325253910353
 30
0.0
  0
SPLINE
  5
BB
330
1F
100
AcDbEntity
  8
0
  6
Continuous
 62
     7
370
    25
100
AcDbSpline
210
0.0
220
0.0
230
1.0
 70
     8
 71
     3
 72
    19
 73
    15
 74
     0
 42
0.000000001
 43
0.00000001
 40
0.0
 40
0.0
 40
0.0
 40
0.0
 40
0.1108026438013182
 40
0.2128292023477702
 40
0.306101309823111
 40
0.3906473211160095
 40
0.4669244693608513
 40
0.53448103928403
 40
0.5935869409656722
 40
0.6445570045087174
 40
0.7362004526293727
 40
0.8250240256188639
 40
0.9119855848297578
 40
1.0
 40
1.0
 40
1.0
 40
1.0
 10
393.0205649721436
 20
252.6851813071678
 30
0.0
 10
393.0727231260921
 20
252.6352160497322
 30
0.0
 10
393.1729082653627
 20
252.5392430158738
 30
0.0
 10
393.3191744074701
 20
252.4035003104599
 30
0.0
 10
393.454867165512
 20
252.2815818400352
 30
0.0
 10
393.5797301613745
 20
252.1726984009635
 30
0.0
 10
393.6955897936368
 20
252.0792120297556
 30
0.0
 10
393.7986936907278
 20
251.9962504409775
 30
0.0
 10
393.893572442979
 20
251.9297786546117
 30
0.0
 10
394.0035493235372
 20
251.8576375206554
 30
0.0
 10
394.1378250887885
 20
251.7877663821128
 30
0.0
 10
394.3019176904094
 20
251.7277250819089
 30
0.0
 10
394.4708386557647
 20
251.6911145372306
 30
0.0
 10
394.58499054511
 20
251.6867227025968
 30
0.0
 10
394.6424099240667
 20
251.6845135721251
 30
0.0
  0
LINE
  5
BC
330
1F
100
AcDbEntity
  8
0
  6
Continuous
 62
     7
370
    25
100
AcDbLine
 10
390.8305442724
 20
254.7373981875
 30
0.0
 11
393.0205649721
 21
252.6851813072
 31
0.0
  0
LINE
  5
BD
330
1F
100
AcDbEntity
  8
0
  6
Continuous
 62
     7
370
    25
100
AcDbLine
 10
390.8305442724
 20
251.1417785294
 30
0.0
 11
390.8305442724
 21
254.7373981875
 31
0.0
  0
LINE
  5
BE
330
1F
100
AcDbEntity
  8
0
  6
Continuous
 62
     7
370
    25
100
AcDbLine
 10
391.3732793151
 20
251.1417785294
 30
0.0
 11
390.8305442724
 21
251.1417785294
 31
0.0
  0
LINE
  5
BF
330
1F
100
AcDbEntity
  8
0
  6
Continuous
 62
     7
370
    25
100
AcDbLine
 10
391.3732793151
 20
253.6042267799
 30
0.0
 11
391.3732793151
 21
251.1417785294
 31
0.0
  0
LINE
  5
C0
330
1F
100
AcDbEntity
  8
0
  6
Continuous
 62
     7
370
    25
100
AcDbLine
 10
392.7862984791
 20
252.2802500839
 30
0.0
 11
391.3732793151
 21
253.6042267799
 31
0.0
  0
SPLINE
  5
C1
330
1F
100
AcDbEntity
  8
0
  6
Continuous
 62
     7
370
    25
100
AcDbSpline
210
0.0
220
0.0
230
1.0
 70
     8
 71
     3
 72
    19
 73
    15
 74
     0
 42
0.000000001
 43
0.00000001
 40
0.0
 40
0.0
 40
0.0
 40
0.0
 40
0.0987013748863721
 40
0.195670680385857
 40
0.2924199929089615
 40
0.3913392869674684
 40
0.4444587417649346
 40
0.5042245791547483
 40
0.5703475914063549
 40
0.6429138259794831
 40
0.7222898165239618
 40
0.8079227212022513
 40
0.9004703662977919
 40
1.0
 40
1.0
 40
1.0
 40
1.0
 10
394.6848110992804
 20
251.2096204097319
 30
0.0
 10
394.6111090477879
 20
251.2121805021422
 30
0.0
 10
394.4649983114586
 20
251.2172557609654
 30
0.0
 10
394.2502848990723
 20
251.2606685739019
 30
0.0
 10
394.0422585238005
 20
251.3284744720344
 30
0.0
 10
393.8748285630912
 20
251.4101060980437
 30
0.0
 10
393.7399287910768
 20
251.4924794390203
 30
0.0
 10
393.6288041452634
 20
251.566635534986
 30
0.0
 10
393.5091842642473
 20
251.653941218095
 30
0.0
 10
393.3805849879427
 20
251.753650587039
 30
0.0
 10
393.2446904325259
 20
251.8674807786266
 30
0.0
 10
393.0987279837535
 20
251.9924744997824
 30
0.0
 10
392.9453965882163
 20
252.1318597564781
 30
0.0
 10
392.8406009521964
 20
252.2296023306934
 30
0.0
 10
392.786298479088
 20
252.2802500838772
 30
0.0
  0
SPLINE
  5
C2
330
1F
100
AcDbEntity
  8
0
  6
Continuous
 62
     7
370
    25
100
AcDbSpline
210
0.0
220
0.0
230
1.0
 70
     8
 71
     3
 72
    23
 73
    19
 74
     0
 42
0.000000001
 43
0.00000001
 40
0.0
 40
0.0
 40
0.0
 40
0.0
 40
0.0694796363669831
 40
0.1365250035391412
 40
0.2008008928734228
 40
0.2639832069133266
 40
0.3257111447611871
 40
0.3872705140757309
 40
0.4494927805315651
 40
0.5129551957628499
 40
0.5762663970701073
 40
0.6375749668311774
 40
0.6979010984244978
 40
0.7575582794115653
 40
0.8165875043650636
 40
0.8766457566083125
 40
0.9372858729381263
 40
1.0
 40
1.0
 40
1.0
 40
1.0
 10
396.2578946997077
 20
252.8081447152875
 30
0.0
 10
396.2565473424648
 20
252.7501166389596
 30
0.0
 10
396.2538998336124
 20
252.6360935418295
 30
0.0
 10
396.2308218588328
 20
252.4697480236653
 30
0.0
 10
396.1954569194302
 20
252.3110145047444
 30
0.0
 10
396.1430516501857
 20
252.1616919104855
 30
0.0
 10
396.0772945007166
 20
252.0202477714422
 30
0.0
 10
395.9955168701438
 20
251.8884334007697
 30
0.0
 10
395.9015882007716
 20
251.7630613895143
 30
0.0
 10
395.7907947291671
 20
251.6502847776507
 30
0.0
 10
395.6725778151054
 20
251.5466858544793
 30
0.0
 10
395.5463231449169
 20
251.4573898463386
 30
0.0
 10
395.415771928399
 20
251.3804874216285
 30
0.0
 10
395.2799043706494
 20
251.3175451890845
 30
0.0
 10
395.1382780208553
 20
251.2698321776953
 30
0.0
 10
394.9922506992853
 20
251.2344814089388
 30
0.0
 10
394.8401371516758
 20
251.2142729991786
 30
0.0
 10
394.7371635639266
 20
251.2111885595739
 30
0.0
 10
394.6848110992804
 20
251.2096204097319
 30
0.0
  0
SPLINE
  5
C3
330
1F
100
AcDbEntity
  8
0
  6
Continuous
 62
     7
370
    25
100
AcDbSpline
210
0.0
220
0.0
230
1.0
 70
     8
 71
     3
 72
    23
 73
    19
 74
     0
 42
0.000000001
 43
0.00000001
 40
0.0
 40
0.0
 40
0.0
 40
0.0
 40
0.068790794390618
 40
0.135103289431127
 40
0.1989786743106509
 40
0.2619042997808556
 40
0.323494969367969
 40
0.385195377966051
 40
0.446969238740774
 40
0.509764776703132
 40
0.5722505688473679
 40
0.6334051756611525
 40
0.6932511629217527
 40
0.75258316278567
 40
0.8125792661534211
 40
0.8732750849201917
 40
0.9355499428950291
 40
1.0
 40
1.0
 40
1.0
 40
1.0
 10
394.4940058108188
 20
254.5338725464841
 30
0.0
 10
394.5570082244677
 20
254.530777446103
 30
0.0
 10
394.6807432881703
 20
254.5246987513256
 30
0.0
 10
394.8611496704642
 20
254.4962321711323
 30
0.0
 10
395.0335896637743
 20
254.4555001305963
 30
0.0
 10
395.1966787003714
 20
254.3979094798835
 30
0.0
 10
395.3518588017791
 20
254.3263868932554
 30
0.0
 10
395.4985135874076
 20
254.2406164947152
 30
0.0
 10
395.6360835989166
 20
254.1390257921533
 30
0.0
 10
395.7632935167561
 20
254.0238084680608
 30
0.0
 10
395.8799937726075
 20
253.8986701685371
 30
0.0
 10
395.980770151612
 20
253.7636480933845
 30
0.0
 10
396.0659171071237
 20
253.6217633497492
 30
0.0
 10
396.1370994608335
 20
253.4734464013135
 30
0.0
 10
396.1905299421687
 20
253.3170238825986
 30
0.0
 10
396.2301745639519
 20
253.1539152761032
 30
0.0
 10
396.2540268961738
 20
252.9834039627223
 30
0.0
 10
396.2565907625041
 20
252.8672291674847
 30
0.0
 10
396.2578946997077
 20
252.8081447152875
 30
0.0
  0
LINE
  5
C4
330
1F
100
AcDbEntity
  8
0
  6
Continuous
 62
     7
370
    25
100
AcDbLine
 10
394.4940058108
 20
254.0589793841
 30
0.0
 11
394.4940058108
 21
254.5338725465
 31
0.0
  0
SPLINE
  5
C5
330
1F
100
AcDbEntity
  8
0
  6
Continuous
 62
     7
370
    25
100
AcDbSpline
210
0.0
220
0.0
230
1.0
 70
     8
 71
     3
 72
    14
 73
    10
 74
     0
 42
0.000000001
 43
0.00000001
 40
0.0
 40
0.0
 40
0.0
 40
0.0
 40
0.2500000000000001
 40
0.2500000000000001
 40
0.5000000000000001
 40
0.5000000000000001
 40
0.75
 40
0.75
 40
1.0
 40
1.0
 40
1.0
 40
1.0
 10
400.9881687255806
 20
255.237666807468
 30
0.0
 10
401.058069668247
 20
256.0387686123376
 30
0.0
 10
401.1151966489583
 20
256.8411591170731
 30
0.0
 10
401.1935409440144
 20
258.4469471402862
 30
0.0
 10
401.2144877852791
 20
259.2504181646872
 30
0.0
 10
401.2144558534039
 20
260.8587314432139
 30
0.0
 10
401.1934602242264
 20
261.6625024919296
 30
0.0
 10
401.1151105972958
 20
263.2673589320248
 30
0.0
 10
401.0580429032617
 20
264.0688134033373
 30
0.0
 10
400.9881687255807
 20
264.8696084673069
 30
0.0
  0
SPLINE
  5
C6
330
1F
100
AcDbEntity
  8
0
  6
Continuous
 62
     7
370
    25
100
AcDbSpline
210
0.0
220
0.0
230
1.0
 70
     8
 71
     3
 72
    10
 73
     6
 74
     0
 42
0.000000001
 43
0.00000001
 40
0.0
 40
0.0
 40
0.0
 40
0.0
 40
0.5
 40
0.5
 40
1.0
 40
1.0
 40
1.0
 40
1.0
 10
398.5506938331165
 20
277.6628208476712
 30
0.0
 10
398.5023526816833
 20
277.8344138149019
 30
0.0
 10
398.4754337280202
 20
278.0092803087373
 30
0.0
 10
398.4752536723819
 20
278.31478543957
 30
0.0
 10
398.5023335013575
 20
278.4430157263566
 30
0.0
 10
398.5506938331166
 20
278.5288462514556
 30
0.0
  0
SPLINE
  5
C7
330
1F
100
AcDbEntity
  8
0
  6
Continuous
 62
     7
370
    25
100
AcDbSpline
210
0.0
220
0.0
230
1.0
 70
     8
 71
     3
 72
    10
 73
     6
 74
     0
 42
0.000000001
 43
0.00000001
 40
0.0
 40
0.0
 40
0.0
 40
0.0
 40
0.5
 40
0.5
 40
1.0
 40
1.0
 40
1.0
 40
1.0
 10
388.4256436180448
 20
278.5288462514556
 30
0.0
 10
388.4739845072573
 20
278.4430502332328
 30
0.0
 10
388.5009036871693
 20
278.316201276518
 30
0.0
 10
388.501083814384
 20
278.0110161604357
 30
0.0
 10
388.4740040844326
 20
277.8344823757507
 30
0.0
 10
388.4256436180448
 20
277.6628208476712
 30
0.0
  0
LINE
  5
C8
330
1F
100
AcDbEntity
  8
0
  6
Continuous
 62
     7
370
    25
100
AcDbLine
 10
388.425643618
 20
278.5288462515
 30
0.0
 11
398.5506938331
 21
278.5288462515
 31
0.0
  0
LINE
  5
C9
330
1F
100
AcDbEntity
  8
0
  6
Continuous
 62
     7
370
    25
100
AcDbLine
 10
385.4881687256
 20
229.0536376374
 30
0.0
 11
385.4881687256
 21
291.0536376374
 31
0.0
  0
SPLINE
  5
CA
330
1F
100
AcDbEntity
  8
0
  6
Continuous
 62
     7
370
    25
100
AcDbSpline
210
0.0
220
0.0
230
1.0
 70
     8
 71
     3
 72
    10
 73
     6
 74
     0
 42
0.000000001
 43
0.00000001
 40
0.0
 40
0.0
 40
0.0
 40
0.0
 40
0.155252910437448
 40
0.7115173248069911
 40
1.0
 40
1.0
 40
1.0
 40
1.0
 10
388.4958298847683
 20
296.2628079832187
 30
0.0
 10
388.4973668839303
 20
296.2655452014924
 30
0.0
 10
388.5044108841294
 20
296.2780897535914
 30
0.0
 10
388.4749529250079
 20
296.2255963164401
 30
0.0
 10
388.4381961305423
 20
296.1603210757507
 30
0.0
 10
388.4256436180448
 20
296.1380294617392
 30
0.0
  0
SPLINE
  5
CB
330
1F
100
AcDbEntity
  8
0
  6
Continuous
 62
     7
370
    25
100
AcDbSpline
210
0.0
220
0.0
230
1.0
 70
     8
 71
     3
 72
    18
 73
    14
 74
     0
 42
0.000000001
 43
0.00000001
 40
0.0
 40
0.0
 40
0.0
 40
0.0
 40
0.25
 40
0.25
 40
0.5
 40
0.5
 40
0.5625
 40
0.5625
 40
0.625
 40
0.625
 40
0.75
 40
0.75
 40
1.0
 40
1.0
 40
1.0
 40
1.0
 10
388.4256436180447
 20
278.5288462514555
 30
0.0
 10
387.6149195813156
 20
279.96772946941
 30
0.0
 10
386.9497893702343
 20
281.4164711896652
 30
0.0
 10
386.030540358657
 20
284.3417851849323
 30
0.0
 10
385.7791897465817
 20
285.8185449005297
 30
0.0
 10
385.7762781215445
 20
287.6855718225727
 30
0.0
 10
385.7911074929784
 20
288.0606704856979
 30
0.0
 10
385.8514699387313
 20
288.8097735088105
 30
0.0
 10
385.8968804310325
 20
289.1830670292895
 30
0.0
 10
386.0769188277358
 20
290.2993289854814
 30
0.0
 10
386.2554547935273
 20
291.0386704612986
 30
0.0
 10
386.9463943452299
 20
293.2438639492158
 30
0.0
 10
387.6136670464373
 20
294.6969232291279
 30
0.0
 10
388.4256436180447
 20
296.1380294617392
 30
0.0
  0
SPLINE
  5
CC
330
1F
100
AcDbEntity
  8
0
  6
Continuous
 62
     7
370
    25
100
AcDbSpline
210
0.0
220
0.0
230
1.0
 70
     8
 71
     3
 72
    10
 73
     6
 74
     0
 42
0.000000001
 43
0.00000001
 40
0.0
 40
0.0
 40
0.0
 40
0.0
 40
0.5
 40
0.5
 40
1.0
 40
1.0
 40
1.0
 40
1.0
 10
388.4256436180448
 20
242.444454427104
 30
0.0
 10
388.473984769478
 20
242.2728614598733
 30
0.0
 10
388.5009037231411
 20
242.0979949660378
 30
0.0
 10
388.5010837787793
 20
241.7924898352052
 30
0.0
 10
388.4740039498038
 20
241.6642595484184
 30
0.0
 10
388.4256436180448
 20
241.5784290233195
 30
0.0
  0
SPLINE
  5
CD
330
1F
100
AcDbEntity
  8
0
  6
Continuous
 62
     7
370
    25
100
AcDbSpline
210
0.0
220
0.0
230
1.0
 70
     8
 71
     3
 72
    18
 73
    14
 74
     0
 42
0.000000001
 43
0.00000001
 40
0.0
 40
0.0
 40
0.0
 40
0.0
 40
0.2499999999999996
 40
0.2499999999999996
 40
0.4999999999999993
 40
0.4999999999999993
 40
0.5624999999999993
 40
0.5624999999999993
 40
0.6249999999999993
 40
0.6249999999999993
 40
0.7499999999999994
 40
0.7499999999999994
 40
1.0
 40
1.0
 40
1.0
 40
1.0
 10
388.4256436180447
 20
223.9692458130359
 30
0.0
 10
387.6149195813156
 20
225.4081290309903
 30
0.0
 10
386.9497893702344
 20
226.8568707512455
 30
0.0
 10
386.030540358657
 20
229.7821847465127
 30
0.0
 10
385.7791897465817
 20
231.25894446211
 30
0.0
 10
385.7762781215445
 20
233.1259713841531
 30
0.0
 10
385.7911074929784
 20
233.5010700472783
 30
0.0
 10
385.8514699387313
 20
234.2501730703908
 30
0.0
 10
385.8968804310325
 20
234.6234665908699
 30
0.0
 10
386.0769188277358
 20
235.7397285470617
 30
0.0
 10
386.2554547935273
 20
236.4790700228789
 30
0.0
 10
386.9463943452299
 20
238.6842635107961
 30
0.0
 10
387.6136670464373
 20
240.1373227907082
 30
0.0
 10
388.4256436180447
 20
241.5784290233195
 30
0.0
  0
SPLINE
  5
CE
330
1F
100
AcDbEntity
  8
0
  6
Continuous
 62
     7
370
    25
100
AcDbSpline
210
0.0
220
0.0
230
1.0
 70
     8
 71
     3
 72
     9
 73
     5
 74
     0
 42
0.000000001
 43
0.00000001
 40
0.0
 40
0.0
 40
0.0
 40
0.0
 40
0.5770669283349416
 40
1.0
 40
1.0
 40
1.0
 40
1.0
 10
388.4256436180448
 20
223.969245813036
 30
0.0
 10
388.4507990564408
 20
223.9245376158664
 30
0.0
 10
388.4943909470185
 20
223.8470627252179
 30
0.0
 10
388.4954021946861
 20
223.8452387225904
 30
0.0
 10
388.4958298847683
 20
223.8444672915564
 30
0.0
  0
ELLIPSE
  5
CF
330
1F
100
AcDbEntity
  8
0
  6
Continuous
 62
     7
370
    25
100
AcDbEllipse
 10
394.3379844604
 20
263.1517188399
 30
0.0
 11
0.0
 21
0.1430989817498016
 31
0.0
210
0.0
220
0.0
230
1.0
 40
0.9531667975
 41
3.484616594010432
 42
5.940161366758977
  0
LINE
  5
D0
330
1F
100
AcDbEntity
  8
0
  6
Continuous
 62
     7
370
    25
100
AcDbLine
 10
394.3838598026
 20
263.2864811485
 30
0.0
 11
393.0162342512
 21
263.7989178966
 31
0.0
  0
LINE
  5
D1
330
1F
100
AcDbEntity
  8
0
  6
Continuous
 62
     7
370
    25
100
AcDbLine
 10
393.0162342517
 20
262.5045197774
 30
0.0
 11
394.3838598026
 21
263.0169565313
 31
0.0
  0
ELLIPSE
  5
D2
330
1F
100
AcDbEntity
  8
0
  6
Continuous
 62
     7
370
    25
100
AcDbEllipse
 10
392.9703589093
 20
262.6392820859
 30
0.0
 11
0.0
 21
-0.1430989817498016
 31
0.0
210
0.0
220
0.0
230
1.0
 40
0.9531667975
 41
4.712388980384703
 42
6.626209249461366
  0
LINE
  5
D3
330
1F
100
AcDbEntity
  8
0
  6
Continuous
 62
     7
370
    25
100
AcDbLine
 10
392.8339617111
 20
263.6641555878
 30
0.0
 11
392.8339617111
 21
262.6392820859
 31
0.0
  0
ELLIPSE
  5
D4
330
1F
100
AcDbEntity
  8
0
  6
Continuous
 62
     7
370
    25
100
AcDbEllipse
 10
392.9703589093
 20
263.6641555878
 30
0.0
 11
0.0
 21
0.1430989817498016
 31
0.0
210
0.0
220
0.0
230
1.0
 40
0.9531667975
 41
5.940161368619214
 42
7.853981633974483
  0
LINE
  5
D5
330
1F
100
AcDbEntity
  8
0
  6
Continuous
 62
     7
370
    25
100
AcDbLine
 10
401.4881687256
 20
260.0536376374
 30
0.0
 11
401.4881687256
 21
229.0536376374
 31
0.0
  0
LINE
  5
D6
330
1F
100
AcDbEntity
  8
0
  6
Continuous
 62
     7
370
    25
100
AcDbLine
 10
401.4881687256
 20
291.0536376374
 30
0.0
 11
401.4881687256
 21
260.0536376374
 31
0.0
  0
SPLINE
  5
D7
330
1F
100
AcDbEntity
  8
0
  6
Continuous
 62
     7
370
    25
100
AcDbSpline
210
0.0
220
0.0
230
1.0
 70
     8
 71
     3
 72
    10
 73
     6
 74
     0
 42
0.000000001
 43
0.00000001
 40
0.0
 40
0.0
 40
0.0
 40
0.0
 40
0.1552529104374482
 40
0.7115173248069916
 40
1.0
 40
1.0
 40
1.0
 40
1.0
 10
398.480507566393
 20
223.8444672915564
 30
0.0
 10
398.4789705672309
 20
223.8417300732827
 30
0.0
 10
398.4719265670319
 20
223.8291855211837
 30
0.0
 10
398.5013845261533
 20
223.881678958335
 30
0.0
 10
398.538141320619
 20
223.9469541990244
 30
0.0
 10
398.5506938331165
 20
223.9692458130359
 30
0.0
  0
SPLINE
  5
D8
330
1F
100
AcDbEntity
  8
0
  6
Continuous
 62
     7
370
    25
100
AcDbSpline
210
0.0
220
0.0
230
1.0
 70
     8
 71
     3
 72
    12
 73
     8
 74
     0
 42
0.000000001
 43
0.00000001
 40
0.0
 40
0.0
 40
0.0
 40
0.0
 40
0.25
 40
0.25
 40
0.5
 40
0.5
 40
1.0
 40
1.0
 40
1.0
 40
1.0
 10
400.9881687255807
 20
230.3658520032182
 30
0.0
 10
400.8936065239508
 20
229.8239855597305
 30
0.0
 10
400.7672067356679
 20
229.2798381231312
 30
0.0
 10
400.4568042967304
 20
228.1967986164584
 30
0.0
 10
400.2735526457332
 20
227.6596945418686
 30
0.0
 10
399.6500866172003
 20
226.0599858625696
 30
0.0
 10
399.1364945640776
 20
225.0089323187502
 30
0.0
 10
398.5506938331165
 20
223.969245813036
 30
0.0
  0
SPLINE
  5
D9
330
1F
100
AcDbEntity
  8
0
  6
Continuous
 62
     7
370
    25
100
AcDbSpline
210
0.0
220
0.0
230
1.0
 70
     8
 71
     3
 72
    14
 73
    10
 74
     0
 42
0.000000001
 43
0.00000001
 40
0.0
 40
0.0
 40
0.0
 40
0.0
 40
0.25
 40
0.25
 40
0.5
 40
0.5
 40
0.75
 40
0.75
 40
1.0
 40
1.0
 40
1.0
 40
1.0
 10
400.9881687255807
 20
230.3658520032181
 30
0.0
 10
401.058069668247
 20
230.7664029056529
 30
0.0
 10
401.1151966489583
 20
231.1739250884897
 30
0.0
 10
401.1935409440144
 20
231.9882545104819
 30
0.0
 10
401.2144877852791
 20
232.3946982488561
 30
0.0
 10
401.2144558534039
 20
233.1988484632959
 30
0.0
 10
401.1934602242264
 20
233.5960174569879
 30
0.0
 10
401.1151105972958
 20
234.38701538901
 30
0.0
 10
401.0580429032617
 20
234.7814253011526
 30
0.0
 10
400.9881687255806
 20
235.1818228331375
 30
0.0
  0
SPLINE
  5
DA
330
1F
100
AcDbEntity
  8
0
  6
Continuous
 62
     7
370
    25
100
AcDbSpline
210
0.0
220
0.0
230
1.0
 70
     8
 71
     3
 72
    12
 73
     8
 74
     0
 42
0.000000001
 43
0.00000001
 40
0.0
 40
0.0
 40
0.0
 40
0.0
 40
0.2500000000000001
 40
0.2500000000000001
 40
0.5000000000000002
 40
0.5000000000000002
 40
1.0
 40
1.0
 40
1.0
 40
1.0
 10
398.5506938331166
 20
241.5784290233195
 30
0.0
 10
398.8459102719068
 20
241.05447517442
 30
0.0
 10
399.1229828280996
 20
240.5271557794315
 30
0.0
 10
399.6343880294549
 20
239.4645890754791
 30
0.0
 10
399.8682144944278
 20
238.9300828996147
 30
0.0
 10
400.4903055843937
 20
237.3275313374933
 30
0.0
 10
400.800652745147
 20
236.2563390316116
 30
0.0
 10
400.9881687255806
 20
235.1818228331374
 30
0.0
  0
SPLINE
  5
DB
330
1F
100
AcDbEntity
  8
0
  6
Continuous
 62
     7
370
    25
100
AcDbSpline
210
0.0
220
0.0
230
1.0
 70
     8
 71
     3
 72
    10
 73
     6
 74
     0
 42
0.000000001
 43
0.00000001
 40
0.0
 40
0.0
 40
0.0
 40
0.0
 40
0.5
 40
0.5
 40
1.0
 40
1.0
 40
1.0
 40
1.0
 10
398.5506938331166
 20
241.5784290233195
 30
0.0
 10
398.502352943904
 20
241.6642250415423
 30
0.0
 10
398.475433763992
 20
241.7910739982571
 30
0.0
 10
398.4752536367773
 20
242.0962591143394
 30
0.0
 10
398.5023333667287
 20
242.2727928990245
 30
0.0
 10
398.5506938331166
 20
242.444454427104
 30
0.0
  0
SPLINE
  5
DC
330
1F
100
AcDbEntity
  8
0
  6
Continuous
 62
     7
370
    25
100
AcDbSpline
210
0.0
220
0.0
230
1.0
 70
     8
 71
     3
 72
    12
 73
     8
 74
     0
 42
0.000000001
 43
0.00000001
 40
0.0
 40
0.0
 40
0.0
 40
0.0
 40
0.2499999999999999
 40
0.2499999999999999
 40
0.4999999999999998
 40
0.4999999999999998
 40
1.0
 40
1.0
 40
1.0
 40
1.0
 10
400.9881687255806
 20
284.9254524416377
 30
0.0
 10
400.8936065239508
 20
284.3835859981501
 30
0.0
 10
400.7672067356679
 20
283.8394385615508
 30
0.0
 10
400.4568042967304
 20
282.7563990548779
 30
0.0
 10
400.2735526457331
 20
282.2192949802881
 30
0.0
 10
399.6500866172003
 20
280.6195863009893
 30
0.0
 10
399.1364945640776
 20
279.5685327571698
 30
0.0
 10
398.5506938331165
 20
278.5288462514556
 30
0.0
  0
SPLINE
  5
DD
330
1F
100
AcDbEntity
  8
0
  6
Continuous
 62
     7
370
    25
100
AcDbSpline
210
0.0
220
0.0
230
1.0
 70
     8
 71
     3
 72
    14
 73
    10
 74
     0
 42
0.000000001
 43
0.00000001
 40
0.0
 40
0.0
 40
0.0
 40
0.0
 40
0.2500000000000002
 40
0.2500000000000002
 40
0.5000000000000004
 40
0.5000000000000004
 40
0.7500000000000002
 40
0.7500000000000002
 40
1.0
 40
1.0
 40
1.0
 40
1.0
 10
400.9881687255806
 20
284.9254524416377
 30
0.0
 10
401.058069668247
 20
285.3260033440724
 30
0.0
 10
401.1151966489583
 20
285.7208716659712
 30
0.0
 10
401.1935409440144
 20
286.512330267192
 30
0.0
 10
401.2144877852791
 20
286.9093575532188
 30
0.0
 10
401.2144558534039
 20
287.7135206173057
 30
0.0
 10
401.1934602242264
 20
288.1201226723293
 30
0.0
 10
401.1151105972958
 20
288.9339811804024
 30
0.0
 10
401.0580429032617
 20
289.3410257395722
 30
0.0
 10
400.9881687255807
 20
289.741423271557
 30
0.0
  0
SPLINE
  5
DE
330
1F
100
AcDbEntity
  8
0
  6
Continuous
 62
     7
370
    25
100
AcDbSpline
210
0.0
220
0.0
230
1.0
 70
     8
 71
     3
 72
    12
 73
     8
 74
     0
 42
0.000000001
 43
0.00000001
 40
0.0
 40
0.0
 40
0.0
 40
0.0
 40
0.2499999999999999
 40
0.2499999999999999
 40
0.4999999999999999
 40
0.4999999999999999
 40
1.0
 40
1.0
 40
1.0
 40
1.0
 10
398.5506938331166
 20
296.1380294617392
 30
0.0
 10
398.8459102719068
 20
295.6140756128397
 30
0.0
 10
399.1229828280996
 20
295.0867562178511
 30
0.0
 10
399.634388029455
 20
294.0241895138988
 30
0.0
 10
399.8682144944278
 20
293.4896833380343
 30
0.0
 10
400.4903055843938
 20
291.8871317759128
 30
0.0
 10
400.8006527451471
 20
290.8159394700311
 30
0.0
 10
400.9881687255807
 20
289.741423271557
 30
0.0
  0
SPLINE
  5
DF
330
1F
100
AcDbEntity
  8
0
  6
Continuous
 62
     7
370
    25
100
AcDbSpline
210
0.0
220
0.0
230
1.0
 70
     8
 71
     3
 72
     9
 73
     5
 74
     0
 42
0.000000001
 43
0.00000001
 40
0.0
 40
0.0
 40
0.0
 40
0.0
 40
0.5770669283349416
 40
1.0
 40
1.0
 40
1.0
 40
1.0
 10
398.5506938331165
 20
296.1380294617392
 30
0.0
 10
398.5255383947205
 20
296.1827376589087
 30
0.0
 10
398.4819465041427
 20
296.2602125495572
 30
0.0
 10
398.4809352564753
 20
296.2620365521847
 30
0.0
 10
398.480507566393
 20
296.2628079832187
 30
0.0
  0
LINE
  5
E0
330
1F
100
AcDbEntity
  8
0
  6
Continuous
 62
     7
370
    25
100
AcDbLine
 10
398.5506938331
 20
241.5784290233
 30
0.0
 11
388.425643618
 21
241.5784290233
 31
0.0
  0
LINE
  5
E1
330
1F
100
AcDbEntity
  8
0
  6
Continuous
 62
     7
370
    25
100
AcDbLine
 10
398.5506938331
 20
296.1380294617
 30
0.0
 11
388.425643618
 21
296.1380294617
 31
0.0
  0
LINE
  5
E2
330
1F
100
AcDbEntity
  8
0
  6
Continuous
 62
     7
370
    25
100
AcDbLine
 10
400.9881687256
 20
284.9254524416
 30
0.0
 11
400.9881687256
 21
289.7414232716
 31
0.0
  0
LINE
  5
E3
330
1F
100
AcDbEntity
  8
0
  6
Continuous
 62
     7
370
    25
100
AcDbLine
 10
400.9881687256
 20
230.3658520032
 30
0.0
 11
400.9881687256
 21
235.1818228331
 31
0.0
  0
LINE
  5
E4
330
1F
100
AcDbEntity
  8
0
  6
Continuous
 62
     7
370
    25
100
AcDbLine
 10
388.425643618
 20
223.969245813
 30
0.0
 11
398.5506938331
 21
223.969245813
 31
0.0
  0
LINE
  5
E5
330
1F
100
AcDbEntity
  8
0
  6
Continuous
 62
     7
370
    25
100
AcDbLine
 10
357.4907493707
 20
260.0536376374
 30
0.0
 11
357.4907493707
 21
230.6803069922
 31
0.0
  0
LINE
  5
E6
330
1F
100
AcDbEntity
  8
0
  6
Continuous
 62
     7
370
    25
100
AcDbLine
 10
357.4907493707
 20
289.4269682825
 30
0.0
 11
357.4907493707
 21
260.0536376374
 31
0.0
  0
LINE
  5
E7
330
1F
100
AcDbEntity
  8
0
  6
Continuous
 62
     7
370
    25
100
AcDbLine
 10
355.4881687256
 20
232.6828876374
 30
0.0
 11
355.4881687256
 21
287.4243876374
 31
0.0
  0
LINE
  5
E8
330
1F
100
AcDbEntity
  8
0
  6
Continuous
 62
     7
370
    25
100
AcDbLine
 10
413.4881687256
 20
234.0536376374
 30
0.0
 11
413.4881687256
 21
286.0536376374
 31
0.0
  0
LINE
  5
E9
330
1F
100
AcDbEntity
  8
0
  6
Continuous
 62
     7
370
    25
100
AcDbLine
 10
473.4881687256
 20
260.0536376374
 30
0.0
 11
473.4881687256
 21
285.4771327937
 31
0.0
  0
LINE
  5
EA
330
1F
100
AcDbEntity
  8
0
  6
Continuous
 62
     7
370
    25
100
AcDbLine
 10
473.4881687256
 20
234.6301424811
 30
0.0
 11
473.4881687256
 21
260.0536376374
 31
0.0
  0
LINE
  5
EB
330
1F
100
AcDbEntity
  8
0
  6
Continuous
 62
     7
370
    25
100
AcDbLine
 10
425.4881687256
 20
260.0536376374
 30
0.0
 11
425.4881687256
 21
285.4634074265
 31
0.0
  0
LINE
  5
EC
330
1F
100
AcDbEntity
  8
0
  6
Continuous
 62
     7
370
    25
100
AcDbLine
 10
425.4881687256
 20
234.6438678482
 30
0.0
 11
425.4881687256
 21
260.0536376374
 31
0.0
  0
LINE
  5
ED
330
1F
100
AcDbEntity
  8
0
  6
Continuous
 62
     7
370
    25
100
AcDbLine
 10
437.4881687256
 20
260.0536376374
 30
0.0
 11
437.4881687256
 21
285.4634074265
 31
0.0
  0
LINE
  5
EE
330
1F
100
AcDbEntity
  8
0
  6
Continuous
 62
     7
370
    25
100
AcDbLine
 10
437.4881687256
 20
234.6438678482
 30
0.0
 11
437.4881687256
 21
260.0536376374
 31
0.0
  0
LINE
  5
EF
330
1F
100
AcDbEntity
  8
0
  6
Continuous
 62
     7
370
    25
100
AcDbLine
 10
449.4881687256
 20
260.0536376374
 30
0.0
 11
449.4881687256
 21
285.4634074265
 31
0.0
  0
LINE
  5
F0
330
1F
100
AcDbEntity
  8
0
  6
Continuous
 62
     7
370
    25
100
AcDbLine
 10
449.4881687256
 20
234.6438678482
 30
0.0
 11
449.4881687256
 21
260.0536376374
 31
0.0
  0
LINE
  5
F1
330
1F
100
AcDbEntity
  8
0
  6
Continuous
 62
     7
370
    25
100
AcDbLine
 10
461.4881687256
 20
260.0536376374
 30
0.0
 11
461.4881687256
 21
285.4634074265
 31
0.0
  0
LINE
  5
F2
330
1F
100
AcDbEntity
  8
0
  6
Continuous
 62
     7
370
    25
100
AcDbLine
 10
461.4881687256
 20
234.6438678482
 30
0.0
 11
461.4881687256
 21
260.0536376374
 31
0.0
  0
LINE
  5
F3
330
1F
100
AcDbEntity
  8
0
  6
Continuous
 62
     7
370
    25
100
AcDbLine
 10
487.4881687256
 20
260.0536376374
 30
0.0
 11
487.4881687256
 21
237.7882284408
 31
0.0
  0
LINE
  5
F4
330
1F
100
AcDbEntity
  8
0
  6
Continuous
 62
     7
370
    25
100
AcDbLine
 10
487.4881687256
 20
282.319046834
 30
0.0
 11
487.4881687256
 21
260.0536376374
 31
0.0
  0
LINE
  5
F5
330
1F
100
AcDbEntity
  8
0
  6
Continuous
 62
     8
370
    25
100
AcDbLine
 10
474.0588794037
 20
260.0536376374
 30
0.0
 11
474.0588794037
 21
234.1351677343
 31
0.0
  0
LINE
  5
F6
330
1F
100
AcDbEntity
  8
0
  6
Continuous
 62
     8
370
    25
100
AcDbLine
 10
474.0588794037
 20
285.9721075405
 30
0.0
 11
474.0588794037
 21
260.0536376374
 31
0.0
  0
LINE
  5
F7
330
1F
100
AcDbEntity
  8
0
  6
Continuous
 62
     8
370
    25
100
AcDbLine
 10
485.7710114381
 20
235.8083294535
 30
0.0
 11
485.7710114381
 21
284.2989458213
 31
0.0
  0
LINE
  5
F8
330
1F
100
AcDbEntity
  8
0
  6
Continuous
 62
     8
370
    25
100
AcDbLine
 10
426.0703682192
 20
260.0536376374
 30
0.0
 11
426.0703682192
 21
234.1506708863
 31
0.0
  0
LINE
  5
F9
330
1F
100
AcDbEntity
  8
0
  6
Continuous
 62
     8
370
    25
100
AcDbLine
 10
426.0703682192
 20
285.9566043884
 30
0.0
 11
426.0703682192
 21
260.0536376374
 31
0.0
  0
LINE
  5
FA
330
1F
100
AcDbEntity
  8
0
  6
Continuous
 62
     8
370
    25
100
AcDbLine
 10
438.0703682192
 20
260.0536376374
 30
0.0
 11
438.0703682192
 21
234.1506708863
 31
0.0
  0
LINE
  5
FB
330
1F
100
AcDbEntity
  8
0
  6
Continuous
 62
     8
370
    25
100
AcDbLine
 10
438.0703682192
 20
285.9566043884
 30
0.0
 11
438.0703682192
 21
260.0536376374
 31
0.0
  0
LINE
  5
FC
330
1F
100
AcDbEntity
  8
0
  6
Continuous
 62
     8
370
    25
100
AcDbLine
 10
450.0703682192
 20
260.0536376374
 30
0.0
 11
450.0703682192
 21
234.1506708863
 31
0.0
  0
LINE
  5
FD
330
1F
100
AcDbEntity
  8
0
  6
Continuous
 62
     8
370
    25
100
AcDbLine
 10
450.0703682192
 20
285.9566043884
 30
0.0
 11
450.0703682192
 21
260.0536376374
 31
0.0
  0
LINE
  5
FE
330
1F
100
AcDbEntity
  8
0
  6
Continuous
 62
     8
370
    25
100
AcDbLine
 10
462.0703682192
 20
260.0536376374
 30
0.0
 11
462.0703682192
 21
234.1506708863
 31
0.0
  0
LINE
  5
FF
330
1F
100
AcDbEntity
  8
0
  6
Continuous
 62
     8
370
    25
100
AcDbLine
 10
462.0703682192
 20
285.9566043884
 30
0.0
 11
462.0703682192
 21
260.0536376374
 31
0.0
  0
LINE
  5
100
330
1F
100
AcDbEntity
  8
0
  6
Continuous
 62
     7
370
    18
100
AcDbLine
 10
356.447394532
 20
288.3836134438
 30
0.0
 11
384.4881687256
 21
289.2598876374
 31
0.0
  0
LINE
  5
101
330
1F
100
AcDbEntity
  8
0
  6
Continuous
 62
     7
370
    18
100
AcDbLine
 10
356.447394532
 20
231.7236618309
 30
0.0
 11
384.4881687256
 21
230.8473876374
 31
0.0
  0
LINE
  5
102
330
1F
100
AcDbEntity
  8
0
  6
Continuous
 62
     7
370
    18
100
AcDbLine
 10
384.4881687256
 20
229.8366376374
 30
0.0
 11
384.4881687256
 21
290.2706376374
 31
0.0
  0
LINE
  5
103
330
1F
100
AcDbEntity
  8
0
  6
CENTERX2
 62
     7
370
    18
100
AcDbLine
 10
397.4881687256
 20
260.0536376374
 30
0.0
 11
489.7710114381
 21
260.0536376374
 31
0.0
  0
LINE
  5
104
330
1F
100
AcDbEntity
  8
0
  6
CENTERX2
 62
     7
370
    18
100
AcDbLine
 10
389.4881687256
 20
260.0536376374
 30
0.0
 11
353.4907493707
 21
260.0536376374
 31
0.0
  0
LINE
  5
105
330
1F
100
AcDbEntity
  8
0
  6
CENTERX2
 62
     7
370
    18
100
AcDbLine
 10
384.425643618
 20
260.0536376374
 30
0.0
 11
402.5506938331
 21
260.0536376374
 31
0.0
  0
CIRCLE
  5
106
330
1F
100
AcDbEntity
  8
0
  6
Continuous
 62
     7
370
    25
100
AcDbCircle
 10
563.602389263
 20
260.0536376374
 30
0.0
 40
25.9234951562953
  0
CIRCLE
  5
107
330
1F
100
AcDbEntity
  8
0
  6
Continuous
 62
     7
370
    25
100
AcDbCircle
 10
563.602389263
 20
260.0536376374
 30
0.0
 40
24.24530818393225
  0
CIRCLE
  5
108
330
1F
100
AcDbEntity
  8
0
  6
Continuous
 62
     7
370
    25
100
AcDbCircle
 10
563.602389263
 20
260.0536376374
 30
0.0
 40
22.26540919660988
  0
CIRCLE
  5
109
330
1F
100
AcDbEntity
  8
0
  6
Continuous
 62
     7
370
    25
100
AcDbCircle
 10
563.602389263
 20
260.0536376374
 30
0.0
 40
20.5
  0
CIRCLE
  5
10A
330
1F
100
AcDbEntity
  8
0
  6
Continuous
 62
     7
370
    25
100
AcDbCircle
 10
563.602389263
 20
260.0536376374
 30
0.0
 40
20.0
  0
CIRCLE
  5
10B
330
1F
100
AcDbEntity
  8
0
  6
Continuous
 62
     7
370
    25
100
AcDbCircle
 10
563.602389263
 20
260.0536376374
 30
0.0
 40
25.91846990312592
  0
CIRCLE
  5
10C
330
1F
100
AcDbEntity
  8
0
  6
Continuous
 62
     7
370
    25
100
AcDbCircle
 10
563.602389263
 20
260.0536376374
 30
0.0
 40
26.0
  0
CIRCLE
  5
10D
330
1F
100
AcDbEntity
  8
0
  6
Continuous
 62
     7
370
    25
100
AcDbCircle
 10
563.602389263
 20
260.0536376374
 30
0.0
 40
31.0
  0
SPLINE
  5
10E
330
1F
100
AcDbEntity
  8
0
  6
Continuous
 62
     7
370
    25
100
AcDbSpline
210
0.0
220
0.0
230
1.0
 70
     8
 71
     3
 72
    10
 73
     6
 74
     0
 42
0.000000001
 43
0.00000001
 40
0.0
 40
0.0
 40
0.0
 40
0.0
 40
0.5
 40
0.5
 40
1.0
 40
1.0
 40
1.0
 40
1.0
 10
594.6023892630496
 20
278.5288462514556
 30
0.0
 10
594.7509923256986
 20
278.4430502332328
 30
0.0
 10
594.8796747150591
 20
278.3162012765181
 30
0.0
 10
595.0562439075708
 20
278.0110161604358
 30
0.0
 10
595.1023892630496
 20
277.8344823757507
 30
0.0
 10
595.1023892630496
 20
277.6628208476712
 30
0.0
  0
SPLINE
  5
10F
330
1F
100
AcDbEntity
  8
0
  6
Continuous
 62
     7
370
    25
100
AcDbSpline
210
0.0
220
0.0
230
1.0
 70
    24
 71
     3
 72
    12
 73
     8
 74
     0
 42
0.000000001
 43
0.00000001
 40
0.0
 40
0.0
 40
0.0
 40
0.0
 40
0.2499999999999999
 40
0.2499999999999999
 40
0.5
 40
0.5
 40
1.0
 40
1.0
 40
1.0
 40
1.0
 10
595.1023892630496
 20
264.8696084673068
 30
0.0
 10
595.1023892630496
 20
265.945012509091
 30
0.0
 10
595.1023892630496
 20
267.0204590580235
 30
0.0
 10
595.1023892630496
 20
269.1714322314923
 30
0.0
 10
595.1023892630496
 20
270.2493023308314
 30
0.0
 10
595.1023892630496
 20
273.4661487852096
 30
0.0
 10
595.1023892630496
 20
275.5768647488692
 30
0.0
 10
595.1023892630496
 20
277.6628208476712
 30
0.0
  0
SPLINE
  5
110
330
1F
100
AcDbEntity
  8
0
  6
Continuous
 62
     7
370
    25
100
AcDbSpline
210
0.0
220
0.0
230
1.0
 70
     8
 71
     3
 72
    14
 73
    10
 74
     0
 42
0.000000001
 43
0.00000001
 40
0.0
 40
0.0
 40
0.0
 40
0.0
 40
0.25
 40
0.25
 40
0.5
 40
0.5
 40
0.75
 40
0.75
 40
1.0
 40
1.0
 40
1.0
 40
1.0
 10
595.1023892630496
 20
264.8696084673068
 30
0.0
 10
595.1023892630496
 20
264.0685066624372
 30
0.0
 10
595.0950835530308
 20
263.2661161577017
 30
0.0
 10
595.0818790785017
 20
261.6603281344887
 30
0.0
 10
595.0764424872042
 20
260.8568571100877
 30
0.0
 10
595.0764499059514
 20
259.2485438315611
 30
0.0
 10
595.0818960864506
 20
258.4447727828455
 30
0.0
 10
595.0950946461874
 20
256.8399163427503
 30
0.0
 10
595.1023892630496
 20
256.0384618714378
 30
0.0
 10
595.1023892630496
 20
255.2376668074682
 30
0.0
  0
SPLINE
  5
111
330
1F
100
AcDbEntity
  8
0
  6
Continuous
 62
     7
370
    25
100
AcDbSpline
210
0.0
220
0.0
230
1.0
 70
    24
 71
     3
 72
    12
 73
     8
 74
     0
 42
0.000000001
 43
0.00000001
 40
0.0
 40
0.0
 40
0.0
 40
0.0
 40
0.5
 40
0.5
 40
0.75
 40
0.75
 40
1.0
 40
1.0
 40
1.0
 40
1.0
 10
595.1023892630496
 20
242.444454427104
 30
0.0
 10
595.1023892630496
 20
244.5309395261956
 30
0.0
 10
595.1023892630496
 20
246.6422550566028
 30
0.0
 10
595.1023892630496
 20
249.8601602341439
 30
0.0
 10
595.1023892630496
 20
250.9371181933197
 30
0.0
 10
595.1023892630496
 20
253.0873312664281
 30
0.0
 10
595.1023892630496
 20
254.1624777971739
 30
0.0
 10
595.1023892630496
 20
255.2376668074682
 30
0.0
  0
SPLINE
  5
112
330
1F
100
AcDbEntity
  8
0
  6
Continuous
 62
     7
370
    25
100
AcDbSpline
210
0.0
220
0.0
230
1.0
 70
     8
 71
     3
 72
    10
 73
     6
 74
     0
 42
0.000000001
 43
0.00000001
 40
0.0
 40
0.0
 40
0.0
 40
0.0
 40
0.5
 40
0.5
 40
1.0
 40
1.0
 40
1.0
 40
1.0
 10
595.1023892630496
 20
242.444454427104
 30
0.0
 10
595.1023892630496
 20
242.2728614598733
 30
0.0
 10
595.0568756924134
 20
242.0979949660378
 30
0.0
 10
594.8808625592596
 20
241.7924898352052
 30
0.0
 10
594.7510520933613
 20
241.6642595484185
 30
0.0
 10
594.6023892630496
 20
241.5784290233196
 30
0.0
  0
SPLINE
  5
113
330
1F
100
AcDbEntity
  8
0
  6
Continuous
 62
     7
370
    25
100
AcDbSpline
210
0.0
220
0.0
230
1.0
 70
    24
 71
     3
 72
    12
 73
     8
 74
     0
 42
0.000000001
 43
0.00000001
 40
0.0
 40
0.0
 40
0.0
 40
0.0
 40
0.2500000000000001
 40
0.2500000000000001
 40
0.5000000000000001
 40
0.5000000000000001
 40
1.0
 40
1.0
 40
1.0
 40
1.0
 10
583.5231423456444
 20
235.1818228331374
 30
0.0
 10
584.4616825566816
 20
235.723689276625
 30
0.0
 10
585.40417356368
 20
236.2678367132243
 30
0.0
 10
587.2800530158418
 20
237.3508762198971
 30
0.0
 10
588.2103445619836
 20
237.8879802944869
 30
0.0
 10
590.9811212718382
 20
239.4876889737859
 30
0.0
 10
592.8015994112088
 20
240.5387425176054
 30
0.0
 10
594.6023892630496
 20
241.5784290233196
 30
0.0
  0
SPLINE
  5
114
330
1F
100
AcDbEntity
  8
0
  6
Continuous
 62
     7
370
    25
100
AcDbSpline
210
0.0
220
0.0
230
1.0
 70
     8
 71
     3
 72
    14
 73
    10
 74
     0
 42
0.000000001
 43
0.00000001
 40
0.0
 40
0.0
 40
0.0
 40
0.0
 40
0.25
 40
0.25
 40
0.5
 40
0.5
 40
0.75
 40
0.75
 40
1.0
 40
1.0
 40
1.0
 40
1.0
 10
583.5231423456445
 20
235.1818228331374
 30
0.0
 10
582.8293678316098
 20
234.7812719307026
 30
0.0
 10
582.1308244157442
 20
234.3864036088039
 30
0.0
 10
580.7335689572843
 20
233.5949450075831
 30
0.0
 10
580.0350243432996
 20
233.1979177215563
 30
0.0
 10
578.6421878962252
 20
232.3937546574695
 30
0.0
 10
577.9488248394606
 20
231.9871526024457
 30
0.0
 10
576.5655776727796
 20
231.1732940943727
 30
0.0
 10
575.8751450490774
 20
230.7662495352029
 30
0.0
 10
575.1816361804546
 20
230.3658520032181
 30
0.0
  0
SPLINE
  5
115
330
1F
100
AcDbEntity
  8
0
  6
Continuous
 62
     7
370
    25
100
AcDbSpline
210
0.0
220
0.0
230
1.0
 70
    24
 71
     3
 72
    12
 73
     8
 74
     0
 42
0.000000001
 43
0.00000001
 40
0.0
 40
0.0
 40
0.0
 40
0.0
 40
0.2499999999999999
 40
0.2499999999999999
 40
0.4999999999999999
 40
0.4999999999999999
 40
1.0
 40
1.0
 40
1.0
 40
1.0
 10
564.1023892630496
 20
223.969245813036
 30
0.0
 10
565.0099039501649
 20
224.4931996619355
 30
0.0
 10
565.9232479341015
 20
225.0205190569241
 30
0.0
 10
567.763667451778
 20
226.0830857608764
 30
0.0
 10
568.6894593053346
 20
226.6175919367409
 30
0.0
 10
571.4651600326777
 20
228.2201434988623
 30
0.0
 10
573.3205195311416
 20
229.2913358047439
 30
0.0
 10
575.1816361804546
 20
230.3658520032181
 30
0.0
  0
SPLINE
  5
116
330
1F
100
AcDbEntity
  8
0
  6
Continuous
 62
     7
370
    25
100
AcDbSpline
210
0.0
220
0.0
230
1.0
 70
     8
 71
     3
 72
    10
 73
     6
 74
     0
 42
0.000000001
 43
0.00000001
 40
0.0
 40
0.0
 40
0.0
 40
0.0
 40
0.5
 40
0.5
 40
1.0
 40
1.0
 40
1.0
 40
1.0
 10
564.1023892630496
 20
223.969245813036
 30
0.0
 10
563.9537861721462
 20
223.8834497785004
 30
0.0
 10
563.7795905203286
 20
223.8354320367366
 30
0.0
 10
563.4270077874447
 20
223.8351112248058
 30
0.0
 10
563.2510521340481
 20
223.8834152644465
 30
0.0
 10
563.1023892630496
 20
223.969245813036
 30
0.0
  0
SPLINE
  5
117
330
1F
100
AcDbEntity
  8
0
  6
Continuous
 62
     7
370
    25
100
AcDbSpline
210
0.0
220
0.0
230
1.0
 70
    24
 71
     3
 72
    12
 73
     8
 74
     0
 42
0.000000001
 43
0.00000001
 40
0.0
 40
0.0
 40
0.0
 40
0.0
 40
0.25
 40
0.25
 40
0.5
 40
0.5
 40
1.0
 40
1.0
 40
1.0
 40
1.0
 10
552.0231423456444
 20
230.3658520032182
 30
0.0
 10
552.9616825566817
 20
229.8239855597306
 30
0.0
 10
553.90417356368
 20
229.2798381231313
 30
0.0
 10
555.7800530158418
 20
228.1967986164584
 30
0.0
 10
556.7103445619836
 20
227.6596945418686
 30
0.0
 10
559.4811212718381
 20
226.0599858625697
 30
0.0
 10
561.3015994112088
 20
225.0089323187502
 30
0.0
 10
563.1023892630496
 20
223.969245813036
 30
0.0
  0
SPLINE
  5
118
330
1F
100
AcDbEntity
  8
0
  6
Continuous
 62
     7
370
    25
100
AcDbSpline
210
0.0
220
0.0
230
1.0
 70
     8
 71
     3
 72
    14
 73
    10
 74
     0
 42
0.000000001
 43
0.00000001
 40
0.0
 40
0.0
 40
0.0
 40
0.0
 40
0.25
 40
0.25
 40
0.5
 40
0.5
 40
0.75
 40
0.75
 40
1.0
 40
1.0
 40
1.0
 40
1.0
 10
552.0231423456445
 20
230.3658520032182
 30
0.0
 10
551.3293678316099
 20
230.766402905653
 30
0.0
 10
550.6381301257629
 20
231.1739250884897
 30
0.0
 10
549.2540791418322
 20
231.988254510482
 30
0.0
 10
548.5609711191449
 20
232.3946982488562
 30
0.0
 10
547.1681272533234
 20
233.198848463296
 30
0.0
 10
546.4693180160597
 20
233.5960174569879
 30
0.0
 10
545.0728722896419
 20
234.3870153890101
 30
0.0
 10
544.3751450490774
 20
234.7814253011527
 30
0.0
 10
543.6816361804546
 20
235.1818228331375
 30
0.0
  0
SPLINE
  5
119
330
1F
100
AcDbEntity
  8
0
  6
Continuous
 62
     7
370
    25
100
AcDbSpline
210
0.0
220
0.0
230
1.0
 70
    24
 71
     3
 72
    12
 73
     8
 74
     0
 42
0.000000001
 43
0.00000001
 40
0.0
 40
0.0
 40
0.0
 40
0.0
 40
0.2500000000000001
 40
0.2500000000000001
 40
0.5000000000000002
 40
0.5000000000000002
 40
1.0
 40
1.0
 40
1.0
 40
1.0
 10
532.6023892630496
 20
241.5784290233196
 30
0.0
 10
533.5099039501649
 20
241.05447517442
 30
0.0
 10
534.4232479341015
 20
240.5271557794316
 30
0.0
 10
536.2636674517779
 20
239.4645890754792
 30
0.0
 10
537.1894593053346
 20
238.9300828996147
 30
0.0
 10
539.9651600326777
 20
237.3275313374934
 30
0.0
 10
541.8205195311416
 20
236.2563390316116
 30
0.0
 10
543.6816361804546
 20
235.1818228331375
 30
0.0
  0
SPLINE
  5
11A
330
1F
100
AcDbEntity
  8
0
  6
Continuous
 62
     7
370
    25
100
AcDbSpline
210
0.0
220
0.0
230
1.0
 70
     8
 71
     3
 72
    10
 73
     6
 74
     0
 42
0.000000001
 43
0.00000001
 40
0.0
 40
0.0
 40
0.0
 40
0.0
 40
0.5
 40
0.5
 40
1.0
 40
1.0
 40
1.0
 40
1.0
 10
532.6023892630496
 20
241.5784290233196
 30
0.0
 10
532.4537862004006
 20
241.6642250415424
 30
0.0
 10
532.3251038110402
 20
241.7910739982571
 30
0.0
 10
532.1485346185286
 20
242.0962591143395
 30
0.0
 10
532.1023892630496
 20
242.2727928990246
 30
0.0
 10
532.1023892630496
 20
242.444454427104
 30
0.0
  0
SPLINE
  5
11B
330
1F
100
AcDbEntity
  8
0
  6
Continuous
 62
     7
370
    25
100
AcDbSpline
210
0.0
220
0.0
230
1.0
 70
    24
 71
     3
 72
    12
 73
     8
 74
     0
 42
0.000000001
 43
0.00000001
 40
0.0
 40
0.0
 40
0.0
 40
0.0
 40
0.2499999999999999
 40
0.2499999999999999
 40
0.4999999999999998
 40
0.4999999999999998
 40
1.0
 40
1.0
 40
1.0
 40
1.0
 10
532.1023892630496
 20
255.2376668074681
 30
0.0
 10
532.1023892630496
 20
254.1622627656839
 30
0.0
 10
532.1023892630496
 20
253.0868162167514
 30
0.0
 10
532.1023892630496
 20
250.9358430432827
 30
0.0
 10
532.1023892630496
 20
249.8579729439436
 30
0.0
 10
532.1023892630496
 20
246.6411264895656
 30
0.0
 10
532.1023892630496
 20
244.5304105259059
 30
0.0
 10
532.1023892630496
 20
242.444454427104
 30
0.0
  0
SPLINE
  5
11C
330
1F
100
AcDbEntity
  8
0
  6
Continuous
 62
     7
370
    25
100
AcDbSpline
210
0.0
220
0.0
230
1.0
 70
     8
 71
     3
 72
    14
 73
    10
 74
     0
 42
0.000000001
 43
0.00000001
 40
0.0
 40
0.0
 40
0.0
 40
0.0
 40
0.2500000000000001
 40
0.2500000000000001
 40
0.5000000000000001
 40
0.5000000000000001
 40
0.75
 40
0.75
 40
1.0
 40
1.0
 40
1.0
 40
1.0
 10
532.1023892630496
 20
255.2376668074681
 30
0.0
 10
532.1023892630496
 20
256.0387686123377
 30
0.0
 10
532.1096949730685
 20
256.8411591170732
 30
0.0
 10
532.1228994475975
 20
258.4469471402862
 30
0.0
 10
532.1283360388951
 20
259.2504181646873
 30
0.0
 10
532.128328620148
 20
260.858731443214
 30
0.0
 10
532.1228824396487
 20
261.6625024919296
 30
0.0
 10
532.1096838799118
 20
263.2673589320248
 30
0.0
 10
532.1023892630496
 20
264.0688134033373
 30
0.0
 10
532.1023892630496
 20
264.8696084673069
 30
0.0
  0
SPLINE
  5
11D
330
1F
100
AcDbEntity
  8
0
  6
Continuous
 62
     7
370
    25
100
AcDbSpline
210
0.0
220
0.0
230
1.0
 70
    24
 71
     3
 72
    12
 73
     8
 74
     0
 42
0.000000001
 43
0.00000001
 40
0.0
 40
0.0
 40
0.0
 40
0.0
 40
0.4999999999999997
 40
0.4999999999999997
 40
0.7499999999999997
 40
0.7499999999999997
 40
1.0
 40
1.0
 40
1.0
 40
1.0
 10
532.1023892630496
 20
277.6628208476712
 30
0.0
 10
532.1023892630496
 20
275.5763357485796
 30
0.0
 10
532.1023892630496
 20
273.4650202181724
 30
0.0
 10
532.1023892630496
 20
270.2471150406313
 30
0.0
 10
532.1023892630496
 20
269.1701570814556
 30
0.0
 10
532.1023892630496
 20
267.019944008347
 30
0.0
 10
532.1023892630496
 20
265.9447974776012
 30
0.0
 10
532.1023892630496
 20
264.8696084673069
 30
0.0
  0
SPLINE
  5
11E
330
1F
100
AcDbEntity
  8
0
  6
Continuous
 62
     7
370
    25
100
AcDbSpline
210
0.0
220
0.0
230
1.0
 70
     8
 71
     3
 72
    10
 73
     6
 74
     0
 42
0.000000001
 43
0.00000001
 40
0.0
 40
0.0
 40
0.0
 40
0.0
 40
0.5
 40
0.5
 40
1.0
 40
1.0
 40
1.0
 40
1.0
 10
532.1023892630496
 20
277.6628208476712
 30
0.0
 10
532.1023892630496
 20
277.8344138149019
 30
0.0
 10
532.1479028336859
 20
278.0092803087374
 30
0.0
 10
532.3239159668395
 20
278.31478543957
 30
0.0
 10
532.4537264327379
 20
278.4430157263567
 30
0.0
 10
532.6023892630496
 20
278.5288462514557
 30
0.0
  0
SPLINE
  5
11F
330
1F
100
AcDbEntity
  8
0
  6
Continuous
 62
     7
370
    25
100
AcDbSpline
210
0.0
220
0.0
230
1.0
 70
    24
 71
     3
 72
    12
 73
     8
 74
     0
 42
0.000000001
 43
0.00000001
 40
0.0
 40
0.0
 40
0.0
 40
0.0
 40
0.2499999999999999
 40
0.2499999999999999
 40
0.4999999999999998
 40
0.4999999999999998
 40
1.0
 40
1.0
 40
1.0
 40
1.0
 10
543.6816361804546
 20
284.9254524416377
 30
0.0
 10
542.7430959694174
 20
284.3835859981502
 30
0.0
 10
541.8006049624191
 20
283.8394385615508
 30
0.0
 10
539.9247255102574
 20
282.756399054878
 30
0.0
 10
538.9944339641156
 20
282.2192949802882
 30
0.0
 10
536.2236572542611
 20
280.6195863009893
 30
0.0
 10
534.4031791148905
 20
279.5685327571699
 30
0.0
 10
532.6023892630496
 20
278.5288462514557
 30
0.0
  0
SPLINE
  5
120
330
1F
100
AcDbEntity
  8
0
  6
Continuous
 62
     7
370
    25
100
AcDbSpline
210
0.0
220
0.0
230
1.0
 70
     8
 71
     3
 72
    14
 73
    10
 74
     0
 42
0.000000001
 43
0.00000001
 40
0.0
 40
0.0
 40
0.0
 40
0.0
 40
0.2500000000000002
 40
0.2500000000000002
 40
0.5000000000000004
 40
0.5000000000000004
 40
0.7500000000000002
 40
0.7500000000000002
 40
1.0
 40
1.0
 40
1.0
 40
1.0
 10
543.6816361804546
 20
284.9254524416377
 30
0.0
 10
544.3754106944891
 20
285.3260033440725
 30
0.0
 10
545.073954110355
 20
285.7208716659713
 30
0.0
 10
546.4712095688146
 20
286.5123302671921
 30
0.0
 10
547.1697541827996
 20
286.9093575532189
 30
0.0
 10
548.5625906298739
 20
287.7135206173057
 30
0.0
 10
549.2559536866385
 20
288.1201226723294
 30
0.0
 10
550.6392008533195
 20
288.9339811804024
 30
0.0
 10
551.3296334770217
 20
289.3410257395723
 30
0.0
 10
552.0231423456445
 20
289.741423271557
 30
0.0
  0
SPLINE
  5
121
330
1F
100
AcDbEntity
  8
0
  6
Continuous
 62
     7
370
    25
100
AcDbSpline
210
0.0
220
0.0
230
1.0
 70
    24
 71
     3
 72
    12
 73
     8
 74
     0
 42
0.000000001
 43
0.00000001
 40
0.0
 40
0.0
 40
0.0
 40
0.0
 40
0.2499999999999999
 40
0.2499999999999999
 40
0.4999999999999999
 40
0.4999999999999999
 40
1.0
 40
1.0
 40
1.0
 40
1.0
 10
563.1023892630496
 20
296.1380294617392
 30
0.0
 10
562.1948745759344
 20
295.6140756128397
 30
0.0
 10
561.2815305919977
 20
295.0867562178512
 30
0.0
 10
559.4411110743213
 20
294.0241895138988
 30
0.0
 10
558.5153192207647
 20
293.4896833380344
 30
0.0
 10
555.7396184934215
 20
291.8871317759129
 30
0.0
 10
553.8842589949576
 20
290.8159394700312
 30
0.0
 10
552.0231423456445
 20
289.741423271557
 30
0.0
  0
SPLINE
  5
122
330
1F
100
AcDbEntity
  8
0
  6
Continuous
 62
     7
370
    25
100
AcDbSpline
210
0.0
220
0.0
230
1.0
 70
     8
 71
     3
 72
    10
 73
     6
 74
     0
 42
0.000000001
 43
0.00000001
 40
0.0
 40
0.0
 40
0.0
 40
0.0
 40
0.5
 40
0.5
 40
1.0
 40
1.0
 40
1.0
 40
1.0
 10
563.1023892630496
 20
296.1380294617392
 30
0.0
 10
563.2509923539532
 20
296.2238254962748
 30
0.0
 10
563.4251880057707
 20
296.2718432380387
 30
0.0
 10
563.7777707386546
 20
296.2721640499694
 30
0.0
 10
563.9537263920512
 20
296.2238600103287
 30
0.0
 10
564.1023892630496
 20
296.1380294617392
 30
0.0
  0
SPLINE
  5
123
330
1F
100
AcDbEntity
  8
0
  6
Continuous
 62
     7
370
    25
100
AcDbSpline
210
0.0
220
0.0
230
1.0
 70
    24
 71
     3
 72
    12
 73
     8
 74
     0
 42
0.000000001
 43
0.00000001
 40
0.0
 40
0.0
 40
0.0
 40
0.0
 40
0.2499999999999997
 40
0.2499999999999997
 40
0.4999999999999998
 40
0.4999999999999998
 40
1.0
 40
1.0
 40
1.0
 40
1.0
 10
575.1816361804546
 20
289.7414232715572
 30
0.0
 10
574.2430959694175
 20
290.2832897150448
 30
0.0
 10
573.3006049624191
 20
290.8274371516441
 30
0.0
 10
571.4247255102573
 20
291.9104766583169
 30
0.0
 10
570.4944339641156
 20
292.4475807329067
 30
0.0
 10
567.723657254261
 20
294.0472894122056
 30
0.0
 10
565.9031791148905
 20
295.0983429560251
 30
0.0
 10
564.1023892630496
 20
296.1380294617392
 30
0.0
  0
SPLINE
  5
124
330
1F
100
AcDbEntity
  8
0
  6
Continuous
 62
     7
370
    25
100
AcDbSpline
210
0.0
220
0.0
230
1.0
 70
     8
 71
     3
 72
    14
 73
    10
 74
     0
 42
0.000000001
 43
0.00000001
 40
0.0
 40
0.0
 40
0.0
 40
0.0
 40
0.2499999999999996
 40
0.2499999999999996
 40
0.4999999999999991
 40
0.4999999999999991
 40
0.7499999999999996
 40
0.7499999999999996
 40
1.0
 40
1.0
 40
1.0
 40
1.0
 10
575.1816361804546
 20
289.7414232715572
 30
0.0
 10
575.8754106944892
 20
289.3408723691224
 30
0.0
 10
576.5666484003361
 20
288.9333501862856
 30
0.0
 10
577.950699384267
 20
288.1190207642934
 30
0.0
 10
578.6438074069541
 20
287.7125770259191
 30
0.0
 10
580.0366512727755
 20
286.9084268114793
 30
0.0
 10
580.7354605100394
 20
286.5112578177874
 30
0.0
 10
582.1319062364573
 20
285.7202598857652
 30
0.0
 10
582.8296334770216
 20
285.3258499736227
 30
0.0
 10
583.5231423456445
 20
284.9254524416378
 30
0.0
  0
SPLINE
  5
125
330
1F
100
AcDbEntity
  8
0
  6
Continuous
 62
     7
370
    25
100
AcDbSpline
210
0.0
220
0.0
230
1.0
 70
    24
 71
     3
 72
    12
 73
     8
 74
     0
 42
0.000000001
 43
0.00000001
 40
0.0
 40
0.0
 40
0.0
 40
0.0
 40
0.2500000000000002
 40
0.2500000000000002
 40
0.5000000000000003
 40
0.5000000000000003
 40
1.0
 40
1.0
 40
1.0
 40
1.0
 10
594.6023892630496
 20
278.5288462514556
 30
0.0
 10
593.6948745759344
 20
279.0528001003552
 30
0.0
 10
592.7815305919978
 20
279.5801194953438
 30
0.0
 10
590.9411110743213
 20
280.6426861992961
 30
0.0
 10
590.0153192207647
 20
281.1771923751605
 30
0.0
 10
587.2396184934215
 20
282.7797439372819
 30
0.0
 10
585.3842589949575
 20
283.8509362431636
 30
0.0
 10
583.5231423456445
 20
284.9254524416378
 30
0.0
  0
LINE
  5
126
330
1F
100
AcDbEntity
  8
0
  6
Continuous
 62
     7
370
    25
100
AcDbLine
 10
583.5231423456
 20
235.1818228331
 30
0.0
 11
575.1816361805
 21
230.3658520032
 31
0.0
  0
LINE
  5
127
330
1F
100
AcDbEntity
  8
0
  6
Continuous
 62
     7
370
    25
100
AcDbLine
 10
532.102389263
 20
255.2376668075
 30
0.0
 11
532.102389263
 21
264.8696084673
 31
0.0
  0
LINE
  5
128
330
1F
100
AcDbEntity
  8
0
  6
Continuous
 62
     7
370
    25
100
AcDbLine
 10
575.1816361805
 20
289.7414232716
 30
0.0
 11
583.5231423456
 21
284.9254524416
 31
0.0
  0
LINE
  5
129
330
1F
100
AcDbEntity
  8
0
  6
Continuous
 62
     7
370
    25
100
AcDbLine
 10
552.0231423456
 20
230.3658520032
 30
0.0
 11
543.6816361805
 21
235.1818228331
 31
0.0
  0
LINE
  5
12A
330
1F
100
AcDbEntity
  8
0
  6
Continuous
 62
     7
370
    25
100
AcDbLine
 10
595.1023892631
 20
264.8696084673
 30
0.0
 11
595.102389263
 21
255.2376668075
 31
0.0
  0
LINE
  5
12B
330
1F
100
AcDbEntity
  8
0
  6
Continuous
 62
     7
370
    25
100
AcDbLine
 10
543.6816361805
 20
284.9254524416
 30
0.0
 11
552.0231423456
 21
289.7414232716
 31
0.0
  0
INSERT
  5
137
330
1F
100
AcDbEntity
  8
0
  6
Continuous
 62
     7
370
    18
100
AcDbBlockReference
  2
SW_CENTERMARKSYMBOL_0
 10
563.602389263
 20
260.0536376374
 30
0.0
  0
LINE
  5
138
330
1F
100
AcDbEntity
  8
0
  6
Continuous
 62
     7
370
    25
100
AcDbLine
 10
401.199493591
 20
342.4674239631
 30
0.0
 11
401.4881687256
 21
342.9674239631
 31
0.0
  0
LINE
  5
139
330
1F
100
AcDbEntity
  8
0
  6
Continuous
 62
     7
370
    25
100
AcDbLine
 10
401.4881687256
 20
404.9674239631
 30
0.0
 11
401.199493591
 21
405.4674239631
 31
0.0
  0
LINE
  5
13A
330
1F
100
AcDbEntity
  8
0
  6
Continuous
 62
     7
370
    25
100
AcDbLine
 10
385.7768438602
 20
405.4674239631
 30
0.0
 11
385.4881687256
 21
404.9674239631
 31
0.0
  0
LINE
  5
13B
330
1F
100
AcDbEntity
  8
0
  6
Continuous
 62
     7
370
    25
100
AcDbLine
 10
385.4881687256
 20
342.9674239631
 30
0.0
 11
385.7768438602
 21
342.4674239631
 31
0.0
  0
LINE
  5
13C
330
1F
100
AcDbEntity
  8
0
  6
Continuous
 62
     7
370
    25
100
AcDbLine
 10
385.4881687256
 20
404.2156739631
 30
0.0
 11
357.4907493707
 21
403.3407546082
 31
0.0
  0
LINE
  5
13D
330
1F
100
AcDbEntity
  8
0
  6
Continuous
 62
     7
370
    25
100
AcDbLine
 10
357.4907493707
 20
344.5940933179
 30
0.0
 11
385.4881687256
 21
343.7191739631
 31
0.0
  0
LINE
  5
13E
330
1F
100
AcDbEntity
  8
0
  6
Continuous
 62
     7
370
    25
100
AcDbLine
 10
357.4907493707
 20
403.3407546082
 30
0.0
 11
355.4881687256
 21
401.3381739631
 31
0.0
  0
LINE
  5
13F
330
1F
100
AcDbEntity
  8
0
  6
Continuous
 62
     7
370
    25
100
AcDbLine
 10
355.4881687256
 20
346.5966739631
 30
0.0
 11
357.4907493707
 21
344.5940933179
 31
0.0
  0
LINE
  5
140
330
1F
100
AcDbEntity
  8
0
  6
Continuous
 62
     7
370
    25
100
AcDbLine
 10
413.4881687256
 20
347.9674239631
 30
0.0
 11
425.4881687256
 21
349.9674239631
 31
0.0
  0
LINE
  5
141
330
1F
100
AcDbEntity
  8
0
  6
Continuous
 62
     7
370
    25
100
AcDbLine
 10
425.4881687256
 20
397.9674239631
 30
0.0
 11
413.4881687256
 21
399.9674239631
 31
0.0
  0
LINE
  5
142
330
1F
100
AcDbEntity
  8
0
  6
Continuous
 62
     7
370
    25
100
AcDbLine
 10
401.4881687256
 20
347.9674239631
 30
0.0
 11
413.4881687256
 21
347.9674239631
 31
0.0
  0
LINE
  5
143
330
1F
100
AcDbEntity
  8
0
  6
Continuous
 62
     7
370
    25
100
AcDbLine
 10
413.4881687256
 20
399.9674239631
 30
0.0
 11
401.4881687256
 21
399.9674239631
 31
0.0
  0
ARC
  5
144
330
1F
100
AcDbEntity
  8
0
  6
Continuous
 62
     7
370
    25
100
AcDbCircle
 10
473.9881687256
 20
399.3909191194
 30
0.0
 40
0.5000000000000362
100
AcDbArc
 50
81.8698976458
 51
180.0
  0
ARC
  5
145
330
1F
100
AcDbEntity
  8
0
  6
Continuous
 62
     7
370
    25
100
AcDbCircle
 10
473.9881687256
 20
348.5439288068
 30
0.0
 40
0.5
100
AcDbArc
 50
180.0
 51
278.1301023542
  0
LINE
  5
146
330
1F
100
AcDbEntity
  8
0
  6
Continuous
 62
     7
370
    25
100
AcDbLine
 10
474.0588794037
 20
348.0489540599
 30
0.0
 11
485.7710114381
 21
349.7221157791
 31
0.0
  0
LINE
  5
147
330
1F
100
AcDbEntity
  8
0
  6
Continuous
 62
     7
370
    25
100
AcDbLine
 10
485.7710114381
 20
398.212732147
 30
0.0
 11
474.0588794037
 21
399.8858938662
 31
0.0
  0
ARC
  5
148
330
1F
100
AcDbEntity
  8
0
  6
Continuous
 62
     7
370
    25
100
AcDbCircle
 10
461.9881687256
 20
399.3771937522
 30
0.0
 40
0.5
100
AcDbArc
 50
80.537677792
 51
180.0
  0
ARC
  5
149
330
1F
100
AcDbEntity
  8
0
  6
Continuous
 62
     7
370
    25
100
AcDbCircle
 10
461.9881687256
 20
348.5576541739
 30
0.0
 40
0.5
100
AcDbArc
 50
180.0
 51
279.462322208
  0
ARC
  5
14A
330
1F
100
AcDbEntity
  8
0
  6
Continuous
 62
     7
370
    25
100
AcDbCircle
 10
449.9881687256
 20
399.3771937522
 30
0.0
 40
0.4999999999999771
100
AcDbArc
 50
80.537677792
 51
180.0
  0
ARC
  5
14B
330
1F
100
AcDbEntity
  8
0
  6
Continuous
 62
     7
370
    25
100
AcDbCircle
 10
449.9881687256
 20
348.5576541739
 30
0.0
 40
0.4999999999999771
100
AcDbArc
 50
180.0
 51
279.462322208
  0
ARC
  5
14C
330
1F
100
AcDbEntity
  8
0
  6
Continuous
 62
     7
370
    25
100
AcDbCircle
 10
437.9881687256
 20
399.3771937522
 30
0.0
 40
0.5
100
AcDbArc
 50
80.537677792
 51
180.0
  0
ARC
  5
14D
330
1F
100
AcDbEntity
  8
0
  6
Continuous
 62
     7
370
    25
100
AcDbCircle
 10
437.9881687256
 20
348.5576541739
 30
0.0
 40
0.5
100
AcDbArc
 50
180.0
 51
279.462322208
  0
ARC
  5
14E
330
1F
100
AcDbEntity
  8
0
  6
Continuous
 62
     7
370
    25
100
AcDbCircle
 10
425.9881687256
 20
399.3771937522
 30
0.0
 40
0.5
100
AcDbArc
 50
80.537677792
 51
180.0
  0
ARC
  5
14F
330
1F
100
AcDbEntity
  8
0
  6
Continuous
 62
     7
370
    25
100
AcDbCircle
 10
425.9881687256
 20
348.5576541739
 30
0.0
 40
0.5
100
AcDbArc
 50
180.0
 51
279.462322208
  0
LINE
  5
150
330
1F
100
AcDbEntity
  8
0
  6
Continuous
 62
     7
370
    25
100
AcDbLine
 10
462.0703682192
 20
348.064457212
 30
0.0
 11
473.4881687256
 21
349.9674239631
 31
0.0
  0
LINE
  5
151
330
1F
100
AcDbEntity
  8
0
  6
Continuous
 62
     7
370
    25
100
AcDbLine
 10
473.4881687256
 20
397.9674239631
 30
0.0
 11
462.0703682192
 21
399.8703907141
 31
0.0
  0
LINE
  5
152
330
1F
100
AcDbEntity
  8
0
  6
Continuous
 62
     7
370
    25
100
AcDbLine
 10
450.0703682192
 20
348.064457212
 30
0.0
 11
461.4881687256
 21
349.9674239631
 31
0.0
  0
LINE
  5
153
330
1F
100
AcDbEntity
  8
0
  6
Continuous
 62
     7
370
    25
100
AcDbLine
 10
461.4881687256
 20
397.9674239631
 30
0.0
 11
450.0703682192
 21
399.8703907141
 31
0.0
  0
LINE
  5
154
330
1F
100
AcDbEntity
  8
0
  6
Continuous
 62
     7
370
    25
100
AcDbLine
 10
438.0703682192
 20
348.064457212
 30
0.0
 11
449.4881687256
 21
349.9674239631
 31
0.0
  0
LINE
  5
155
330
1F
100
AcDbEntity
  8
0
  6
Continuous
 62
     7
370
    25
100
AcDbLine
 10
449.4881687256
 20
397.9674239631
 30
0.0
 11
438.0703682192
 21
399.8703907141
 31
0.0
  0
LINE
  5
156
330
1F
100
AcDbEntity
  8
0
  6
Continuous
 62
     7
370
    25
100
AcDbLine
 10
426.0703682192
 20
348.064457212
 30
0.0
 11
437.4881687256
 21
349.9674239631
 31
0.0
  0
LINE
  5
157
330
1F
100
AcDbEntity
  8
0
  6
Continuous
 62
     7
370
    25
100
AcDbLine
 10
437.4881687256
 20
397.9674239631
 30
0.0
 11
426.0703682192
 21
399.8703907141
 31
0.0
  0
ARC
  5
158
330
1F
100
AcDbEntity
  8
0
  6
Continuous
 62
     7
370
    25
100
AcDbCircle
 10
485.4881687256
 20
396.2328331597
 30
0.0
 40
2.0
100
AcDbArc
 50
0.0
 51
81.8698976458
  0
ARC
  5
159
330
1F
100
AcDbEntity
  8
0
  6
Continuous
 62
     7
370
    25
100
AcDbCircle
 10
485.4881687256
 20
351.7020147665
 30
0.0
 40
2.0
100
AcDbArc
 50
278.1301023542
 51
0.0
  0
LINE
  5
15A
330
1F
100
AcDbEntity
  8
0
  6
Continuous
 62
     7
370
    25
100
AcDbLine
 10
392.3341825849
 20
342.4674239631
 30
0.0
 11
392.3341825849
 21
342.4299239631
 31
0.0
  0
LINE
  5
15B
330
1F
100
AcDbEntity
  8
0
  6
Continuous
 62
     7
370
    25
100
AcDbLine
 10
391.6009299336
 20
342.4299239631
 30
0.0
 11
391.6009299336
 21
342.4674239631
 31
0.0
  0
LINE
  5
15C
330
1F
100
AcDbEntity
  8
0
  6
Continuous
 62
     7
370
    25
100
AcDbLine
 10
392.3351166163
 20
342.4674239631
 30
0.0
 11
392.3351166163
 21
342.4299239631
 31
0.0
  0
LINE
  5
15D
330
1F
100
AcDbEntity
  8
0
  6
Continuous
 62
     7
370
    25
100
AcDbLine
 10
401.4881687256
 20
404.9674239631
 30
0.0
 11
401.4881687256
 21
342.9674239631
 31
0.0
  0
SPLINE
  5
15E
330
1F
100
AcDbEntity
  8
0
  6
Continuous
 62
     7
370
    25
100
AcDbSpline
210
0.0
220
0.0
230
1.0
 70
     8
 71
     3
 72
    10
 73
     6
 74
     0
 42
0.000000001
 43
0.00000001
 40
0.0
 40
0.0
 40
0.0
 40
0.0
 40
0.5
 40
0.5
 40
1.0
 40
1.0
 40
1.0
 40
1.0
 10
398.5506938331164
 20
404.9674239630676
 30
0.0
 10
398.502352943904
 20
405.1160270257165
 30
0.0
 10
398.4754337639919
 20
405.244709415077
 30
0.0
 10
398.4752536367772
 20
405.4212786075886
 30
0.0
 10
398.5023333667287
 20
405.4674239630676
 30
0.0
 10
398.5506938331165
 20
405.4674239630676
 30
0.0
  0
SPLINE
  5
15F
330
1F
100
AcDbEntity
  8
0
  6
Continuous
 62
     7
370
    25
100
AcDbSpline
210
0.0
220
0.0
230
1.0
 70
    24
 71
     3
 72
    12
 73
     8
 74
     0
 42
0.000000001
 43
0.00000001
 40
0.0
 40
0.0
 40
0.0
 40
0.0
 40
0.2499999999999999
 40
0.2499999999999999
 40
0.5
 40
0.5
 40
1.0
 40
1.0
 40
1.0
 40
1.0
 10
400.9881687255806
 20
405.4674239630676
 30
0.0
 10
400.894333265704
 20
405.4674239630676
 30
0.0
 10
400.7697195975568
 20
405.4674239630676
 30
0.0
 10
400.462511810954
 20
405.4674239630676
 30
0.0
 10
400.2794642855594
 20
405.4674239630676
 30
0.0
 10
399.6539209270387
 20
405.4674239630676
 30
0.0
 10
399.1383491507122
 20
405.4674239630676
 30
0.0
 10
398.5506938331164
 20
405.4674239630676
 30
0.0
  0
SPLINE
  5
160
330
1F
100
AcDbEntity
  8
0
  6
Continuous
 62
     7
370
    25
100
AcDbSpline
210
0.0
220
0.0
230
1.0
 70
     8
 71
     3
 72
     9
 73
     5
 74
     0
 42
0.000000001
 43
0.00000001
 40
0.0
 40
0.0
 40
0.0
 40
0.0
 40
0.2997353345563918
 40
1.0
 40
1.0
 40
1.0
 40
1.0
 10
400.9881687255803
 20
405.4674239630681
 30
0.0
 10
401.0283680913804
 20
405.4654510429048
 30
0.0
 10
401.1624842971311
 20
405.4588688354179
 30
0.0
 10
401.1872807870892
 20
405.4496607143388
 30
0.0
 10
401.2046448928338
 20
405.4432125925121
 30
0.0
  0
SPLINE
  5
161
330
1F
100
AcDbEntity
  8
0
  6
Continuous
 62
     7
370
    25
100
AcDbSpline
210
0.0
220
0.0
230
1.0
 70
     8
 71
     3
 72
    10
 73
     6
 74
     0
 42
0.000000001
 43
0.00000001
 40
0.0
 40
0.0
 40
0.0
 40
0.0
 40
0.0593499441666912
 40
0.5292553700753206
 40
1.0
 40
1.0
 40
1.0
 40
1.0
 10
401.2046448928338
 20
342.491635333623
 30
0.0
 10
401.2079344283009
 20
342.4922123948111
 30
0.0
 10
401.2372689851484
 20
342.4973583597648
 30
0.0
 10
401.1560548360671
 20
342.4769288562236
 30
0.0
 10
401.0441640369897
 20
342.4705941446304
 30
0.0
 10
400.9881687255803
 20
342.467423963067
 30
0.0
  0
SPLINE
  5
162
330
1F
100
AcDbEntity
  8
0
  6
Continuous
 62
     7
370
    25
100
AcDbSpline
210
0.0
220
0.0
230
1.0
 70
    24
 71
     3
 72
    12
 73
     8
 74
     0
 42
0.000000001
 43
0.00000001
 40
0.0
 40
0.0
 40
0.0
 40
0.0
 40
0.4999999999999997
 40
0.4999999999999997
 40
0.7499999999999997
 40
0.7499999999999997
 40
1.0
 40
1.0
 40
1.0
 40
1.0
 10
398.5506938331165
 20
342.4674239630675
 30
0.0
 10
399.1384981806143
 20
342.4674239630675
 30
0.0
 10
399.6542005714558
 20
342.4674239630675
 30
0.0
 10
400.2798594918256
 20
342.4674239630675
 30
0.0
 10
400.4627099688882
 20
342.4674239630675
 30
0.0
 10
400.7697771074133
 20
342.4674239630675
 30
0.0
 10
400.8943520284926
 20
342.4674239630675
 30
0.0
 10
400.9881687255806
 20
342.4674239630675
 30
0.0
  0
SPLINE
  5
163
330
1F
100
AcDbEntity
  8
0
  6
Continuous
 62
     7
370
    25
100
AcDbSpline
210
0.0
220
0.0
230
1.0
 70
     8
 71
     3
 72
    10
 73
     6
 74
     0
 42
0.000000001
 43
0.00000001
 40
0.0
 40
0.0
 40
0.0
 40
0.0
 40
0.5
 40
0.5
 40
1.0
 40
1.0
 40
1.0
 40
1.0
 10
398.5506938331165
 20
342.4674239630675
 30
0.0
 10
398.5023526816832
 20
342.4674239630675
 30
0.0
 10
398.4754337280202
 20
342.5129375337038
 30
0.0
 10
398.4752536723819
 20
342.6889506668575
 30
0.0
 10
398.5023335013574
 20
342.8187611327559
 30
0.0
 10
398.5506938331165
 20
342.9674239630675
 30
0.0
  0
SPLINE
  5
164
330
1F
100
AcDbEntity
  8
0
  6
Continuous
 62
     7
370
    25
100
AcDbSpline
210
0.0
220
0.0
230
1.0
 70
     8
 71
     3
 72
    12
 73
     8
 74
     0
 42
0.000000001
 43
0.00000001
 40
0.0
 40
0.0
 40
0.0
 40
0.0
 40
0.2499999999999999
 40
0.2499999999999999
 40
0.4999999999999998
 40
0.4999999999999998
 40
1.0
 40
1.0
 40
1.0
 40
1.0
 10
400.9881687255806
 20
354.0466708804725
 30
0.0
 10
400.8936065239507
 20
353.1081306694354
 30
0.0
 10
400.7672067356678
 20
352.1656396624369
 30
0.0
 10
400.4568042967304
 20
350.2897602102752
 30
0.0
 10
400.273552645733
 20
349.3594686641335
 30
0.0
 10
399.6500866172003
 20
346.5886919542789
 30
0.0
 10
399.1364945640776
 20
344.7682138149083
 30
0.0
 10
398.5506938331165
 20
342.9674239630675
 30
0.0
  0
SPLINE
  5
165
330
1F
100
AcDbEntity
  8
0
  6
Continuous
 62
     7
370
    25
100
AcDbSpline
210
0.0
220
0.0
230
1.0
 70
     8
 71
     3
 72
    14
 73
    10
 74
     0
 42
0.000000001
 43
0.00000001
 40
0.0
 40
0.0
 40
0.0
 40
0.0
 40
0.2500000000000002
 40
0.2500000000000002
 40
0.5000000000000004
 40
0.5000000000000004
 40
0.7500000000000002
 40
0.7500000000000002
 40
1.0
 40
1.0
 40
1.0
 40
1.0
 10
400.9881687255806
 20
354.0466708804725
 30
0.0
 10
401.058069668247
 20
354.740445394507
 30
0.0
 10
401.1151966489583
 20
355.4389888103728
 30
0.0
 10
401.1935409440143
 20
356.8362442688327
 30
0.0
 10
401.214487785279
 20
357.5347888828174
 30
0.0
 10
401.2144558534039
 20
358.9276253298917
 30
0.0
 10
401.1934602242263
 20
359.6209883866564
 30
0.0
 10
401.1151105972958
 20
361.0042355533374
 30
0.0
 10
401.0580429032617
 20
361.6946681770395
 30
0.0
 10
400.9881687255806
 20
362.3881770456624
 30
0.0
  0
SPLINE
  5
166
330
1F
100
AcDbEntity
  8
0
  6
Continuous
 62
     7
370
    25
100
AcDbSpline
210
0.0
220
0.0
230
1.0
 70
     8
 71
     3
 72
    12
 73
     8
 74
     0
 42
0.000000001
 43
0.00000001
 40
0.0
 40
0.0
 40
0.0
 40
0.0
 40
0.2499999999999999
 40
0.2499999999999999
 40
0.4999999999999999
 40
0.4999999999999999
 40
1.0
 40
1.0
 40
1.0
 40
1.0
 10
398.5506938331165
 20
373.4674239630675
 30
0.0
 10
398.8459102719067
 20
372.5599092759522
 30
0.0
 10
399.1229828280996
 20
371.6465652920157
 30
0.0
 10
399.6343880294548
 20
369.8061457743392
 30
0.0
 10
399.8682144944278
 20
368.8803539207826
 30
0.0
 10
400.4903055843937
 20
366.1046531934394
 30
0.0
 10
400.800652745147
 20
364.2492936949754
 30
0.0
 10
400.9881687255806
 20
362.3881770456624
 30
0.0
  0
SPLINE
  5
167
330
1F
100
AcDbEntity
  8
0
  6
Continuous
 62
     7
370
    25
100
AcDbSpline
210
0.0
220
0.0
230
1.0
 70
     8
 71
     3
 72
    10
 73
     6
 74
     0
 42
0.000000001
 43
0.00000001
 40
0.0
 40
0.0
 40
0.0
 40
0.0
 40
0.5
 40
0.5
 40
1.0
 40
1.0
 40
1.0
 40
1.0
 10
398.5506938331165
 20
373.4674239630675
 30
0.0
 10
398.5023529347127
 20
373.616027053971
 30
0.0
 10
398.4754337537584
 20
373.7902227057886
 30
0.0
 10
398.4752536469054
 20
374.1428054386724
 30
0.0
 10
398.5023334881219
 20
374.3187610920691
 30
0.0
 10
398.5506938331165
 20
374.4674239630675
 30
0.0
  0
SPLINE
  5
168
330
1F
100
AcDbEntity
  8
0
  6
Continuous
 62
     7
370
    25
100
AcDbSpline
210
0.0
220
0.0
230
1.0
 70
     8
 71
     3
 72
    12
 73
     8
 74
     0
 42
0.000000001
 43
0.00000001
 40
0.0
 40
0.0
 40
0.0
 40
0.0
 40
0.2499999999999997
 40
0.2499999999999997
 40
0.4999999999999998
 40
0.4999999999999998
 40
1.0
 40
1.0
 40
1.0
 40
1.0
 10
400.9881687255806
 20
385.5466708804724
 30
0.0
 10
400.8936065239507
 20
384.6081306694354
 30
0.0
 10
400.7672067356678
 20
383.6656396624369
 30
0.0
 10
400.4568042967304
 20
381.7897602102753
 30
0.0
 10
400.273552645733
 20
380.8594686641335
 30
0.0
 10
399.6500866172003
 20
378.0886919542789
 30
0.0
 10
399.1364945640776
 20
376.2682138149083
 30
0.0
 10
398.5506938331165
 20
374.4674239630675
 30
0.0
  0
SPLINE
  5
169
330
1F
100
AcDbEntity
  8
0
  6
Continuous
 62
     7
370
    25
100
AcDbSpline
210
0.0
220
0.0
230
1.0
 70
     8
 71
     3
 72
    14
 73
    10
 74
     0
 42
0.000000001
 43
0.00000001
 40
0.0
 40
0.0
 40
0.0
 40
0.0
 40
0.2499999999999996
 40
0.2499999999999996
 40
0.4999999999999991
 40
0.4999999999999991
 40
0.7499999999999996
 40
0.7499999999999996
 40
1.0
 40
1.0
 40
1.0
 40
1.0
 10
400.9881687255806
 20
385.5466708804724
 30
0.0
 10
401.058069668247
 20
386.2404453945071
 30
0.0
 10
401.1151966489583
 20
386.931683100354
 30
0.0
 10
401.1935409440143
 20
388.3157340842848
 30
0.0
 10
401.214487785279
 20
389.008842106972
 30
0.0
 10
401.2144558534039
 20
390.4016859727936
 30
0.0
 10
401.1934602242263
 20
391.1004952100574
 30
0.0
 10
401.1151105972958
 20
392.4969409364751
 30
0.0
 10
401.0580429032617
 20
393.1946681770395
 30
0.0
 10
400.9881687255806
 20
393.8881770456624
 30
0.0
  0
SPLINE
  5
16A
330
1F
100
AcDbEntity
  8
0
  6
Continuous
 62
     7
370
    25
100
AcDbSpline
210
0.0
220
0.0
230
1.0
 70
     8
 71
     3
 72
    12
 73
     8
 74
     0
 42
0.000000001
 43
0.00000001
 40
0.0
 40
0.0
 40
0.0
 40
0.0
 40
0.2500000000000002
 40
0.2500000000000002
 40
0.5000000000000003
 40
0.5000000000000003
 40
1.0
 40
1.0
 40
1.0
 40
1.0
 10
398.5506938331165
 20
404.9674239630675
 30
0.0
 10
398.8459102719067
 20
404.0599092759522
 30
0.0
 10
399.1229828280996
 20
403.1465652920156
 30
0.0
 10
399.6343880294548
 20
401.3061457743391
 30
0.0
 10
399.8682144944277
 20
400.3803539207826
 30
0.0
 10
400.4903055843937
 20
397.6046531934394
 30
0.0
 10
400.800652745147
 20
395.7492936949754
 30
0.0
 10
400.9881687255806
 20
393.8881770456624
 30
0.0
  0
LINE
  5
16B
330
1F
100
AcDbEntity
  8
0
  6
Continuous
 62
     7
370
    25
100
AcDbLine
 10
385.4881687256
 20
342.9674239631
 30
0.0
 11
385.4881687256
 21
404.9674239631
 31
0.0
  0
SPLINE
  5
16C
330
1F
100
AcDbEntity
  8
0
  6
Continuous
 62
     7
370
    25
100
AcDbSpline
210
0.0
220
0.0
230
1.0
 70
     8
 71
     3
 72
    10
 73
     6
 74
     0
 42
0.000000001
 43
0.00000001
 40
0.0
 40
0.0
 40
0.0
 40
0.0
 40
0.5
 40
0.5
 40
1.0
 40
1.0
 40
1.0
 40
1.0
 10
388.4256436180447
 20
405.4674239630676
 30
0.0
 10
388.4739847694779
 20
405.4674239630676
 30
0.0
 10
388.500903723141
 20
405.4219103924313
 30
0.0
 10
388.5010837787793
 20
405.2458972592776
 30
0.0
 10
388.4740039498038
 20
405.1160867933792
 30
0.0
 10
388.4256436180447
 20
404.9674239630676
 30
0.0
  0
SPLINE
  5
16D
330
1F
100
AcDbEntity
  8
0
  6
Continuous
 62
     7
370
    25
100
AcDbSpline
210
0.0
220
0.0
230
1.0
 70
     8
 71
     3
 72
    18
 73
    14
 74
     0
 42
0.000000001
 43
0.00000001
 40
0.0
 40
0.0
 40
0.0
 40
0.0
 40
0.2499999999999994
 40
0.2499999999999994
 40
0.499999999999999
 40
0.499999999999999
 40
0.5624999999999992
 40
0.5624999999999992
 40
0.6249999999999993
 40
0.6249999999999993
 40
0.7499999999999996
 40
0.7499999999999996
 40
1.0
 40
1.0
 40
1.0
 40
1.0
 10
388.4256436180446
 20
374.4674239630675
 30
0.0
 10
387.6149195813156
 20
376.9596428027227
 30
0.0
 10
386.9497893702343
 20
379.4689370692494
 30
0.0
 10
386.0305403586569
 20
384.5357295371445
 30
0.0
 10
385.7791897465817
 20
387.0935523951301
 30
0.0
 10
385.7762781215444
 20
390.3273378832076
 30
0.0
 10
385.7911074929784
 20
390.9770278255916
 30
0.0
 10
385.8514699387313
 20
392.2745123217258
 30
0.0
 10
385.8968804310325
 20
392.9210756653319
 30
0.0
 10
386.0769188277357
 20
394.8544980880124
 30
0.0
 10
386.2554547935272
 20
396.1350750882708
 30
0.0
 10
386.9463943452298
 20
399.9545822498633
 30
0.0
 10
387.6136670464372
 20
402.4713547490806
 30
0.0
 10
388.4256436180447
 20
404.9674239630676
 30
0.0
  0
SPLINE
  5
16E
330
1F
100
AcDbEntity
  8
0
  6
Continuous
 62
     7
370
    25
100
AcDbSpline
210
0.0
220
0.0
230
1.0
 70
     8
 71
     3
 72
    10
 73
     6
 74
     0
 42
0.000000001
 43
0.00000001
 40
0.0
 40
0.0
 40
0.0
 40
0.0
 40
0.5
 40
0.5
 40
1.0
 40
1.0
 40
1.0
 40
1.0
 10
388.4256436180447
 20
374.4674239630675
 30
0.0
 10
388.4739845164485
 20
374.3188208721641
 30
0.0
 10
388.5009036974027
 20
374.1446252203464
 30
0.0
 10
388.5010838042558
 20
373.7920424874625
 30
0.0
 10
388.4740039630393
 20
373.616086834066
 30
0.0
 10
388.4256436180447
 20
373.4674239630675
 30
0.0
  0
SPLINE
  5
16F
330
1F
100
AcDbEntity
  8
0
  6
Continuous
 62
     7
370
    25
100
AcDbSpline
210
0.0
220
0.0
230
1.0
 70
     8
 71
     3
 72
    18
 73
    14
 74
     0
 42
0.000000001
 43
0.00000001
 40
0.0
 40
0.0
 40
0.0
 40
0.0
 40
0.25
 40
0.25
 40
0.5
 40
0.5
 40
0.5625
 40
0.5625
 40
0.625
 40
0.625
 40
0.75
 40
0.75
 40
1.0
 40
1.0
 40
1.0
 40
1.0
 10
388.4256436180446
 20
342.9674239630675
 30
0.0
 10
387.6149195813156
 20
345.4596428027227
 30
0.0
 10
386.9497893702343
 20
347.9689370692494
 30
0.0
 10
386.0305403586569
 20
353.0357295371444
 30
0.0
 10
385.7791897465817
 20
355.5935523951301
 30
0.0
 10
385.7762781215444
 20
358.8273378832076
 30
0.0
 10
385.7911074929784
 20
359.4770278255916
 30
0.0
 10
385.8514699387313
 20
360.7745123217259
 30
0.0
 10
385.8968804310325
 20
361.4210756653319
 30
0.0
 10
386.0769188277357
 20
363.3544980880124
 30
0.0
 10
386.2554547935272
 20
364.6350750882708
 30
0.0
 10
386.9463943452298
 20
368.4545822498633
 30
0.0
 10
387.6136670464372
 20
370.9713547490805
 30
0.0
 10
388.4256436180447
 20
373.4674239630675
 30
0.0
  0
SPLINE
  5
170
330
1F
100
AcDbEntity
  8
0
  6
Continuous
 62
     7
370
    25
100
AcDbSpline
210
0.0
220
0.0
230
1.0
 70
     8
 71
     3
 72
    10
 73
     6
 74
     0
 42
0.000000001
 43
0.00000001
 40
0.0
 40
0.0
 40
0.0
 40
0.0
 40
0.5
 40
0.5
 40
1.0
 40
1.0
 40
1.0
 40
1.0
 10
388.4256436180447
 20
342.9674239630675
 30
0.0
 10
388.4739845072572
 20
342.8188209004185
 30
0.0
 10
388.5009036871693
 20
342.6901385110581
 30
0.0
 10
388.5010838143839
 20
342.5135693185465
 30
0.0
 10
388.4740040844325
 20
342.4674239630675
 30
0.0
 10
388.4256436180447
 20
342.4674239630675
 30
0.0
  0
SPLINE
  5
171
330
1F
100
AcDbEntity
  8
0
  6
Continuous
 62
     7
370
    25
100
AcDbSpline
210
0.0
220
0.0
230
1.0
 70
    24
 71
     3
 72
    11
 73
     7
 74
     0
 42
0.000000001
 43
0.00000001
 40
0.0
 40
0.0
 40
0.0
 40
0.0
 40
0.2259582235305301
 40
0.48921819293614
 40
0.754009489802727
 40
1.0
 40
1.0
 40
1.0
 40
1.0
 10
385.7979377700351
 20
342.4674239630675
 30
0.0
 10
385.8181927095247
 20
342.4674239630676
 30
0.0
 10
385.8620463243225
 20
342.4674239630675
 30
0.0
 10
386.4107208201931
 20
342.4674239630675
 30
0.0
 10
387.2622164137174
 20
342.4674239630675
 30
0.0
 10
388.0474690402462
 20
342.4674239630675
 30
0.0
 10
388.4256436180447
 20
342.4674239630675
 30
0.0
  0
SPLINE
  5
172
330
1F
100
AcDbEntity
  8
0
  6
Continuous
 62
     7
370
    25
100
AcDbSpline
210
0.0
220
0.0
230
1.0
 70
    24
 71
     3
 72
    11
 73
     7
 74
     0
 42
0.000000001
 43
0.00000001
 40
0.0
 40
0.0
 40
0.0
 40
0.0
 40
0.2459891806017143
 40
0.5027430282267366
 40
0.7607762261728849
 40
1.0
 40
1.0
 40
1.0
 40
1.0
 10
388.4256436180447
 20
405.4674239630676
 30
0.0
 10
388.0474581625275
 20
405.4674239630676
 30
0.0
 10
387.2745375784881
 20
405.4674239630676
 30
0.0
 10
386.4325690049715
 20
405.4674239630676
 30
0.0
 10
385.8718137504805
 20
405.4674239630676
 30
0.0
 10
385.818769219775
 20
405.4674239630676
 30
0.0
 10
385.7932501953337
 20
405.4674239630676
 30
0.0
  0
LINE
  5
173
330
1F
100
AcDbEntity
  8
0
  6
Continuous
 62
     7
370
    25
100
AcDbLine
 10
398.5506938331
 20
373.4674239631
 30
0.0
 11
388.425643618
 21
373.4674239631
 31
0.0
  0
LINE
  5
174
330
1F
100
AcDbEntity
  8
0
  6
Continuous
 62
     7
370
    25
100
AcDbLine
 10
388.425643618
 20
374.4674239631
 30
0.0
 11
398.5506938331
 21
374.4674239631
 31
0.0
  0
LINE
  5
175
330
1F
100
AcDbEntity
  8
0
  6
Continuous
 62
     7
370
    25
100
AcDbLine
 10
398.5506938331
 20
404.9674239631
 30
0.0
 11
388.425643618
 21
404.9674239631
 31
0.0
  0
LINE
  5
176
330
1F
100
AcDbEntity
  8
0
  6
Continuous
 62
     7
370
    25
100
AcDbLine
 10
400.9881687256
 20
385.5466708805
 30
0.0
 11
400.9881687256
 21
393.8881770457
 31
0.0
  0
LINE
  5
177
330
1F
100
AcDbEntity
  8
0
  6
Continuous
 62
     7
370
    25
100
AcDbLine
 10
400.9881687256
 20
354.0466708805
 30
0.0
 11
400.9881687256
 21
362.3881770457
 31
0.0
  0
LINE
  5
178
330
1F
100
AcDbEntity
  8
0
  6
Continuous
 62
     7
370
    25
100
AcDbLine
 10
388.425643618
 20
342.9674239631
 30
0.0
 11
398.5506938331
 21
342.9674239631
 31
0.0
  0
LINE
  5
179
330
1F
100
AcDbEntity
  8
0
  6
Continuous
 62
     7
370
    25
100
AcDbLine
 10
357.4907493707
 20
403.3407546082
 30
0.0
 11
357.4907493707
 21
344.5940933179
 31
0.0
  0
LINE
  5
17A
330
1F
100
AcDbEntity
  8
0
  6
Continuous
 62
     7
370
    25
100
AcDbLine
 10
355.4881687256
 20
346.5966739631
 30
0.0
 11
355.4881687256
 21
401.3381739631
 31
0.0
  0
LINE
  5
17B
330
1F
100
AcDbEntity
  8
0
  6
Continuous
 62
     7
370
    25
100
AcDbLine
 10
413.4881687256
 20
347.9674239631
 30
0.0
 11
413.4881687256
 21
399.9674239631
 31
0.0
  0
LINE
  5
17C
330
1F
100
AcDbEntity
  8
0
  6
Continuous
 62
     7
370
    25
100
AcDbLine
 10
473.4881687256
 20
348.5439288068
 30
0.0
 11
473.4881687256
 21
399.3909191194
 31
0.0
  0
LINE
  5
17D
330
1F
100
AcDbEntity
  8
0
  6
Continuous
 62
     7
370
    25
100
AcDbLine
 10
461.4881687256
 20
348.5576541739
 30
0.0
 11
461.4881687256
 21
399.3771937522
 31
0.0
  0
LINE
  5
17E
330
1F
100
AcDbEntity
  8
0
  6
Continuous
 62
     7
370
    25
100
AcDbLine
 10
449.4881687256
 20
348.5576541739
 30
0.0
 11
449.4881687256
 21
399.3771937522
 31
0.0
  0
LINE
  5
17F
330
1F
100
AcDbEntity
  8
0
  6
Continuous
 62
     7
370
    25
100
AcDbLine
 10
437.4881687256
 20
348.5576541739
 30
0.0
 11
437.4881687256
 21
399.3771937522
 31
0.0
  0
LINE
  5
180
330
1F
100
AcDbEntity
  8
0
  6
Continuous
 62
     7
370
    25
100
AcDbLine
 10
425.4881687256
 20
348.5576541739
 30
0.0
 11
425.4881687256
 21
399.3771937522
 31
0.0
  0
LINE
  5
181
330
1F
100
AcDbEntity
  8
0
  6
Continuous
 62
     7
370
    25
100
AcDbLine
 10
487.4881687256
 20
351.7020147665
 30
0.0
 11
487.4881687256
 21
396.2328331597
 31
0.0
  0
LINE
  5
182
330
1F
100
AcDbEntity
  8
0
  6
Continuous
 62
     7
370
    25
100
AcDbLine
 10
388.425643618
 20
405.4674239631
 30
0.0
 11
398.5506938331
 21
405.4674239631
 31
0.0
  0
LINE
  5
183
330
1F
100
AcDbEntity
  8
0
  6
Continuous
 62
     7
370
    25
100
AcDbLine
 10
398.5506938331
 20
342.4674239631
 30
0.0
 11
388.425643618
 21
342.4674239631
 31
0.0
  0
LINE
  5
184
330
1F
100
AcDbEntity
  8
0
  6
Continuous
 62
     8
370
    25
100
AcDbLine
 10
474.0588794037
 20
399.8858938662
 30
0.0
 11
474.0588794037
 21
348.0489540599
 31
0.0
  0
LINE
  5
185
330
1F
100
AcDbEntity
  8
0
  6
Continuous
 62
     8
370
    25
100
AcDbLine
 10
485.7710114381
 20
349.7221157791
 30
0.0
 11
485.7710114381
 21
398.212732147
 31
0.0
  0
LINE
  5
186
330
1F
100
AcDbEntity
  8
0
  6
Continuous
 62
     8
370
    25
100
AcDbLine
 10
462.0703682192
 20
399.8703907141
 30
0.0
 11
462.0703682192
 21
348.064457212
 31
0.0
  0
LINE
  5
187
330
1F
100
AcDbEntity
  8
0
  6
Continuous
 62
     8
370
    25
100
AcDbLine
 10
450.0703682192
 20
399.8703907141
 30
0.0
 11
450.0703682192
 21
348.064457212
 31
0.0
  0
LINE
  5
188
330
1F
100
AcDbEntity
  8
0
  6
Continuous
 62
     8
370
    25
100
AcDbLine
 10
438.0703682192
 20
399.8703907141
 30
0.0
 11
438.0703682192
 21
348.064457212
 31
0.0
  0
LINE
  5
189
330
1F
100
AcDbEntity
  8
0
  6
Continuous
 62
     8
370
    25
100
AcDbLine
 10
426.0703682192
 20
399.8703907141
 30
0.0
 11
426.0703682192
 21
348.064457212
 31
0.0
  0
LINE
  5
18A
330
1F
100
AcDbEntity
  8
0
  6
Continuous
 62
     7
370
    18
100
AcDbLine
 10
356.447394532
 20
402.2973997695
 30
0.0
 11
384.4881687256
 21
403.1736739631
 31
0.0
  0
LINE
  5
18B
330
1F
100
AcDbEntity
  8
0
  6
Continuous
 62
     7
370
    18
100
AcDbLine
 10
356.447394532
 20
345.6374481566
 30
0.0
 11
384.4881687256
 21
344.7611739631
 31
0.0
  0
LINE
  5
18C
330
1F
100
AcDbEntity
  8
0
  6
Continuous
 62
     7
370
    18
100
AcDbLine
 10
384.4881687256
 20
343.7504239631
 30
0.0
 11
384.4881687256
 21
404.1844239631
 31
0.0
  0
LINE
  5
18D
330
1F
100
AcDbEntity
  8
0
  6
CENTERX2
 62
     7
370
    18
100
AcDbLine
 10
397.4881687256
 20
373.9674239631
 30
0.0
 11
489.7710114381
 21
373.9674239631
 31
0.0
  0
LINE
  5
18E
330
1F
100
AcDbEntity
  8
0
  6
CENTERX2
 62
     7
370
    18
100
AcDbLine
 10
389.4881687256
 20
373.9674239631
 30
0.0
 11
353.4907493707
 21
373.9674239631
 31
0.0
  0
LINE
  5
18F
330
1F
100
AcDbEntity
  8
0
  6
CENTERX2
 62
     7
370
    18
100
AcDbLine
 10
402.5506938331
 20
373.9674239631
 30
0.0
 11
384.425643618
 21
373.9674239631
 31
0.0
  0
ENDSEC
  0
SECTION
  2
OBJECTS
  0
DICTIONARY
  5
C
330
0
100
AcDbDictionary
281
     1
  3
ACAD_GROUP
350
D
  3
ACAD_LAYOUT
350
1A
  3
ACAD_MLINESTYLE
350
17
  3
ACAD_PLOTSETTINGS
350
19
  3
ACAD_PLOTSTYLENAME
350
E
  3
ACAD_SCALELIST
350
47
  0
DICTIONARY
  5
D
102
{ACAD_REACTORS
330
C
102
}
330
C
100
AcDbDictionary
281
     1
  0
DICTIONARY
  5
1A
102
{ACAD_REACTORS
330
C
102
}
330
C
100
AcDbDictionary
281
     1
  3
Layout1
350
1E
  3
Layout2
350
26
  3
Model
350
22
  0
DICTIONARY
  5
17
102
{ACAD_REACTORS
330
C
102
}
330
C
100
AcDbDictionary
281
     1
  3
Standard
350
18
  0
DICTIONARY
  5
19
102
{ACAD_REACTORS
330
C
102
}
330
C
100
AcDbDictionary
281
     1
  0
ACDBDICTIONARYWDFLT
  5
E
102
{ACAD_REACTORS
330
C
102
}
330
C
100
AcDbDictionary
281
     1
  3
Normal
350
F
100
AcDbDictionaryWithDefault
340
F
  0
DICTIONARY
  5
47
102
{ACAD_REACTORS
330
C
102
}
330
C
100
AcDbDictionary
281
     1
  3
A0
350
48
  3
A1
350
49
  3
A2
350
4A
  3
A3
350
4B
  3
A4
350
4C
  3
A5
350
4D
  3
A6
350
4E
  3
A7
350
4F
  3
A8
350
50
  3
A9
350
51
  3
B0
350
52
  3
B1
350
53
  3
B2
350
54
  3
B3
350
55
  3
B4
350
56
  3
B5
350
57
  3
B6
350
58
  3
B7
350
59
  3
B8
350
5A
  3
B9
350
5B
  3
C0
350
5C
  3
C1
350
5D
  3
C2
350
5E
  3
C3
350
5F
  3
C4
350
60
  3
C5
350
61
  3
C6
350
62
  3
C7
350
63
  3
C8
350
64
  3
C9
350
65
  3
D0
350
66
  3
D1
350
67
  3
D2
350
68
  0
LAYOUT
  5
1E
102
{ACAD_REACTORS
330
1A
102
}
330
1A
100
AcDbPlotSettings
  1

  2
none_device
  4

  6

 40
0.0
 41
0.0
 42
0.0
 43
0.0
 44
0.0
 45
0.0
 46
0.0
 47
0.0
 48
0.0
 49
0.0
140
0.0
141
0.0
142
1.0
143
1.0
 70
   688
 72
     1
 73
     0
 74
     5
  7

 75
    16
147
1.0
148
0.0
149
0.0
100
AcDbLayout
  1
Layout1
 70
     1
 71
     1
 10
0.0
 20
0.0
 11
420.0
 21
297.0
 12
0.0
 22
0.0
 32
0.0
 14
1.0000000000E+20
 24
1.0000000000E+20
 34
1.0000000000E+20
 15
-1.0000000000E+20
 25
-1.0000000000E+20
 35
-1.0000000000E+20
146
0.0
 13
0.0
 23
0.0
 33
0.0
 16
1.0
 26
0.0
 36
0.0
 17
0.0
 27
1.0
 37
0.0
 76
     0
330
1B
  0
LAYOUT
  5
26
102
{ACAD_REACTORS
330
1A
102
}
330
1A
100
AcDbPlotSettings
  1

  2
none_device
  4

  6

 40
0.0
 41
0.0
 42
0.0
 43
0.0
 44
0.0
 45
0.0
 46
0.0
 47
0.0
 48
0.0
 49
0.0
140
0.0
141
0.0
142
1.0
143
1.0
 70
   688
 72
     1
 73
     0
 74
     5
  7

 75
    16
147
1.0
148
0.0
149
0.0
100
AcDbLayout
  1
Layout2
 70
     1
 71
     2
 10
0.0
 20
0.0
 11
0.0
 21
0.0
 12
0.0
 22
0.0
 32
0.0
 14
0.0
 24
0.0
 34
0.0
 15
0.0
 25
0.0
 35
0.0
146
0.0
 13
0.0
 23
0.0
 33
0.0
 16
1.0
 26
0.0
 36
0.0
 17
0.0
 27
1.0
 37
0.0
 76
     0
330
23
  0
LAYOUT
  5
22
102
{ACAD_REACTORS
330
1A
102
}
330
1A
100
AcDbPlotSettings
  1

  2
none_device
  4
Letter_(8.50_x_11.00_Inches)
  6

 40
6.35
 41
6.35
 42
6.35000508
 43
6.35000508
 44
215.9
 45
279.4
 46
0.0
 47
0.0
 48
0.0
 49
0.0
140
0.0
141
0.0
142
1.0
143
1.0
 70
  1712
 72
     1
 73
     0
 74
     0
  7

 75
     0
147
1.0
148
0.0
149
0.0
100
AcDbLayout
  1
Model
 70
     1
 71
     0
 10
0.0
 20
0.0
 11
863.6
 21
558.8
 12
0.0
 22
0.0
 32
0.0
 14
0.0
 24
0.0
 34
0.0
 15
863.6
 25
558.8
 35
0.0
146
0.0
 13
0.0
 23
0.0
 33
0.0
 16
1.0
 26
0.0
 36
0.0
 17
0.0
 27
1.0
 37
0.0
 76
     0
330
1F
331
29
  0
MLINESTYLE
  5
18
102
{ACAD_REACTORS
330
17
102
}
330
17
100
AcDbMlineStyle
  2
Standard
 70
     0
  3

 62
   256
 51
90.0
 52
90.0
 71
     2
 49
0.5
 62
   256
  6
BYLAYER
 49
-0.5
 62
   256
  6
BYLAYER
  0
ACDBPLACEHOLDER
  5
F
102
{ACAD_REACTORS
330
E
102
}
330
E
  0
SCALE
  5
48
102
{ACAD_REACTORS
330
47
102
}
330
47
100
AcDbScale
 70
     0
300
1:1
140
1.0
141
1.0
290
     1
  0
SCALE
  5
49
102
{ACAD_REACTORS
330
47
102
}
330
47
100
AcDbScale
 70
     0
300
1:2
140
1.0
141
2.0
290
     0
  0
SCALE
  5
4A
102
{ACAD_REACTORS
330
47
102
}
330
47
100
AcDbScale
 70
     0
300
1:4
140
1.0
141
4.0
290
     0
  0
SCALE
  5
4B
102
{ACAD_REACTORS
330
47
102
}
330
47
100
AcDbScale
 70
     0
300
1:5
140
1.0
141
5.0
290
     0
  0
SCALE
  5
4C
102
{ACAD_REACTORS
330
47
102
}
330
47
100
AcDbScale
 70
     0
300
1:8
140
1.0
141
8.0
290
     0
  0
SCALE
  5
4D
102
{ACAD_REACTORS
330
47
102
}
330
47
100
AcDbScale
 70
     0
300
1:10
140
1.0
141
10.0
290
     0
  0
SCALE
  5
4E
102
{ACAD_REACTORS
330
47
102
}
330
47
100
AcDbScale
 70
     0
300
1:16
140
1.0
141
16.0
290
     0
  0
SCALE
  5
4F
102
{ACAD_REACTORS
330
47
102
}
330
47
100
AcDbScale
 70
     0
300
1:20
140
1.0
141
20.0
290
     0
  0
SCALE
  5
50
102
{ACAD_REACTORS
330
47
102
}
330
47
100
AcDbScale
 70
     0
300
1:30
140
1.0
141
30.0
290
     0
  0
SCALE
  5
51
102
{ACAD_REACTORS
330
47
102
}
330
47
100
AcDbScale
 70
     0
300
1:40
140
1.0
141
40.0
290
     0
  0
SCALE
  5
52
102
{ACAD_REACTORS
330
47
102
}
330
47
100
AcDbScale
 70
     0
300
1:50
140
1.0
141
50.0
290
     0
  0
SCALE
  5
53
102
{ACAD_REACTORS
330
47
102
}
330
47
100
AcDbScale
 70
     0
300
1:100
140
1.0
141
100.0
290
     0
  0
SCALE
  5
54
102
{ACAD_REACTORS
330
47
102
}
330
47
100
AcDbScale
 70
     0
300
2:1
140
2.0
141
1.0
290
     0
  0
SCALE
  5
55
102
{ACAD_REACTORS
330
47
102
}
330
47
100
AcDbScale
 70
     0
300
4:1
140
4.0
141
1.0
290
     0
  0
SCALE
  5
56
102
{ACAD_REACTORS
330
47
102
}
330
47
100
AcDbScale
 70
     0
300
8:1
140
8.0
141
1.0
290
     0
  0
SCALE
  5
57
102
{ACAD_REACTORS
330
47
102
}
330
47
100
AcDbScale
 70
     0
300
10:1
140
10.0
141
1.0
290
     0
  0
SCALE
  5
58
102
{ACAD_REACTORS
330
47
102
}
330
47
100
AcDbScale
 70
     0
300
100:1
140
100.0
141
1.0
290
     0
  0
SCALE
  5
59
102
{ACAD_REACTORS
330
47
102
}
330
47
100
AcDbScale
 70
     0
300
1/128" = 1'-0"
140
0.0078125
141
12.0
290
     0
  0
SCALE
  5
5A
102
{ACAD_REACTORS
330
47
102
}
330
47
100
AcDbScale
 70
     0
300
1/64" = 1'-0"
140
0.015625
141
12.0
290
     0
  0
SCALE
  5
5B
102
{ACAD_REACTORS
330
47
102
}
330
47
100
AcDbScale
 70
     0
300
1/32" = 1'-0"
140
0.03125
141
12.0
290
     0
  0
SCALE
  5
5C
102
{ACAD_REACTORS
330
47
102
}
330
47
100
AcDbScale
 70
     0
300
1/16" = 1'-0"
140
0.0625
141
12.0
290
     0
  0
SCALE
  5
5D
102
{ACAD_REACTORS
330
47
102
}
330
47
100
AcDbScale
 70
     0
300
3/32" = 1'-0"
140
0.09375
141
12.0
290
     0
  0
SCALE
  5
5E
102
{ACAD_REACTORS
330
47
102
}
330
47
100
AcDbScale
 70
     0
300
1/8" = 1'-0"
140
0.125
141
12.0
290
     0
  0
SCALE
  5
5F
102
{ACAD_REACTORS
330
47
102
}
330
47
100
AcDbScale
 70
     0
300
3/16" = 1'-0"
140
0.1875
141
12.0
290
     0
  0
SCALE
  5
60
102
{ACAD_REACTORS
330
47
102
}
330
47
100
AcDbScale
 70
     0
300
1/4" = 1'-0"
140
0.25
141
12.0
290
     0
  0
SCALE
  5
61
102
{ACAD_REACTORS
330
47
102
}
330
47
100
AcDbScale
 70
     0
300
3/8" = 1'-0"
140
0.375
141
12.0
290
     0
  0
SCALE
  5
62
102
{ACAD_REACTORS
330
47
102
}
330
47
100
AcDbScale
 70
     0
300
1/2" = 1'-0"
140
0.5
141
12.0
290
     0
  0
SCALE
  5
63
102
{ACAD_REACTORS
330
47
102
}
330
47
100
AcDbScale
 70
     0
300
3/4" = 1'-0"
140
0.75
141
12.0
290
     0
  0
SCALE
  5
64
102
{ACAD_REACTORS
330
47
102
}
330
47
100
AcDbScale
 70
     0
300
1" = 1'-0"
140
1.0
141
12.0
290
     0
  0
SCALE
  5
65
102
{ACAD_REACTORS
330
47
102
}
330
47
100
AcDbScale
 70
     0
300
1-1/2" = 1'-0"
140
1.5
141
12.0
290
     0
  0
SCALE
  5
66
102
{ACAD_REACTORS
330
47
102
}
330
47
100
AcDbScale
 70
     0
300
3" = 1'-0"
140
3.0
141
12.0
290
     0
  0
SCALE
  5
67
102
{ACAD_REACTORS
330
47
102
}
330
47
100
AcDbScale
 70
     0
300
6" = 1'-0"
140
6.0
141
12.0
290
     0
  0
SCALE
  5
68
102
{ACAD_REACTORS
330
47
102
}
330
47
100
AcDbScale
 70
     0
300
1'-0" = 1'-0"
140
12.0
141
12.0
290
     0
  0
ENDSEC
  0
EOF
