  0
SECTION
  2
HEADER
  9
$ACADVER
  1
AC1015
  9
$ACADMAINTVER
 70
     6
  9
$DWGCODEPAGE
  3
DOS932
  9
$INSBASE
 10
0.0
 20
0.0
 30
0.0
  9
$EXTMIN
 10
0.0
 20
0.0
 30
0.0
  9
$EXTMAX
 10
863.6
 20
558.8
 30
0.0
  9
$LIMMIN
 10
0.0
 20
0.0
  9
$LIMMAX
 10
863.6
 20
558.8
  9
$ORTHOMODE
 70
     0
  9
$REGENMODE
 70
     1
  9
$FILLMODE
 70
     1
  9
$QTEXTMODE
 70
     0
  9
$MIRRTEXT
 70
     1
  9
$LTSCALE
 40
2.0
  9
$ATTMODE
 70
     1
  9
$TEXTSIZE
 40
7.0
  9
$TRACEWID
 40
1.0
  9
$TEXTSTYLE
  7
Standard
  9
$CLAYER
  8
0
  9
$CELTYPE
  6
ByLayer
  9
$CECOLOR
 62
   256
  9
$CELTSCALE
 40
1.0
  9
$DISPSILH
 70
     0
  9
$DIMSCALE
 40
1.0
  9
$DIMASZ
 40
6.604
  9
$DIMEXO
 40
2.0
  9
$DIMDLI
 40
3.75
  9
$DIMRND
 40
0.0
  9
$DIMDLE
 40
0.0
  9
$DIMEXE
 40
2.0
  9
$DIMTP
 40
0.0
  9
$DIMTM
 40
0.0
  9
$DIMTXT
 40
7.0
  9
$DIMCEN
 40
2.5
  9
$DIMTSZ
 40
0.0
  9
$DIMTOL
 70
     0
  9
$DIMLIM
 70
     0
  9
$DIMTIH
 70
     1
  9
$DIMTOH
 70
     1
  9
$DIMSE1
 70
     0
  9
$DIMSE2
 70
     0
  9
$DIMTAD
 70
     1
  9
$DIMZIN
 70
     1
  9
$DIMBLK
  1

  9
$DIMASO
 70
     1
  9
$DIMSHO
 70
     1
  9
$DIMPOST
  1

  9
$DIMAPOST
  1

  9
$DIMALT
 70
     0
  9
$DIMALTD
 70
     3
  9
$DIMALTF
 40
0.0393700787
  9
$DIMLFAC
 40
1.0
  9
$DIMTOFL
 70
     1
  9
$DIMTVP
 40
0.0
  9
$DIMTIX
 70
     0
  9
$DIMSOXD
 70
     0
  9
$DIMSAH
 70
     0
  9
$DIMBLK1
  1

  9
$DIMBLK2
  1

  9
$DIMSTYLE
  2
ISO-25
  9
$DIMCLRD
 70
     0
  9
$DIMCLRE
 70
     0
  9
$DIMCLRT
 70
     0
  9
$DIMTFAC
 40
1.0
  9
$DIMGAP
 40
3.048
  9
$DIMJUST
 70
     0
  9
$DIMSD1
 70
     0
  9
$DIMSD2
 70
     0
  9
$DIMTOLJ
 70
     0
  9
$DIMTZIN
 70
     1
  9
$DIMALTZ
 70
     0
  9
$DIMALTTZ
 70
     0
  9
$DIMUPT
 70
     0
  9
$DIMDEC
 70
     2
  9
$DIMTDEC
 70
     2
  9
$DIMALTU
 70
     2
  9
$DIMALTTD
 70
     3
  9
$DIMTXSTY
  7
Standard
  9
$DIMAUNIT
 70
     0
  9
$DIMADEC
 70
     2
  9
$DIMALTRND
 40
0.0
  9
$DIMAZIN
 70
     0
  9
$DIMDSEP
 70
    44
  9
$DIMATFIT
 70
     3
  9
$DIMFRAC
 70
     0
  9
$DIMLDRBLK
  1

  9
$DIMLUNIT
 70
     2
  9
$DIMLWD
 70
    -2
  9
$DIMLWE
 70
    -2
  9
$DIMTMOVE
 70
     0
  9
$LUNITS
 70
     2
  9
$LUPREC
 70
     2
  9
$SKETCHINC
 40
1.0
  9
$FILLETRAD
 40
10.0
  9
$AUNITS
 70
     0
  9
$AUPREC
 70
     2
  9
$MENU
  1
.
  9
$ELEVATION
 40
0.0
  9
$PELEVATION
 40
0.0
  9
$THICKNESS
 40
0.0
  9
$LIMCHECK
 70
     0
  9
$CHAMFERA
 40
0.0
  9
$CHAMFERB
 40
0.0
  9
$CHAMFERC
 40
0.0
  9
$CHAMFERD
 40
0.0
  9
$SKPOLY
 70
     0
  9
$TDCREATE
 40
2459296.733261042
  9
$TDUCREATE
 40
2459296.358261042
  9
$TDUPDATE
 40
2459296.733261586
  9
$TDUUPDATE
 40
2459296.358261586
  9
$TDINDWG
 40
0.0000000116
  9
$TDUSRTIMER
 40
0.0000000116
  9
$USRTIMER
 70
     1
  9
$ANGBASE
 50
0.0
  9
$ANGDIR
 70
     0
  9
$PDMODE
 70
     0
  9
$PDSIZE
 40
-1.0
  9
$PLINEWID
 40
0.0
  9
$SPLFRAME
 70
     0
  9
$SPLINETYPE
 70
     6
  9
$SPLINESEGS
 70
     8
  9
$HANDSEED
  5
159
  9
$SURFTAB1
 70
     6
  9
$SURFTAB2
 70
     6
  9
$SURFTYPE
 70
     6
  9
$SURFU
 70
     6
  9
$SURFV
 70
     6
  9
$UCSBASE
  2

  9
$UCSNAME
  2

  9
$UCSORG
 10
0.0
 20
0.0
 30
0.0
  9
$UCSXDIR
 10
1.0
 20
0.0
 30
0.0
  9
$UCSYDIR
 10
0.0
 20
1.0
 30
0.0
  9
$UCSORTHOREF
  2

  9
$UCSORTHOVIEW
 70
     0
  9
$UCSORGTOP
 10
0.0
 20
0.0
 30
0.0
  9
$UCSORGBOTTOM
 10
0.0
 20
0.0
 30
0.0
  9
$UCSORGLEFT
 10
0.0
 20
0.0
 30
0.0
  9
$UCSORGRIGHT
 10
0.0
 20
0.0
 30
0.0
  9
$UCSORGFRONT
 10
0.0
 20
0.0
 30
0.0
  9
$UCSORGBACK
 10
0.0
 20
0.0
 30
0.0
  9
$PUCSBASE
  2

  9
$PUCSNAME
  2

  9
$PUCSORG
 10
0.0
 20
0.0
 30
0.0
  9
$PUCSXDIR
 10
1.0
 20
0.0
 30
0.0
  9
$PUCSYDIR
 10
0.0
 20
1.0
 30
0.0
  9
$PUCSORTHOREF
  2

  9
$PUCSORTHOVIEW
 70
     0
  9
$PUCSORGTOP
 10
0.0
 20
0.0
 30
0.0
  9
$PUCSORGBOTTOM
 10
0.0
 20
0.0
 30
0.0
  9
$PUCSORGLEFT
 10
0.0
 20
0.0
 30
0.0
  9
$PUCSORGRIGHT
 10
0.0
 20
0.0
 30
0.0
  9
$PUCSORGFRONT
 10
0.0
 20
0.0
 30
0.0
  9
$PUCSORGBACK
 10
0.0
 20
0.0
 30
0.0
  9
$USERI1
 70
     0
  9
$USERI2
 70
     0
  9
$USERI3
 70
     0
  9
$USERI4
 70
     0
  9
$USERI5
 70
     0
  9
$USERR1
 40
0.0
  9
$USERR2
 40
0.0
  9
$USERR3
 40
0.0
  9
$USERR4
 40
0.0
  9
$USERR5
 40
0.0
  9
$WORLDVIEW
 70
     1
  9
$SHADEDGE
 70
     3
  9
$SHADEDIF
 70
    70
  9
$TILEMODE
 70
     1
  9
$MAXACTVP
 70
    64
  9
$PINSBASE
 10
0.0
 20
0.0
 30
0.0
  9
$PLIMCHECK
 70
     0
  9
$PEXTMIN
 10
1.0000000000E+20
 20
1.0000000000E+20
 30
1.0000000000E+20
  9
$PEXTMAX
 10
-1.0000000000E+20
 20
-1.0000000000E+20
 30
-1.0000000000E+20
  9
$PLIMMIN
 10
0.0
 20
0.0
  9
$PLIMMAX
 10
420.0
 20
297.0
  9
$UNITMODE
 70
     0
  9
$VISRETAIN
 70
     1
  9
$PLINEGEN
 70
     0
  9
$PSLTSCALE
 70
     1
  9
$TREEDEPTH
 70
  3020
  9
$CMLSTYLE
  2
Standard
  9
$CMLJUST
 70
     0
  9
$CMLSCALE
 40
20.0
  9
$PROXYGRAPHICS
 70
     1
  9
$MEASUREMENT
 70
     1
  9
$CELWEIGHT
370
    -1
  9
$ENDCAPS
280
     0
  9
$JOINSTYLE
280
     0
  9
$LWDISPLAY
290
     1
  9
$INSUNITS
 70
     4
  9
$HYPERLINKBASE
  1

  9
$STYLESHEET
  1

  9
$XEDIT
290
     1
  9
$CEPSNTYPE
380
     0
  9
$PSTYLEMODE
290
     1
  9
$FINGERPRINTGUID
  2
{8107FB99-B9EF-43E1-A934-155969B520FF}
  9
$VERSIONGUID
  2
{FAEB1C32-E019-11D5-929B-00C0DF256EC4}
  9
$EXTNAMES
290
     1
  9
$PSVPSCALE
 40
0.0
  9
$OLESTARTUP
290
     0
  0
ENDSEC
  0
SECTION
  2
CLASSES
  0
CLASS
  1
ACDBDICTIONARYWDFLT
  2
AcDbDictionaryWithDefault
  3
ObjectDBX Classes
 90
        0
280
     0
281
     0
  0
CLASS
  1
VISUALSTYLE
  2
AcDbVisualStyle
  3
ObjectDBX Classes
 90
     4095
280
     0
281
     0
  0
CLASS
  1
MATERIAL
  2
AcDbMaterial
  3
ObjectDBX Classes
 90
     1153
280
     0
281
     0
  0
CLASS
  1
SCALE
  2
AcDbScale
  3
ObjectDBX Classes
 90
     1153
280
     0
281
     0
  0
CLASS
  1
TABLESTYLE
  2
AcDbTableStyle
  3
ObjectDBX Classes
 90
     4095
280
     0
281
     0
  0
CLASS
  1
MLEADERSTYLE
  2
AcDbMLeaderStyle
  3
ACDB_MLEADERSTYLE_CLASS
 90
     4095
280
     0
281
     0
  0
CLASS
  1
SUN
  2
AcDbSun
  3
SCENEOE
 90
     1153
280
     0
281
     0
  0
CLASS
  1
ACDBPLACEHOLDER
  2
AcDbPlaceHolder
  3
ObjectDBX Classes
 90
        0
280
     0
281
     0
  0
CLASS
  1
LAYOUT
  2
AcDbLayout
  3
ObjectDBX Classes
 90
        0
280
     0
281
     0
  0
ENDSEC
  0
SECTION
  2
TABLES
  0
TABLE
  2
VPORT
  5
8
330
0
100
AcDbSymbolTable
 70
     1
  0
VPORT
  5
29
330
8
100
AcDbSymbolTableRecord
100
AcDbViewportTableRecord
  2
*Active
 70
     0
 10
0.0
 20
0.0
 11
1.0
 21
1.0
 12
431.8
 22
279.4
 13
0.0
 23
0.0
 14
10.0
 24
10.0
 15
10.0
 25
10.0
 16
0.0
 26
0.0
 36
1.0
 17
0.0
 27
0.0
 37
0.0
 40
558.8
 41
1.5454545455
 42
50.0
 43
0.0
 44
0.0
 50
0.0
 51
0.0
 71
     0
 72
  2000
 73
     1
 74
     3
 75
     0
 76
     0
 77
     0
 78
     0
281
     0
 65
     1
110
0.0
120
0.0
130
0.0
111
1.0
121
0.0
131
0.0
112
0.0
122
1.0
132
0.0
 79
     0
146
0.0
  0
ENDTAB
  0
TABLE
  2
LTYPE
  5
5
330
0
100
AcDbSymbolTable
 70
     6
  0
LTYPE
  5
14
330
5
100
AcDbSymbolTableRecord
100
AcDbLinetypeTableRecord
  2
ByBlock
 70
     0
  3

 72
    65
 73
     0
 40
0.0
  0
LTYPE
  5
15
330
5
100
AcDbSymbolTableRecord
100
AcDbLinetypeTableRecord
  2
ByLayer
 70
     0
  3

 72
    65
 73
     0
 40
0.0
  0
LTYPE
  5
16
330
5
100
AcDbSymbolTableRecord
100
AcDbLinetypeTableRecord
  2
Continuous
 70
     0
  3
Solid line
 72
    65
 73
     0
 40
0.0
  0
LTYPE
  5
6E
330
5
100
AcDbSymbolTableRecord
100
AcDbLinetypeTableRecord
  2
HIDDEN
 70
     0
  3
Hidden __ __ __ __ __ __ __ __ __ __ __ __ __ __
 72
    65
 73
     2
 40
1.905
 49
1.27
 74
     0
 49
-0.635
 74
     0
  0
LTYPE
  5
6F
330
5
100
AcDbSymbolTableRecord
100
AcDbLinetypeTableRecord
  2
PHANTOM
 70
     0
  3
Phantom ______  __  __  ______  __  __  ______
 72
    65
 73
     6
 40
12.7
 49
6.35
 74
     0
 49
-1.27
 74
     0
 49
1.27
 74
     0
 49
-1.27
 74
     0
 49
1.27
 74
     0
 49
-1.27
 74
     0
  0
LTYPE
  5
70
330
5
100
AcDbSymbolTableRecord
100
AcDbLinetypeTableRecord
  2
CENTER
 70
     0
  3
Center ____ _ ____ _ ____ _ ____ _ ____ _ ____
 72
    65
 73
     4
 40
10.16
 49
6.35
 74
     0
 49
-1.27
 74
     0
 49
1.27
 74
     0
 49
-1.27
 74
     0
  0
LTYPE
  5
71
330
5
100
AcDbSymbolTableRecord
100
AcDbLinetypeTableRecord
  2
CENTERX2
 70
     0
  3
Center (2x) ________  __  ________  __  _____
 72
    65
 73
     4
 40
20.32
 49
12.7
 74
     0
 49
-2.54
 74
     0
 49
2.54
 74
     0
 49
-2.54
 74
     0
  0
LTYPE
  5
72
330
5
100
AcDbSymbolTableRecord
100
AcDbLinetypeTableRecord
  2
DOT2
 70
     0
  3
Dot (.5x) ........................................
 72
    65
 73
     2
 40
0.635
 49
0.0
 74
     0
 49
-0.635
 74
     0
  0
ENDTAB
  0
TABLE
  2
LAYER
  5
2
330
0
100
AcDbSymbolTable
 70
     1
  0
LAYER
  5
10
330
2
100
AcDbSymbolTableRecord
100
AcDbLayerTableRecord
  2
0
 70
     0
 62
     7
  6
Continuous
370
    -3
390
F
  0
ENDTAB
  0
TABLE
  2
STYLE
  5
3
330
0
100
AcDbSymbolTable
 70
     2
  0
STYLE
  5
11
330
3
100
AcDbSymbolTableRecord
100
AcDbTextStyleTableRecord
  2
Standard
 70
     0
 40
0.0
 41
1.0
 50
0.0
 71
     0
 42
7.0
  3
txt
  4
bigfont
  0
STYLE
  5
73
330
3
100
AcDbSymbolTableRecord
100
AcDbTextStyleTableRecord
  2
SLDTEXTSTYLE0
 70
     0
 40
0.0
 41
0.7
 50
0.0
 71
     0
 42
7.0
  3
TXT
  4
bigfont
  0
ENDTAB
  0
TABLE
  2
VIEW
  5
6
330
0
100
AcDbSymbolTable
 70
     0
  0
ENDTAB
  0
TABLE
  2
UCS
  5
7
330
0
100
AcDbSymbolTable
 70
     0
  0
ENDTAB
  0
TABLE
  2
APPID
  5
9
330
0
100
AcDbSymbolTable
 70
     1
  0
APPID
  5
12
330
9
100
AcDbSymbolTableRecord
100
AcDbRegAppTableRecord
  2
ACAD
 70
     0
  0
ENDTAB
  0
TABLE
  2
DIMSTYLE
  5
A
330
0
100
AcDbSymbolTable
 70
     1
100
AcDbDimStyleTable
  0
DIMSTYLE
105
27
330
A
100
AcDbSymbolTableRecord
100
AcDbDimStyleTableRecord
  2
ISO-25
 70
     0
 41
2.5
 42
0.625
 43
3.75
 44
1.25
 73
     0
 74
     0
 77
     1
 78
     8
140
2.5
141
2.5
143
0.0393700787
147
0.625
171
     3
172
     1
178
     0
271
     2
272
     2
274
     3
278
    44
283
     0
284
     8
340
11
  0
ENDTAB
  0
TABLE
  2
BLOCK_RECORD
  5
1
330
0
100
AcDbSymbolTable
 70
     2
  0
BLOCK_RECORD
  5
1F
330
1
100
AcDbSymbolTableRecord
100
AcDbBlockTableRecord
  2
*Model_Space
340
22
  0
BLOCK_RECORD
  5
1B
330
1
100
AcDbSymbolTableRecord
100
AcDbBlockTableRecord
  2
*Paper_Space
340
1E
  0
BLOCK_RECORD
  5
23
330
1
100
AcDbSymbolTableRecord
100
AcDbBlockTableRecord
  2
*Paper_Space0
340
26
  0
BLOCK_RECORD
  5
105
330
1
100
AcDbSymbolTableRecord
100
AcDbBlockTableRecord
  2
SW_CENTERMARKSYMBOL_0
340
0
102
{BLKREFS
331
110
102
}
  0
ENDTAB
  0
ENDSEC
  0
SECTION
  2
BLOCKS
  0
BLOCK
  5
20
330
1F
100
AcDbEntity
  8
0
100
AcDbBlockBegin
  2
*Model_Space
 70
     0
 10
0.0
 20
0.0
 30
0.0
  3
*Model_Space
  1

  0
ENDBLK
  5
21
330
1F
100
AcDbEntity
  8
0
100
AcDbBlockEnd
  0
BLOCK
  5
1C
330
1B
100
AcDbEntity
 67
     1
  8
0
100
AcDbBlockBegin
  2
*Paper_Space
 70
     0
 10
0.0
 20
0.0
 30
0.0
  3
*Paper_Space
  1

  0
ENDBLK
  5
1D
330
1B
100
AcDbEntity
 67
     1
  8
0
100
AcDbBlockEnd
  0
BLOCK
  5
24
330
23
100
AcDbEntity
  8
0
100
AcDbBlockBegin
  2
*Paper_Space0
 70
     0
 10
0.0
 20
0.0
 30
0.0
  3
*Paper_Space0
  1

  0
ENDBLK
  5
25
330
23
100
AcDbEntity
  8
0
100
AcDbBlockEnd
  0
BLOCK
  5
106
330
105
100
AcDbEntity
  8
0
100
AcDbBlockBegin
  2
SW_CENTERMARKSYMBOL_0
 70
     0
 10
0.0
 20
0.0
 30
0.0
  3
SW_CENTERMARKSYMBOL_0
  1

  0
LINE
  5
108
330
105
100
AcDbEntity
  8
0
  6
Continuous
 62
     0
370
    18
100
AcDbLine
 10
0.0
 20
0.0
 30
0.0
 11
0.0
 21
2.5
 31
0.0
  0
LINE
  5
109
330
105
100
AcDbEntity
  8
0
  6
Continuous
 62
     0
370
    18
100
AcDbLine
 10
0.0
 20
0.0
 30
0.0
 11
-2.5
 21
0.0
 31
0.0
  0
LINE
  5
10A
330
105
100
AcDbEntity
  8
0
  6
Continuous
 62
     0
370
    18
100
AcDbLine
 10
0.0
 20
0.0
 30
0.0
 11
0.0
 21
-2.5
 31
0.0
  0
LINE
  5
10B
330
105
100
AcDbEntity
  8
0
  6
Continuous
 62
     0
370
    18
100
AcDbLine
 10
0.0
 20
0.0
 30
0.0
 11
2.5
 21
0.0
 31
0.0
  0
LINE
  5
10C
330
105
100
AcDbEntity
  8
0
  6
Continuous
 62
     0
370
    18
100
AcDbLine
 10
0.0
 20
5.0
 30
0.0
 11
0.0
 21
33.5325688909
 31
0.0
  0
LINE
  5
10D
330
105
100
AcDbEntity
  8
0
  6
Continuous
 62
     0
370
    18
100
AcDbLine
 10
-5.0
 20
0.0
 30
0.0
 11
-30.0728594021
 21
0.0
 31
0.0
  0
LINE
  5
10E
330
105
100
AcDbEntity
  8
0
  6
Continuous
 62
     0
370
    18
100
AcDbLine
 10
0.0
 20
-5.0
 30
0.0
 11
0.0
 21
-33.2664373917
 31
0.0
  0
LINE
  5
10F
330
105
100
AcDbEntity
  8
0
  6
Continuous
 62
     0
370
    18
100
AcDbLine
 10
5.0
 20
0.0
 30
0.0
 11
28.7422019065
 21
0.0
 31
0.0
  0
ENDBLK
  5
107
330
105
100
AcDbEntity
  8
0
100
AcDbBlockEnd
  0
ENDSEC
  0
SECTION
  2
ENTITIES
  0
MTEXT
  5
74
330
1F
100
AcDbEntity
  8
0
  6
Continuous
 62
     7
370
     0
100
AcDbMText
 10
497.9217041986
 20
324.1074091894
 30
0.0
 40
9.525
 41
0.0
 71
     1
 72
     1
  1
HN-1040R
  7
SLDTEXTSTYLE0
 73
     1
 44
1.0
  0
LINE
  5
75
330
1F
100
AcDbEntity
  8
0
  6
Continuous
 62
     7
370
    25
100
AcDbLine
 10
410.6796023834
 20
296.3771131047
 30
0.0
 11
408.2026755106
 21
292.0869499144
 31
0.0
  0
LINE
  5
76
330
1F
100
AcDbEntity
  8
0
  6
Continuous
 62
     7
370
    25
100
AcDbLine
 10
408.2026755106
 20
242.0869499144
 30
0.0
 11
410.6796023834
 21
237.7967867241
 31
0.0
  0
LINE
  5
77
330
1F
100
AcDbEntity
  8
0
  6
Continuous
 62
     7
370
    25
100
AcDbLine
 10
419.7257486378
 20
237.7967867241
 30
0.0
 11
422.2026755106
 21
242.0869499144
 31
0.0
  0
LINE
  5
78
330
1F
100
AcDbEntity
  8
0
  6
Continuous
 62
     7
370
    25
100
AcDbLine
 10
422.2026755106
 20
292.0869499144
 30
0.0
 11
419.7257486378
 21
296.3771131047
 31
0.0
  0
LINE
  5
79
330
1F
100
AcDbEntity
  8
0
  6
Continuous
 62
     7
370
    25
100
AcDbLine
 10
408.2026755106
 20
291.3728249144
 30
0.0
 11
385.2052561558
 21
290.6541555595
 31
0.0
  0
LINE
  5
7A
330
1F
100
AcDbEntity
  8
0
  6
Continuous
 62
     7
370
    25
100
AcDbLine
 10
385.2052561558
 20
243.5197442692
 30
0.0
 11
408.2026755106
 21
242.8010749144
 31
0.0
  0
LINE
  5
7B
330
1F
100
AcDbEntity
  8
0
  6
Continuous
 62
     7
370
    25
100
AcDbLine
 10
385.2052561558
 20
290.6541555595
 30
0.0
 11
383.2026755106
 21
288.6515749144
 31
0.0
  0
LINE
  5
7C
330
1F
100
AcDbEntity
  8
0
  6
Continuous
 62
     7
370
    25
100
AcDbLine
 10
383.2026755106
 20
245.5223249144
 30
0.0
 11
385.2052561558
 21
243.5197442692
 31
0.0
  0
LINE
  5
7D
330
1F
100
AcDbEntity
  8
0
  6
Continuous
 62
     7
370
    25
100
AcDbLine
 10
422.2026755106
 20
247.0869499144
 30
0.0
 11
431.2026755106
 21
247.0869499144
 31
0.0
  0
LINE
  5
7E
330
1F
100
AcDbEntity
  8
0
  6
Continuous
 62
     7
370
    25
100
AcDbLine
 10
431.2026755106
 20
287.0869499144
 30
0.0
 11
422.2026755106
 21
287.0869499144
 31
0.0
  0
LINE
  5
7F
330
1F
100
AcDbEntity
  8
0
  6
Continuous
 62
     7
370
    25
100
AcDbLine
 10
431.2026755106
 20
247.0869499144
 30
0.0
 11
441.2026755106
 21
249.0869499144
 31
0.0
  0
LINE
  5
80
330
1F
100
AcDbEntity
  8
0
  6
Continuous
 62
     7
370
    25
100
AcDbLine
 10
441.2026755106
 20
285.0869499144
 30
0.0
 11
431.2026755106
 21
287.0869499144
 31
0.0
  0
ARC
  5
81
330
1F
100
AcDbEntity
  8
0
  6
Continuous
 62
     7
370
    25
100
AcDbCircle
 10
471.7026755106
 20
286.4967197035
 30
0.0
 40
0.5000000000000568
100
AcDbArc
 50
80.537677792
 51
180.0
  0
ARC
  5
82
330
1F
100
AcDbEntity
  8
0
  6
Continuous
 62
     7
370
    25
100
AcDbCircle
 10
471.7026755106
 20
247.6771801252
 30
0.0
 40
0.5000000000000568
100
AcDbArc
 50
180.0
 51
279.462322208
  0
LINE
  5
83
330
1F
100
AcDbEntity
  8
0
  6
Continuous
 62
     7
370
    25
100
AcDbLine
 10
471.7848750043
 20
247.1839831633
 30
0.0
 11
481.9492739916
 21
248.8780496612
 31
0.0
  0
LINE
  5
84
330
1F
100
AcDbEntity
  8
0
  6
Continuous
 62
     7
370
    25
100
AcDbLine
 10
481.9492739916
 20
285.2958501676
 30
0.0
 11
471.7848750043
 21
286.9899166654
 31
0.0
  0
ARC
  5
85
330
1F
100
AcDbEntity
  8
0
  6
Continuous
 62
     7
370
    25
100
AcDbCircle
 10
451.7026755106
 20
286.477047963
 30
0.0
 40
0.5000000000000568
100
AcDbArc
 50
78.690067526
 51
180.0
  0
ARC
  5
86
330
1F
100
AcDbEntity
  8
0
  6
Continuous
 62
     7
370
    25
100
AcDbCircle
 10
451.7026755106
 20
247.6968518657
 30
0.0
 40
0.5000000000000568
100
AcDbArc
 50
180.0
 51
281.309932474
  0
ARC
  5
87
330
1F
100
AcDbEntity
  8
0
  6
Continuous
 62
     7
370
    25
100
AcDbCircle
 10
441.7026755106
 20
286.477047963
 30
0.0
 40
0.5
100
AcDbArc
 50
78.690067526
 51
180.0
  0
ARC
  5
88
330
1F
100
AcDbEntity
  8
0
  6
Continuous
 62
     7
370
    25
100
AcDbCircle
 10
441.7026755106
 20
247.6968518657
 30
0.0
 40
0.5
100
AcDbArc
 50
180.0
 51
281.309932474
  0
ARC
  5
89
330
1F
100
AcDbEntity
  8
0
  6
Continuous
 62
     7
370
    25
100
AcDbCircle
 10
461.7026755106
 20
286.477047963
 30
0.0
 40
0.5
100
AcDbArc
 50
78.690067526
 51
180.0
  0
ARC
  5
8A
330
1F
100
AcDbEntity
  8
0
  6
Continuous
 62
     7
370
    25
100
AcDbCircle
 10
461.7026755106
 20
247.6968518657
 30
0.0
 40
0.5
100
AcDbArc
 50
180.0
 51
281.309932474
  0
LINE
  5
8B
330
1F
100
AcDbEntity
  8
0
  6
Continuous
 62
     7
370
    25
100
AcDbLine
 10
451.8007335782
 20
247.2065615279
 30
0.0
 11
461.2026755106
 21
249.0869499144
 31
0.0
  0
LINE
  5
8C
330
1F
100
AcDbEntity
  8
0
  6
Continuous
 62
     7
370
    25
100
AcDbLine
 10
461.2026755106
 20
285.0869499144
 30
0.0
 11
451.8007335782
 21
286.9673383009
 31
0.0
  0
LINE
  5
8D
330
1F
100
AcDbEntity
  8
0
  6
Continuous
 62
     7
370
    25
100
AcDbLine
 10
441.8007335782
 20
247.2065615279
 30
0.0
 11
451.2026755106
 21
249.0869499144
 31
0.0
  0
LINE
  5
8E
330
1F
100
AcDbEntity
  8
0
  6
Continuous
 62
     7
370
    25
100
AcDbLine
 10
451.2026755106
 20
285.0869499144
 30
0.0
 11
441.8007335782
 21
286.9673383009
 31
0.0
  0
LINE
  5
8F
330
1F
100
AcDbEntity
  8
0
  6
Continuous
 62
     7
370
    25
100
AcDbLine
 10
461.8007335782
 20
247.2065615279
 30
0.0
 11
471.2026755106
 21
249.0869499144
 31
0.0
  0
LINE
  5
90
330
1F
100
AcDbEntity
  8
0
  6
Continuous
 62
     7
370
    25
100
AcDbLine
 10
471.2026755106
 20
285.0869499144
 30
0.0
 11
461.8007335782
 21
286.9673383009
 31
0.0
  0
ARC
  5
91
330
1F
100
AcDbEntity
  8
0
  6
Continuous
 62
     7
370
    25
100
AcDbCircle
 10
481.7026755106
 20
283.8162592818
 30
0.0
 40
1.5
100
AcDbArc
 50
0.0
 51
80.537677792
  0
ARC
  5
92
330
1F
100
AcDbEntity
  8
0
  6
Continuous
 62
     7
370
    25
100
AcDbCircle
 10
481.7026755106
 20
250.357640547
 30
0.0
 40
1.5
100
AcDbArc
 50
279.462322208
 51
0.0
  0
LINE
  5
93
330
1F
100
AcDbEntity
  8
0
  6
Continuous
 62
     7
370
    25
100
AcDbLine
 10
410.6744663494
 20
237.7967867241
 30
0.0
 11
419.7308846718
 21
237.7967867241
 31
0.0
  0
LINE
  5
94
330
1F
100
AcDbEntity
  8
0
  6
Continuous
 62
     7
370
    25
100
AcDbLine
 10
419.7308846718
 20
296.3771131047
 30
0.0
 11
410.6744663494
 21
296.3771131047
 31
0.0
  0
LINE
  5
95
330
1F
100
AcDbEntity
  8
0
  6
Continuous
 62
     7
370
    25
100
AcDbLine
 10
410.6047271798
 20
252.9418683192
 30
0.0
 11
419.8006238415
 21
252.9418683192
 31
0.0
  0
SPLINE
  5
96
330
1F
100
AcDbEntity
  8
0
  6
Continuous
 62
     7
370
    25
100
AcDbSpline
210
0.0
220
0.0
230
1.0
 70
     8
 71
     3
 72
    20
 73
    16
 74
     0
 42
0.000000001
 43
0.00000001
 40
0.0
 40
0.0
 40
0.0
 40
0.0
 40
0.125
 40
0.125
 40
0.2500000000000001
 40
0.2500000000000001
 40
0.5000000000000001
 40
0.5000000000000001
 40
0.6250000000000001
 40
0.6250000000000001
 40
0.6875000000000001
 40
0.6875000000000001
 40
0.7500000000000002
 40
0.7500000000000002
 40
1.0
 40
1.0
 40
1.0
 40
1.0
 10
410.604727179783
 20
281.2320315095239
 30
0.0
 10
410.2820040103375
 20
280.0796934172781
 30
0.0
 10
409.9862557237543
 20
278.9162304704527
 30
0.0
 10
409.4631169470784
 20
276.5658419465678
 30
0.0
 10
409.2378695375944
 20
275.3880718446665
 30
0.0
 10
408.6878534564363
 20
271.8458454379044
 30
0.0
 10
408.4912347549001
 20
269.4723011421291
 30
0.0
 10
408.4914086684987
 20
265.8910569995983
 30
0.0
 10
408.5401013243193
 20
264.6938599339456
 30
0.0
 10
408.6851991016941
 20
262.8929541535346
 30
0.0
 10
408.7455925641102
 20
262.2918336691216
 30
0.0
 10
408.8881403627846
 20
261.0983398330796
 30
0.0
 10
408.9703830613671
 20
260.504614347691
 30
0.0
 10
409.4323230060633
 20
257.5499598774314
 30
0.0
 10
409.9636877800621
 20
255.2308087761508
 30
0.0
 10
410.604727179783
 20
252.9418683192323
 30
0.0
  0
LINE
  5
97
330
1F
100
AcDbEntity
  8
0
  6
Continuous
 62
     7
370
    25
100
AcDbLine
 10
419.8006238415
 20
281.2320315095
 30
0.0
 11
410.6047271798
 21
281.2320315095
 31
0.0
  0
SPLINE
  5
98
330
1F
100
AcDbEntity
  8
0
  6
Continuous
 62
     7
370
    25
100
AcDbSpline
210
0.0
220
0.0
230
1.0
 70
     8
 71
     3
 72
    20
 73
    16
 74
     0
 42
0.000000001
 43
0.00000001
 40
0.0
 40
0.0
 40
0.0
 40
0.0
 40
0.125
 40
0.125
 40
0.25
 40
0.25
 40
0.5000000000000001
 40
0.5000000000000001
 40
0.6250000000000002
 40
0.6250000000000002
 40
0.6875000000000002
 40
0.6875000000000002
 40
0.7500000000000002
 40
0.7500000000000002
 40
1.0
 40
1.0
 40
1.0
 40
1.0
 10
419.8006238414659
 20
281.2320315095239
 30
0.0
 10
420.1233308014302
 20
280.0797512959942
 30
0.0
 10
420.4190328662563
 20
278.9164936037864
 30
0.0
 10
420.942214221223
 20
276.5659485017122
 30
0.0
 10
421.1674742804778
 20
275.3881174681625
 30
0.0
 10
421.7175096499712
 20
271.845769139921
 30
0.0
 10
421.9141149643341
 20
269.4722258305598
 30
0.0
 10
421.9139430054975
 20
265.8911306849941
 30
0.0
 10
421.8652550999361
 20
264.6940076296873
 30
0.0
 10
421.7201789651621
 20
262.8932495293922
 30
0.0
 10
421.6597864702634
 20
262.2920919085723
 30
0.0
 10
421.5172360641069
 20
261.0985288557793
 30
0.0
 10
421.4349912442007
 20
260.5047734669531
 30
0.0
 10
420.9730391905634
 20
257.5499906094145
 30
0.0
 10
420.4416618147592
 20
255.2308036828474
 30
0.0
 10
419.8006238414659
 20
252.9418683192322
 30
0.0
  0
SPLINE
  5
99
330
1F
100
AcDbEntity
  8
0
  6
Continuous
 62
     7
370
    25
100
AcDbSpline
210
0.0
220
0.0
230
1.0
 70
     8
 71
     3
 72
    31
 73
    27
 74
     0
 42
0.000000001
 43
0.00000001
 40
0.0
 40
0.0
 40
0.0
 40
0.0
 40
0.0337886361288844
 40
0.0666245952833985
 40
0.0992892558795275
 40
0.1313669571709097
 40
0.1635924005824351
 40
0.1961125738279881
 40
0.2289123473464799
 40
0.2621696152808963
 40
0.2960042734452656
 40
0.3302324060715754
 40
0.3650759225315739
 40
0.4009684165232622
 40
0.4378767612926531
 40
0.4759655880355134
 40
0.5156404995383739
 40
0.5566751586743139
 40
0.6000283585489744
 40
0.6466897416172283
 40
0.6964192291024512
 40
0.7497716547595119
 40
0.8068500381735734
 40
0.8674296863796969
 40
0.9318837499229027
 40
1.0
 40
1.0
 40
1.0
 40
1.0
 10
412.2801892912894
 20
260.0169646334498
 30
0.0
 10
412.2808943763446
 20
260.0586994248081
 30
0.0
 10
412.2822846664489
 20
260.1409922872035
 30
0.0
 10
412.2966685221533
 20
260.2629310736342
 30
0.0
 10
412.3197938671778
 20
260.3812866713385
 30
0.0
 10
412.3521737296458
 20
260.4966431256945
 30
0.0
 10
412.3918080776465
 20
260.6095922436153
 30
0.0
 10
412.4434451486202
 20
260.7185950306916
 30
0.0
 10
412.5029146886433
 20
260.8248630569333
 30
0.0
 10
412.5706404370526
 20
260.9281143667263
 30
0.0
 10
412.6482364653328
 20
261.0264028147694
 30
0.0
 10
412.7340490204753
 20
261.1203042702458
 30
0.0
 10
412.8302786269057
 20
261.2073729258361
 30
0.0
 10
412.9354102515774
 20
261.2888551401231
 30
0.0
 10
413.0491590561981
 20
261.3652343899963
 30
0.0
 10
413.171601376538
 20
261.4365208841407
 30
0.0
 10
413.3029462848955
 20
261.5020244597666
 30
0.0
 10
413.4440216214556
 20
261.5619769098401
 30
0.0
 10
413.5969581181682
 20
261.615131446133
 30
0.0
 10
413.7631756666541
 20
261.6619022479971
 30
0.0
 10
413.9443625434482
 20
261.6992566511981
 30
0.0
 10
414.1395988255134
 20
261.7309202822671
 30
0.0
 10
414.3492812184421
 20
261.7562927647394
 30
0.0
 10
414.573485582706
 20
261.7739699712167
 30
0.0
 10
414.8117861727451
 20
261.7846862454628
 30
0.0
 10
414.9754789656221
 20
261.7856556019898
 30
0.0
 10
415.0595863265458
 20
261.7861536692404
 30
0.0
  0
SPLINE
  5
9A
330
1F
100
AcDbEntity
  8
0
  6
Continuous
 62
     7
370
    25
100
AcDbSpline
210
0.0
220
0.0
230
1.0
 70
     8
 71
     3
 72
    31
 73
    27
 74
     0
 42
0.000000001
 43
0.00000001
 40
0.0
 40
0.0
 40
0.0
 40
0.0
 40
0.0650685438702566
 40
0.1270672031379954
 40
0.1855315285501354
 40
0.2407849061748922
 40
0.2930042397163258
 40
0.3425556598939923
 40
0.3889551744151757
 40
0.4328150939547988
 40
0.4746712423910466
 40
0.5148207424503038
 40
0.5536550811645816
 40
0.5914786483317945
 40
0.6278610435423985
 40
0.6636394467951515
 40
0.6988229898703276
 40
0.7334329377816741
 40
0.7676299819528861
 40
0.8010740918328814
 40
0.8342504555322692
 40
0.8669699526177508
 40
0.8997116432825842
 40
0.9326964777721559
 40
0.9661731519313729
 40
1.0
 40
1.0
 40
1.0
 40
1.0
 10
415.0595863265458
 20
258.1905340111208
 30
0.0
 10
414.978663983842
 20
258.1915304031645
 30
0.0
 10
414.8206371532546
 20
258.1934761782302
 30
0.0
 10
414.5900143338553
 20
258.203282613891
 30
0.0
 10
414.372319993869
 20
258.2230607504696
 30
0.0
 10
414.1673220383707
 20
258.2474397926888
 30
0.0
 10
413.9749254219865
 20
258.2816207210369
 30
0.0
 10
413.7952555112573
 20
258.3228059132924
 30
0.0
 10
413.6276761923525
 20
258.3697303147802
 30
0.0
 10
413.4733881489938
 20
258.426680564148
 30
0.0
 10
413.3298437973256
 20
258.4893284258243
 30
0.0
 10
413.1957692505857
 20
258.5574190321362
 30
0.0
 10
413.0700871009881
 20
258.6304724504113
 30
0.0
 10
412.9536965039011
 20
258.7095684018704
 30
0.0
 10
412.8467011122965
 20
258.7950357511768
 30
0.0
 10
412.7492464082063
 20
258.886443600165
 30
0.0
 10
412.6596977404061
 20
258.9826814126492
 30
0.0
 10
412.5804530125289
 20
259.0850512238009
 30
0.0
 10
412.5089903926506
 20
259.1904142561549
 30
0.0
 10
412.4487432934537
 20
259.3005493689726
 30
0.0
 10
412.3965427165479
 20
259.4126379083962
 30
0.0
 10
412.3538639302092
 20
259.5277989715528
 30
0.0
 10
412.3207660326768
 20
259.645854756565
 30
0.0
 10
412.298013030886
 20
259.7671977370428
 30
0.0
 10
412.282019418145
 20
259.891102911741
 30
0.0
 10
412.2808014459063
 20
259.9748654566603
 30
0.0
 10
412.2801892912894
 20
260.0169646334498
 30
0.0
  0
SPLINE
  5
9B
330
1F
100
AcDbEntity
  8
0
  6
Continuous
 62
     7
370
    25
100
AcDbSpline
210
0.0
220
0.0
230
1.0
 70
     8
 71
     3
 72
    31
 73
    27
 74
     0
 42
0.000000001
 43
0.00000001
 40
0.0
 40
0.0
 40
0.0
 40
0.0
 40
0.0337879412002539
 40
0.0672261112531335
 40
0.0998413805582493
 40
0.1325454124779809
 40
0.1651298048763312
 40
0.1980106431827071
 40
0.231279810572081
 40
0.265043910433493
 40
0.299215763973783
 40
0.3343588397409633
 40
0.3696950076454844
 40
0.4062575751144961
 40
0.4438035186000606
 40
0.4829815311234261
 40
0.5230848521443381
 40
0.5652667767065701
 40
0.6093428829310776
 40
0.6563925906619911
 40
0.7058870179274404
 40
0.7583257517117635
 40
0.8138327469620026
 40
0.8727952177377413
 40
0.934722567563035
 40
1.0
 40
1.0
 40
1.0
 40
1.0
 10
417.8432234793236
 20
260.0169646334498
 30
0.0
 10
417.842639506272
 20
259.9748596314455
 30
0.0
 10
417.8414776054296
 20
259.8910854963988
 30
0.0
 10
417.8251231520145
 20
259.7676760460465
 30
0.0
 10
417.8040139857204
 20
259.6464161778313
 30
0.0
 10
417.770158359102
 20
259.5291456434542
 30
0.0
 10
417.7296457112762
 20
259.4136470822813
 30
0.0
 10
417.6761899159859
 20
259.3027927123218
 30
0.0
 10
417.6180525875677
 20
259.1926687875728
 30
0.0
 10
417.5471299372789
 20
259.088278090636
 30
0.0
 10
417.4687487374598
 20
258.9865016183263
 30
0.0
 10
417.3797660373148
 20
258.8910968017897
 30
0.0
 10
417.2826444427811
 20
258.7996248390598
 30
0.0
 10
417.1752178585067
 20
258.7155405900422
 30
0.0
 10
417.0591334523882
 20
258.6352403210189
 30
0.0
 10
416.9334181025555
 20
258.5617723109746
 30
0.0
 10
416.7983504118815
 20
258.4936085596115
 30
0.0
 10
416.654556534338
 20
258.4294677691427
 30
0.0
 10
416.4981955124264
 20
258.3733783416441
 30
0.0
 10
416.3302426106913
 20
258.323510356865
 30
0.0
 10
416.1491769351317
 20
258.282635105527
 30
0.0
 10
415.9560071364132
 20
258.2488319913734
 30
0.0
 10
415.7497762534516
 20
258.2225943400371
 30
0.0
 10
415.5309021343655
 20
258.2034990209021
 30
0.0
 10
415.2992478481206
 20
258.1934088046684
 30
0.0
 10
415.1408639074733
 20
258.1915089538804
 30
0.0
 10
415.0595863265458
 20
258.1905340111208
 30
0.0
  0
SPLINE
  5
9C
330
1F
100
AcDbEntity
  8
0
  6
Continuous
 62
     7
370
    25
100
AcDbSpline
210
0.0
220
0.0
230
1.0
 70
     8
 71
     3
 72
    31
 73
    27
 74
     0
 42
0.000000001
 43
0.00000001
 40
0.0
 40
0.0
 40
0.0
 40
0.0
 40
0.068589511741844
 40
0.1332361151905637
 40
0.1942981095643236
 40
0.2512605020179398
 40
0.3044907520393912
 40
0.3542085150293627
 40
0.4004507517000454
 40
0.4433777194310208
 40
0.4839788079736335
 40
0.5232133168173588
 40
0.561000573292308
 40
0.597855693900393
 40
0.6334712897196421
 40
0.668264559631004
 40
0.7026375085803772
 40
0.7368246435676992
 40
0.7704299555261657
 40
0.8035715718451316
 40
0.8359251766715133
 40
0.8684700459181433
 40
0.9008539254905376
 40
0.9334714815856263
 40
0.9662600892157736
 40
1.0
 40
1.0
 40
1.0
 40
1.0
 10
415.0595863265458
 20
261.7861536692404
 30
0.0
 10
415.1444002341984
 20
261.7856577370325
 30
0.0
 10
415.3091524723
 20
261.7846943815703
 30
0.0
 10
415.5492197286657
 20
261.7739773641072
 30
0.0
 10
415.7744334992532
 20
261.7561741682898
 30
0.0
 10
415.9848045622976
 20
261.7317759964222
 30
0.0
 10
416.1803872337391
 20
261.7020852440157
 30
0.0
 10
416.3606588185183
 20
261.6624499135135
 30
0.0
 10
416.526453741232
 20
261.6173758337267
 30
0.0
 10
416.6783124138364
 20
261.5651356971158
 30
0.0
 10
416.8182815618129
 20
261.5061903183635
 30
0.0
 10
416.948946549738
 20
261.4420321877587
 30
0.0
 10
417.0701194952242
 20
261.3701243146419
 30
0.0
 10
417.1836993132194
 20
261.2945440835992
 30
0.0
 10
417.2879513194748
 20
261.2123491654216
 30
0.0
 10
417.3840766948171
 20
261.1253019755646
 30
0.0
 10
417.4712647954582
 20
261.0316615580059
 30
0.0
 10
417.5495753284525
 20
260.9323361393976
 30
0.0
 10
417.6182422390512
 20
260.8279988943549
 30
0.0
 10
417.6790988962083
 20
260.7215009685808
 30
0.0
 10
417.7292262009201
 20
260.610939482171
 30
0.0
 10
417.770231715838
 20
260.4977699143435
 30
0.0
 10
417.8037054639348
 20
260.3817537467451
 30
0.0
 10
417.8266984993685
 20
260.2629205969442
 30
0.0
 10
417.8411399550513
 20
260.140995001095
 30
0.0
 10
417.8425223820428
 20
260.0587003380214
 30
0.0
 10
417.8432234793236
 20
260.0169646334498
 30
0.0
  0
ELLIPSE
  5
9D
330
1F
100
AcDbEntity
  8
0
  6
Continuous
 62
     7
370
    25
100
AcDbEllipse
 10
410.0536461499
 20
270.1457258244
 30
0.0
 11
-0.02047117638102236
 21
3.3121553404888
 31
0.0
210
0.0
220
0.0
230
1.0
 40
0.9457725718
 41
3.989303372285759
 42
5.47081960845796
  0
LINE
  5
9E
330
1F
100
AcDbEntity
  8
0
  6
Continuous
 62
     7
370
    25
100
AcDbLine
 10
412.415873052
 20
267.9685846135
 30
0.0
 11
412.4250994469
 21
267.7978638191
 31
0.0
  0
LINE
  5
9F
330
1F
100
AcDbEntity
  8
0
  6
Continuous
 62
     7
370
    25
100
AcDbLine
 10
412.4250994469
 20
267.7978638191
 30
0.0
 11
414.0513407532
 21
266.9192303884
 31
0.0
  0
LINE
  5
A0
330
1F
100
AcDbEntity
  8
0
  6
Continuous
 62
     7
370
    25
100
AcDbLine
 10
414.0513407532
 20
266.9192303884
 30
0.0
 11
414.0190372309
 21
266.9779308614
 31
0.0
  0
LINE
  5
A1
330
1F
100
AcDbEntity
  8
0
  6
Continuous
 62
     7
370
    25
100
AcDbLine
 10
414.4188892968
 20
268.0947197496
 30
0.0
 11
418.4260434859
 21
269.5279162218
 31
0.0
  0
ELLIPSE
  5
A2
330
1F
100
AcDbEntity
  8
0
  6
Continuous
 62
     7
370
    25
100
AcDbEllipse
 10
418.1275339388
 20
270.2004743184
 30
0.0
 11
1.080024958355352E-12
 21
0.7418989032748868
 31
0.0
210
0.0
220
0.0
230
1.0
 40
0.9531667975
 41
3.577384552346567
 42
5.8473934084257
  0
LINE
  5
A3
330
1F
100
AcDbEntity
  8
0
  6
Continuous
 62
     7
370
    25
100
AcDbLine
 10
418.4260434859
 20
270.8730324149
 30
0.0
 11
414.4179552655
 21
272.3065629523
 31
0.0
  0
ELLIPSE
  5
A4
330
1F
100
AcDbEntity
  8
0
  6
Continuous
 62
     7
370
    25
100
AcDbEllipse
 10
414.6554108395
 20
273.0373231428
 30
0.0
 11
-1.705302565824240E-13
 21
-0.7720573952779546
 31
0.0
210
0.0
220
0.0
230
1.0
 40
0.9531667975
 41
4.172308780231864
 42
5.954632136627926
  0
LINE
  5
A5
330
1F
100
AcDbEntity
  8
0
  6
Continuous
 62
     7
370
    25
100
AcDbLine
 10
414.0242538172
 20
273.4343187446
 30
0.0
 11
414.0513407532
 21
273.4817182483
 31
0.0
  0
LINE
  5
A6
330
1F
100
AcDbEntity
  8
0
  6
Continuous
 62
     7
370
    25
100
AcDbLine
 10
414.0513407532
 20
273.4817182483
 30
0.0
 11
412.3398406229
 21
272.5839214855
 31
0.0
  0
ELLIPSE
  5
A7
330
1F
100
AcDbEntity
  8
0
  6
Continuous
 62
     7
370
    25
100
AcDbEllipse
 10
412.3735053869
 20
272.5003657816
 30
0.0
 11
-0.0001485776788285875
 21
0.09159343699201372
 31
0.0
210
0.0
220
0.0
230
1.0
 40
0.8965169844
 41
0.4206116945223951
 42
2.320945774233667
  0
LINE
  5
A8
330
1F
100
AcDbEntity
  8
0
  6
Continuous
 62
     7
370
    25
100
AcDbLine
 10
413.6370268981
 20
265.8566664898
 30
0.0
 11
417.8432234793
 21
262.9680864283
 31
0.0
  0
LINE
  5
A9
330
1F
100
AcDbEntity
  8
0
  6
Continuous
 62
     7
370
    25
100
AcDbLine
 10
413.6370268981
 20
263.3465169171
 30
0.0
 11
413.6370268981
 21
265.8566664898
 31
0.0
  0
LINE
  5
AA
330
1F
100
AcDbEntity
  8
0
  6
Continuous
 62
     7
370
    25
100
AcDbLine
 10
412.415873052
 20
263.3465169171
 30
0.0
 11
413.6370268981
 21
263.3465169171
 31
0.0
  0
LINE
  5
AB
330
1F
100
AcDbEntity
  8
0
  6
Continuous
 62
     7
370
    25
100
AcDbLine
 10
412.415873052
 20
262.8716237547
 30
0.0
 11
412.415873052
 21
263.3465169171
 31
0.0
  0
LINE
  5
AC
330
1F
100
AcDbEntity
  8
0
  6
Continuous
 62
     7
370
    25
100
AcDbLine
 10
413.6370268981
 20
262.8716237547
 30
0.0
 11
412.415873052
 21
262.8716237547
 31
0.0
  0
LINE
  5
AD
330
1F
100
AcDbEntity
  8
0
  6
Continuous
 62
     7
370
    25
100
AcDbLine
 10
413.6370268981
 20
262.2610468316
 30
0.0
 11
413.6370268981
 21
262.8716237547
 31
0.0
  0
LINE
  5
AE
330
1F
100
AcDbEntity
  8
0
  6
Continuous
 62
     7
370
    25
100
AcDbLine
 10
414.1797619409
 20
262.2610468316
 30
0.0
 11
413.6370268981
 21
262.2610468316
 31
0.0
  0
LINE
  5
AF
330
1F
100
AcDbEntity
  8
0
  6
Continuous
 62
     7
370
    25
100
AcDbLine
 10
414.1797619409
 20
262.8716237547
 30
0.0
 11
414.1797619409
 21
262.2610468316
 31
0.0
  0
LINE
  5
B0
330
1F
100
AcDbEntity
  8
0
  6
Continuous
 62
     7
370
    25
100
AcDbLine
 10
417.8432234793
 20
262.8716237547
 30
0.0
 11
414.1797619409
 21
262.8716237547
 31
0.0
  0
LINE
  5
B1
330
1F
100
AcDbEntity
  8
0
  6
Continuous
 62
     7
370
    25
100
AcDbLine
 10
417.8432234793
 20
262.9680864283
 30
0.0
 11
417.8432234793
 21
262.8716237547
 31
0.0
  0
ELLIPSE
  5
B2
330
1F
100
AcDbEntity
  8
0
  6
Continuous
 62
     7
370
    25
100
AcDbEllipse
 10
414.6563448709
 20
267.3639595591
 30
0.0
 11
1.705302565824241E-13
 21
-0.7720573952776135
 31
0.0
210
0.0
220
0.0
230
1.0
 40
0.9531667975
 41
3.470145824140872
 42
5.23598775598319
  0
SPLINE
  5
B3
330
1F
100
AcDbEntity
  8
0
  6
Continuous
 62
     7
370
    25
100
AcDbSpline
210
0.0
220
0.0
230
1.0
 70
     8
 71
     3
 72
    10
 73
     6
 74
     0
 42
0.000000001
 43
0.00000001
 40
0.0
 40
0.0
 40
0.0
 40
0.0
 40
0.5
 40
0.5
 40
1.0
 40
1.0
 40
1.0
 40
1.0
 10
410.604727179783
 20
282.0980569133084
 30
0.0
 10
410.6527966745086
 20
282.0122367505626
 30
0.0
 10
410.6795130807395
 20
281.8853780040727
 30
0.0
 10
410.6796912280797
 20
281.5802542951938
 30
0.0
 10
410.652815852804
 20
281.4037403143886
 30
0.0
 10
410.604727179783
 20
281.2320315095239
 30
0.0
  0
LINE
  5
B4
330
1F
100
AcDbEntity
  8
0
  6
Continuous
 62
     7
370
    25
100
AcDbLine
 10
410.6047271798
 20
282.0980569133
 30
0.0
 11
419.8006238415
 21
282.0980569133
 31
0.0
  0
SPLINE
  5
B5
330
1F
100
AcDbEntity
  8
0
  6
Continuous
 62
     7
370
    25
100
AcDbSpline
210
0.0
220
0.0
230
1.0
 70
     8
 71
     3
 72
    10
 73
     6
 74
     0
 42
0.000000001
 43
0.00000001
 40
0.0
 40
0.0
 40
0.0
 40
0.0
 40
0.5
 40
0.5
 40
1.0
 40
1.0
 40
1.0
 40
1.0
 10
419.8006238414659
 20
281.2320315095239
 30
0.0
 10
419.7525540859211
 20
281.4036727663149
 30
0.0
 10
419.7258379046916
 20
281.578525596321
 30
0.0
 10
419.7256598286231
 20
281.8839679455929
 30
0.0
 10
419.7525353011952
 20
282.0122027478798
 30
0.0
 10
419.8006238414659
 20
282.0980569133084
 30
0.0
  0
ELLIPSE
  5
B6
330
1F
100
AcDbEntity
  8
0
  6
Continuous
 62
     7
370
    25
100
AcDbEllipse
 10
414.5556876889
 20
270.7129110696
 30
0.0
 11
5.684341886080801E-14
 21
0.1430989817498016
 31
0.0
210
0.0
220
0.0
230
1.0
 40
0.9531667975
 41
5.940161368619759
 42
7.853981633974861
  0
LINE
  5
B7
330
1F
100
AcDbEntity
  8
0
  6
Continuous
 62
     7
370
    25
100
AcDbLine
 10
414.4192904907
 20
270.7129110696
 30
0.0
 11
414.4192904907
 21
269.6880375677
 31
0.0
  0
LINE
  5
B8
330
1F
100
AcDbEntity
  8
0
  6
Continuous
 62
     7
370
    25
100
AcDbLine
 10
415.9691885822
 20
270.3352366303
 30
0.0
 11
414.6015630308
 21
270.8476733783
 31
0.0
  0
ELLIPSE
  5
B9
330
1F
100
AcDbEntity
  8
0
  6
Continuous
 62
     7
370
    25
100
AcDbEllipse
 10
415.92331324
 20
270.2004743216
 30
0.0
 11
0.0
 21
0.1430989817498016
 31
0.0
210
0.0
220
0.0
230
1.0
 40
0.9531667975
 41
3.4846165940103
 42
5.940161366759108
  0
LINE
  5
BA
330
1F
100
AcDbEntity
  8
0
  6
Continuous
 62
     7
370
    25
100
AcDbLine
 10
414.6015630313
 20
269.5532752591
 30
0.0
 11
415.9691885822
 21
270.065712013
 31
0.0
  0
ELLIPSE
  5
BB
330
1F
100
AcDbEntity
  8
0
  6
Continuous
 62
     7
370
    25
100
AcDbEllipse
 10
414.5556876889
 20
269.6880375677
 30
0.0
 11
0.0
 21
-0.1430989817498016
 31
0.0
210
0.0
220
0.0
230
1.0
 40
0.9531667975
 41
4.712388980384703
 42
6.626209249460975
  0
LINE
  5
BC
330
1F
100
AcDbEntity
  8
0
  6
Continuous
 62
     7
370
    25
100
AcDbLine
 10
408.2026755106
 20
242.0869499144
 30
0.0
 11
408.2026755106
 21
292.0869499144
 31
0.0
  0
SPLINE
  5
BD
330
1F
100
AcDbEntity
  8
0
  6
Continuous
 62
     7
370
    25
100
AcDbSpline
210
0.0
220
0.0
230
1.0
 70
     8
 71
     3
 72
    10
 73
     6
 74
     0
 42
0.000000001
 43
0.00000001
 40
0.0
 40
0.0
 40
0.0
 40
0.0
 40
0.1564962028536829
 40
0.7136770312975367
 40
1.0
 40
1.0
 40
1.0
 40
1.0
 10
410.6744406477654
 20
296.367859618298
 30
0.0
 10
410.6759743757055
 20
296.3706093631994
 30
0.0
 10
410.6829687077287
 20
296.3831491548514
 30
0.0
 10
410.6536352208053
 20
296.3305192461425
 30
0.0
 10
410.6171215537899
 20
296.2652827105377
 30
0.0
 10
410.604727179783
 20
296.2431385084542
 30
0.0
  0
SPLINE
  5
BE
330
1F
100
AcDbEntity
  8
0
  6
Continuous
 62
     7
370
    25
100
AcDbSpline
210
0.0
220
0.0
230
1.0
 70
     8
 71
     3
 72
    16
 73
    12
 74
     0
 42
0.000000001
 43
0.00000001
 40
0.0
 40
0.0
 40
0.0
 40
0.0
 40
0.2500000000000001
 40
0.2500000000000001
 40
0.5000000000000001
 40
0.5000000000000001
 40
0.6250000000000001
 40
0.6250000000000001
 40
0.7500000000000002
 40
0.7500000000000002
 40
1.0
 40
1.0
 40
1.0
 40
1.0
 10
410.6047271797829
 20
282.0980569133084
 30
0.0
 10
409.957188037695
 20
283.254131360845
 30
0.0
 10
409.4265116282816
 20
284.4180050007078
 30
0.0
 10
408.6934896246594
 20
286.7676644428128
 30
0.0
 10
408.49330281327
 20
287.9535943180371
 30
0.0
 10
408.4903961856045
 20
289.7523352679915
 30
0.0
 10
408.5390619010909
 20
290.356304196984
 30
0.0
 10
408.730333859829
 20
291.5519859406756
 30
0.0
 10
408.872644113329
 20
292.1459737990523
 30
0.0
 10
409.4236738700691
 20
293.9176928634121
 30
0.0
 10
409.9561483971029
 20
295.0852079539348
 30
0.0
 10
410.6047271797829
 20
296.2431385084542
 30
0.0
  0
SPLINE
  5
BF
330
1F
100
AcDbEntity
  8
0
  6
Continuous
 62
     7
370
    25
100
AcDbSpline
210
0.0
220
0.0
230
1.0
 70
     8
 71
     3
 72
    10
 73
     6
 74
     0
 42
0.000000001
 43
0.00000001
 40
0.0
 40
0.0
 40
0.0
 40
0.0
 40
0.5
 40
0.5
 40
1.0
 40
1.0
 40
1.0
 40
1.0
 10
410.604727179783
 20
252.9418683192323
 30
0.0
 10
410.6527969353277
 20
252.7702270624413
 30
0.0
 10
410.6795131165574
 20
252.5953742324351
 30
0.0
 10
410.6796911926258
 20
252.2899318831632
 30
0.0
 10
410.6528157200538
 20
252.1616970808764
 30
0.0
 10
410.604727179783
 20
252.0758429154478
 30
0.0
  0
SPLINE
  5
C0
330
1F
100
AcDbEntity
  8
0
  6
Continuous
 62
     7
370
    25
100
AcDbSpline
210
0.0
220
0.0
230
1.0
 70
     8
 71
     3
 72
    16
 73
    12
 74
     0
 42
0.000000001
 43
0.00000001
 40
0.0
 40
0.0
 40
0.0
 40
0.0
 40
0.2500000000000002
 40
0.2500000000000002
 40
0.5000000000000003
 40
0.5000000000000003
 40
0.6250000000000002
 40
0.6250000000000002
 40
0.75
 40
0.75
 40
1.0
 40
1.0
 40
1.0
 40
1.0
 10
410.6047271797829
 20
237.930761320302
 30
0.0
 10
409.9571880376951
 20
239.0868357678385
 30
0.0
 10
409.4265116282816
 20
240.2507094077014
 30
0.0
 10
408.6934896246594
 20
242.6003688498064
 30
0.0
 10
408.49330281327
 20
243.7862987250307
 30
0.0
 10
408.4903961856045
 20
245.5850396749851
 30
0.0
 10
408.5390619010909
 20
246.1890086039776
 30
0.0
 10
408.730333859829
 20
247.3846903476692
 30
0.0
 10
408.872644113329
 20
247.9786782060459
 30
0.0
 10
409.4236738700691
 20
249.7503972704057
 30
0.0
 10
409.9561483971029
 20
250.9179123609284
 30
0.0
 10
410.604727179783
 20
252.0758429154478
 30
0.0
  0
SPLINE
  5
C1
330
1F
100
AcDbEntity
  8
0
  6
Continuous
 62
     7
370
    25
100
AcDbSpline
210
0.0
220
0.0
230
1.0
 70
     8
 71
     3
 72
     9
 73
     5
 74
     0
 42
0.000000001
 43
0.00000001
 40
0.0
 40
0.0
 40
0.0
 40
0.0
 40
0.5776986203267219
 40
1.0
 40
1.0
 40
1.0
 40
1.0
 10
410.604727179783
 20
237.930761320302
 30
0.0
 10
410.6297580575942
 20
237.8859963860354
 30
0.0
 10
410.6730866668905
 20
237.8085079990263
 30
0.0
 10
410.6740386317091
 20
237.806772931759
 30
0.0
 10
410.6744406477654
 20
237.8060402104582
 30
0.0
  0
LINE
  5
C2
330
1F
100
AcDbEntity
  8
0
  6
Continuous
 62
     7
370
    25
100
AcDbLine
 10
422.2026755106
 20
267.0869499144
 30
0.0
 11
422.2026755106
 21
242.0869499144
 31
0.0
  0
LINE
  5
C3
330
1F
100
AcDbEntity
  8
0
  6
Continuous
 62
     7
370
    25
100
AcDbLine
 10
422.2026755106
 20
292.0869499144
 30
0.0
 11
422.2026755106
 21
267.0869499144
 31
0.0
  0
SPLINE
  5
C4
330
1F
100
AcDbEntity
  8
0
  6
Continuous
 62
     7
370
    25
100
AcDbSpline
210
0.0
220
0.0
230
1.0
 70
     8
 71
     3
 72
    10
 73
     6
 74
     0
 42
0.000000001
 43
0.00000001
 40
0.0
 40
0.0
 40
0.0
 40
0.0
 40
0.1564962028537052
 40
0.7136770312975409
 40
1.0
 40
1.0
 40
1.0
 40
1.0
 10
419.7309103734835
 20
237.8060402104582
 30
0.0
 10
419.7293766455434
 20
237.8032904655567
 30
0.0
 10
419.7223823135202
 20
237.7907506739048
 30
0.0
 10
419.7517158004437
 20
237.8433805826137
 30
0.0
 10
419.788229467459
 20
237.9086171182184
 30
0.0
 10
419.8006238414659
 20
237.930761320302
 30
0.0
  0
SPLINE
  5
C5
330
1F
100
AcDbEntity
  8
0
  6
Continuous
 62
     7
370
    25
100
AcDbSpline
210
0.0
220
0.0
230
1.0
 70
     8
 71
     3
 72
    16
 73
    12
 74
     0
 42
0.000000001
 43
0.00000001
 40
0.0
 40
0.0
 40
0.0
 40
0.0
 40
0.2499999999999998
 40
0.2499999999999998
 40
0.4999999999999996
 40
0.4999999999999996
 40
0.6249999999999997
 40
0.6249999999999997
 40
0.7499999999999998
 40
0.7499999999999998
 40
1.0
 40
1.0
 40
1.0
 40
1.0
 10
419.8006238414661
 20
252.0758429154478
 30
0.0
 10
420.4481629835539
 20
250.9197684679112
 30
0.0
 10
420.9788393929673
 20
249.7558948280484
 30
0.0
 10
421.7118613965894
 20
247.4062353859434
 30
0.0
 10
421.9120482079789
 20
246.2203055107191
 30
0.0
 10
421.9149548356444
 20
244.4215645607647
 30
0.0
 10
421.8662891201581
 20
243.8175956317722
 30
0.0
 10
421.6750171614199
 20
242.6219138880805
 30
0.0
 10
421.5327069079199
 20
242.0279260297039
 30
0.0
 10
420.9816771511798
 20
240.2562069653441
 30
0.0
 10
420.4492026241461
 20
239.0886918748214
 30
0.0
 10
419.800623841466
 20
237.930761320302
 30
0.0
  0
SPLINE
  5
C6
330
1F
100
AcDbEntity
  8
0
  6
Continuous
 62
     7
370
    25
100
AcDbSpline
210
0.0
220
0.0
230
1.0
 70
     8
 71
     3
 72
    10
 73
     6
 74
     0
 42
0.000000001
 43
0.00000001
 40
0.0
 40
0.0
 40
0.0
 40
0.0
 40
0.5
 40
0.5
 40
1.0
 40
1.0
 40
1.0
 40
1.0
 10
419.8006238414659
 20
252.0758429154478
 30
0.0
 10
419.7525543467403
 20
252.1616630781936
 30
0.0
 10
419.7258379405095
 20
252.2885218246835
 30
0.0
 10
419.7256597931692
 20
252.5936455335624
 30
0.0
 10
419.752535168445
 20
252.7701595143675
 30
0.0
 10
419.8006238414659
 20
252.9418683192322
 30
0.0
  0
SPLINE
  5
C7
330
1F
100
AcDbEntity
  8
0
  6
Continuous
 62
     7
370
    25
100
AcDbSpline
210
0.0
220
0.0
230
1.0
 70
     8
 71
     3
 72
    16
 73
    12
 74
     0
 42
0.000000001
 43
0.00000001
 40
0.0
 40
0.0
 40
0.0
 40
0.0
 40
0.2499999999999999
 40
0.2499999999999999
 40
0.4999999999999998
 40
0.4999999999999998
 40
0.6249999999999998
 40
0.6249999999999998
 40
0.7499999999999999
 40
0.7499999999999999
 40
1.0
 40
1.0
 40
1.0
 40
1.0
 10
419.8006238414661
 20
296.2431385084542
 30
0.0
 10
420.4481629835539
 20
295.0870640609177
 30
0.0
 10
420.9788393929673
 20
293.9231904210548
 30
0.0
 10
421.7118613965894
 20
291.5735309789498
 30
0.0
 10
421.9120482079789
 20
290.3876011037255
 30
0.0
 10
421.9149548356444
 20
288.5888601537711
 30
0.0
 10
421.8662891201581
 20
287.9848912247786
 30
0.0
 10
421.6750171614199
 20
286.7892094810869
 30
0.0
 10
421.5327069079199
 20
286.1952216227103
 30
0.0
 10
420.9816771511798
 20
284.4235025583505
 30
0.0
 10
420.4492026241461
 20
283.2559874678278
 30
0.0
 10
419.800623841466
 20
282.0980569133084
 30
0.0
  0
SPLINE
  5
C8
330
1F
100
AcDbEntity
  8
0
  6
Continuous
 62
     7
370
    25
100
AcDbSpline
210
0.0
220
0.0
230
1.0
 70
     8
 71
     3
 72
     9
 73
     5
 74
     0
 42
0.000000001
 43
0.00000001
 40
0.0
 40
0.0
 40
0.0
 40
0.0
 40
0.5776986203267375
 40
1.0
 40
1.0
 40
1.0
 40
1.0
 10
419.8006238414659
 20
296.2431385084542
 30
0.0
 10
419.7755929636548
 20
296.2879034427207
 30
0.0
 10
419.7322643543585
 20
296.3653918297299
 30
0.0
 10
419.7313123895399
 20
296.3671268969972
 30
0.0
 10
419.7309103734836
 20
296.367859618298
 30
0.0
  0
LINE
  5
C9
330
1F
100
AcDbEntity
  8
0
  6
Continuous
 62
     7
370
    25
100
AcDbLine
 10
419.8006238415
 20
252.0758429154
 30
0.0
 11
410.6047271798
 21
252.0758429154
 31
0.0
  0
LINE
  5
CA
330
1F
100
AcDbEntity
  8
0
  6
Continuous
 62
     7
370
    25
100
AcDbLine
 10
414.1797619409
 20
264.9238406351
 30
0.0
 11
414.1797619409
 21
263.3465169171
 31
0.0
  0
LINE
  5
CB
330
1F
100
AcDbEntity
  8
0
  6
Continuous
 62
     7
370
    25
100
AcDbLine
 10
416.4779056374
 20
263.3465169171
 30
0.0
 11
414.1797619409
 21
264.9238406351
 31
0.0
  0
LINE
  5
CC
330
1F
100
AcDbEntity
  8
0
  6
Continuous
 62
     7
370
    25
100
AcDbLine
 10
414.1797619409
 20
263.3465169171
 30
0.0
 11
416.4779056374
 21
263.3465169171
 31
0.0
  0
SPLINE
  5
CD
330
1F
100
AcDbEntity
  8
0
  6
Continuous
 62
     7
370
    25
100
AcDbSpline
210
0.0
220
0.0
230
1.0
 70
     8
 71
     3
 72
    27
 73
    23
 74
     0
 42
0.000000001
 43
0.00000001
 40
0.0
 40
0.0
 40
0.0
 40
0.0
 40
0.0656741831955709
 40
0.1284727417353345
 40
0.188155033100544
 40
0.2450799531743087
 40
0.2994164432411356
 40
0.3507854678894872
 40
0.3998989664997188
 40
0.446624038796894
 40
0.4912020670668058
 40
0.5333193793266855
 40
0.5737914671172359
 40
0.6124608935072129
 40
0.6495277590446701
 40
0.6854588262817328
 40
0.7202839405258933
 40
0.7540122148447427
 40
0.8190930165030459
 40
0.8805062250269203
 40
0.9403177086347901
 40
1.0
 40
1.0
 40
1.0
 40
1.0
 10
415.0617063853065
 20
258.6654271735139
 30
0.0
 10
415.1253085485242
 20
258.6662590072293
 30
0.0
 10
415.24972797624
 20
258.6678862518007
 30
0.0
 10
415.4319399873954
 20
258.6741062094779
 30
0.0
 10
415.6050043404942
 20
258.6901680420534
 30
0.0
 10
415.7696666017076
 20
258.7080071870511
 30
0.0
 10
415.9250152772257
 20
258.7343101249928
 30
0.0
 10
416.0723508454627
 20
258.7626701545194
 30
0.0
 10
416.2098480806025
 20
258.800771945742
 30
0.0
 10
416.3396594422812
 20
258.8414722262848
 30
0.0
 10
416.4603109474418
 20
258.8880541089304
 30
0.0
 10
416.5723621526685
 20
258.9393332001127
 30
0.0
 10
416.6763643346736
 20
258.9940909962743
 30
0.0
 10
416.7719961545855
 20
259.0535938732603
 30
0.0
 10
416.8598123206936
 20
259.1170130156965
 30
0.0
 10
416.937792187657
 20
259.1866222771121
 30
0.0
 10
417.0097290469189
 20
259.2580009542639
 30
0.0
 10
417.090375577762
 20
259.3595164792835
 30
0.0
 10
417.1732532009146
 20
259.4913374773666
 30
0.0
 10
417.2474474909417
 20
259.6564987967046
 30
0.0
 10
417.2913576736422
 20
259.8274336422973
 30
0.0
 10
417.2974470434734
 20
259.9432290738392
 30
0.0
 10
417.3004884365885
 20
260.0010641927447
 30
0.0
  0
SPLINE
  5
CE
330
1F
100
AcDbEntity
  8
0
  6
Continuous
 62
     7
370
    25
100
AcDbSpline
210
0.0
220
0.0
230
1.0
 70
     8
 71
     3
 72
    15
 73
    11
 74
     0
 42
0.000000001
 43
0.00000001
 40
0.0
 40
0.0
 40
0.0
 40
0.0
 40
0.1105883385953358
 40
0.2245417540535956
 40
0.3425034940501037
 40
0.4643240984173575
 40
0.5907560327017661
 40
0.7222274753555138
 40
0.8588428362087244
 40
1.0
 40
1.0
 40
1.0
 40
1.0
 10
413.7313695129774
 20
258.8657727263985
 30
0.0
 10
413.7785859047896
 20
258.8498194584247
 30
0.0
 10
413.8744554293006
 20
258.8174274827494
 30
0.0
 10
414.0231719032794
 20
258.7756811097448
 30
0.0
 10
414.1792046535189
 20
258.7428041371392
 30
0.0
 10
414.3416211990337
 20
258.7132261913038
 30
0.0
 10
414.5116193184193
 20
258.6930376425066
 30
0.0
 10
414.688673017911
 20
258.6767879724236
 30
0.0
 10
414.872915791767
 20
258.667216576694
 30
0.0
 10
414.9980939332169
 20
258.6660301078124
 30
0.0
 10
415.0617063853065
 20
258.6654271735139
 30
0.0
  0
SPLINE
  5
CF
330
1F
100
AcDbEntity
  8
0
  6
Continuous
 62
     7
370
    25
100
AcDbSpline
210
0.0
220
0.0
230
1.0
 70
     8
 71
     3
 72
    27
 73
    23
 74
     0
 42
0.000000001
 43
0.00000001
 40
0.0
 40
0.0
 40
0.0
 40
0.0
 40
0.0729549340450045
 40
0.1415912015432877
 40
0.2055734725150375
 40
0.2653145189048597
 40
0.3206133264516465
 40
0.3714769075244197
 40
0.4184526648531617
 40
0.4613638989710641
 40
0.5018008964830885
 40
0.5404736801553938
 40
0.5778518720329292
 40
0.6142764136219964
 40
0.6496596677471925
 40
0.6842827203330537
 40
0.7183440189918359
 40
0.7520677189431912
 40
0.8176427697757425
 40
0.8797156987693265
 40
0.9399623764550986
 40
1.0
 40
1.0
 40
1.0
 40
1.0
 10
415.0617063853065
 20
261.3112605068472
 30
0.0
 10
414.9910270875577
 20
261.3110759542861
 30
0.0
 10
414.8538524492212
 20
261.3107177740038
 30
0.0
 10
414.6548663940387
 20
261.3016313662491
 30
0.0
 10
414.4689602668084
 20
261.2889840131666
 30
0.0
 10
414.2962066248347
 20
261.273072915274
 30
0.0
 10
414.137209237
 20
261.2492437834804
 30
0.0
 10
413.9913070934115
 20
261.2222081767288
 30
0.0
 10
413.8587702563953
 20
261.1897806163166
 30
0.0
 10
413.7384405110585
 20
261.1512238048832
 30
0.0
 10
413.6286139395318
 20
261.1073038440926
 30
0.0
 10
413.5263632752103
 20
261.0594351601696
 30
0.0
 10
413.4304766564836
 20
261.0075548983421
 30
0.0
 10
413.3411867186014
 20
260.9505996266047
 30
0.0
 10
413.2595849326385
 20
260.8874432987167
 30
0.0
 10
413.1836028802479
 20
260.8210138501645
 30
0.0
 10
413.1158831498714
 20
260.7483186704797
 30
0.0
 10
413.0346503776198
 20
260.647775816147
 30
0.0
 10
412.9507120965923
 20
260.5150337978229
 30
0.0
 10
412.8776170020089
 20
260.3477868420811
 30
0.0
 10
412.8316817245311
 20
260.1759308099871
 30
0.0
 10
412.8258400799335
 20
260.0592854886278
 30
0.0
 10
412.8229243340244
 20
260.0010641927447
 30
0.0
  0
SPLINE
  5
D0
330
1F
100
AcDbEntity
  8
0
  6
Continuous
 62
     7
370
    25
100
AcDbSpline
210
0.0
220
0.0
230
1.0
 70
     8
 71
     3
 72
    27
 73
    23
 74
     0
 42
0.000000001
 43
0.00000001
 40
0.0
 40
0.0
 40
0.0
 40
0.0
 40
0.0603773252519301
 40
0.120864643536181
 40
0.1825791071854142
 40
0.2476255055353485
 40
0.2813359502609449
 40
0.3151192740020367
 40
0.3494568436006742
 40
0.3846056186147102
 40
0.4210158434021627
 40
0.4582367479489303
 40
0.4968943311397032
 40
0.5373154347393809
 40
0.580209802437032
 40
0.627167095769549
 40
0.6784377085878704
 40
0.7340241630348789
 40
0.7937784488403146
 40
0.8577355713423673
 40
0.9267091462379162
 40
1.0
 40
1.0
 40
1.0
 40
1.0
 10
417.3004884365885
 20
260.0010641927447
 30
0.0
 10
417.2974394767751
 20
260.0595998118462
 30
0.0
 10
417.2913360026733
 20
260.1767776879337
 30
0.0
 10
417.2476505621126
 20
260.3495379580907
 30
0.0
 10
417.173470279057
 20
260.5158150418099
 30
0.0
 10
417.0905352509994
 20
260.648070737062
 30
0.0
 10
417.0100382541149
 20
260.7483530189632
 30
0.0
 10
416.9415260414808
 20
260.8195156782033
 30
0.0
 10
416.8673587856352
 20
260.8868664125138
 30
0.0
 10
416.7850330991211
 20
260.9483873144843
 30
0.0
 10
416.6960577747561
 20
261.005004858033
 30
0.0
 10
416.6014111371194
 20
261.058890106581
 30
0.0
 10
416.4989694187113
 20
261.1061186601789
 30
0.0
 10
416.3892289655676
 20
261.1501796235409
 30
0.0
 10
416.2688926017545
 20
261.1888007470578
 30
0.0
 10
416.1358762007042
 20
261.2208577865158
 30
0.0
 10
415.9896256326701
 20
261.2500419301775
 30
0.0
 10
415.8294665187195
 20
261.2710592704037
 30
0.0
 10
415.6566760062692
 20
261.2895664344305
 30
0.0
 10
415.4702944561325
 20
261.3014925210818
 30
0.0
 10
415.2706251004799
 20
261.3107593991582
 30
0.0
 10
415.1327407428507
 20
261.3110901254493
 30
0.0
 10
415.0617063853065
 20
261.3112605068472
 30
0.0
  0
SPLINE
  5
D1
330
1F
100
AcDbEntity
  8
0
  6
Continuous
 62
     7
370
    25
100
AcDbSpline
210
0.0
220
0.0
230
1.0
 70
     8
 71
     3
 72
    19
 73
    15
 74
     0
 42
0.000000001
 43
0.00000001
 40
0.0
 40
0.0
 40
0.0
 40
0.0
 40
0.1128017870876409
 40
0.2252034422403029
 40
0.3396628004503111
 40
0.4597310343290403
 40
0.5217844254033603
 40
0.5839686717932118
 40
0.648210363731513
 40
0.7139104928357352
 40
0.7810269995615563
 40
0.8514662200478411
 40
0.9240585113203397
 40
1.0
 40
1.0
 40
1.0
 40
1.0
 10
412.8229243340244
 20
260.0010641927447
 30
0.0
 10
412.8254774179586
 20
259.942505876281
 30
0.0
 10
412.830574529495
 20
259.8255969621591
 30
0.0
 10
412.875060109898
 20
259.6538987970346
 30
0.0
 10
412.947379536712
 20
259.4885924425449
 30
0.0
 10
413.030002767733
 20
259.3581344200744
 30
0.0
 10
413.1091913390738
 20
259.2591596926825
 30
0.0
 10
413.1766293671565
 20
259.188219768452
 30
0.0
 10
413.252162069846
 20
259.1231156932382
 30
0.0
 10
413.333651507954
 20
259.0613659098133
 30
0.0
 10
413.4226614211067
 20
259.0047314818311
 30
0.0
 10
413.5187618893135
 20
258.9532312257007
 30
0.0
 10
413.6222203148188
 20
258.9062361745459
 30
0.0
 10
413.6944436073002
 20
258.8794617822493
 30
0.0
 10
413.7313695129774
 20
258.8657727263985
 30
0.0
  0
LINE
  5
D2
330
1F
100
AcDbEntity
  8
0
  6
Continuous
 62
     7
370
    25
100
AcDbLine
 10
419.8006238415
 20
296.2431385085
 30
0.0
 11
410.6047271798
 21
296.2431385085
 31
0.0
  0
LINE
  5
D3
330
1F
100
AcDbEntity
  8
0
  6
Continuous
 62
     7
370
    25
100
AcDbLine
 10
410.6047271798
 20
237.9307613203
 30
0.0
 11
419.8006238415
 21
237.9307613203
 31
0.0
  0
LINE
  5
D4
330
1F
100
AcDbEntity
  8
0
  6
Continuous
 62
     7
370
    25
100
AcDbLine
 10
385.2052561558
 20
290.6541555595
 30
0.0
 11
385.2052561558
 21
243.5197442692
 31
0.0
  0
LINE
  5
D5
330
1F
100
AcDbEntity
  8
0
  6
Continuous
 62
     7
370
    25
100
AcDbLine
 10
383.2026755106
 20
267.0869499144
 30
0.0
 11
383.2026755106
 21
288.6515749144
 31
0.0
  0
LINE
  5
D6
330
1F
100
AcDbEntity
  8
0
  6
Continuous
 62
     7
370
    25
100
AcDbLine
 10
383.2026755106
 20
245.5223249144
 30
0.0
 11
383.2026755106
 21
267.0869499144
 31
0.0
  0
LINE
  5
D7
330
1F
100
AcDbEntity
  8
0
  6
Continuous
 62
     7
370
    25
100
AcDbLine
 10
431.2026755106
 20
247.0869499144
 30
0.0
 11
431.2026755106
 21
287.0869499144
 31
0.0
  0
LINE
  5
D8
330
1F
100
AcDbEntity
  8
0
  6
Continuous
 62
     7
370
    25
100
AcDbLine
 10
471.2026755106
 20
267.0869499144
 30
0.0
 11
471.2026755106
 21
286.4967197035
 31
0.0
  0
LINE
  5
D9
330
1F
100
AcDbEntity
  8
0
  6
Continuous
 62
     7
370
    25
100
AcDbLine
 10
471.2026755106
 20
247.6771801252
 30
0.0
 11
471.2026755106
 21
267.0869499144
 31
0.0
  0
LINE
  5
DA
330
1F
100
AcDbEntity
  8
0
  6
Continuous
 62
     7
370
    25
100
AcDbLine
 10
451.2026755106
 20
267.0869499144
 30
0.0
 11
451.2026755106
 21
286.477047963
 31
0.0
  0
LINE
  5
DB
330
1F
100
AcDbEntity
  8
0
  6
Continuous
 62
     7
370
    25
100
AcDbLine
 10
451.2026755106
 20
247.6968518657
 30
0.0
 11
451.2026755106
 21
267.0869499144
 31
0.0
  0
LINE
  5
DC
330
1F
100
AcDbEntity
  8
0
  6
Continuous
 62
     7
370
    25
100
AcDbLine
 10
441.2026755106
 20
267.0869499144
 30
0.0
 11
441.2026755106
 21
286.477047963
 31
0.0
  0
LINE
  5
DD
330
1F
100
AcDbEntity
  8
0
  6
Continuous
 62
     7
370
    25
100
AcDbLine
 10
441.2026755106
 20
247.6968518657
 30
0.0
 11
441.2026755106
 21
267.0869499144
 31
0.0
  0
LINE
  5
DE
330
1F
100
AcDbEntity
  8
0
  6
Continuous
 62
     7
370
    25
100
AcDbLine
 10
461.2026755106
 20
267.0869499144
 30
0.0
 11
461.2026755106
 21
286.477047963
 31
0.0
  0
LINE
  5
DF
330
1F
100
AcDbEntity
  8
0
  6
Continuous
 62
     7
370
    25
100
AcDbLine
 10
461.2026755106
 20
247.6968518657
 30
0.0
 11
461.2026755106
 21
267.0869499144
 31
0.0
  0
LINE
  5
E0
330
1F
100
AcDbEntity
  8
0
  6
Continuous
 62
     7
370
    25
100
AcDbLine
 10
483.2026755106
 20
267.0869499144
 30
0.0
 11
483.2026755106
 21
250.357640547
 31
0.0
  0
LINE
  5
E1
330
1F
100
AcDbEntity
  8
0
  6
Continuous
 62
     7
370
    25
100
AcDbLine
 10
483.2026755106
 20
283.8162592818
 30
0.0
 11
483.2026755106
 21
267.0869499144
 31
0.0
  0
LINE
  5
E2
330
1F
100
AcDbEntity
  8
0
  6
Continuous
 62
     8
370
    25
100
AcDbLine
 10
471.7848750043
 20
267.0869499144
 30
0.0
 11
471.7848750043
 21
247.1839831633
 31
0.0
  0
LINE
  5
E3
330
1F
100
AcDbEntity
  8
0
  6
Continuous
 62
     8
370
    25
100
AcDbLine
 10
471.7848750043
 20
286.9899166654
 30
0.0
 11
471.7848750043
 21
267.0869499144
 31
0.0
  0
LINE
  5
E4
330
1F
100
AcDbEntity
  8
0
  6
Continuous
 62
     8
370
    25
100
AcDbLine
 10
481.9492739916
 20
248.8780496612
 30
0.0
 11
481.9492739916
 21
285.2958501676
 31
0.0
  0
LINE
  5
E5
330
1F
100
AcDbEntity
  8
0
  6
Continuous
 62
     8
370
    25
100
AcDbLine
 10
451.8007335782
 20
267.0869499144
 30
0.0
 11
451.8007335782
 21
247.2065615279
 31
0.0
  0
LINE
  5
E6
330
1F
100
AcDbEntity
  8
0
  6
Continuous
 62
     8
370
    25
100
AcDbLine
 10
451.8007335782
 20
286.9673383009
 30
0.0
 11
451.8007335782
 21
267.0869499144
 31
0.0
  0
LINE
  5
E7
330
1F
100
AcDbEntity
  8
0
  6
Continuous
 62
     8
370
    25
100
AcDbLine
 10
441.8007335782
 20
267.0869499144
 30
0.0
 11
441.8007335782
 21
247.2065615279
 31
0.0
  0
LINE
  5
E8
330
1F
100
AcDbEntity
  8
0
  6
Continuous
 62
     8
370
    25
100
AcDbLine
 10
441.8007335782
 20
286.9673383009
 30
0.0
 11
441.8007335782
 21
267.0869499144
 31
0.0
  0
LINE
  5
E9
330
1F
100
AcDbEntity
  8
0
  6
Continuous
 62
     8
370
    25
100
AcDbLine
 10
461.8007335782
 20
267.0869499144
 30
0.0
 11
461.8007335782
 21
247.2065615279
 31
0.0
  0
LINE
  5
EA
330
1F
100
AcDbEntity
  8
0
  6
Continuous
 62
     8
370
    25
100
AcDbLine
 10
461.8007335782
 20
286.9673383009
 30
0.0
 11
461.8007335782
 21
267.0869499144
 31
0.0
  0
LINE
  5
EB
330
1F
100
AcDbEntity
  8
0
  6
Continuous
 62
     7
370
    18
100
AcDbLine
 10
383.9984007968
 20
289.4473002005
 30
0.0
 11
407.2026755106
 21
290.1724337853
 31
0.0
  0
LINE
  5
EC
330
1F
100
AcDbEntity
  8
0
  6
Continuous
 62
     7
370
    18
100
AcDbLine
 10
383.9984007968
 20
244.7265996282
 30
0.0
 11
407.2026755106
 21
244.0014660434
 31
0.0
  0
LINE
  5
ED
330
1F
100
AcDbEntity
  8
0
  6
Continuous
 62
     7
370
    18
100
AcDbLine
 10
407.2026755106
 20
242.8323249144
 30
0.0
 11
407.2026755106
 21
291.3415749144
 31
0.0
  0
LINE
  5
EE
330
1F
100
AcDbEntity
  8
0
  6
CENTERX2
 62
     7
370
    18
100
AcDbLine
 10
418.2026755106
 20
267.0869499144
 30
0.0
 11
485.9492739916
 21
267.0869499144
 31
0.0
  0
LINE
  5
EF
330
1F
100
AcDbEntity
  8
0
  6
CENTERX2
 62
     7
370
    18
100
AcDbLine
 10
412.2026755106
 20
267.0869499144
 30
0.0
 11
381.2052561558
 21
267.0869499144
 31
0.0
  0
LINE
  5
F0
330
1F
100
AcDbEntity
  8
0
  6
CENTERX2
 62
     7
370
    18
100
AcDbLine
 10
406.6047271798
 20
267.0869499144
 30
0.0
 11
423.8006238415
 21
267.0869499144
 31
0.0
  0
CIRCLE
  5
F1
330
1F
100
AcDbEntity
  8
0
  6
Continuous
 62
     7
370
    25
100
AcDbCircle
 10
552.9618501209
 20
267.0869499144
 30
0.0
 40
19.90976978914188
  0
CIRCLE
  5
F2
330
1F
100
AcDbEntity
  8
0
  6
Continuous
 62
     7
370
    25
100
AcDbCircle
 10
552.9618501209
 20
267.0869499144
 30
0.0
 40
18.20890025317374
  0
CIRCLE
  5
F3
330
1F
100
AcDbEntity
  8
0
  6
Continuous
 62
     7
370
    25
100
AcDbCircle
 10
552.9618501209
 20
267.0869499144
 30
0.0
 40
16.72930936742546
  0
CIRCLE
  5
F4
330
1F
100
AcDbEntity
  8
0
  6
Continuous
 62
     7
370
    25
100
AcDbCircle
 10
552.9618501209
 20
267.0869499144
 30
0.0
 40
15.5
  0
CIRCLE
  5
F5
330
1F
100
AcDbEntity
  8
0
  6
Continuous
 62
     7
370
    25
100
AcDbCircle
 10
552.9618501209
 20
267.0869499144
 30
0.0
 40
15.0
  0
CIRCLE
  5
F6
330
1F
100
AcDbEntity
  8
0
  6
Continuous
 62
     7
370
    25
100
AcDbCircle
 10
552.9618501209
 20
267.0869499144
 30
0.0
 40
19.90296675105787
  0
CIRCLE
  5
F7
330
1F
100
AcDbEntity
  8
0
  6
Continuous
 62
     7
370
    25
100
AcDbCircle
 10
552.9618501209
 20
267.0869499144
 30
0.0
 40
20.0
  0
CIRCLE
  5
F8
330
1F
100
AcDbEntity
  8
0
  6
Continuous
 62
     7
370
    25
100
AcDbCircle
 10
552.9618501209
 20
267.0869499144
 30
0.0
 40
25.0
  0
SPLINE
  5
F9
330
1F
100
AcDbEntity
  8
0
  6
Continuous
 62
     7
370
    25
100
AcDbSpline
210
0.0
220
0.0
230
1.0
 70
     8
 71
     3
 72
    10
 73
     6
 74
     0
 42
0.000000001
 43
0.00000001
 40
0.0
 40
0.0
 40
0.0
 40
0.0
 40
0.5
 40
0.5
 40
1.0
 40
1.0
 40
1.0
 40
1.0
 10
577.9618501208512
 20
282.0980569133084
 30
0.0
 10
578.1104950030407
 20
282.0122367505626
 30
0.0
 10
578.2391559660595
 20
281.8853780040727
 30
0.0
 10
578.4156881104881
 20
281.5802542951937
 30
0.0
 10
578.4618501208512
 20
281.4037403143886
 30
0.0
 10
578.4618501208512
 20
281.2320315095239
 30
0.0
  0
SPLINE
  5
FA
330
1F
100
AcDbEntity
  8
0
  6
Continuous
 62
     7
370
    25
100
AcDbSpline
210
0.0
220
0.0
230
1.0
 70
    24
 71
     3
 72
    20
 73
    16
 74
     0
 42
0.000000001
 43
0.00000001
 40
0.0
 40
0.0
 40
0.0
 40
0.0
 40
0.125
 40
0.125
 40
0.2500000000000001
 40
0.2500000000000001
 40
0.5000000000000001
 40
0.5000000000000001
 40
0.6250000000000001
 40
0.6250000000000001
 40
0.6875000000000001
 40
0.6875000000000001
 40
0.7500000000000002
 40
0.7500000000000002
 40
1.0
 40
1.0
 40
1.0
 40
1.0
 10
578.4618501208512
 20
281.2320315095239
 30
0.0
 10
578.4618501208512
 20
280.0797512959942
 30
0.0
 10
578.4618501208512
 20
278.9164936037864
 30
0.0
 10
578.4618501208512
 20
276.5659485017121
 30
0.0
 10
578.4618501208512
 20
275.3881174681625
 30
0.0
 10
578.4618501208512
 20
271.845769139921
 30
0.0
 10
578.4618501208512
 20
269.4722258305598
 30
0.0
 10
578.4618501208512
 20
265.8911306849941
 30
0.0
 10
578.4618501208512
 20
264.6940076296873
 30
0.0
 10
578.4618501208512
 20
262.8932495293922
 30
0.0
 10
578.4618501208512
 20
262.2920919085723
 30
0.0
 10
578.4618501208512
 20
261.0985288557793
 30
0.0
 10
578.4618501208512
 20
260.5047734669531
 30
0.0
 10
578.4618501208512
 20
257.5499906094145
 30
0.0
 10
578.4618501208512
 20
255.2308036828474
 30
0.0
 10
578.4618501208512
 20
252.9418683192323
 30
0.0
  0
SPLINE
  5
FB
330
1F
100
AcDbEntity
  8
0
  6
Continuous
 62
     7
370
    25
100
AcDbSpline
210
0.0
220
0.0
230
1.0
 70
     8
 71
     3
 72
    10
 73
     6
 74
     0
 42
0.000000001
 43
0.00000001
 40
0.0
 40
0.0
 40
0.0
 40
0.0
 40
0.5
 40
0.5
 40
1.0
 40
1.0
 40
1.0
 40
1.0
 10
578.4618501208512
 20
252.9418683192323
 30
0.0
 10
578.4618501208512
 20
252.7702270624413
 30
0.0
 10
578.4163173604445
 20
252.5953742324351
 30
0.0
 10
578.2403388792593
 20
252.2899318831632
 30
0.0
 10
578.110553897415
 20
252.1616970808764
 30
0.0
 10
577.9618501208512
 20
252.0758429154478
 30
0.0
  0
SPLINE
  5
FC
330
1F
100
AcDbEntity
  8
0
  6
Continuous
 62
     7
370
    25
100
AcDbSpline
210
0.0
220
0.0
230
1.0
 70
    24
 71
     3
 72
    16
 73
    12
 74
     0
 42
0.000000001
 43
0.00000001
 40
0.0
 40
0.0
 40
0.0
 40
0.0
 40
0.2499999999999999
 40
0.2499999999999999
 40
0.4999999999999998
 40
0.4999999999999998
 40
0.6249999999999999
 40
0.6249999999999999
 40
0.7500000000000001
 40
0.7500000000000001
 40
1.0
 40
1.0
 40
1.0
 40
1.0
 10
553.4618501208512
 20
237.930761320302
 30
0.0
 10
555.4642298013166
 20
239.0868357678385
 30
0.0
 10
557.4801180791492
 20
240.2507094077014
 30
0.0
 10
561.549847613359
 20
242.6003688498064
 30
0.0
 10
563.6039384114613
 20
243.7862987250307
 30
0.0
 10
566.7194491264371
 20
245.5850396749851
 30
0.0
 10
567.765553997645
 20
246.1890086039776
 30
0.0
 10
569.8365355274016
 20
247.3846903476692
 30
0.0
 10
570.8653526771889
 20
247.9786782060459
 30
0.0
 10
573.9340601133985
 20
249.7503972704057
 30
0.0
 10
575.9562555687871
 20
250.9179123609284
 30
0.0
 10
577.9618501208512
 20
252.0758429154478
 30
0.0
  0
SPLINE
  5
FD
330
1F
100
AcDbEntity
  8
0
  6
Continuous
 62
     7
370
    25
100
AcDbSpline
210
0.0
220
0.0
230
1.0
 70
     8
 71
     3
 72
    10
 73
     6
 74
     0
 42
0.000000001
 43
0.00000001
 40
0.0
 40
0.0
 40
0.0
 40
0.0
 40
0.5
 40
0.5
 40
1.0
 40
1.0
 40
1.0
 40
1.0
 10
553.4618501208512
 20
237.930761320302
 30
0.0
 10
553.3132052108749
 20
237.8449411415135
 30
0.0
 10
553.1390117946592
 20
237.7969468504302
 30
0.0
 10
552.7865007672565
 20
237.7966274188689
 30
0.0
 10
552.6105539376674
 20
237.8449071316336
 30
0.0
 10
552.4618501208512
 20
237.930761320302
 30
0.0
  0
SPLINE
  5
FE
330
1F
100
AcDbEntity
  8
0
  6
Continuous
 62
     7
370
    25
100
AcDbSpline
210
0.0
220
0.0
230
1.0
 70
    24
 71
     3
 72
    16
 73
    12
 74
     0
 42
0.000000001
 43
0.00000001
 40
0.0
 40
0.0
 40
0.0
 40
0.0
 40
0.2499999999999998
 40
0.2499999999999998
 40
0.4999999999999996
 40
0.4999999999999996
 40
0.6249999999999997
 40
0.6249999999999997
 40
0.7499999999999998
 40
0.7499999999999998
 40
1.0
 40
1.0
 40
1.0
 40
1.0
 10
527.9618501208512
 20
252.0758429154478
 30
0.0
 10
529.9642298013166
 20
250.9197684679112
 30
0.0
 10
531.9801180791493
 20
249.7558948280484
 30
0.0
 10
536.049847613359
 20
247.4062353859434
 30
0.0
 10
538.1039384114613
 20
246.2203055107191
 30
0.0
 10
541.2194491264371
 20
244.4215645607647
 30
0.0
 10
542.2655539976449
 20
243.8175956317722
 30
0.0
 10
544.3365355274015
 20
242.6219138880805
 30
0.0
 10
545.3653526771889
 20
242.0279260297039
 30
0.0
 10
548.4340601133985
 20
240.2562069653441
 30
0.0
 10
550.4562555687871
 20
239.0886918748214
 30
0.0
 10
552.4618501208512
 20
237.930761320302
 30
0.0
  0
SPLINE
  5
FF
330
1F
100
AcDbEntity
  8
0
  6
Continuous
 62
     7
370
    25
100
AcDbSpline
210
0.0
220
0.0
230
1.0
 70
     8
 71
     3
 72
    10
 73
     6
 74
     0
 42
0.000000001
 43
0.00000001
 40
0.0
 40
0.0
 40
0.0
 40
0.0
 40
0.5
 40
0.5
 40
1.0
 40
1.0
 40
1.0
 40
1.0
 10
527.9618501208512
 20
252.0758429154478
 30
0.0
 10
527.8132052386617
 20
252.1616630781936
 30
0.0
 10
527.6845442756428
 20
252.2885218246835
 30
0.0
 10
527.5080121312144
 20
252.5936455335624
 30
0.0
 10
527.4618501208512
 20
252.7701595143675
 30
0.0
 10
527.4618501208512
 20
252.9418683192322
 30
0.0
  0
SPLINE
  5
100
330
1F
100
AcDbEntity
  8
0
  6
Continuous
 62
     7
370
    25
100
AcDbSpline
210
0.0
220
0.0
230
1.0
 70
    24
 71
     3
 72
    20
 73
    16
 74
     0
 42
0.000000001
 43
0.00000001
 40
0.0
 40
0.0
 40
0.0
 40
0.0
 40
0.125
 40
0.125
 40
0.25
 40
0.25
 40
0.5000000000000001
 40
0.5000000000000001
 40
0.6250000000000002
 40
0.6250000000000002
 40
0.6875000000000002
 40
0.6875000000000002
 40
0.7500000000000002
 40
0.7500000000000002
 40
1.0
 40
1.0
 40
1.0
 40
1.0
 10
527.4618501208512
 20
281.2320315095239
 30
0.0
 10
527.4618501208511
 20
280.0797512959942
 30
0.0
 10
527.4618501208511
 20
278.9164936037864
 30
0.0
 10
527.4618501208512
 20
276.5659485017122
 30
0.0
 10
527.4618501208511
 20
275.3881174681625
 30
0.0
 10
527.4618501208511
 20
271.845769139921
 30
0.0
 10
527.4618501208511
 20
269.4722258305598
 30
0.0
 10
527.4618501208512
 20
265.8911306849941
 30
0.0
 10
527.4618501208512
 20
264.6940076296873
 30
0.0
 10
527.4618501208512
 20
262.8932495293922
 30
0.0
 10
527.4618501208512
 20
262.2920919085723
 30
0.0
 10
527.4618501208512
 20
261.0985288557793
 30
0.0
 10
527.4618501208512
 20
260.5047734669531
 30
0.0
 10
527.4618501208512
 20
257.5499906094145
 30
0.0
 10
527.4618501208511
 20
255.2308036828474
 30
0.0
 10
527.4618501208512
 20
252.9418683192322
 30
0.0
  0
SPLINE
  5
101
330
1F
100
AcDbEntity
  8
0
  6
Continuous
 62
     7
370
    25
100
AcDbSpline
210
0.0
220
0.0
230
1.0
 70
     8
 71
     3
 72
    10
 73
     6
 74
     0
 42
0.000000001
 43
0.00000001
 40
0.0
 40
0.0
 40
0.0
 40
0.0
 40
0.5
 40
0.5
 40
1.0
 40
1.0
 40
1.0
 40
1.0
 10
527.4618501208512
 20
281.2320315095239
 30
0.0
 10
527.4618501208512
 20
281.4036727663149
 30
0.0
 10
527.5073828812579
 20
281.578525596321
 30
0.0
 10
527.683361362443
 20
281.8839679455929
 30
0.0
 10
527.8131463442874
 20
282.0122027478798
 30
0.0
 10
527.9618501208512
 20
282.0980569133084
 30
0.0
  0
SPLINE
  5
102
330
1F
100
AcDbEntity
  8
0
  6
Continuous
 62
     7
370
    25
100
AcDbSpline
210
0.0
220
0.0
230
1.0
 70
    24
 71
     3
 72
    16
 73
    12
 74
     0
 42
0.000000001
 43
0.00000001
 40
0.0
 40
0.0
 40
0.0
 40
0.0
 40
0.2499999999999999
 40
0.2499999999999999
 40
0.4999999999999998
 40
0.4999999999999998
 40
0.6249999999999998
 40
0.6249999999999998
 40
0.7499999999999999
 40
0.7499999999999999
 40
1.0
 40
1.0
 40
1.0
 40
1.0
 10
552.4618501208513
 20
296.2431385084542
 30
0.0
 10
550.4594704403858
 20
295.0870640609177
 30
0.0
 10
548.4435821625531
 20
293.9231904210548
 30
0.0
 10
544.3738526283433
 20
291.5735309789498
 30
0.0
 10
542.3197618302411
 20
290.3876011037255
 30
0.0
 10
539.2042511152653
 20
288.5888601537711
 30
0.0
 10
538.1581462440573
 20
287.9848912247786
 30
0.0
 10
536.0871647143008
 20
286.7892094810869
 30
0.0
 10
535.0583475645134
 20
286.1952216227103
 30
0.0
 10
531.9896401283039
 20
284.4235025583505
 30
0.0
 10
529.9674446729152
 20
283.2559874678278
 30
0.0
 10
527.9618501208512
 20
282.0980569133084
 30
0.0
  0
SPLINE
  5
103
330
1F
100
AcDbEntity
  8
0
  6
Continuous
 62
     7
370
    25
100
AcDbSpline
210
0.0
220
0.0
230
1.0
 70
     8
 71
     3
 72
    10
 73
     6
 74
     0
 42
0.000000001
 43
0.00000001
 40
0.0
 40
0.0
 40
0.0
 40
0.0
 40
0.5
 40
0.5
 40
1.0
 40
1.0
 40
1.0
 40
1.0
 10
552.4618501208512
 20
296.2431385084542
 30
0.0
 10
552.6104950308273
 20
296.3289586872426
 30
0.0
 10
552.7846884470431
 20
296.376952978326
 30
0.0
 10
553.137199474446
 20
296.3772724098873
 30
0.0
 10
553.3131463040348
 20
296.3289926971226
 30
0.0
 10
553.4618501208512
 20
296.2431385084542
 30
0.0
  0
SPLINE
  5
104
330
1F
100
AcDbEntity
  8
0
  6
Continuous
 62
     7
370
    25
100
AcDbSpline
210
0.0
220
0.0
230
1.0
 70
    24
 71
     3
 72
    16
 73
    12
 74
     0
 42
0.000000001
 43
0.00000001
 40
0.0
 40
0.0
 40
0.0
 40
0.0
 40
0.25
 40
0.25
 40
0.5
 40
0.5
 40
0.625
 40
0.625
 40
0.75
 40
0.75
 40
1.0
 40
1.0
 40
1.0
 40
1.0
 10
577.9618501208512
 20
282.0980569133084
 30
0.0
 10
575.9594704403858
 20
283.254131360845
 30
0.0
 10
573.9435821625532
 20
284.4180050007078
 30
0.0
 10
569.8738526283433
 20
286.7676644428128
 30
0.0
 10
567.8197618302411
 20
287.953594318037
 30
0.0
 10
564.7042511152653
 20
289.7523352679915
 30
0.0
 10
563.6581462440573
 20
290.356304196984
 30
0.0
 10
561.5871647143008
 20
291.5519859406756
 30
0.0
 10
560.5583475645135
 20
292.1459737990523
 30
0.0
 10
557.4896401283039
 20
293.9176928634121
 30
0.0
 10
555.4674446729152
 20
295.0852079539348
 30
0.0
 10
553.4618501208512
 20
296.2431385084542
 30
0.0
  0
INSERT
  5
110
330
1F
100
AcDbEntity
  8
0
  6
Continuous
 62
     7
370
    18
100
AcDbBlockReference
  2
SW_CENTERMARKSYMBOL_0
 10
552.9618501209
 20
267.0869499144
 30
0.0
  0
LINE
  5
111
330
1F
100
AcDbEntity
  8
0
  6
Continuous
 62
     7
370
    25
100
AcDbLine
 10
421.914000376
 20
335.2652376095
 30
0.0
 11
422.2026755106
 21
335.7652376095
 31
0.0
  0
LINE
  5
112
330
1F
100
AcDbEntity
  8
0
  6
Continuous
 62
     7
370
    25
100
AcDbLine
 10
422.2026755106
 20
385.7652376095
 30
0.0
 11
421.914000376
 21
386.2652376095
 31
0.0
  0
LINE
  5
113
330
1F
100
AcDbEntity
  8
0
  6
Continuous
 62
     7
370
    25
100
AcDbLine
 10
408.4913506452
 20
386.2652376095
 30
0.0
 11
408.2026755106
 21
385.7652376095
 31
0.0
  0
LINE
  5
114
330
1F
100
AcDbEntity
  8
0
  6
Continuous
 62
     7
370
    25
100
AcDbLine
 10
408.2026755106
 20
335.7652376095
 30
0.0
 11
408.4913506452
 21
335.2652376095
 31
0.0
  0
LINE
  5
115
330
1F
100
AcDbEntity
  8
0
  6
Continuous
 62
     7
370
    25
100
AcDbLine
 10
408.2026755106
 20
385.0511126095
 30
0.0
 11
385.2052561558
 21
384.3324432547
 31
0.0
  0
LINE
  5
116
330
1F
100
AcDbEntity
  8
0
  6
Continuous
 62
     7
370
    25
100
AcDbLine
 10
385.2052561558
 20
337.1980319643
 30
0.0
 11
408.2026755106
 21
336.4793626095
 31
0.0
  0
LINE
  5
117
330
1F
100
AcDbEntity
  8
0
  6
Continuous
 62
     7
370
    25
100
AcDbLine
 10
385.2052561558
 20
384.3324432547
 30
0.0
 11
383.2026755106
 21
382.3298626095
 31
0.0
  0
LINE
  5
118
330
1F
100
AcDbEntity
  8
0
  6
Continuous
 62
     7
370
    25
100
AcDbLine
 10
383.2026755106
 20
339.2006126095
 30
0.0
 11
385.2052561558
 21
337.1980319643
 31
0.0
  0
LINE
  5
119
330
1F
100
AcDbEntity
  8
0
  6
Continuous
 62
     7
370
    25
100
AcDbLine
 10
431.2026755106
 20
340.7652376095
 30
0.0
 11
441.2026755106
 21
342.7652376095
 31
0.0
  0
LINE
  5
11A
330
1F
100
AcDbEntity
  8
0
  6
Continuous
 62
     7
370
    25
100
AcDbLine
 10
441.2026755106
 20
378.7652376095
 30
0.0
 11
431.2026755106
 21
380.7652376095
 31
0.0
  0
LINE
  5
11B
330
1F
100
AcDbEntity
  8
0
  6
Continuous
 62
     7
370
    25
100
AcDbLine
 10
422.2026755106
 20
340.7652376095
 30
0.0
 11
431.2026755106
 21
340.7652376095
 31
0.0
  0
LINE
  5
11C
330
1F
100
AcDbEntity
  8
0
  6
Continuous
 62
     7
370
    25
100
AcDbLine
 10
431.2026755106
 20
380.7652376095
 30
0.0
 11
422.2026755106
 21
380.7652376095
 31
0.0
  0
ARC
  5
11D
330
1F
100
AcDbEntity
  8
0
  6
Continuous
 62
     7
370
    25
100
AcDbCircle
 10
471.7026755106
 20
380.1750073986
 30
0.0
 40
0.5000000000000568
100
AcDbArc
 50
80.537677792
 51
180.0
  0
ARC
  5
11E
330
1F
100
AcDbEntity
  8
0
  6
Continuous
 62
     7
370
    25
100
AcDbCircle
 10
471.7026755106
 20
341.3554678203
 30
0.0
 40
0.5000000000000568
100
AcDbArc
 50
180.0
 51
279.462322208
  0
LINE
  5
11F
330
1F
100
AcDbEntity
  8
0
  6
Continuous
 62
     7
370
    25
100
AcDbLine
 10
471.7848750043
 20
340.8622708584
 30
0.0
 11
481.9492739916
 21
342.5563373563
 31
0.0
  0
LINE
  5
120
330
1F
100
AcDbEntity
  8
0
  6
Continuous
 62
     7
370
    25
100
AcDbLine
 10
481.9492739916
 20
378.9741378627
 30
0.0
 11
471.7848750043
 21
380.6682043605
 31
0.0
  0
ARC
  5
121
330
1F
100
AcDbEntity
  8
0
  6
Continuous
 62
     7
370
    25
100
AcDbCircle
 10
461.7026755106
 20
380.1553356581
 30
0.0
 40
0.5000000000000008
100
AcDbArc
 50
78.690067526
 51
180.0
  0
ARC
  5
122
330
1F
100
AcDbEntity
  8
0
  6
Continuous
 62
     7
370
    25
100
AcDbCircle
 10
461.7026755106
 20
341.3751395608
 30
0.0
 40
0.5
100
AcDbArc
 50
180.0
 51
281.309932474
  0
ARC
  5
123
330
1F
100
AcDbEntity
  8
0
  6
Continuous
 62
     7
370
    25
100
AcDbCircle
 10
451.7026755106
 20
380.1553356581
 30
0.0
 40
0.5000000000000568
100
AcDbArc
 50
78.690067526
 51
180.0
  0
ARC
  5
124
330
1F
100
AcDbEntity
  8
0
  6
Continuous
 62
     7
370
    25
100
AcDbCircle
 10
451.7026755106
 20
341.3751395608
 30
0.0
 40
0.5000000000000568
100
AcDbArc
 50
180.0
 51
281.309932474
  0
ARC
  5
125
330
1F
100
AcDbEntity
  8
0
  6
Continuous
 62
     7
370
    25
100
AcDbCircle
 10
441.7026755106
 20
380.1553356581
 30
0.0
 40
0.500000000000012
100
AcDbArc
 50
78.690067526
 51
180.0
  0
ARC
  5
126
330
1F
100
AcDbEntity
  8
0
  6
Continuous
 62
     7
370
    25
100
AcDbCircle
 10
441.7026755106
 20
341.3751395608
 30
0.0
 40
0.5
100
AcDbArc
 50
180.0
 51
281.309932474
  0
LINE
  5
127
330
1F
100
AcDbEntity
  8
0
  6
Continuous
 62
     7
370
    25
100
AcDbLine
 10
461.8007335782
 20
340.884849223
 30
0.0
 11
471.2026755106
 21
342.7652376095
 31
0.0
  0
LINE
  5
128
330
1F
100
AcDbEntity
  8
0
  6
Continuous
 62
     7
370
    25
100
AcDbLine
 10
471.2026755106
 20
378.7652376095
 30
0.0
 11
461.8007335782
 21
380.645625996
 31
0.0
  0
LINE
  5
129
330
1F
100
AcDbEntity
  8
0
  6
Continuous
 62
     7
370
    25
100
AcDbLine
 10
451.8007335782
 20
340.884849223
 30
0.0
 11
461.2026755106
 21
342.7652376095
 31
0.0
  0
LINE
  5
12A
330
1F
100
AcDbEntity
  8
0
  6
Continuous
 62
     7
370
    25
100
AcDbLine
 10
461.2026755106
 20
378.7652376095
 30
0.0
 11
451.8007335782
 21
380.645625996
 31
0.0
  0
LINE
  5
12B
330
1F
100
AcDbEntity
  8
0
  6
Continuous
 62
     7
370
    25
100
AcDbLine
 10
441.8007335782
 20
340.884849223
 30
0.0
 11
451.2026755106
 21
342.7652376095
 31
0.0
  0
LINE
  5
12C
330
1F
100
AcDbEntity
  8
0
  6
Continuous
 62
     7
370
    25
100
AcDbLine
 10
451.2026755106
 20
378.7652376095
 30
0.0
 11
441.8007335782
 21
380.645625996
 31
0.0
  0
ARC
  5
12D
330
1F
100
AcDbEntity
  8
0
  6
Continuous
 62
     7
370
    25
100
AcDbCircle
 10
481.7026755106
 20
377.4945469769
 30
0.0
 40
1.5
100
AcDbArc
 50
0.0
 51
80.537677792
  0
ARC
  5
12E
330
1F
100
AcDbEntity
  8
0
  6
Continuous
 62
     7
370
    25
100
AcDbCircle
 10
481.7026755106
 20
344.0359282421
 30
0.0
 40
1.500000000000016
100
AcDbArc
 50
279.462322208
 51
0.0
  0
LINE
  5
12F
330
1F
100
AcDbEntity
  8
0
  6
Continuous
 62
     7
370
    25
100
AcDbLine
 10
413.9204453959
 20
335.2652376095
 30
0.0
 11
413.9204453959
 21
335.2277376095
 31
0.0
  0
LINE
  5
130
330
1F
100
AcDbEntity
  8
0
  6
Continuous
 62
     7
370
    25
100
AcDbLine
 10
422.2026755106
 20
385.7652376095
 30
0.0
 11
422.2026755106
 21
335.7652376095
 31
0.0
  0
SPLINE
  5
131
330
1F
100
AcDbEntity
  8
0
  6
Continuous
 62
     7
370
    25
100
AcDbSpline
210
0.0
220
0.0
230
1.0
 70
     8
 71
     3
 72
    10
 73
     6
 74
     0
 42
0.000000001
 43
0.00000001
 40
0.0
 40
0.0
 40
0.0
 40
0.0
 40
0.5
 40
0.5
 40
1.0
 40
1.0
 40
1.0
 40
1.0
 10
419.8006238414659
 20
385.7652376094891
 30
0.0
 10
419.7525543467403
 20
385.9138824916785
 30
0.0
 10
419.7258379405095
 20
386.0425434546974
 30
0.0
 10
419.7256597931692
 20
386.2190755991259
 30
0.0
 10
419.752535168445
 20
386.2652376094891
 30
0.0
 10
419.8006238414659
 20
386.2652376094891
 30
0.0
  0
SPLINE
  5
132
330
1F
100
AcDbEntity
  8
0
  6
Continuous
 62
     7
370
    25
100
AcDbSpline
210
0.0
220
0.0
230
1.0
 70
    24
 71
     3
 72
    11
 73
     7
 74
     0
 42
0.000000001
 43
0.00000001
 40
0.0
 40
0.0
 40
0.0
 40
0.0
 40
0.2236752898291355
 40
0.4887975982398141
 40
0.7554660104158052
 40
1.0
 40
1.0
 40
1.0
 40
1.0
 10
421.8952262811592
 20
386.2652376094891
 30
0.0
 10
421.8803368545128
 20
386.2652376094891
 30
0.0
 10
421.847798991303
 20
386.2652376094891
 30
0.0
 10
421.4101228558615
 20
386.2652376094891
 30
0.0
 10
420.728666862584
 20
386.2652376094891
 30
0.0
 10
420.100911170565
 20
386.2652376094891
 30
0.0
 10
419.8006238414659
 20
386.2652376094891
 30
0.0
  0
SPLINE
  5
133
330
1F
100
AcDbEntity
  8
0
  6
Continuous
 62
     7
370
    25
100
AcDbSpline
210
0.0
220
0.0
230
1.0
 70
    24
 71
     3
 72
    11
 73
     7
 74
     0
 42
0.000000001
 43
0.00000001
 40
0.0
 40
0.0
 40
0.0
 40
0.0
 40
0.2445326073349827
 40
0.5031000104182819
 40
0.7629601177814179
 40
1.0
 40
1.0
 40
1.0
 40
1.0
 10
419.8006238414659
 20
335.265237609489
 30
0.0
 10
420.1009192849925
 20
335.265237609489
 30
0.0
 10
420.7187454408303
 20
335.265237609489
 30
0.0
 10
421.3925762634316
 20
335.265237609489
 30
0.0
 10
421.8399558653335
 20
335.265237609489
 30
0.0
 10
421.8798075046462
 20
335.265237609489
 30
0.0
 10
421.8988182273007
 20
335.265237609489
 30
0.0
  0
SPLINE
  5
134
330
1F
100
AcDbEntity
  8
0
  6
Continuous
 62
     7
370
    25
100
AcDbSpline
210
0.0
220
0.0
230
1.0
 70
     8
 71
     3
 72
    10
 73
     6
 74
     0
 42
0.000000001
 43
0.00000001
 40
0.0
 40
0.0
 40
0.0
 40
0.0
 40
0.5
 40
0.5
 40
1.0
 40
1.0
 40
1.0
 40
1.0
 10
419.8006238414659
 20
335.265237609489
 30
0.0
 10
419.7525540859211
 20
335.265237609489
 30
0.0
 10
419.7258379046916
 20
335.3107703698957
 30
0.0
 10
419.7256598286231
 20
335.4867488510808
 30
0.0
 10
419.7525353011952
 20
335.6165338329252
 30
0.0
 10
419.8006238414659
 20
335.765237609489
 30
0.0
  0
SPLINE
  5
135
330
1F
100
AcDbEntity
  8
0
  6
Continuous
 62
     7
370
    25
100
AcDbSpline
210
0.0
220
0.0
230
1.0
 70
     8
 71
     3
 72
    16
 73
    12
 74
     0
 42
0.000000001
 43
0.00000001
 40
0.0
 40
0.0
 40
0.0
 40
0.0
 40
0.2499999999999999
 40
0.2499999999999999
 40
0.4999999999999998
 40
0.4999999999999998
 40
0.6249999999999998
 40
0.6249999999999998
 40
0.7499999999999999
 40
0.7499999999999999
 40
1.0
 40
1.0
 40
1.0
 40
1.0
 10
419.8006238414661
 20
360.265237609489
 30
0.0
 10
420.4481629835539
 20
358.2628579290237
 30
0.0
 10
420.9788393929673
 20
356.246969651191
 30
0.0
 10
421.7118613965894
 20
352.1772401169811
 30
0.0
 10
421.9120482079789
 20
350.123149318879
 30
0.0
 10
421.9149548356444
 20
347.0076386039031
 30
0.0
 10
421.8662891201581
 20
345.9615337326952
 30
0.0
 10
421.6750171614199
 20
343.8905522029387
 30
0.0
 10
421.5327069079199
 20
342.8617350531513
 30
0.0
 10
420.9816771511798
 20
339.7930276169417
 30
0.0
 10
420.4492026241461
 20
337.7708321615531
 30
0.0
 10
419.800623841466
 20
335.765237609489
 30
0.0
  0
SPLINE
  5
136
330
1F
100
AcDbEntity
  8
0
  6
Continuous
 62
     7
370
    25
100
AcDbSpline
210
0.0
220
0.0
230
1.0
 70
     8
 71
     3
 72
    10
 73
     6
 74
     0
 42
0.000000001
 43
0.00000001
 40
0.0
 40
0.0
 40
0.0
 40
0.0
 40
0.5
 40
0.5
 40
1.0
 40
1.0
 40
1.0
 40
1.0
 10
419.8006238414659
 20
360.265237609489
 30
0.0
 10
419.7525543377545
 20
360.4138825194653
 30
0.0
 10
419.7258379305159
 20
360.588075935681
 30
0.0
 10
419.7256598030604
 20
360.9405869630838
 30
0.0
 10
419.7525352881782
 20
361.1165337926727
 30
0.0
 10
419.8006238414659
 20
361.265237609489
 30
0.0
  0
SPLINE
  5
137
330
1F
100
AcDbEntity
  8
0
  6
Continuous
 62
     7
370
    25
100
AcDbSpline
210
0.0
220
0.0
230
1.0
 70
     8
 71
     3
 72
    16
 73
    12
 74
     0
 42
0.000000001
 43
0.00000001
 40
0.0
 40
0.0
 40
0.0
 40
0.0
 40
0.25
 40
0.25
 40
0.5
 40
0.5
 40
0.625
 40
0.625
 40
0.75
 40
0.75
 40
1.0
 40
1.0
 40
1.0
 40
1.0
 10
419.8006238414661
 20
385.7652376094891
 30
0.0
 10
420.4481629835539
 20
383.7628579290236
 30
0.0
 10
420.9788393929673
 20
381.746969651191
 30
0.0
 10
421.7118613965894
 20
377.6772401169812
 30
0.0
 10
421.9120482079789
 20
375.6231493188789
 30
0.0
 10
421.9149548356444
 20
372.5076386039031
 30
0.0
 10
421.8662891201581
 20
371.4615337326952
 30
0.0
 10
421.6750171614199
 20
369.3905522029387
 30
0.0
 10
421.5327069079199
 20
368.3617350531513
 30
0.0
 10
420.9816771511798
 20
365.2930276169417
 30
0.0
 10
420.4492026241461
 20
363.2708321615531
 30
0.0
 10
419.800623841466
 20
361.265237609489
 30
0.0
  0
LINE
  5
138
330
1F
100
AcDbEntity
  8
0
  6
Continuous
 62
     7
370
    25
100
AcDbLine
 10
408.2026755106
 20
335.7652376095
 30
0.0
 11
408.2026755106
 21
385.7652376095
 31
0.0
  0
SPLINE
  5
139
330
1F
100
AcDbEntity
  8
0
  6
Continuous
 62
     7
370
    25
100
AcDbSpline
210
0.0
220
0.0
230
1.0
 70
     8
 71
     3
 72
    10
 73
     6
 74
     0
 42
0.000000001
 43
0.00000001
 40
0.0
 40
0.0
 40
0.0
 40
0.0
 40
0.5
 40
0.5
 40
1.0
 40
1.0
 40
1.0
 40
1.0
 10
410.604727179783
 20
386.2652376094891
 30
0.0
 10
410.6527969353277
 20
386.2652376094891
 30
0.0
 10
410.6795131165574
 20
386.2197048490823
 30
0.0
 10
410.6796911926258
 20
386.0437263678972
 30
0.0
 10
410.6528157200538
 20
385.9139413860528
 30
0.0
 10
410.604727179783
 20
385.7652376094891
 30
0.0
  0
SPLINE
  5
13A
330
1F
100
AcDbEntity
  8
0
  6
Continuous
 62
     7
370
    25
100
AcDbSpline
210
0.0
220
0.0
230
1.0
 70
     8
 71
     3
 72
    16
 73
    12
 74
     0
 42
0.000000001
 43
0.00000001
 40
0.0
 40
0.0
 40
0.0
 40
0.0
 40
0.2499999999999998
 40
0.2499999999999998
 40
0.4999999999999996
 40
0.4999999999999996
 40
0.6249999999999996
 40
0.6249999999999996
 40
0.7499999999999996
 40
0.7499999999999996
 40
1.0
 40
1.0
 40
1.0
 40
1.0
 10
410.6047271797829
 20
361.265237609489
 30
0.0
 10
409.957188037695
 20
363.2676172899544
 30
0.0
 10
409.4265116282816
 20
365.2835055677871
 30
0.0
 10
408.6934896246594
 20
369.3532351019969
 30
0.0
 10
408.49330281327
 20
371.4073259000991
 30
0.0
 10
408.4903961856045
 20
374.5228366150749
 30
0.0
 10
408.5390619010909
 20
375.5689414862829
 30
0.0
 10
408.730333859829
 20
377.6399230160394
 30
0.0
 10
408.872644113329
 20
378.6687401658268
 30
0.0
 10
409.4236738700691
 20
381.7374476020363
 30
0.0
 10
409.9561483971029
 20
383.759643057425
 30
0.0
 10
410.604727179783
 20
385.7652376094891
 30
0.0
  0
SPLINE
  5
13B
330
1F
100
AcDbEntity
  8
0
  6
Continuous
 62
     7
370
    25
100
AcDbSpline
210
0.0
220
0.0
230
1.0
 70
     8
 71
     3
 72
    10
 73
     6
 74
     0
 42
0.000000001
 43
0.00000001
 40
0.0
 40
0.0
 40
0.0
 40
0.0
 40
0.5
 40
0.5
 40
1.0
 40
1.0
 40
1.0
 40
1.0
 10
410.604727179783
 20
361.265237609489
 30
0.0
 10
410.6527966834944
 20
361.1165926995128
 30
0.0
 10
410.6795130907331
 20
360.9423992832971
 30
0.0
 10
410.6796912181885
 20
360.5898882558943
 30
0.0
 10
410.6528157330708
 20
360.4139414263053
 30
0.0
 10
410.604727179783
 20
360.265237609489
 30
0.0
  0
SPLINE
  5
13C
330
1F
100
AcDbEntity
  8
0
  6
Continuous
 62
     7
370
    25
100
AcDbSpline
210
0.0
220
0.0
230
1.0
 70
     8
 71
     3
 72
    16
 73
    12
 74
     0
 42
0.000000001
 43
0.00000001
 40
0.0
 40
0.0
 40
0.0
 40
0.0
 40
0.2500000000000001
 40
0.2500000000000001
 40
0.5000000000000001
 40
0.5000000000000001
 40
0.6250000000000001
 40
0.6250000000000001
 40
0.7500000000000002
 40
0.7500000000000002
 40
1.0
 40
1.0
 40
1.0
 40
1.0
 10
410.6047271797829
 20
335.765237609489
 30
0.0
 10
409.957188037695
 20
337.7676172899544
 30
0.0
 10
409.4265116282816
 20
339.7835055677871
 30
0.0
 10
408.6934896246594
 20
343.8532351019969
 30
0.0
 10
408.49330281327
 20
345.9073259000991
 30
0.0
 10
408.4903961856045
 20
349.0228366150749
 30
0.0
 10
408.5390619010909
 20
350.0689414862829
 30
0.0
 10
408.730333859829
 20
352.1399230160393
 30
0.0
 10
408.872644113329
 20
353.1687401658268
 30
0.0
 10
409.4236738700691
 20
356.2374476020363
 30
0.0
 10
409.9561483971029
 20
358.259643057425
 30
0.0
 10
410.6047271797829
 20
360.265237609489
 30
0.0
  0
SPLINE
  5
13D
330
1F
100
AcDbEntity
  8
0
  6
Continuous
 62
     7
370
    25
100
AcDbSpline
210
0.0
220
0.0
230
1.0
 70
     8
 71
     3
 72
    10
 73
     6
 74
     0
 42
0.000000001
 43
0.00000001
 40
0.0
 40
0.0
 40
0.0
 40
0.0
 40
0.5
 40
0.5
 40
1.0
 40
1.0
 40
1.0
 40
1.0
 10
410.604727179783
 20
335.765237609489
 30
0.0
 10
410.6527966745086
 20
335.6165927272995
 30
0.0
 10
410.6795130807395
 20
335.4879317642807
 30
0.0
 10
410.6796912280797
 20
335.3113996198522
 30
0.0
 10
410.652815852804
 20
335.265237609489
 30
0.0
 10
410.604727179783
 20
335.265237609489
 30
0.0
  0
SPLINE
  5
13E
330
1F
100
AcDbEntity
  8
0
  6
Continuous
 62
     7
370
    25
100
AcDbSpline
210
0.0
220
0.0
230
1.0
 70
    24
 71
     3
 72
    11
 73
     7
 74
     0
 42
0.000000001
 43
0.00000001
 40
0.0
 40
0.0
 40
0.0
 40
0.0
 40
0.2253236637813539
 40
0.4905401895529797
 40
0.7573017791528239
 40
1.0
 40
1.0
 40
1.0
 40
1.0
 10
408.5094476505172
 20
335.265237609489
 30
0.0
 10
408.524940665224
 20
335.265237609489
 30
0.0
 10
408.5586696852634
 20
335.265237609489
 30
0.0
 10
408.9989545607771
 20
335.265237609489
 30
0.0
 10
409.6807703287895
 20
335.265237609489
 30
0.0
 10
410.3065947733659
 20
335.265237609489
 30
0.0
 10
410.604727179783
 20
335.265237609489
 30
0.0
  0
SPLINE
  5
13F
330
1F
100
AcDbEntity
  8
0
  6
Continuous
 62
     7
370
    25
100
AcDbSpline
210
0.0
220
0.0
230
1.0
 70
    24
 71
     3
 72
    11
 73
     7
 74
     0
 42
0.000000001
 43
0.00000001
 40
0.0
 40
0.0
 40
0.0
 40
0.0
 40
0.2426968773797263
 40
0.5013572675022689
 40
0.761309084309062
 40
1.0
 40
1.0
 40
1.0
 40
1.0
 10
410.604727179783
 20
386.2652376094891
 30
0.0
 10
410.3065866144933
 20
386.2652376094891
 30
0.0
 10
409.690695133898
 20
386.2652376094891
 30
0.0
 10
409.0165580617392
 20
386.2652376094891
 30
0.0
 10
408.5665386518264
 20
386.2652376094891
 30
0.0
 10
408.5254447182497
 20
386.2652376094891
 30
0.0
 10
408.5057738236482
 20
386.2652376094891
 30
0.0
  0
LINE
  5
140
330
1F
100
AcDbEntity
  8
0
  6
Continuous
 62
     7
370
    25
100
AcDbLine
 10
410.6047271798
 20
361.2652376095
 30
0.0
 11
419.8006238415
 21
361.2652376095
 31
0.0
  0
LINE
  5
141
330
1F
100
AcDbEntity
  8
0
  6
Continuous
 62
     7
370
    25
100
AcDbLine
 10
419.8006238415
 20
360.2652376095
 30
0.0
 11
410.6047271798
 21
360.2652376095
 31
0.0
  0
LINE
  5
142
330
1F
100
AcDbEntity
  8
0
  6
Continuous
 62
     7
370
    25
100
AcDbLine
 10
419.8006238415
 20
385.7652376095
 30
0.0
 11
410.6047271798
 21
385.7652376095
 31
0.0
  0
LINE
  5
143
330
1F
100
AcDbEntity
  8
0
  6
Continuous
 62
     7
370
    25
100
AcDbLine
 10
410.6047271798
 20
335.7652376095
 30
0.0
 11
419.8006238415
 21
335.7652376095
 31
0.0
  0
LINE
  5
144
330
1F
100
AcDbEntity
  8
0
  6
Continuous
 62
     7
370
    25
100
AcDbLine
 10
385.2052561558
 20
384.3324432547
 30
0.0
 11
385.2052561558
 21
337.1980319643
 31
0.0
  0
LINE
  5
145
330
1F
100
AcDbEntity
  8
0
  6
Continuous
 62
     7
370
    25
100
AcDbLine
 10
383.2026755106
 20
339.2006126095
 30
0.0
 11
383.2026755106
 21
382.3298626095
 31
0.0
  0
LINE
  5
146
330
1F
100
AcDbEntity
  8
0
  6
Continuous
 62
     7
370
    25
100
AcDbLine
 10
431.2026755106
 20
340.7652376095
 30
0.0
 11
431.2026755106
 21
380.7652376095
 31
0.0
  0
LINE
  5
147
330
1F
100
AcDbEntity
  8
0
  6
Continuous
 62
     7
370
    25
100
AcDbLine
 10
471.2026755106
 20
341.3554678203
 30
0.0
 11
471.2026755106
 21
380.1750073986
 31
0.0
  0
LINE
  5
148
330
1F
100
AcDbEntity
  8
0
  6
Continuous
 62
     7
370
    25
100
AcDbLine
 10
461.2026755106
 20
341.3751395608
 30
0.0
 11
461.2026755106
 21
380.1553356581
 31
0.0
  0
LINE
  5
149
330
1F
100
AcDbEntity
  8
0
  6
Continuous
 62
     7
370
    25
100
AcDbLine
 10
451.2026755106
 20
341.3751395608
 30
0.0
 11
451.2026755106
 21
380.1553356581
 31
0.0
  0
LINE
  5
14A
330
1F
100
AcDbEntity
  8
0
  6
Continuous
 62
     7
370
    25
100
AcDbLine
 10
441.2026755106
 20
341.3751395608
 30
0.0
 11
441.2026755106
 21
380.1553356581
 31
0.0
  0
LINE
  5
14B
330
1F
100
AcDbEntity
  8
0
  6
Continuous
 62
     7
370
    25
100
AcDbLine
 10
483.2026755106
 20
377.4945469728
 30
0.0
 11
483.2026755106
 21
344.0359282421
 31
0.0
  0
LINE
  5
14C
330
1F
100
AcDbEntity
  8
0
  6
Continuous
 62
     7
370
    25
100
AcDbLine
 10
410.6047271798
 20
386.2652376095
 30
0.0
 11
419.8006238415
 21
386.2652376095
 31
0.0
  0
LINE
  5
14D
330
1F
100
AcDbEntity
  8
0
  6
Continuous
 62
     7
370
    25
100
AcDbLine
 10
419.8006238415
 20
335.2652376095
 30
0.0
 11
410.6047271798
 21
335.2652376095
 31
0.0
  0
LINE
  5
14E
330
1F
100
AcDbEntity
  8
0
  6
Continuous
 62
     8
370
    25
100
AcDbLine
 10
471.7848750043
 20
380.6682043605
 30
0.0
 11
471.7848750043
 21
340.8622708584
 31
0.0
  0
LINE
  5
14F
330
1F
100
AcDbEntity
  8
0
  6
Continuous
 62
     8
370
    25
100
AcDbLine
 10
481.9492739916
 20
342.5563373563
 30
0.0
 11
481.9492739916
 21
378.9741378627
 31
0.0
  0
LINE
  5
150
330
1F
100
AcDbEntity
  8
0
  6
Continuous
 62
     8
370
    25
100
AcDbLine
 10
461.8007335782
 20
380.645625996
 30
0.0
 11
461.8007335782
 21
340.884849223
 31
0.0
  0
LINE
  5
151
330
1F
100
AcDbEntity
  8
0
  6
Continuous
 62
     8
370
    25
100
AcDbLine
 10
451.8007335782
 20
380.645625996
 30
0.0
 11
451.8007335782
 21
340.884849223
 31
0.0
  0
LINE
  5
152
330
1F
100
AcDbEntity
  8
0
  6
Continuous
 62
     8
370
    25
100
AcDbLine
 10
441.8007335782
 20
380.645625996
 30
0.0
 11
441.8007335782
 21
340.884849223
 31
0.0
  0
LINE
  5
153
330
1F
100
AcDbEntity
  8
0
  6
Continuous
 62
     7
370
    18
100
AcDbLine
 10
383.9984007968
 20
383.1255878956
 30
0.0
 11
407.2026755106
 21
383.8507214805
 31
0.0
  0
LINE
  5
154
330
1F
100
AcDbEntity
  8
0
  6
Continuous
 62
     7
370
    18
100
AcDbLine
 10
383.9984007968
 20
338.4048873233
 30
0.0
 11
407.2026755106
 21
337.6797537385
 31
0.0
  0
LINE
  5
155
330
1F
100
AcDbEntity
  8
0
  6
Continuous
 62
     7
370
    18
100
AcDbLine
 10
407.2026755106
 20
336.5106126095
 30
0.0
 11
407.2026755106
 21
385.0198626095
 31
0.0
  0
LINE
  5
156
330
1F
100
AcDbEntity
  8
0
  6
CENTERX2
 62
     7
370
    18
100
AcDbLine
 10
412.2026755106
 20
360.7652376095
 30
0.0
 11
381.2052561558
 21
360.7652376095
 31
0.0
  0
LINE
  5
157
330
1F
100
AcDbEntity
  8
0
  6
CENTERX2
 62
     7
370
    18
100
AcDbLine
 10
418.2026755106
 20
360.7652376095
 30
0.0
 11
485.9492739916
 21
360.7652376095
 31
0.0
  0
LINE
  5
158
330
1F
100
AcDbEntity
  8
0
  6
CENTERX2
 62
     7
370
    18
100
AcDbLine
 10
423.8006238415
 20
360.7652376095
 30
0.0
 11
406.6047271798
 21
360.7652376095
 31
0.0
  0
ENDSEC
  0
SECTION
  2
OBJECTS
  0
DICTIONARY
  5
C
330
0
100
AcDbDictionary
281
     1
  3
ACAD_GROUP
350
D
  3
ACAD_LAYOUT
350
1A
  3
ACAD_MLINESTYLE
350
17
  3
ACAD_PLOTSETTINGS
350
19
  3
ACAD_PLOTSTYLENAME
350
E
  3
ACAD_SCALELIST
350
47
  0
DICTIONARY
  5
D
102
{ACAD_REACTORS
330
C
102
}
330
C
100
AcDbDictionary
281
     1
  0
DICTIONARY
  5
1A
102
{ACAD_REACTORS
330
C
102
}
330
C
100
AcDbDictionary
281
     1
  3
Layout1
350
1E
  3
Layout2
350
26
  3
Model
350
22
  0
DICTIONARY
  5
17
102
{ACAD_REACTORS
330
C
102
}
330
C
100
AcDbDictionary
281
     1
  3
Standard
350
18
  0
DICTIONARY
  5
19
102
{ACAD_REACTORS
330
C
102
}
330
C
100
AcDbDictionary
281
     1
  0
ACDBDICTIONARYWDFLT
  5
E
102
{ACAD_REACTORS
330
C
102
}
330
C
100
AcDbDictionary
281
     1
  3
Normal
350
F
100
AcDbDictionaryWithDefault
340
F
  0
DICTIONARY
  5
47
102
{ACAD_REACTORS
330
C
102
}
330
C
100
AcDbDictionary
281
     1
  3
A0
350
48
  3
A1
350
49
  3
A2
350
4A
  3
A3
350
4B
  3
A4
350
4C
  3
A5
350
4D
  3
A6
350
4E
  3
A7
350
4F
  3
A8
350
50
  3
A9
350
51
  3
B0
350
52
  3
B1
350
53
  3
B2
350
54
  3
B3
350
55
  3
B4
350
56
  3
B5
350
57
  3
B6
350
58
  3
B7
350
59
  3
B8
350
5A
  3
B9
350
5B
  3
C0
350
5C
  3
C1
350
5D
  3
C2
350
5E
  3
C3
350
5F
  3
C4
350
60
  3
C5
350
61
  3
C6
350
62
  3
C7
350
63
  3
C8
350
64
  3
C9
350
65
  3
D0
350
66
  3
D1
350
67
  3
D2
350
68
  0
LAYOUT
  5
1E
102
{ACAD_REACTORS
330
1A
102
}
330
1A
100
AcDbPlotSettings
  1

  2
none_device
  4

  6

 40
0.0
 41
0.0
 42
0.0
 43
0.0
 44
0.0
 45
0.0
 46
0.0
 47
0.0
 48
0.0
 49
0.0
140
0.0
141
0.0
142
1.0
143
1.0
 70
   688
 72
     1
 73
     0
 74
     5
  7

 75
    16
147
1.0
148
0.0
149
0.0
100
AcDbLayout
  1
Layout1
 70
     1
 71
     1
 10
0.0
 20
0.0
 11
420.0
 21
297.0
 12
0.0
 22
0.0
 32
0.0
 14
1.0000000000E+20
 24
1.0000000000E+20
 34
1.0000000000E+20
 15
-1.0000000000E+20
 25
-1.0000000000E+20
 35
-1.0000000000E+20
146
0.0
 13
0.0
 23
0.0
 33
0.0
 16
1.0
 26
0.0
 36
0.0
 17
0.0
 27
1.0
 37
0.0
 76
     0
330
1B
  0
LAYOUT
  5
26
102
{ACAD_REACTORS
330
1A
102
}
330
1A
100
AcDbPlotSettings
  1

  2
none_device
  4

  6

 40
0.0
 41
0.0
 42
0.0
 43
0.0
 44
0.0
 45
0.0
 46
0.0
 47
0.0
 48
0.0
 49
0.0
140
0.0
141
0.0
142
1.0
143
1.0
 70
   688
 72
     1
 73
     0
 74
     5
  7

 75
    16
147
1.0
148
0.0
149
0.0
100
AcDbLayout
  1
Layout2
 70
     1
 71
     2
 10
0.0
 20
0.0
 11
0.0
 21
0.0
 12
0.0
 22
0.0
 32
0.0
 14
0.0
 24
0.0
 34
0.0
 15
0.0
 25
0.0
 35
0.0
146
0.0
 13
0.0
 23
0.0
 33
0.0
 16
1.0
 26
0.0
 36
0.0
 17
0.0
 27
1.0
 37
0.0
 76
     0
330
23
  0
LAYOUT
  5
22
102
{ACAD_REACTORS
330
1A
102
}
330
1A
100
AcDbPlotSettings
  1

  2
none_device
  4
Letter_(8.50_x_11.00_Inches)
  6

 40
6.35
 41
6.35
 42
6.35000508
 43
6.35000508
 44
215.9
 45
279.4
 46
0.0
 47
0.0
 48
0.0
 49
0.0
140
0.0
141
0.0
142
1.0
143
1.0
 70
  1712
 72
     1
 73
     0
 74
     0
  7

 75
     0
147
1.0
148
0.0
149
0.0
100
AcDbLayout
  1
Model
 70
     1
 71
     0
 10
0.0
 20
0.0
 11
863.6
 21
558.8
 12
0.0
 22
0.0
 32
0.0
 14
0.0
 24
0.0
 34
0.0
 15
863.6
 25
558.8
 35
0.0
146
0.0
 13
0.0
 23
0.0
 33
0.0
 16
1.0
 26
0.0
 36
0.0
 17
0.0
 27
1.0
 37
0.0
 76
     0
330
1F
331
29
  0
MLINESTYLE
  5
18
102
{ACAD_REACTORS
330
17
102
}
330
17
100
AcDbMlineStyle
  2
Standard
 70
     0
  3

 62
   256
 51
90.0
 52
90.0
 71
     2
 49
0.5
 62
   256
  6
BYLAYER
 49
-0.5
 62
   256
  6
BYLAYER
  0
ACDBPLACEHOLDER
  5
F
102
{ACAD_REACTORS
330
E
102
}
330
E
  0
SCALE
  5
48
102
{ACAD_REACTORS
330
47
102
}
330
47
100
AcDbScale
 70
     0
300
1:1
140
1.0
141
1.0
290
     1
  0
SCALE
  5
49
102
{ACAD_REACTORS
330
47
102
}
330
47
100
AcDbScale
 70
     0
300
1:2
140
1.0
141
2.0
290
     0
  0
SCALE
  5
4A
102
{ACAD_REACTORS
330
47
102
}
330
47
100
AcDbScale
 70
     0
300
1:4
140
1.0
141
4.0
290
     0
  0
SCALE
  5
4B
102
{ACAD_REACTORS
330
47
102
}
330
47
100
AcDbScale
 70
     0
300
1:5
140
1.0
141
5.0
290
     0
  0
SCALE
  5
4C
102
{ACAD_REACTORS
330
47
102
}
330
47
100
AcDbScale
 70
     0
300
1:8
140
1.0
141
8.0
290
     0
  0
SCALE
  5
4D
102
{ACAD_REACTORS
330
47
102
}
330
47
100
AcDbScale
 70
     0
300
1:10
140
1.0
141
10.0
290
     0
  0
SCALE
  5
4E
102
{ACAD_REACTORS
330
47
102
}
330
47
100
AcDbScale
 70
     0
300
1:16
140
1.0
141
16.0
290
     0
  0
SCALE
  5
4F
102
{ACAD_REACTORS
330
47
102
}
330
47
100
AcDbScale
 70
     0
300
1:20
140
1.0
141
20.0
290
     0
  0
SCALE
  5
50
102
{ACAD_REACTORS
330
47
102
}
330
47
100
AcDbScale
 70
     0
300
1:30
140
1.0
141
30.0
290
     0
  0
SCALE
  5
51
102
{ACAD_REACTORS
330
47
102
}
330
47
100
AcDbScale
 70
     0
300
1:40
140
1.0
141
40.0
290
     0
  0
SCALE
  5
52
102
{ACAD_REACTORS
330
47
102
}
330
47
100
AcDbScale
 70
     0
300
1:50
140
1.0
141
50.0
290
     0
  0
SCALE
  5
53
102
{ACAD_REACTORS
330
47
102
}
330
47
100
AcDbScale
 70
     0
300
1:100
140
1.0
141
100.0
290
     0
  0
SCALE
  5
54
102
{ACAD_REACTORS
330
47
102
}
330
47
100
AcDbScale
 70
     0
300
2:1
140
2.0
141
1.0
290
     0
  0
SCALE
  5
55
102
{ACAD_REACTORS
330
47
102
}
330
47
100
AcDbScale
 70
     0
300
4:1
140
4.0
141
1.0
290
     0
  0
SCALE
  5
56
102
{ACAD_REACTORS
330
47
102
}
330
47
100
AcDbScale
 70
     0
300
8:1
140
8.0
141
1.0
290
     0
  0
SCALE
  5
57
102
{ACAD_REACTORS
330
47
102
}
330
47
100
AcDbScale
 70
     0
300
10:1
140
10.0
141
1.0
290
     0
  0
SCALE
  5
58
102
{ACAD_REACTORS
330
47
102
}
330
47
100
AcDbScale
 70
     0
300
100:1
140
100.0
141
1.0
290
     0
  0
SCALE
  5
59
102
{ACAD_REACTORS
330
47
102
}
330
47
100
AcDbScale
 70
     0
300
1/128" = 1'-0"
140
0.0078125
141
12.0
290
     0
  0
SCALE
  5
5A
102
{ACAD_REACTORS
330
47
102
}
330
47
100
AcDbScale
 70
     0
300
1/64" = 1'-0"
140
0.015625
141
12.0
290
     0
  0
SCALE
  5
5B
102
{ACAD_REACTORS
330
47
102
}
330
47
100
AcDbScale
 70
     0
300
1/32" = 1'-0"
140
0.03125
141
12.0
290
     0
  0
SCALE
  5
5C
102
{ACAD_REACTORS
330
47
102
}
330
47
100
AcDbScale
 70
     0
300
1/16" = 1'-0"
140
0.0625
141
12.0
290
     0
  0
SCALE
  5
5D
102
{ACAD_REACTORS
330
47
102
}
330
47
100
AcDbScale
 70
     0
300
3/32" = 1'-0"
140
0.09375
141
12.0
290
     0
  0
SCALE
  5
5E
102
{ACAD_REACTORS
330
47
102
}
330
47
100
AcDbScale
 70
     0
300
1/8" = 1'-0"
140
0.125
141
12.0
290
     0
  0
SCALE
  5
5F
102
{ACAD_REACTORS
330
47
102
}
330
47
100
AcDbScale
 70
     0
300
3/16" = 1'-0"
140
0.1875
141
12.0
290
     0
  0
SCALE
  5
60
102
{ACAD_REACTORS
330
47
102
}
330
47
100
AcDbScale
 70
     0
300
1/4" = 1'-0"
140
0.25
141
12.0
290
     0
  0
SCALE
  5
61
102
{ACAD_REACTORS
330
47
102
}
330
47
100
AcDbScale
 70
     0
300
3/8" = 1'-0"
140
0.375
141
12.0
290
     0
  0
SCALE
  5
62
102
{ACAD_REACTORS
330
47
102
}
330
47
100
AcDbScale
 70
     0
300
1/2" = 1'-0"
140
0.5
141
12.0
290
     0
  0
SCALE
  5
63
102
{ACAD_REACTORS
330
47
102
}
330
47
100
AcDbScale
 70
     0
300
3/4" = 1'-0"
140
0.75
141
12.0
290
     0
  0
SCALE
  5
64
102
{ACAD_REACTORS
330
47
102
}
330
47
100
AcDbScale
 70
     0
300
1" = 1'-0"
140
1.0
141
12.0
290
     0
  0
SCALE
  5
65
102
{ACAD_REACTORS
330
47
102
}
330
47
100
AcDbScale
 70
     0
300
1-1/2" = 1'-0"
140
1.5
141
12.0
290
     0
  0
SCALE
  5
66
102
{ACAD_REACTORS
330
47
102
}
330
47
100
AcDbScale
 70
     0
300
3" = 1'-0"
140
3.0
141
12.0
290
     0
  0
SCALE
  5
67
102
{ACAD_REACTORS
330
47
102
}
330
47
100
AcDbScale
 70
     0
300
6" = 1'-0"
140
6.0
141
12.0
290
     0
  0
SCALE
  5
68
102
{ACAD_REACTORS
330
47
102
}
330
47
100
AcDbScale
 70
     0
300
1'-0" = 1'-0"
140
12.0
141
12.0
290
     0
  0
ENDSEC
  0
EOF
