  0
SECTION
  2
HEADER
  9
$ACADVER
  1
AC1015
  9
$ACADMAINTVER
 70
     6
  9
$DWGCODEPAGE
  3
DOS932
  9
$INSBASE
 10
0.0
 20
0.0
 30
0.0
  9
$EXTMIN
 10
0.0
 20
0.0
 30
0.0
  9
$EXTMAX
 10
863.6
 20
558.8
 30
0.0
  9
$LIMMIN
 10
0.0
 20
0.0
  9
$LIMMAX
 10
863.6
 20
558.8
  9
$ORTHOMODE
 70
     0
  9
$REGENMODE
 70
     1
  9
$FILLMODE
 70
     1
  9
$QTEXTMODE
 70
     0
  9
$MIRRTEXT
 70
     1
  9
$LTSCALE
 40
2.0
  9
$ATTMODE
 70
     1
  9
$TEXTSIZE
 40
7.0
  9
$TRACEWID
 40
1.0
  9
$TEXTSTYLE
  7
Standard
  9
$CLAYER
  8
0
  9
$CELTYPE
  6
ByLayer
  9
$CECOLOR
 62
   256
  9
$CELTSCALE
 40
1.0
  9
$DISPSILH
 70
     0
  9
$DIMSCALE
 40
1.0
  9
$DIMASZ
 40
6.604
  9
$DIMEXO
 40
2.0
  9
$DIMDLI
 40
3.75
  9
$DIMRND
 40
0.0
  9
$DIMDLE
 40
0.0
  9
$DIMEXE
 40
2.0
  9
$DIMTP
 40
0.0
  9
$DIMTM
 40
0.0
  9
$DIMTXT
 40
7.0
  9
$DIMCEN
 40
2.5
  9
$DIMTSZ
 40
0.0
  9
$DIMTOL
 70
     0
  9
$DIMLIM
 70
     0
  9
$DIMTIH
 70
     1
  9
$DIMTOH
 70
     1
  9
$DIMSE1
 70
     0
  9
$DIMSE2
 70
     0
  9
$DIMTAD
 70
     1
  9
$DIMZIN
 70
     1
  9
$DIMBLK
  1

  9
$DIMASO
 70
     1
  9
$DIMSHO
 70
     1
  9
$DIMPOST
  1

  9
$DIMAPOST
  1

  9
$DIMALT
 70
     0
  9
$DIMALTD
 70
     3
  9
$DIMALTF
 40
0.0393700787
  9
$DIMLFAC
 40
1.0
  9
$DIMTOFL
 70
     1
  9
$DIMTVP
 40
0.0
  9
$DIMTIX
 70
     0
  9
$DIMSOXD
 70
     0
  9
$DIMSAH
 70
     0
  9
$DIMBLK1
  1

  9
$DIMBLK2
  1

  9
$DIMSTYLE
  2
ISO-25
  9
$DIMCLRD
 70
     0
  9
$DIMCLRE
 70
     0
  9
$DIMCLRT
 70
     0
  9
$DIMTFAC
 40
1.0
  9
$DIMGAP
 40
3.048
  9
$DIMJUST
 70
     0
  9
$DIMSD1
 70
     0
  9
$DIMSD2
 70
     0
  9
$DIMTOLJ
 70
     0
  9
$DIMTZIN
 70
     1
  9
$DIMALTZ
 70
     0
  9
$DIMALTTZ
 70
     0
  9
$DIMUPT
 70
     0
  9
$DIMDEC
 70
     2
  9
$DIMTDEC
 70
     2
  9
$DIMALTU
 70
     2
  9
$DIMALTTD
 70
     3
  9
$DIMTXSTY
  7
Standard
  9
$DIMAUNIT
 70
     0
  9
$DIMADEC
 70
     2
  9
$DIMALTRND
 40
0.0
  9
$DIMAZIN
 70
     0
  9
$DIMDSEP
 70
    44
  9
$DIMATFIT
 70
     3
  9
$DIMFRAC
 70
     0
  9
$DIMLDRBLK
  1

  9
$DIMLUNIT
 70
     2
  9
$DIMLWD
 70
    -2
  9
$DIMLWE
 70
    -2
  9
$DIMTMOVE
 70
     0
  9
$LUNITS
 70
     2
  9
$LUPREC
 70
     2
  9
$SKETCHINC
 40
1.0
  9
$FILLETRAD
 40
10.0
  9
$AUNITS
 70
     0
  9
$AUPREC
 70
     2
  9
$MENU
  1
.
  9
$ELEVATION
 40
0.0
  9
$PELEVATION
 40
0.0
  9
$THICKNESS
 40
0.0
  9
$LIMCHECK
 70
     0
  9
$CHAMFERA
 40
0.0
  9
$CHAMFERB
 40
0.0
  9
$CHAMFERC
 40
0.0
  9
$CHAMFERD
 40
0.0
  9
$SKPOLY
 70
     0
  9
$TDCREATE
 40
2459296.732021956
  9
$TDUCREATE
 40
2459296.357021956
  9
$TDUPDATE
 40
2459296.7320225
  9
$TDUUPDATE
 40
2459296.3570225
  9
$TDINDWG
 40
0.0000000116
  9
$TDUSRTIMER
 40
0.0000000116
  9
$USRTIMER
 70
     1
  9
$ANGBASE
 50
0.0
  9
$ANGDIR
 70
     0
  9
$PDMODE
 70
     0
  9
$PDSIZE
 40
-1.0
  9
$PLINEWID
 40
0.0
  9
$SPLFRAME
 70
     0
  9
$SPLINETYPE
 70
     6
  9
$SPLINESEGS
 70
     8
  9
$HANDSEED
  5
1BA
  9
$SURFTAB1
 70
     6
  9
$SURFTAB2
 70
     6
  9
$SURFTYPE
 70
     6
  9
$SURFU
 70
     6
  9
$SURFV
 70
     6
  9
$UCSBASE
  2

  9
$UCSNAME
  2

  9
$UCSORG
 10
0.0
 20
0.0
 30
0.0
  9
$UCSXDIR
 10
1.0
 20
0.0
 30
0.0
  9
$UCSYDIR
 10
0.0
 20
1.0
 30
0.0
  9
$UCSORTHOREF
  2

  9
$UCSORTHOVIEW
 70
     0
  9
$UCSORGTOP
 10
0.0
 20
0.0
 30
0.0
  9
$UCSORGBOTTOM
 10
0.0
 20
0.0
 30
0.0
  9
$UCSORGLEFT
 10
0.0
 20
0.0
 30
0.0
  9
$UCSORGRIGHT
 10
0.0
 20
0.0
 30
0.0
  9
$UCSORGFRONT
 10
0.0
 20
0.0
 30
0.0
  9
$UCSORGBACK
 10
0.0
 20
0.0
 30
0.0
  9
$PUCSBASE
  2

  9
$PUCSNAME
  2

  9
$PUCSORG
 10
0.0
 20
0.0
 30
0.0
  9
$PUCSXDIR
 10
1.0
 20
0.0
 30
0.0
  9
$PUCSYDIR
 10
0.0
 20
1.0
 30
0.0
  9
$PUCSORTHOREF
  2

  9
$PUCSORTHOVIEW
 70
     0
  9
$PUCSORGTOP
 10
0.0
 20
0.0
 30
0.0
  9
$PUCSORGBOTTOM
 10
0.0
 20
0.0
 30
0.0
  9
$PUCSORGLEFT
 10
0.0
 20
0.0
 30
0.0
  9
$PUCSORGRIGHT
 10
0.0
 20
0.0
 30
0.0
  9
$PUCSORGFRONT
 10
0.0
 20
0.0
 30
0.0
  9
$PUCSORGBACK
 10
0.0
 20
0.0
 30
0.0
  9
$USERI1
 70
     0
  9
$USERI2
 70
     0
  9
$USERI3
 70
     0
  9
$USERI4
 70
     0
  9
$USERI5
 70
     0
  9
$USERR1
 40
0.0
  9
$USERR2
 40
0.0
  9
$USERR3
 40
0.0
  9
$USERR4
 40
0.0
  9
$USERR5
 40
0.0
  9
$WORLDVIEW
 70
     1
  9
$SHADEDGE
 70
     3
  9
$SHADEDIF
 70
    70
  9
$TILEMODE
 70
     1
  9
$MAXACTVP
 70
    64
  9
$PINSBASE
 10
0.0
 20
0.0
 30
0.0
  9
$PLIMCHECK
 70
     0
  9
$PEXTMIN
 10
1.0000000000E+20
 20
1.0000000000E+20
 30
1.0000000000E+20
  9
$PEXTMAX
 10
-1.0000000000E+20
 20
-1.0000000000E+20
 30
-1.0000000000E+20
  9
$PLIMMIN
 10
0.0
 20
0.0
  9
$PLIMMAX
 10
420.0
 20
297.0
  9
$UNITMODE
 70
     0
  9
$VISRETAIN
 70
     1
  9
$PLINEGEN
 70
     0
  9
$PSLTSCALE
 70
     1
  9
$TREEDEPTH
 70
  3020
  9
$CMLSTYLE
  2
Standard
  9
$CMLJUST
 70
     0
  9
$CMLSCALE
 40
20.0
  9
$PROXYGRAPHICS
 70
     1
  9
$MEASUREMENT
 70
     1
  9
$CELWEIGHT
370
    -1
  9
$ENDCAPS
280
     0
  9
$JOINSTYLE
280
     0
  9
$LWDISPLAY
290
     1
  9
$INSUNITS
 70
     4
  9
$HYPERLINKBASE
  1

  9
$STYLESHEET
  1

  9
$XEDIT
290
     1
  9
$CEPSNTYPE
380
     0
  9
$PSTYLEMODE
290
     1
  9
$FINGERPRINTGUID
  2
{F583F8AD-0D19-4CB8-AD6F-4B821A80E62B}
  9
$VERSIONGUID
  2
{FAEB1C32-E019-11D5-929B-00C0DF256EC4}
  9
$EXTNAMES
290
     1
  9
$PSVPSCALE
 40
0.0
  9
$OLESTARTUP
290
     0
  0
ENDSEC
  0
SECTION
  2
CLASSES
  0
CLASS
  1
ACDBDICTIONARYWDFLT
  2
AcDbDictionaryWithDefault
  3
ObjectDBX Classes
 90
        0
280
     0
281
     0
  0
CLASS
  1
VISUALSTYLE
  2
AcDbVisualStyle
  3
ObjectDBX Classes
 90
     4095
280
     0
281
     0
  0
CLASS
  1
MATERIAL
  2
AcDbMaterial
  3
ObjectDBX Classes
 90
     1153
280
     0
281
     0
  0
CLASS
  1
SCALE
  2
AcDbScale
  3
ObjectDBX Classes
 90
     1153
280
     0
281
     0
  0
CLASS
  1
TABLESTYLE
  2
AcDbTableStyle
  3
ObjectDBX Classes
 90
     4095
280
     0
281
     0
  0
CLASS
  1
MLEADERSTYLE
  2
AcDbMLeaderStyle
  3
ACDB_MLEADERSTYLE_CLASS
 90
     4095
280
     0
281
     0
  0
CLASS
  1
SUN
  2
AcDbSun
  3
SCENEOE
 90
     1153
280
     0
281
     0
  0
CLASS
  1
ACDBPLACEHOLDER
  2
AcDbPlaceHolder
  3
ObjectDBX Classes
 90
        0
280
     0
281
     0
  0
CLASS
  1
LAYOUT
  2
AcDbLayout
  3
ObjectDBX Classes
 90
        0
280
     0
281
     0
  0
ENDSEC
  0
SECTION
  2
TABLES
  0
TABLE
  2
VPORT
  5
8
330
0
100
AcDbSymbolTable
 70
     1
  0
VPORT
  5
29
330
8
100
AcDbSymbolTableRecord
100
AcDbViewportTableRecord
  2
*Active
 70
     0
 10
0.0
 20
0.0
 11
1.0
 21
1.0
 12
431.8
 22
279.4
 13
0.0
 23
0.0
 14
10.0
 24
10.0
 15
10.0
 25
10.0
 16
0.0
 26
0.0
 36
1.0
 17
0.0
 27
0.0
 37
0.0
 40
558.8
 41
1.5454545455
 42
50.0
 43
0.0
 44
0.0
 50
0.0
 51
0.0
 71
     0
 72
  2000
 73
     1
 74
     3
 75
     0
 76
     0
 77
     0
 78
     0
281
     0
 65
     1
110
0.0
120
0.0
130
0.0
111
1.0
121
0.0
131
0.0
112
0.0
122
1.0
132
0.0
 79
     0
146
0.0
  0
ENDTAB
  0
TABLE
  2
LTYPE
  5
5
330
0
100
AcDbSymbolTable
 70
     6
  0
LTYPE
  5
14
330
5
100
AcDbSymbolTableRecord
100
AcDbLinetypeTableRecord
  2
ByBlock
 70
     0
  3

 72
    65
 73
     0
 40
0.0
  0
LTYPE
  5
15
330
5
100
AcDbSymbolTableRecord
100
AcDbLinetypeTableRecord
  2
ByLayer
 70
     0
  3

 72
    65
 73
     0
 40
0.0
  0
LTYPE
  5
16
330
5
100
AcDbSymbolTableRecord
100
AcDbLinetypeTableRecord
  2
Continuous
 70
     0
  3
Solid line
 72
    65
 73
     0
 40
0.0
  0
LTYPE
  5
6E
330
5
100
AcDbSymbolTableRecord
100
AcDbLinetypeTableRecord
  2
HIDDEN
 70
     0
  3
Hidden __ __ __ __ __ __ __ __ __ __ __ __ __ __
 72
    65
 73
     2
 40
1.905
 49
1.27
 74
     0
 49
-0.635
 74
     0
  0
LTYPE
  5
6F
330
5
100
AcDbSymbolTableRecord
100
AcDbLinetypeTableRecord
  2
PHANTOM
 70
     0
  3
Phantom ______  __  __  ______  __  __  ______
 72
    65
 73
     6
 40
12.7
 49
6.35
 74
     0
 49
-1.27
 74
     0
 49
1.27
 74
     0
 49
-1.27
 74
     0
 49
1.27
 74
     0
 49
-1.27
 74
     0
  0
LTYPE
  5
70
330
5
100
AcDbSymbolTableRecord
100
AcDbLinetypeTableRecord
  2
CENTER
 70
     0
  3
Center ____ _ ____ _ ____ _ ____ _ ____ _ ____
 72
    65
 73
     4
 40
10.16
 49
6.35
 74
     0
 49
-1.27
 74
     0
 49
1.27
 74
     0
 49
-1.27
 74
     0
  0
LTYPE
  5
71
330
5
100
AcDbSymbolTableRecord
100
AcDbLinetypeTableRecord
  2
CENTERX2
 70
     0
  3
Center (2x) ________  __  ________  __  _____
 72
    65
 73
     4
 40
20.32
 49
12.7
 74
     0
 49
-2.54
 74
     0
 49
2.54
 74
     0
 49
-2.54
 74
     0
  0
LTYPE
  5
72
330
5
100
AcDbSymbolTableRecord
100
AcDbLinetypeTableRecord
  2
DOT2
 70
     0
  3
Dot (.5x) ........................................
 72
    65
 73
     2
 40
0.635
 49
0.0
 74
     0
 49
-0.635
 74
     0
  0
ENDTAB
  0
TABLE
  2
LAYER
  5
2
330
0
100
AcDbSymbolTable
 70
     1
  0
LAYER
  5
10
330
2
100
AcDbSymbolTableRecord
100
AcDbLayerTableRecord
  2
0
 70
     0
 62
     7
  6
Continuous
370
    -3
390
F
  0
ENDTAB
  0
TABLE
  2
STYLE
  5
3
330
0
100
AcDbSymbolTable
 70
     2
  0
STYLE
  5
11
330
3
100
AcDbSymbolTableRecord
100
AcDbTextStyleTableRecord
  2
Standard
 70
     0
 40
0.0
 41
1.0
 50
0.0
 71
     0
 42
7.0
  3
txt
  4
bigfont
  0
STYLE
  5
73
330
3
100
AcDbSymbolTableRecord
100
AcDbTextStyleTableRecord
  2
SLDTEXTSTYLE0
 70
     0
 40
0.0
 41
0.7
 50
0.0
 71
     0
 42
7.0
  3
TXT
  4
bigfont
  0
ENDTAB
  0
TABLE
  2
VIEW
  5
6
330
0
100
AcDbSymbolTable
 70
     0
  0
ENDTAB
  0
TABLE
  2
UCS
  5
7
330
0
100
AcDbSymbolTable
 70
     0
  0
ENDTAB
  0
TABLE
  2
APPID
  5
9
330
0
100
AcDbSymbolTable
 70
     1
  0
APPID
  5
12
330
9
100
AcDbSymbolTableRecord
100
AcDbRegAppTableRecord
  2
ACAD
 70
     0
  0
ENDTAB
  0
TABLE
  2
DIMSTYLE
  5
A
330
0
100
AcDbSymbolTable
 70
     1
100
AcDbDimStyleTable
  0
DIMSTYLE
105
27
330
A
100
AcDbSymbolTableRecord
100
AcDbDimStyleTableRecord
  2
ISO-25
 70
     0
 41
2.5
 42
0.625
 43
3.75
 44
1.25
 73
     0
 74
     0
 77
     1
 78
     8
140
2.5
141
2.5
143
0.0393700787
147
0.625
171
     3
172
     1
178
     0
271
     2
272
     2
274
     3
278
    44
283
     0
284
     8
340
11
  0
ENDTAB
  0
TABLE
  2
BLOCK_RECORD
  5
1
330
0
100
AcDbSymbolTable
 70
     2
  0
BLOCK_RECORD
  5
1F
330
1
100
AcDbSymbolTableRecord
100
AcDbBlockTableRecord
  2
*Model_Space
340
22
  0
BLOCK_RECORD
  5
1B
330
1
100
AcDbSymbolTableRecord
100
AcDbBlockTableRecord
  2
*Paper_Space
340
1E
  0
BLOCK_RECORD
  5
23
330
1
100
AcDbSymbolTableRecord
100
AcDbBlockTableRecord
  2
*Paper_Space0
340
26
  0
BLOCK_RECORD
  5
13A
330
1
100
AcDbSymbolTableRecord
100
AcDbBlockTableRecord
  2
SW_CENTERMARKSYMBOL_0
340
0
102
{BLKREFS
331
145
102
}
  0
ENDTAB
  0
ENDSEC
  0
SECTION
  2
BLOCKS
  0
BLOCK
  5
20
330
1F
100
AcDbEntity
  8
0
100
AcDbBlockBegin
  2
*Model_Space
 70
     0
 10
0.0
 20
0.0
 30
0.0
  3
*Model_Space
  1

  0
ENDBLK
  5
21
330
1F
100
AcDbEntity
  8
0
100
AcDbBlockEnd
  0
BLOCK
  5
1C
330
1B
100
AcDbEntity
 67
     1
  8
0
100
AcDbBlockBegin
  2
*Paper_Space
 70
     0
 10
0.0
 20
0.0
 30
0.0
  3
*Paper_Space
  1

  0
ENDBLK
  5
1D
330
1B
100
AcDbEntity
 67
     1
  8
0
100
AcDbBlockEnd
  0
BLOCK
  5
24
330
23
100
AcDbEntity
  8
0
100
AcDbBlockBegin
  2
*Paper_Space0
 70
     0
 10
0.0
 20
0.0
 30
0.0
  3
*Paper_Space0
  1

  0
ENDBLK
  5
25
330
23
100
AcDbEntity
  8
0
100
AcDbBlockEnd
  0
BLOCK
  5
13B
330
13A
100
AcDbEntity
  8
0
100
AcDbBlockBegin
  2
SW_CENTERMARKSYMBOL_0
 70
     0
 10
0.0
 20
0.0
 30
0.0
  3
SW_CENTERMARKSYMBOL_0
  1

  0
LINE
  5
13D
330
13A
100
AcDbEntity
  8
0
  6
Continuous
 62
     0
370
    18
100
AcDbLine
 10
0.0
 20
0.0
 30
0.0
 11
0.0
 21
2.5
 31
0.0
  0
LINE
  5
13E
330
13A
100
AcDbEntity
  8
0
  6
Continuous
 62
     0
370
    18
100
AcDbLine
 10
0.0
 20
0.0
 30
0.0
 11
-2.5
 21
0.0
 31
0.0
  0
LINE
  5
13F
330
13A
100
AcDbEntity
  8
0
  6
Continuous
 62
     0
370
    18
100
AcDbLine
 10
0.0
 20
0.0
 30
0.0
 11
0.0
 21
-2.5
 31
0.0
  0
LINE
  5
140
330
13A
100
AcDbEntity
  8
0
  6
Continuous
 62
     0
370
    18
100
AcDbLine
 10
0.0
 20
0.0
 30
0.0
 11
2.5
 21
0.0
 31
0.0
  0
LINE
  5
141
330
13A
100
AcDbEntity
  8
0
  6
Continuous
 62
     0
370
    18
100
AcDbLine
 10
0.0
 20
5.0
 30
0.0
 11
0.0
 21
28.6864524947
 31
0.0
  0
LINE
  5
142
330
13A
100
AcDbEntity
  8
0
  6
Continuous
 62
     0
370
    18
100
AcDbLine
 10
-5.0
 20
0.0
 30
0.0
 11
-26.5633070727
 21
0.0
 31
0.0
  0
LINE
  5
143
330
13A
100
AcDbEntity
  8
0
  6
Continuous
 62
     0
370
    18
100
AcDbLine
 10
0.0
 20
-5.0
 30
0.0
 11
0.0
 21
-29.2969990507
 31
0.0
  0
LINE
  5
144
330
13A
100
AcDbEntity
  8
0
  6
Continuous
 62
     0
370
    18
100
AcDbLine
 10
5.0
 20
0.0
 30
0.0
 11
26.205805305
 21
0.0
 31
0.0
  0
ENDBLK
  5
13C
330
13A
100
AcDbEntity
  8
0
100
AcDbBlockEnd
  0
ENDSEC
  0
SECTION
  2
ENTITIES
  0
MTEXT
  5
74
330
1F
100
AcDbEntity
  8
0
  6
Continuous
 62
     7
370
     0
100
AcDbMText
 10
497.9217041986
 20
324.1074091894
 30
0.0
 40
9.525
 41
0.0
 71
     1
 72
     1
  1
HN-1034R
  7
SLDTEXTSTYLE0
 73
     1
 44
1.0
  0
LINE
  5
75
330
1F
100
AcDbEntity
  8
0
  6
Continuous
 62
     7
370
    25
100
AcDbLine
 10
411.1291617266
 20
292.8513225231
 30
0.0
 11
408.9201840462
 21
289.025260948
 31
0.0
  0
LINE
  5
76
330
1F
100
AcDbEntity
  8
0
  6
Continuous
 62
     7
370
    25
100
AcDbLine
 10
408.9201840462
 20
245.025260948
 30
0.0
 11
411.1291617266
 21
241.1991993728
 31
0.0
  0
LINE
  5
77
330
1F
100
AcDbEntity
  8
0
  6
Continuous
 62
     7
370
    25
100
AcDbLine
 10
420.7112063659
 20
241.1991993728
 30
0.0
 11
422.9201840462
 21
245.025260948
 31
0.0
  0
LINE
  5
78
330
1F
100
AcDbEntity
  8
0
  6
Continuous
 62
     7
370
    25
100
AcDbLine
 10
422.9201840462
 20
289.025260948
 30
0.0
 11
420.7112063659
 21
292.8513225231
 31
0.0
  0
LINE
  5
79
330
1F
100
AcDbEntity
  8
0
  6
Continuous
 62
     7
370
    25
100
AcDbLine
 10
408.9201840462
 20
288.333385948
 30
0.0
 11
386.9227646914
 21
287.6459665931
 31
0.0
  0
LINE
  5
7A
330
1F
100
AcDbEntity
  8
0
  6
Continuous
 62
     7
370
    25
100
AcDbLine
 10
386.9227646914
 20
246.4045553028
 30
0.0
 11
408.9201840462
 21
245.717135948
 31
0.0
  0
LINE
  5
7B
330
1F
100
AcDbEntity
  8
0
  6
Continuous
 62
     7
370
    25
100
AcDbLine
 10
386.9227646914
 20
287.6459665931
 30
0.0
 11
384.9201840462
 21
285.643385948
 31
0.0
  0
LINE
  5
7C
330
1F
100
AcDbEntity
  8
0
  6
Continuous
 62
     7
370
    25
100
AcDbLine
 10
384.9201840462
 20
248.407135948
 30
0.0
 11
386.9227646914
 21
246.4045553028
 31
0.0
  0
LINE
  5
7D
330
1F
100
AcDbEntity
  8
0
  6
Continuous
 62
     7
370
    25
100
AcDbLine
 10
431.9201840462
 20
250.025260948
 30
0.0
 11
441.4201840462
 21
252.025260948
 31
0.0
  0
LINE
  5
7E
330
1F
100
AcDbEntity
  8
0
  6
Continuous
 62
     7
370
    25
100
AcDbLine
 10
441.4201840462
 20
282.025260948
 30
0.0
 11
431.9201840462
 21
284.025260948
 31
0.0
  0
LINE
  5
7F
330
1F
100
AcDbEntity
  8
0
  6
Continuous
 62
     7
370
    25
100
AcDbLine
 10
422.9201840462
 20
250.025260948
 30
0.0
 11
431.9201840462
 21
250.025260948
 31
0.0
  0
LINE
  5
80
330
1F
100
AcDbEntity
  8
0
  6
Continuous
 62
     7
370
    25
100
AcDbLine
 10
431.9201840462
 20
284.025260948
 30
0.0
 11
422.9201840462
 21
284.025260948
 31
0.0
  0
ARC
  5
81
330
1F
100
AcDbEntity
  8
0
  6
Continuous
 62
     7
370
    25
100
AcDbCircle
 10
470.4201840462
 20
283.4261545895
 30
0.0
 40
0.5
100
AcDbArc
 50
79.6951535312
 51
180.0
  0
ARC
  5
82
330
1F
100
AcDbEntity
  8
0
  6
Continuous
 62
     7
370
    25
100
AcDbCircle
 10
470.4201840462
 20
250.6243673065
 30
0.0
 40
0.5000000000000316
100
AcDbArc
 50
180.0
 51
280.3048464688
  0
LINE
  5
83
330
1F
100
AcDbEntity
  8
0
  6
Continuous
 62
     7
370
    25
100
AcDbLine
 10
470.5096267653
 20
250.1324323514
 30
0.0
 11
479.6885122035
 21
251.8013206129
 31
0.0
  0
LINE
  5
84
330
1F
100
AcDbEntity
  8
0
  6
Continuous
 62
     7
370
    25
100
AcDbLine
 10
479.6885122035
 20
282.249201283
 30
0.0
 11
470.5096267653
 21
283.9180895445
 31
0.0
  0
ARC
  5
85
330
1F
100
AcDbEntity
  8
0
  6
Continuous
 62
     7
370
    25
100
AcDbCircle
 10
441.9201840462
 20
283.4090375838
 30
0.0
 40
0.5
100
AcDbArc
 50
78.1113419604
 51
180.0
  0
ARC
  5
86
330
1F
100
AcDbEntity
  8
0
  6
Continuous
 62
     7
370
    25
100
AcDbCircle
 10
441.9201840462
 20
250.6414843122
 30
0.0
 40
0.5000000000000205
100
AcDbArc
 50
180.0
 51
281.8886580396
  0
ARC
  5
87
330
1F
100
AcDbEntity
  8
0
  6
Continuous
 62
     7
370
    25
100
AcDbCircle
 10
451.4201840462
 20
283.4090375838
 30
0.0
 40
0.5
100
AcDbArc
 50
78.1113419604
 51
180.0
  0
ARC
  5
88
330
1F
100
AcDbEntity
  8
0
  6
Continuous
 62
     7
370
    25
100
AcDbCircle
 10
451.4201840462
 20
250.6414843122
 30
0.0
 40
0.5000000000000089
100
AcDbArc
 50
180.0
 51
281.8886580396
  0
ARC
  5
89
330
1F
100
AcDbEntity
  8
0
  6
Continuous
 62
     7
370
    25
100
AcDbCircle
 10
460.9201840462
 20
283.4090375838
 30
0.0
 40
0.5
100
AcDbArc
 50
78.1113419604
 51
180.0
  0
ARC
  5
8A
330
1F
100
AcDbEntity
  8
0
  6
Continuous
 62
     7
370
    25
100
AcDbCircle
 10
460.9201840462
 20
250.6414843122
 30
0.0
 40
0.5000000000000205
100
AcDbArc
 50
180.0
 51
281.8886580396
  0
LINE
  5
8B
330
1F
100
AcDbEntity
  8
0
  6
Continuous
 62
     7
370
    25
100
AcDbLine
 10
442.0231892868
 20
250.1522094197
 30
0.0
 11
450.9201840462
 21
252.025260948
 31
0.0
  0
LINE
  5
8C
330
1F
100
AcDbEntity
  8
0
  6
Continuous
 62
     7
370
    25
100
AcDbLine
 10
450.9201840462
 20
282.025260948
 30
0.0
 11
442.0231892868
 21
283.8983124763
 31
0.0
  0
LINE
  5
8D
330
1F
100
AcDbEntity
  8
0
  6
Continuous
 62
     7
370
    25
100
AcDbLine
 10
461.0231892868
 20
250.1522094197
 30
0.0
 11
469.9201840462
 21
252.025260948
 31
0.0
  0
LINE
  5
8E
330
1F
100
AcDbEntity
  8
0
  6
Continuous
 62
     7
370
    25
100
AcDbLine
 10
469.9201840462
 20
282.025260948
 30
0.0
 11
461.0231892868
 21
283.8983124763
 31
0.0
  0
LINE
  5
8F
330
1F
100
AcDbEntity
  8
0
  6
Continuous
 62
     7
370
    25
100
AcDbLine
 10
451.5231892868
 20
250.1522094197
 30
0.0
 11
460.4201840462
 21
252.025260948
 31
0.0
  0
LINE
  5
90
330
1F
100
AcDbEntity
  8
0
  6
Continuous
 62
     7
370
    25
100
AcDbLine
 10
460.4201840462
 20
282.025260948
 30
0.0
 11
451.5231892868
 21
283.8983124763
 31
0.0
  0
ARC
  5
91
330
1F
100
AcDbEntity
  8
0
  6
Continuous
 62
     7
370
    25
100
AcDbCircle
 10
479.4201840462
 20
253.2771254781
 30
0.0
 40
1.5
100
AcDbArc
 50
280.3048464688
 51
0.0
  0
ARC
  5
92
330
1F
100
AcDbEntity
  8
0
  6
Continuous
 62
     7
370
    25
100
AcDbCircle
 10
479.4201840462
 20
280.7733964179
 30
0.0
 40
1.500000000000026
100
AcDbArc
 50
0.0
 51
79.6951535312
  0
LINE
  5
93
330
1F
100
AcDbEntity
  8
0
  6
Continuous
 62
     7
370
    25
100
AcDbLine
 10
420.7163407176
 20
292.8513225231
 30
0.0
 11
411.1240273749
 21
292.8513225231
 31
0.0
  0
LINE
  5
94
330
1F
100
AcDbEntity
  8
0
  6
Continuous
 62
     7
370
    25
100
AcDbLine
 10
411.1240273749
 20
241.1991993728
 30
0.0
 11
420.7163407176
 21
241.1991993728
 31
0.0
  0
SPLINE
  5
95
330
1F
100
AcDbEntity
  8
0
  6
Continuous
 62
     7
370
    25
100
AcDbSpline
210
0.0
220
0.0
230
1.0
 70
     8
 71
     3
 72
    10
 73
     6
 74
     0
 42
0.000000001
 43
0.00000001
 40
0.0
 40
0.0
 40
0.0
 40
0.0
 40
0.5
 40
0.5
 40
1.0
 40
1.0
 40
1.0
 40
1.0
 10
409.6457721549716
 20
270.2391822481109
 30
0.0
 10
409.553113690645
 20
269.1695722360417
 30
0.0
 10
409.5132183191085
 20
268.0985327270603
 30
0.0
 10
409.5131571323509
 20
265.9542936167192
 30
0.0
 10
409.5531303915337
 20
264.8807568719193
 30
0.0
 10
409.6457721549701
 20
263.8113396478415
 30
0.0
  0
LINE
  5
96
330
1F
100
AcDbEntity
  8
0
  6
Continuous
 62
     7
370
    25
100
AcDbLine
 10
409.645772155
 20
263.8113396478
 30
0.0
 11
409.3095859054
 21
263.7822164148
 31
0.0
  0
SPLINE
  5
97
330
1F
100
AcDbEntity
  8
0
  6
Continuous
 62
     7
370
    25
100
AcDbSpline
210
0.0
220
0.0
230
1.0
 70
     8
 71
     3
 72
    10
 73
     6
 74
     0
 42
0.000000001
 43
0.00000001
 40
0.0
 40
0.0
 40
0.0
 40
0.0
 40
0.5
 40
0.5
 40
1.0
 40
1.0
 40
1.0
 40
1.0
 10
409.3095859054206
 20
270.2683054811208
 30
0.0
 10
409.2215618762596
 20
269.1887509186933
 30
0.0
 10
409.1747607670202
 20
268.105597480796
 30
0.0
 10
409.1748378400977
 20
265.9421874940516
 30
0.0
 10
409.2215697160353
 20
264.8616748277687
 30
0.0
 10
409.3095859054205
 20
263.7822164148322
 30
0.0
  0
LINE
  5
98
330
1F
100
AcDbEntity
  8
0
  6
Continuous
 62
     7
370
    25
100
AcDbLine
 10
409.645772155
 20
270.2391822481
 30
0.0
 11
409.3095859054
 21
270.2683054811
 31
0.0
  0
LINE
  5
99
330
1F
100
AcDbEntity
  8
0
  6
Continuous
 62
     7
370
    25
100
AcDbLine
 10
408.9201840462
 20
245.025260948
 30
0.0
 11
408.9201840462
 21
289.025260948
 31
0.0
  0
SPLINE
  5
9A
330
1F
100
AcDbEntity
  8
0
  6
Continuous
 62
     7
370
    25
100
AcDbSpline
210
0.0
220
0.0
230
1.0
 70
     8
 71
     3
 72
    10
 73
     6
 74
     0
 42
0.000000001
 43
0.00000001
 40
0.0
 40
0.0
 40
0.0
 40
0.0
 40
0.4999999999999994
 40
0.4999999999999994
 40
1.0
 40
1.0
 40
1.0
 40
1.0
 10
409.3095859054205
 20
284.8385136540817
 30
0.0
 10
409.3670044457525
 20
284.4853052769602
 30
0.0
 10
409.4467535371708
 20
284.1392393297372
 30
0.0
 10
409.6496391906787
 20
283.4647509283849
 30
0.0
 10
409.7726874135712
 20
283.1372751550693
 30
0.0
 10
409.9000149071651
 20
282.7920376730046
 30
0.0
  0
SPLINE
  5
9B
330
1F
100
AcDbEntity
  8
0
  6
Continuous
 62
     7
370
    25
100
AcDbSpline
210
0.0
220
0.0
230
1.0
 70
     8
 71
     3
 72
     8
 73
     4
 74
     0
 42
0.000000001
 43
0.00000001
 40
0.0
 40
0.0
 40
0.0
 40
0.0
 40
1.0
 40
1.0
 40
1.0
 40
1.0
 10
409.9000149071651
 20
282.7920376730046
 30
0.0
 10
409.9067310860876
 20
282.7738273349635
 30
0.0
 10
409.9134542110382
 20
282.7555589855469
 30
0.0
 10
409.9201840462424
 20
282.7372322782956
 30
0.0
  0
SPLINE
  5
9C
330
1F
100
AcDbEntity
  8
0
  6
Continuous
 62
     7
370
    25
100
AcDbSpline
210
0.0
220
0.0
230
1.0
 70
     8
 71
     3
 72
    10
 73
     6
 74
     0
 42
0.000000001
 43
0.00000001
 40
0.0
 40
0.0
 40
0.0
 40
0.0
 40
0.5
 40
0.5
 40
1.0
 40
1.0
 40
1.0
 40
1.0
 10
411.0546201802492
 20
280.3043171393377
 30
0.0
 10
410.8312421724027
 20
280.7047915979954
 30
0.0
 10
410.6228536354055
 20
281.1080471075861
 30
0.0
 10
410.2417614206885
 20
281.9211788682324
 30
0.0
 10
410.0700529791213
 20
282.3291087543715
 30
0.0
 10
409.9201840462424
 20
282.7372322782956
 30
0.0
  0
SPLINE
  5
9D
330
1F
100
AcDbEntity
  8
0
  6
Continuous
 62
     7
370
    25
100
AcDbSpline
210
0.0
220
0.0
230
1.0
 70
     8
 71
     3
 72
    10
 73
     6
 74
     0
 42
0.000000001
 43
0.00000001
 40
0.0
 40
0.0
 40
0.0
 40
0.0
 40
0.5
 40
0.5
 40
1.0
 40
1.0
 40
1.0
 40
1.0
 10
411.0546201802492
 20
280.3043171393377
 30
0.0
 10
411.1024986884789
 20
280.2184800426177
 30
0.0
 10
411.1290731219373
 20
280.0916145103248
 30
0.0
 10
411.1292498781042
 20
279.7865336270168
 30
0.0
 10
411.1025175890651
 20
279.6100336993352
 30
0.0
 10
411.0546201802492
 20
279.4382917355533
 30
0.0
  0
SPLINE
  5
9E
330
1F
100
AcDbEntity
  8
0
  6
Continuous
 62
     7
370
    25
100
AcDbSpline
210
0.0
220
0.0
230
1.0
 70
     8
 71
     3
 72
     8
 73
     4
 74
     0
 42
0.000000001
 43
0.00000001
 40
0.0
 40
0.0
 40
0.0
 40
0.0
 40
1.0
 40
1.0
 40
1.0
 40
1.0
 10
409.9201840462424
 20
274.5724614576375
 30
0.0
 10
410.2225814161638
 20
276.2194402926366
 30
0.0
 10
410.6087590454766
 20
277.8396026049093
 30
0.0
 10
411.0546201802492
 20
279.4382917355533
 30
0.0
  0
SPLINE
  5
9F
330
1F
100
AcDbEntity
  8
0
  6
Continuous
 62
     7
370
    25
100
AcDbSpline
210
0.0
220
0.0
230
1.0
 70
     8
 71
     3
 72
     8
 73
     4
 74
     0
 42
0.000000001
 43
0.00000001
 40
0.0
 40
0.0
 40
0.0
 40
0.0
 40
1.0
 40
1.0
 40
1.0
 40
1.0
 10
409.9201840462424
 20
274.5724614576375
 30
0.0
 10
409.9134542500555
 20
274.5358082556387
 30
0.0
 10
409.9067311249601
 20
274.4991538970911
 30
0.0
 10
409.9000149071651
 20
274.4624983382981
 30
0.0
  0
SPLINE
  5
A0
330
1F
100
AcDbEntity
  8
0
  6
Continuous
 62
     7
370
    25
100
AcDbSpline
210
0.0
220
0.0
230
1.0
 70
     8
 71
     3
 72
    10
 73
     6
 74
     0
 42
0.000000001
 43
0.00000001
 40
0.0
 40
0.0
 40
0.0
 40
0.0
 40
0.5
 40
0.5
 40
1.0
 40
1.0
 40
1.0
 40
1.0
 10
409.9000149071651
 20
274.4624983382981
 30
0.0
 10
409.7726802652647
 20
273.7675354000693
 30
0.0
 10
409.6496053764173
 20
273.0721249433802
 30
0.0
 10
409.4467328501995
 20
271.6741113381615
 30
0.0
 10
409.3670060679516
 20
270.9725245338786
 30
0.0
 10
409.3095859054206
 20
270.2683054811206
 30
0.0
  0
SPLINE
  5
A1
330
1F
100
AcDbEntity
  8
0
  6
Continuous
 62
     7
370
    25
100
AcDbSpline
210
0.0
220
0.0
230
1.0
 70
     8
 71
     3
 72
    10
 73
     6
 74
     0
 42
0.000000001
 43
0.00000001
 40
0.0
 40
0.0
 40
0.0
 40
0.0
 40
0.5
 40
0.5
 40
1.0
 40
1.0
 40
1.0
 40
1.0
 10
409.3095859054205
 20
263.7822164148322
 30
0.0
 10
409.3670044457525
 20
263.0780172572366
 30
0.0
 10
409.4467535371708
 20
262.3762423633635
 30
0.0
 10
409.6496391906786
 20
260.9781895807828
 30
0.0
 10
409.7726874135712
 20
260.2829474820846
 30
0.0
 10
409.9000149071651
 20
259.5880235576545
 30
0.0
  0
SPLINE
  5
A2
330
1F
100
AcDbEntity
  8
0
  6
Continuous
 62
     7
370
    25
100
AcDbSpline
210
0.0
220
0.0
230
1.0
 70
     8
 71
     3
 72
     8
 73
     4
 74
     0
 42
0.000000001
 43
0.00000001
 40
0.0
 40
0.0
 40
0.0
 40
0.0
 40
1.0
 40
1.0
 40
1.0
 40
1.0
 10
409.9000149071651
 20
259.5880235576545
 30
0.0
 10
409.9067311249601
 20
259.5513679988615
 30
0.0
 10
409.9134542500555
 20
259.5147136403139
 30
0.0
 10
409.9201840462424
 20
259.4780604383151
 30
0.0
  0
SPLINE
  5
A3
330
1F
100
AcDbEntity
  8
0
  6
Continuous
 62
     7
370
    25
100
AcDbSpline
210
0.0
220
0.0
230
1.0
 70
     8
 71
     3
 72
     8
 73
     4
 74
     0
 42
0.000000001
 43
0.00000001
 40
0.0
 40
0.0
 40
0.0
 40
0.0
 40
1.0
 40
1.0
 40
1.0
 40
1.0
 10
411.0546201802492
 20
254.6122301603993
 30
0.0
 10
410.6087639283811
 20
256.2109017827976
 30
0.0
 10
410.2224149608717
 20
257.8319881864095
 30
0.0
 10
409.9201840462424
 20
259.4780604383151
 30
0.0
  0
SPLINE
  5
A4
330
1F
100
AcDbEntity
  8
0
  6
Continuous
 62
     7
370
    25
100
AcDbSpline
210
0.0
220
0.0
230
1.0
 70
     8
 71
     3
 72
    10
 73
     6
 74
     0
 42
0.000000001
 43
0.00000001
 40
0.0
 40
0.0
 40
0.0
 40
0.0
 40
0.5
 40
0.5
 40
1.0
 40
1.0
 40
1.0
 40
1.0
 10
411.0546201802492
 20
254.6122301603993
 30
0.0
 10
411.1024989483087
 20
254.4405550353082
 30
0.0
 10
411.1290731576467
 20
254.2657118607588
 30
0.0
 10
411.1292498427567
 20
253.9603133171534
 30
0.0
 10
411.1025174576272
 20
253.8320755028626
 30
0.0
 10
411.0546201802492
 20
253.7462047566148
 30
0.0
  0
SPLINE
  5
A5
330
1F
100
AcDbEntity
  8
0
  6
Continuous
 62
     7
370
    25
100
AcDbSpline
210
0.0
220
0.0
230
1.0
 70
     8
 71
     3
 72
     8
 73
     4
 74
     0
 42
0.000000001
 43
0.00000001
 40
0.0
 40
0.0
 40
0.0
 40
0.0
 40
1.0
 40
1.0
 40
1.0
 40
1.0
 10
409.9201840462424
 20
251.3132896176569
 30
0.0
 10
410.2223733345194
 20
252.1362123866034
 30
0.0
 10
410.608260295065
 20
252.9459660262719
 30
0.0
 10
411.0546201802492
 20
253.7462047566148
 30
0.0
  0
SPLINE
  5
A6
330
1F
100
AcDbEntity
  8
0
  6
Continuous
 62
     7
370
    25
100
AcDbSpline
210
0.0
220
0.0
230
1.0
 70
     8
 71
     3
 72
     8
 73
     4
 74
     0
 42
0.000000001
 43
0.00000001
 40
0.0
 40
0.0
 40
0.0
 40
0.0
 40
1.0
 40
1.0
 40
1.0
 40
1.0
 10
409.9201840462424
 20
251.3132896176569
 30
0.0
 10
409.9134542110382
 20
251.2949629104056
 30
0.0
 10
409.9067310860876
 20
251.2766945609891
 30
0.0
 10
409.9000149071651
 20
251.2584842229479
 30
0.0
  0
SPLINE
  5
A7
330
1F
100
AcDbEntity
  8
0
  6
Continuous
 62
     7
370
    25
100
AcDbSpline
210
0.0
220
0.0
230
1.0
 70
     8
 71
     3
 72
    10
 73
     6
 74
     0
 42
0.000000001
 43
0.00000001
 40
0.0
 40
0.0
 40
0.0
 40
0.0
 40
0.5
 40
0.5
 40
1.0
 40
1.0
 40
1.0
 40
1.0
 10
409.9000149071651
 20
251.2584842229479
 30
0.0
 10
409.7726802652647
 20
250.9132273588687
 30
0.0
 10
409.6496053764172
 20
250.5856719150511
 30
0.0
 10
409.4467328501994
 20
249.9112004271245
 30
0.0
 10
409.3670060679516
 20
249.5652265978996
 30
0.0
 10
409.3095859054205
 20
249.2120082418708
 30
0.0
  0
SPLINE
  5
A8
330
1F
100
AcDbEntity
  8
0
  6
Continuous
 62
     7
370
    25
100
AcDbSpline
210
0.0
220
0.0
230
1.0
 70
     8
 71
     3
 72
    10
 73
     6
 74
     0
 42
0.000000001
 43
0.00000001
 40
0.0
 40
0.0
 40
0.0
 40
0.0
 40
0.5
 40
0.5
 40
1.0
 40
1.0
 40
1.0
 40
1.0
 10
409.3095859054205
 20
249.2120082418708
 30
0.0
 10
409.2215618762596
 20
248.6705311456598
 30
0.0
 10
409.1747607670203
 20
248.1309481606747
 30
0.0
 10
409.1748378400977
 20
247.0492418085294
 30
0.0
 10
409.2215697160353
 20
246.5069932515904
 30
0.0
 10
409.3095859054205
 20
245.9689637087273
 30
0.0
  0
SPLINE
  5
A9
330
1F
100
AcDbEntity
  8
0
  6
Continuous
 62
     7
370
    25
100
AcDbSpline
210
0.0
220
0.0
230
1.0
 70
     8
 71
     3
 72
    10
 73
     6
 74
     0
 42
0.000000001
 43
0.00000001
 40
0.0
 40
0.0
 40
0.0
 40
0.0
 40
0.5
 40
0.5
 40
1.0
 40
1.0
 40
1.0
 40
1.0
 10
409.3095859054205
 20
245.9689637087273
 30
0.0
 10
409.3670044457525
 20
245.6179729282532
 30
0.0
 10
409.4467535371708
 20
245.262263981603
 30
0.0
 10
409.6496391906786
 20
244.5386996003745
 30
0.0
 10
409.7726874135712
 20
244.1709332749919
 30
0.0
 10
409.9000149071651
 20
243.8212468326265
 30
0.0
  0
SPLINE
  5
AA
330
1F
100
AcDbEntity
  8
0
  6
Continuous
 62
     7
370
    25
100
AcDbSpline
210
0.0
220
0.0
230
1.0
 70
     8
 71
     3
 72
     8
 73
     4
 74
     0
 42
0.000000001
 43
0.00000001
 40
0.0
 40
0.0
 40
0.0
 40
0.0
 40
1.0
 40
1.0
 40
1.0
 40
1.0
 10
409.9000149071651
 20
243.8212468326265
 30
0.0
 10
409.9067311123696
 20
243.8028017518522
 30
0.0
 10
409.9134542374181
 20
243.7844157434095
 30
0.0
 10
409.9201840462424
 20
243.766089107996
 30
0.0
  0
SPLINE
  5
AB
330
1F
100
AcDbEntity
  8
0
  6
Continuous
 62
     7
370
    25
100
AcDbSpline
210
0.0
220
0.0
230
1.0
 70
     8
 71
     3
 72
    10
 73
     6
 74
     0
 42
0.000000001
 43
0.00000001
 40
0.0
 40
0.0
 40
0.0
 40
0.0
 40
0.5
 40
0.5
 40
1.0
 40
1.0
 40
1.0
 40
1.0
 10
411.0546201802492
 20
241.3331739690381
 30
0.0
 10
410.8312421724027
 20
241.7336484276958
 30
0.0
 10
410.6228536354055
 20
242.1369039372866
 30
0.0
 10
410.2417614206885
 20
242.9500356979329
 30
0.0
 10
410.0700529791213
 20
243.3579655840719
 30
0.0
 10
409.9201840462424
 20
243.766089107996
 30
0.0
  0
SPLINE
  5
AC
330
1F
100
AcDbEntity
  8
0
  6
Continuous
 62
     7
370
    25
100
AcDbSpline
210
0.0
220
0.0
230
1.0
 70
     8
 71
     3
 72
     9
 73
     5
 74
     0
 42
0.000000001
 43
0.00000001
 40
0.0
 40
0.0
 40
0.0
 40
0.0
 40
0.5781424202292905
 40
1.0
 40
1.0
 40
1.0
 40
1.0
 10
411.0546201802492
 20
241.3331739690381
 30
0.0
 10
411.0795633165441
 20
241.2883691740342
 30
0.0
 10
411.122706900931
 20
241.2108713232689
 30
0.0
 10
411.1236177103664
 20
241.2091986770717
 30
0.0
 10
411.1240019422304
 20
241.2084930585951
 30
0.0
  0
SPLINE
  5
AD
330
1F
100
AcDbEntity
  8
0
  6
Continuous
 62
     7
370
    25
100
AcDbSpline
210
0.0
220
0.0
230
1.0
 70
     8
 71
     3
 72
    10
 73
     6
 74
     0
 42
0.000000001
 43
0.00000001
 40
0.0
 40
0.0
 40
0.0
 40
0.0
 40
0.157369847785145
 40
0.7151930176607635
 40
1.0
 40
1.0
 40
1.0
 40
1.0
 10
411.1240019422304
 20
292.8420288373579
 30
0.0
 10
411.1255332784222
 20
292.844787293434
 30
0.0
 10
411.1324926862595
 20
292.857323548332
 30
0.0
 10
411.1032469069468
 20
292.8045977245936
 30
0.0
 10
411.0669039971179
 20
292.7393884920382
 30
0.0
 10
411.0546201802492
 20
292.7173479269149
 30
0.0
  0
SPLINE
  5
AE
330
1F
100
AcDbEntity
  8
0
  6
Continuous
 62
     7
370
    25
100
AcDbSpline
210
0.0
220
0.0
230
1.0
 70
     8
 71
     3
 72
     8
 73
     4
 74
     0
 42
0.000000001
 43
0.00000001
 40
0.0
 40
0.0
 40
0.0
 40
0.0
 40
1.0
 40
1.0
 40
1.0
 40
1.0
 10
409.9201840462424
 20
290.284432787957
 30
0.0
 10
410.2223733345194
 20
291.1073555569034
 30
0.0
 10
410.608260295065
 20
291.9171091965719
 30
0.0
 10
411.0546201802492
 20
292.7173479269149
 30
0.0
  0
SPLINE
  5
AF
330
1F
100
AcDbEntity
  8
0
  6
Continuous
 62
     7
370
    25
100
AcDbSpline
210
0.0
220
0.0
230
1.0
 70
     8
 71
     3
 72
     8
 73
     4
 74
     0
 42
0.000000001
 43
0.00000001
 40
0.0
 40
0.0
 40
0.0
 40
0.0
 40
1.0
 40
1.0
 40
1.0
 40
1.0
 10
409.9201840462424
 20
290.284432787957
 30
0.0
 10
409.9134542374181
 20
290.2661061525436
 30
0.0
 10
409.9067311123696
 20
290.2477201441008
 30
0.0
 10
409.9000149071651
 20
290.2292750633265
 30
0.0
  0
SPLINE
  5
B0
330
1F
100
AcDbEntity
  8
0
  6
Continuous
 62
     7
370
    25
100
AcDbSpline
210
0.0
220
0.0
230
1.0
 70
     8
 71
     3
 72
    10
 73
     6
 74
     0
 42
0.000000001
 43
0.00000001
 40
0.0
 40
0.0
 40
0.0
 40
0.0
 40
0.5
 40
0.5
 40
1.0
 40
1.0
 40
1.0
 40
1.0
 10
409.9000149071651
 20
290.2292750633265
 30
0.0
 10
409.7726802652647
 20
289.879568989177
 30
0.0
 10
409.6496053764172
 20
289.5117139763054
 30
0.0
 10
409.4467328501995
 20
288.7881718590132
 30
0.0
 10
409.3670060679516
 20
288.4325588839552
 30
0.0
 10
409.3095859054206
 20
288.081558187226
 30
0.0
  0
SPLINE
  5
B1
330
1F
100
AcDbEntity
  8
0
  6
Continuous
 62
     7
370
    25
100
AcDbSpline
210
0.0
220
0.0
230
1.0
 70
     8
 71
     3
 72
    10
 73
     6
 74
     0
 42
0.000000001
 43
0.00000001
 40
0.0
 40
0.0
 40
0.0
 40
0.0
 40
0.5
 40
0.5
 40
1.0
 40
1.0
 40
1.0
 40
1.0
 10
409.3095859054206
 20
288.0815581872261
 30
0.0
 10
409.2215618762596
 20
287.5434807210098
 30
0.0
 10
409.1747607670202
 20
286.9999102680974
 30
0.0
 10
409.1748378400977
 20
285.9182066334988
 30
0.0
 10
409.2215697160353
 20
285.379942524155
 30
0.0
 10
409.3095859054205
 20
284.8385136540817
 30
0.0
  0
SPLINE
  5
B2
330
1F
100
AcDbEntity
  8
0
  6
Continuous
 62
     7
370
    25
100
AcDbSpline
210
0.0
220
0.0
230
1.0
 70
     8
 71
     3
 72
     8
 73
     4
 74
     0
 42
0.000000001
 43
0.00000001
 40
0.0
 40
0.0
 40
0.0
 40
0.0
 40
1.0
 40
1.0
 40
1.0
 40
1.0
 10
409.9201840462424
 20
274.4624983382981
 30
0.0
 10
409.9201840462424
 20
273.0487829622596
 30
0.0
 10
409.7675543944111
 20
271.6449847675376
 30
0.0
 10
409.6457721549718
 20
270.2391822481109
 30
0.0
  0
LINE
  5
B3
330
1F
100
AcDbEntity
  8
0
  6
Continuous
 62
     7
370
    25
100
AcDbLine
 10
409.9201840462
 20
274.4624983383
 30
0.0
 11
409.9000149072
 21
274.4624983383
 31
0.0
  0
SPLINE
  5
B4
330
1F
100
AcDbEntity
  8
0
  6
Continuous
 62
     7
370
    25
100
AcDbSpline
210
0.0
220
0.0
230
1.0
 70
     8
 71
     3
 72
     8
 73
     4
 74
     0
 42
0.000000001
 43
0.00000001
 40
0.0
 40
0.0
 40
0.0
 40
0.0
 40
1.0
 40
1.0
 40
1.0
 40
1.0
 10
409.6457721549716
 20
263.811339647842
 30
0.0
 10
409.767554394411
 20
262.4055371284152
 30
0.0
 10
409.9201840462424
 20
261.001738933693
 30
0.0
 10
409.9201840462424
 20
259.5880235576545
 30
0.0
  0
LINE
  5
B5
330
1F
100
AcDbEntity
  8
0
  6
Continuous
 62
     7
370
    25
100
AcDbLine
 10
409.9000149072
 20
259.5880235577
 30
0.0
 11
409.9201840462
 21
259.5880235577
 31
0.0
  0
LINE
  5
B6
330
1F
100
AcDbEntity
  8
0
  6
Continuous
 62
     7
370
    25
100
AcDbLine
 10
409.9201840462
 20
259.5880235577
 30
0.0
 11
409.9201840462
 21
259.4780604383
 31
0.0
  0
LINE
  5
B7
330
1F
100
AcDbEntity
  8
0
  6
Continuous
 62
     7
370
    25
100
AcDbLine
 10
409.9201840462
 20
274.5724614576
 30
0.0
 11
409.9201840462
 21
274.4624983383
 31
0.0
  0
LINE
  5
B8
330
1F
100
AcDbEntity
  8
0
  6
Continuous
 62
     7
370
    25
100
AcDbLine
 10
420.7857479122
 20
279.4382917356
 30
0.0
 11
411.0546201802
 21
279.4382917356
 31
0.0
  0
SPLINE
  5
B9
330
1F
100
AcDbEntity
  8
0
  6
Continuous
 62
     7
370
    25
100
AcDbSpline
210
0.0
220
0.0
230
1.0
 70
     8
 71
     3
 72
    20
 73
    16
 74
     0
 42
0.000000001
 43
0.00000001
 40
0.0
 40
0.0
 40
0.0
 40
0.0
 40
0.125
 40
0.125
 40
0.2500000000000001
 40
0.2500000000000001
 40
0.5000000000000001
 40
0.5000000000000001
 40
0.6250000000000001
 40
0.6250000000000001
 40
0.6875000000000001
 40
0.6875000000000001
 40
0.7500000000000002
 40
0.7500000000000002
 40
1.0
 40
1.0
 40
1.0
 40
1.0
 10
420.7857479122355
 20
279.4382917355533
 30
0.0
 10
421.0679855669857
 20
278.4262944213279
 30
0.0
 10
421.3268207705823
 20
277.4032559337126
 30
0.0
 10
421.7833696100213
 20
275.3420936949136
 30
0.0
 10
421.9799384705382
 20
274.3091125958729
 30
0.0
 10
422.4599481667391
 20
271.201865698431
 30
0.0
 10
422.6316084082787
 20
269.1191385715761
 30
0.0
 10
422.6314590973942
 20
265.9755456240881
 30
0.0
 10
422.5889405882731
 20
264.9244666004557
 30
0.0
 10
422.4621539003014
 20
263.3430785501552
 30
0.0
 10
422.409452416319
 20
262.8160021776861
 30
0.0
 10
422.2850510007524
 20
261.7692013840778
 30
0.0
 10
422.213274683229
 20
261.2484007414486
 30
0.0
 10
421.8100626339483
 20
258.6564331381401
 30
0.0
 10
421.346049813162
 20
256.6212605266523
 30
0.0
 10
420.7857479122355
 20
254.6122301603993
 30
0.0
  0
LINE
  5
BA
330
1F
100
AcDbEntity
  8
0
  6
Continuous
 62
     7
370
    25
100
AcDbLine
 10
411.0546201802
 20
254.6122301604
 30
0.0
 11
420.7857479122
 21
254.6122301604
 31
0.0
  0
ELLIPSE
  5
BB
330
1F
100
AcDbEntity
  8
0
  6
Continuous
 62
     7
370
    25
100
AcDbEllipse
 10
411.2397996634
 20
270.1387853519
 30
0.0
 11
5.684341886080801E-14
 21
3.261942495049539
 31
7.105427357601002E-14
210
-3.795926489342527E-28
220
-2.178280999246461E-14
230
1.0
 40
0.9531667975
 41
3.962594650555622
 42
5.462183310214325
  0
ELLIPSE
  5
BC
330
1F
100
AcDbEntity
  8
0
  6
Continuous
 62
     7
370
    25
100
AcDbEllipse
 10
413.5825035205
 20
267.8500413337
 30
0.0
 11
7.958078640513122E-13
 21
0.09650717441121515
 31
0.0
210
0.0
220
0.0
230
1.0
 40
0.9531667975
 41
0.8210019969761447
 42
2.677945044581998
  0
LINE
  5
BD
330
1F
100
AcDbEntity
  8
0
  6
Continuous
 62
     7
370
    25
100
AcDbLine
 10
413.5413654892
 20
267.7637226927
 30
0.0
 11
415.2688492888
 21
266.857541422
 31
0.0
  0
LINE
  5
BE
330
1F
100
AcDbEntity
  8
0
  6
Continuous
 62
     7
370
    25
100
AcDbLine
 10
415.2688492888
 20
266.857541422
 30
0.0
 11
415.2365457665
 21
266.916241895
 31
0.0
  0
ELLIPSE
  5
BF
330
1F
100
AcDbEntity
  8
0
  6
Continuous
 62
     7
370
    25
100
AcDbEllipse
 10
415.8738534065
 20
267.3022705927
 30
0.0
 11
5.684341886080801E-14
 21
-0.7720573952776135
 31
-1.421085471520200E-14
210
1.355193205777746E-27
220
-1.840647444364174E-14
230
1.0
 40
0.9531667975
 41
3.470145824140576
 42
5.235987755983887
  0
LINE
  5
C0
330
1F
100
AcDbEntity
  8
0
  6
Continuous
 62
     7
370
    25
100
AcDbLine
 10
415.6363978325
 20
268.0330307831
 30
0.0
 11
419.6435520215
 21
269.4662272554
 31
0.0
  0
ELLIPSE
  5
C1
330
1F
100
AcDbEntity
  8
0
  6
Continuous
 62
     7
370
    25
100
AcDbEllipse
 10
419.3450424744
 20
270.1387853519
 30
0.0
 11
1.080024958355352E-12
 21
0.7418989032748868
 31
1.421085471520200E-14
210
-2.771497756660926E-26
220
-1.915470511207459E-14
230
1.0
 40
0.9531667975
 41
3.577384552346494
 42
5.8473934084257
  0
LINE
  5
C2
330
1F
100
AcDbEntity
  8
0
  6
Continuous
 62
     7
370
    25
100
AcDbLine
 10
419.6435520215
 20
270.8113434485
 30
0.0
 11
415.6354638011
 21
272.2448739859
 31
0.0
  0
ELLIPSE
  5
C3
330
1F
100
AcDbEntity
  8
0
  6
Continuous
 62
     7
370
    25
100
AcDbEllipse
 10
415.8729193751
 20
272.9756341764
 30
0.0
 11
-1.705302565824240E-13
 21
-0.7720573952779546
 31
-1.421085471520200E-14
210
-4.065579617329647E-27
220
-1.840647444363361E-14
230
1.0
 40
0.9531667975
 41
4.17230878023199
 42
5.954632136628849
  0
LINE
  5
C4
330
1F
100
AcDbEntity
  8
0
  6
Continuous
 62
     7
370
    25
100
AcDbLine
 10
415.2417623528
 20
273.3726297782
 30
0.0
 11
415.2688492888
 21
273.4200292819
 31
0.0
  0
LINE
  5
C5
330
1F
100
AcDbEntity
  8
0
  6
Continuous
 62
     7
370
    25
100
AcDbLine
 10
415.2688492888
 20
273.4200292819
 30
0.0
 11
413.5413654892
 21
272.5138480112
 31
0.0
  0
ELLIPSE
  5
C6
330
1F
100
AcDbEntity
  8
0
  6
Continuous
 62
     7
370
    25
100
AcDbEllipse
 10
413.5825035205
 20
272.4275293702
 30
0.0
 11
5.684341886080801E-14
 21
0.09650717440968037
 31
0.0
210
0.0
220
0.0
230
1.0
 40
0.9531667976
 41
0.463647608993417
 42
2.320590656635525
  0
LINE
  5
C7
330
1F
100
AcDbEntity
  8
0
  6
Continuous
 62
     7
370
    25
100
AcDbLine
 10
415.2474791544
 20
262.3095084753
 30
0.0
 11
419.4536757356
 21
259.4209284138
 31
0.0
  0
LINE
  5
C8
330
1F
100
AcDbEntity
  8
0
  6
Continuous
 62
     7
370
    25
100
AcDbLine
 10
415.2474791544
 20
259.7993589026
 30
0.0
 11
415.2474791544
 21
262.3095084753
 31
0.0
  0
LINE
  5
C9
330
1F
100
AcDbEntity
  8
0
  6
Continuous
 62
     7
370
    25
100
AcDbLine
 10
414.0263253083
 20
259.7993589026
 30
0.0
 11
415.2474791544
 21
259.7993589026
 31
0.0
  0
LINE
  5
CA
330
1F
100
AcDbEntity
  8
0
  6
Continuous
 62
     7
370
    25
100
AcDbLine
 10
414.0263253083
 20
259.3244657402
 30
0.0
 11
414.0263253083
 21
259.7993589026
 31
0.0
  0
LINE
  5
CB
330
1F
100
AcDbEntity
  8
0
  6
Continuous
 62
     7
370
    25
100
AcDbLine
 10
415.2474791544
 20
259.3244657402
 30
0.0
 11
414.0263253083
 21
259.3244657402
 31
0.0
  0
LINE
  5
CC
330
1F
100
AcDbEntity
  8
0
  6
Continuous
 62
     7
370
    25
100
AcDbLine
 10
415.2474791544
 20
258.7138888171
 30
0.0
 11
415.2474791544
 21
259.3244657402
 31
0.0
  0
LINE
  5
CD
330
1F
100
AcDbEntity
  8
0
  6
Continuous
 62
     7
370
    25
100
AcDbLine
 10
415.7902141972
 20
258.7138888171
 30
0.0
 11
415.2474791544
 21
258.7138888171
 31
0.0
  0
LINE
  5
CE
330
1F
100
AcDbEntity
  8
0
  6
Continuous
 62
     7
370
    25
100
AcDbLine
 10
415.7902141972
 20
259.3244657402
 30
0.0
 11
415.7902141972
 21
258.7138888171
 31
0.0
  0
LINE
  5
CF
330
1F
100
AcDbEntity
  8
0
  6
Continuous
 62
     7
370
    25
100
AcDbLine
 10
419.4536757356
 20
259.3244657402
 30
0.0
 11
415.7902141972
 21
259.3244657402
 31
0.0
  0
LINE
  5
D0
330
1F
100
AcDbEntity
  8
0
  6
Continuous
 62
     7
370
    25
100
AcDbLine
 10
419.4536757356
 20
259.4209284138
 30
0.0
 11
419.4536757356
 21
259.3244657402
 31
0.0
  0
SPLINE
  5
D1
330
1F
100
AcDbEntity
  8
0
  6
Continuous
 62
     7
370
    25
100
AcDbSpline
210
0.0
220
0.0
230
1.0
 70
     8
 71
     3
 72
    19
 73
    15
 74
     0
 42
0.000000001
 43
0.00000001
 40
0.0
 40
0.0
 40
0.0
 40
0.0
 40
0.1227119423657789
 40
0.2396849640167734
 40
0.3518158552560941
 40
0.4637661328620817
 40
0.5208177931608302
 40
0.5794482914480032
 40
0.6406041451203189
 40
0.7052975118059849
 40
0.7736338807131364
 40
0.8446693818863789
 40
0.9200565080211458
 40
1.0
 40
1.0
 40
1.0
 40
1.0
 10
418.9109406928785
 20
264.5949318192846
 30
0.0
 10
418.9088370860405
 20
264.6551837459081
 30
0.0
 10
418.9047282526249
 20
264.7728697721114
 30
0.0
 10
418.8687403632421
 20
264.9425280393373
 30
0.0
 10
418.8113211179605
 20
265.1002489371714
 30
0.0
 10
418.7427819100099
 20
265.2208062068958
 30
0.0
 10
418.6751235159733
 20
265.3098310511592
 30
0.0
 10
418.616034669912
 20
265.3734473743951
 30
0.0
 10
418.5503683769952
 20
265.4359200508405
 30
0.0
 10
418.4740801191352
 20
265.4931391098864
 30
0.0
 10
418.3923362815848
 20
265.5510057174778
 30
0.0
 10
418.3009814297302
 20
265.6036873759793
 30
0.0
 10
418.202398595488
 20
265.6548800059309
 30
0.0
 10
418.132706386106
 20
265.6857267178543
 30
0.0
 10
418.096838128776
 20
265.7016024923615
 30
0.0
  0
SPLINE
  5
D2
330
1F
100
AcDbEntity
  8
0
  6
Continuous
 62
     7
370
    25
100
AcDbSpline
210
0.0
220
0.0
230
1.0
 70
     8
 71
     3
 72
    23
 73
    19
 74
     0
 42
0.000000001
 43
0.00000001
 40
0.0
 40
0.0
 40
0.0
 40
0.0
 40
0.0552745490875266
 40
0.1099660938819853
 40
0.1632474428518085
 40
0.2180761854823619
 40
0.2733008743735942
 40
0.330909300011435
 40
0.3909945233652103
 40
0.454175953430825
 40
0.5188615408488261
 40
0.583310532011168
 40
0.6485166818638259
 40
0.715030887097184
 40
0.7825020728543327
 40
0.8523226850768554
 40
0.9249284897844291
 40
1.0
 40
1.0
 40
1.0
 40
1.0
 10
418.0809376880708
 20
263.5306623214213
 30
0.0
 10
418.1085718979887
 20
263.5312888713277
 30
0.0
 10
418.1635488480019
 20
263.5325353626509
 30
0.0
 10
418.2438688923284
 20
263.5482550564426
 30
0.0
 10
418.3217334177168
 20
263.5718771184045
 30
0.0
 10
418.3968112975058
 20
263.6043524234281
 30
0.0
 10
418.4685818306612
 20
263.6478199857585
 30
0.0
 10
418.5376569022731
 20
263.6998385606227
 30
0.0
 10
418.60364213958
 20
263.7617784265215
 30
0.0
 10
418.6651469084305
 20
263.8327554714035
 30
0.0
 10
418.7237623027165
 20
263.9089733193923
 30
0.0
 10
418.7735245871972
 20
263.9925057173814
 30
0.0
 10
418.8160772405747
 20
264.0808340279578
 30
0.0
 10
418.851167797327
 20
264.1740560418381
 30
0.0
 10
418.8775645783213
 20
264.2724742841052
 30
0.0
 10
418.8965175766312
 20
264.3756263415177
 30
0.0
 10
418.9083673641421
 20
264.4837089106377
 30
0.0
 10
418.9100734215275
 20
264.5574471245056
 30
0.0
 10
418.9109406928785
 20
264.5949318192846
 30
0.0
  0
SPLINE
  5
D3
330
1F
100
AcDbEntity
  8
0
  6
Continuous
 62
     7
370
    25
100
AcDbSpline
210
0.0
220
0.0
230
1.0
 70
     8
 71
     3
 72
    19
 73
    15
 74
     0
 42
0.000000001
 43
0.00000001
 40
0.0
 40
0.0
 40
0.0
 40
0.0
 40
0.1101655532114437
 40
0.2157872561749721
 40
0.3180274349094165
 40
0.4175739541655089
 40
0.5116504876474464
 40
0.5961620971027628
 40
0.6729345334849972
 40
0.7436695573498576
 40
0.8106770010653627
 40
0.8740589623137375
 40
0.9366963019193733
 40
1.0
 40
1.0
 40
1.0
 40
1.0
 10
417.2148936843315
 20
264.8874999282589
 30
0.0
 10
417.2160046375767
 20
264.8220326896105
 30
0.0
 10
417.2181807220744
 20
264.6937984513618
 30
0.0
 10
417.2444999758858
 20
264.5064820620225
 30
0.0
 10
417.2809075921131
 20
264.3273616972466
 30
0.0
 10
417.3366744899503
 20
264.1604069801737
 30
0.0
 10
417.4014449387734
 20
264.0082357111793
 30
0.0
 10
417.4768167317317
 20
263.876216788984
 30
0.0
 10
417.5605985549975
 20
263.7661997925102
 30
0.0
 10
417.6540835715032
 20
263.6787193629937
 30
0.0
 10
417.7543456075792
 20
263.6129073149194
 30
0.0
 10
417.8588434114639
 20
263.5647882283348
 30
0.0
 10
417.9684928845463
 20
263.5363639255594
 30
0.0
 10
418.0433241086801
 20
263.5325695481955
 30
0.0
 10
418.0809376880708
 20
263.5306623214213
 30
0.0
  0
LINE
  5
D4
330
1F
100
AcDbEntity
  8
0
  6
Continuous
 62
     7
370
    25
100
AcDbLine
 10
416.6721586416
 20
264.8874999283
 30
0.0
 11
417.2148936843
 21
264.8874999283
 31
0.0
  0
SPLINE
  5
D5
330
1F
100
AcDbEntity
  8
0
  6
Continuous
 62
     7
370
    25
100
AcDbSpline
210
0.0
220
0.0
230
1.0
 70
     8
 71
     3
 72
    23
 73
    19
 74
     0
 42
0.000000001
 43
0.00000001
 40
0.0
 40
0.0
 40
0.0
 40
0.0
 40
0.0669091856056564
 40
0.1334854404229653
 40
0.2010351165700815
 40
0.2712343400187641
 40
0.3428799841615848
 40
0.4138361296100207
 40
0.4859766219744205
 40
0.5602295572555488
 40
0.599884180752391
 40
0.6440548396425967
 40
0.6918919315842552
 40
0.7446875244737727
 40
0.8014917751698766
 40
0.8628576982200925
 40
0.9293283793947439
 40
1.0
 40
1.0
 40
1.0
 40
1.0
 10
415.5527676159554
 20
263.2592948000538
 30
0.0
 10
415.6020728544851
 20
263.2616084702178
 30
0.0
 10
415.700437995545
 20
263.2662242980454
 30
0.0
 10
415.8451538518855
 20
263.301464650296
 30
0.0
 10
415.9845868683113
 20
263.3594293616574
 30
0.0
 10
416.1163581223275
 20
263.4405770870874
 30
0.0
 10
416.2384835925046
 20
263.5393584863489
 30
0.0
 10
416.3474488100607
 20
263.6548149526714
 30
0.0
 10
416.437361923942
 20
263.7879052503311
 30
0.0
 10
416.4994840592114
 20
263.9103995761313
 30
0.0
 10
416.5418734466916
 20
264.0189016580007
 30
0.0
 10
416.5701082143709
 20
264.1117558701861
 30
0.0
 10
416.5940169556907
 20
264.2157093062389
 30
0.0
 10
416.6162605090674
 20
264.3295048575173
 30
0.0
 10
416.6351915949635
 20
264.453999958568
 30
0.0
 10
416.650978625909
 20
264.5890590731302
 30
0.0
 10
416.6636106520989
 20
264.7347095698424
 30
0.0
 10
416.669251712822
 20
264.8355402610806
 30
0.0
 10
416.6721586415965
 20
264.8874999282589
 30
0.0
  0
SPLINE
  5
D6
330
1F
100
AcDbEntity
  8
0
  6
Continuous
 62
     7
370
    25
100
AcDbSpline
210
0.0
220
0.0
230
1.0
 70
     8
 71
     3
 72
    23
 73
    19
 74
     0
 42
0.000000001
 43
0.00000001
 40
0.0
 40
0.0
 40
0.0
 40
0.0
 40
0.076071736955564
 40
0.1487517145745115
 40
0.2184027938458451
 40
0.2857595810623857
 40
0.3505980236748787
 40
0.414964044598128
 40
0.4780693385717811
 40
0.541760676006907
 40
0.6043498585387173
 40
0.6640750210708964
 40
0.7214636230801985
 40
0.7775871282364448
 40
0.8326444469271312
 40
0.8878435110684597
 40
0.9434603426519473
 40
1.0
 40
1.0
 40
1.0
 40
1.0
 10
414.4333765903144
 20
264.6065921424683
 30
0.0
 10
414.4343077803904
 20
264.5570719658453
 30
0.0
 10
414.4361286421973
 20
264.4602395353853
 30
0.0
 10
414.4528740561194
 20
264.31894468854
 30
0.0
 10
414.4772617050176
 20
264.1845250951965
 30
0.0
 10
414.5149277623734
 20
264.0584731717126
 30
0.0
 10
414.5614654782667
 20
263.9391377617891
 30
0.0
 10
414.6198981864863
 20
263.8281916962876
 30
0.0
 10
414.6884550870569
 20
263.7241785357332
 30
0.0
 10
414.766377386431
 20
263.6284305061005
 30
0.0
 10
414.8516813135176
 20
263.5423343221227
 30
0.0
 10
414.9409034567441
 20
263.4665281532934
 30
0.0
 10
415.0336676275505
 20
263.4020837246281
 30
0.0
 10
415.1304871675078
 20
263.3500990290329
 30
0.0
 10
415.2309611445052
 20
263.3090499827451
 30
0.0
 10
415.3353715174577
 20
263.2811051437898
 30
0.0
 10
415.44286381279
 20
263.2616748768747
 30
0.0
 10
415.5159326110708
 20
263.2600924989396
 30
0.0
 10
415.5527676159554
 20
263.2592948000538
 30
0.0
  0
SPLINE
  5
D7
330
1F
100
AcDbEntity
  8
0
  6
Continuous
 62
     7
370
    25
100
AcDbSpline
210
0.0
220
0.0
230
1.0
 70
     8
 71
     3
 72
    15
 73
    11
 74
     0
 42
0.000000001
 43
0.00000001
 40
0.0
 40
0.0
 40
0.0
 40
0.0
 40
0.1182713048357253
 40
0.236177533083763
 40
0.355662932948509
 40
0.4759041646706832
 40
0.6001273417110822
 40
0.7286081161551202
 40
0.8613134756739422
 40
1.0
 40
1.0
 40
1.0
 40
1.0
 10
414.7195845230067
 20
265.4906566456734
 30
0.0
 10
414.6967421610608
 20
265.461028488308
 30
0.0
 10
414.651127946339
 20
265.4018636289527
 30
0.0
 10
414.5929171508117
 20
265.3054521366967
 30
0.0
 10
414.542478457746
 20
265.2040564160671
 30
0.0
 10
414.5039495368416
 20
265.0954794681379
 30
0.0
 10
414.4713261687436
 20
264.9820642794753
 30
0.0
 10
414.4499772886267
 20
264.8619776677557
 30
0.0
 10
414.4353296962387
 20
264.7362790895034
 30
0.0
 10
414.4340371212443
 20
264.6504516375707
 30
0.0
 10
414.4333765903144
 20
264.6065921424683
 30
0.0
  0
SPLINE
  5
D8
330
1F
100
AcDbEntity
  8
0
  6
Continuous
 62
     7
370
    25
100
AcDbSpline
210
0.0
220
0.0
230
1.0
 70
     8
 71
     3
 72
    15
 73
    11
 74
     0
 42
0.000000001
 43
0.00000001
 40
0.0
 40
0.0
 40
0.0
 40
0.0
 40
0.1497703860319682
 40
0.2913164099952447
 40
0.4259663731047438
 40
0.5521595739695284
 40
0.6715274135235931
 40
0.7861216286916598
 40
0.8953250730704452
 40
1.0
 40
1.0
 40
1.0
 40
1.0
 10
415.4510047954426
 20
265.9051281333871
 30
0.0
 10
415.4102604539531
 20
265.8927557760905
 30
0.0
 10
415.3310091706733
 20
265.8686904664768
 30
0.0
 10
415.2169506132839
 20
265.827726468257
 30
0.0
 10
415.1123902232893
 20
265.781056580722
 30
0.0
 10
415.0165609793464
 20
265.7309905218317
 30
0.0
 10
414.9285191327637
 20
265.6784088236783
 30
0.0
 10
414.8505927355336
 20
265.6195731630554
 30
0.0
 10
414.7793590369545
 20
265.5588412412255
 30
0.0
 10
414.7392261117592
 20
265.5130617427062
 30
0.0
 10
414.7195845230067
 20
265.4906566456734
 30
0.0
  0
LINE
  5
D9
330
1F
100
AcDbEntity
  8
0
  6
Continuous
 62
     7
370
    25
100
AcDbLine
 10
415.4510047954
 20
266.3800212958
 30
0.0
 11
415.4510047954
 21
265.9051281334
 31
0.0
  0
SPLINE
  5
DA
330
1F
100
AcDbEntity
  8
0
  6
Continuous
 62
     7
370
    25
100
AcDbSpline
210
0.0
220
0.0
230
1.0
 70
     8
 71
     3
 72
    23
 73
    19
 74
     0
 42
0.000000001
 43
0.00000001
 40
0.0
 40
0.0
 40
0.0
 40
0.0
 40
0.0655411703374034
 40
0.1289631677825932
 40
0.1903771361885608
 40
0.2500923616690526
 40
0.3085484324592014
 40
0.3663979630552962
 40
0.4245421892666799
 40
0.4831699964229055
 40
0.5422433998311201
 40
0.6017393520173302
 40
0.6625060022496067
 40
0.7248555134488471
 40
0.7891278292811813
 40
0.85634639987851
 40
0.9262952349869054
 40
1.0
 40
1.0
 40
1.0
 40
1.0
 10
413.8906415475794
 20
264.6150723775111
 30
0.0
 10
413.8919542033393
 20
264.6716467957962
 30
0.0
 10
413.8945370721548
 20
264.7829663856046
 30
0.0
 10
413.9121940049163
 20
264.9466202462601
 30
0.0
 10
413.9444429414067
 20
265.1028328155375
 30
0.0
 10
413.9878396054722
 20
265.2518153027731
 30
0.0
 10
414.0428604536177
 20
265.3937000601777
 30
0.0
 10
414.1113780089595
 20
265.5280541239583
 30
0.0
 10
414.1919799227759
 20
265.6557040820184
 30
0.0
 10
414.2856176091025
 20
265.7754453533918
 30
0.0
 10
414.3903643965919
 20
265.8872636640904
 30
0.0
 10
414.5080798045192
 20
265.9881874257241
 30
0.0
 10
414.636587784257
 20
266.0798992555294
 30
0.0
 10
414.7773809763669
 20
266.1599434831051
 30
0.0
 10
414.9286398772512
 20
266.2319660186076
 30
0.0
 10
415.0923012974235
 20
266.2912038935387
 30
0.0
 10
415.2669021401926
 20
266.3433427889769
 30
0.0
 10
415.3885768187918
 20
266.3675838599204
 30
0.0
 10
415.4510047954426
 20
266.3800212957803
 30
0.0
  0
SPLINE
  5
DB
330
1F
100
AcDbEntity
  8
0
  6
Continuous
 62
     7
370
    25
100
AcDbSpline
210
0.0
220
0.0
230
1.0
 70
     8
 71
     3
 72
    19
 73
    15
 74
     0
 42
0.000000001
 43
0.00000001
 40
0.0
 40
0.0
 40
0.0
 40
0.0
 40
0.0796482511802279
 40
0.1589216764181127
 40
0.2396194947370319
 40
0.3226094298185611
 40
0.4060346366179247
 40
0.4876020954923884
 40
0.5696846265959311
 40
0.6530361450088341
 40
0.7374357177222883
 40
0.8224778158555102
 40
0.9097476551184073
 40
1.0
 40
1.0
 40
1.0
 40
1.0
 10
415.5983488793102
 20
262.7844016376607
 30
0.0
 10
415.5242508484675
 20
262.7871147711945
 30
0.0
 10
415.376403493299
 20
262.7925282702124
 30
0.0
 10
415.1579714736866
 20
262.8409153825584
 30
0.0
 10
414.9444519642929
 20
262.9159258774172
 30
0.0
 10
414.7402316716238
 20
263.0224500544159
 30
0.0
 10
414.5491565717782
 20
263.1522735499066
 30
0.0
 10
414.3781959616852
 20
263.3067256947951
 30
0.0
 10
414.231240928939
 20
263.4840515741773
 30
0.0
 10
414.1084587984275
 20
263.6818172575587
 30
0.0
 10
414.0103090827303
 20
263.8960800589576
 30
0.0
 10
413.9421865203314
 20
264.1252479182864
 30
0.0
 10
413.8978181636857
 20
264.3660188332098
 30
0.0
 10
413.8930603976256
 20
264.5311298664141
 30
0.0
 10
413.8906415475794
 20
264.6150723775111
 30
0.0
  0
SPLINE
  5
DC
330
1F
100
AcDbEntity
  8
0
  6
Continuous
 62
     7
370
    25
100
AcDbSpline
210
0.0
220
0.0
230
1.0
 70
     8
 71
     3
 72
    15
 73
    11
 74
     0
 42
0.000000001
 43
0.00000001
 40
0.0
 40
0.0
 40
0.0
 40
0.0
 40
0.1281355097972536
 40
0.2541727119019792
 40
0.3781116451390018
 40
0.5017122630072841
 40
0.6239863093684848
 40
0.747095613617741
 40
0.8728746366500622
 40
1.0
 40
1.0
 40
1.0
 40
1.0
 10
416.5385949396734
 20
263.1002903930025
 30
0.0
 10
416.5037338152175
 20
263.0748278873026
 30
0.0
 10
416.434582441356
 20
263.0243198420635
 30
0.0
 10
416.3234023688884
 20
262.9619756422244
 30
0.0
 10
416.2109899981881
 20
262.9054166241662
 30
0.0
 10
416.0943323247917
 20
262.8613442687554
 30
0.0
 10
415.9747814588432
 20
262.8272147319902
 30
0.0
 10
415.8521321219455
 20
262.8028185880086
 30
0.0
 10
415.7262841594706
 20
262.7876630416769
 30
0.0
 10
415.6411450524706
 20
262.7854926237502
 30
0.0
 10
415.5983488793102
 20
262.7844016376607
 30
0.0
  0
SPLINE
  5
DD
330
1F
100
AcDbEntity
  8
0
  6
Continuous
 62
     7
370
    25
100
AcDbSpline
210
0.0
220
0.0
230
1.0
 70
     8
 71
     3
 72
    11
 73
     7
 74
     0
 42
0.000000001
 43
0.00000001
 40
0.0
 40
0.0
 40
0.0
 40
0.0
 40
0.2538796003266534
 40
0.5030089172783618
 40
0.7502910806899731
 40
1.0
 40
1.0
 40
1.0
 40
1.0
 10
416.990167455699
 20
263.6737662877675
 30
0.0
 10
416.9629861725351
 20
263.617475420734
 30
0.0
 10
416.9091321890054
 20
263.5059469322586
 30
0.0
 10
416.8035169365687
 20
263.3539241078457
 30
0.0
 10
416.6815722209265
 20
263.215920653437
 30
0.0
 10
416.5864089242594
 20
263.1389590782765
 30
0.0
 10
416.5385949396734
 20
263.1002903930025
 30
0.0
  0
SPLINE
  5
DE
330
1F
100
AcDbEntity
  8
0
  6
Continuous
 62
     7
370
    25
100
AcDbSpline
210
0.0
220
0.0
230
1.0
 70
     8
 71
     3
 72
    15
 73
    11
 74
     0
 42
0.000000001
 43
0.00000001
 40
0.0
 40
0.0
 40
0.0
 40
0.0
 40
0.1280675485958897
 40
0.2506083188676703
 40
0.3706301659145032
 40
0.4900722467299484
 40
0.6103747641546193
 40
0.7343130699115268
 40
0.86321650424499
 40
1.0
 40
1.0
 40
1.0
 40
1.0
 10
418.0788176293102
 20
263.0557691590282
 30
0.0
 10
418.0228668801719
 20
263.0575283978731
 30
0.0
 10
417.9133799466384
 20
263.0609709552911
 30
0.0
 10
417.7535391116795
 20
263.0902016767961
 30
0.0
 10
417.6028905017291
 20
263.1393934075733
 30
0.0
 10
417.4607999351852
 20
263.2075345962326
 30
0.0
 10
417.3281683321193
 20
263.2957414638578
 30
0.0
 10
417.2046972828421
 20
263.4025918508229
 30
0.0
 10
417.0898391509101
 20
263.528839922793
 30
0.0
 10
417.0240418524829
 20
263.6245116505187
 30
0.0
 10
416.990167455699
 20
263.6737662877675
 30
0.0
  0
SPLINE
  5
DF
330
1F
100
AcDbEntity
  8
0
  6
Continuous
 62
     7
370
    25
100
AcDbSpline
210
0.0
220
0.0
230
1.0
 70
     8
 71
     3
 72
    19
 73
    15
 74
     0
 42
0.000000001
 43
0.00000001
 40
0.0
 40
0.0
 40
0.0
 40
0.0
 40
0.0902542493426763
 40
0.1785397915286841
 40
0.2660930338538196
 40
0.3546309779571731
 40
0.4418861533505622
 40
0.5257469151636479
 40
0.608113633603636
 40
0.6901972728278819
 40
0.7708214843303344
 40
0.8483261812554111
 40
0.9240117400247435
 40
1.0
 40
1.0
 40
1.0
 40
1.0
 10
419.4536757356136
 20
264.6012919955666
 30
0.0
 10
419.4515904708385
 20
264.5322240402865
 30
0.0
 10
419.4474654269658
 20
264.3955947023124
 30
0.0
 10
419.4097971718129
 20
264.1948696194229
 30
0.0
 10
419.3501901264679
 20
264.001305261971
 30
0.0
 10
419.2678310390107
 20
263.8170203277724
 30
0.0
 10
419.1662502203014
 20
263.6458448403947
 30
0.0
 10
419.0453511538057
 20
263.4935413199557
 30
0.0
 10
418.9074664956046
 20
263.3621741667164
 30
0.0
 10
418.7551684519325
 20
263.2519648100159
 30
0.0
 10
418.5924035746451
 20
263.165672847161
 30
0.0
 10
418.4248842894343
 20
263.1020422586857
 30
0.0
 10
418.2530079755487
 20
263.0633047171758
 30
0.0
 10
418.1369582796528
 20
263.0582843515222
 30
0.0
 10
418.0788176293102
 20
263.0557691590282
 30
0.0
  0
SPLINE
  5
E0
330
1F
100
AcDbEntity
  8
0
  6
Continuous
 62
     7
370
    25
100
AcDbSpline
210
0.0
220
0.0
230
1.0
 70
     8
 71
     3
 72
    23
 73
    19
 74
     0
 42
0.000000001
 43
0.00000001
 40
0.0
 40
0.0
 40
0.0
 40
0.0
 40
0.0726253460834345
 40
0.1419766113262334
 40
0.2089849284189386
 40
0.2739568703644445
 40
0.3368893473968408
 40
0.3987449534945897
 40
0.4601158852788615
 40
0.5208249225900292
 40
0.580994458632486
 40
0.640151927601465
 40
0.698622450756255
 40
0.7572710809271641
 40
0.8164266940046598
 40
0.8762540482034705
 40
0.9371652930625374
 40
1.0
 40
1.0
 40
1.0
 40
1.0
 10
418.096838128776
 20
266.1764956547547
 30
0.0
 10
418.1501062890721
 20
266.1636300245584
 30
0.0
 10
418.2542411854722
 20
266.138478769847
 30
0.0
 10
418.4030235917533
 20
266.0860193432928
 30
0.0
 10
418.5438174871892
 20
266.0288704693677
 30
0.0
 10
418.6739865509906
 20
265.9602464660376
 30
0.0
 10
418.7961467967888
 20
265.8853939447672
 30
0.0
 10
418.9075274968775
 20
265.7996345919689
 30
0.0
 10
419.0109613851433
 20
265.7069250114228
 30
0.0
 10
419.1027540181167
 20
265.6043801475975
 30
0.0
 10
419.185875108703
 20
265.4968403853549
 30
0.0
 10
419.2567457311135
 20
265.3827904245413
 30
0.0
 10
419.3177120098491
 20
265.2645248591107
 30
0.0
 10
419.3679378366131
 20
265.1412242890574
 30
0.0
 10
419.405774045013
 20
265.0125216247136
 30
0.0
 10
419.4332254058467
 20
264.8795804085024
 30
0.0
 10
419.4510524475757
 20
264.7420522595195
 30
0.0
 10
419.4527922917658
 20
264.6486957832579
 30
0.0
 10
419.4536757356136
 20
264.6012919955666
 30
0.0
  0
LINE
  5
E1
330
1F
100
AcDbEntity
  8
0
  6
Continuous
 62
     7
370
    25
100
AcDbLine
 10
418.0968381288
 20
265.7016024924
 30
0.0
 11
418.0968381288
 21
266.1764956548
 31
0.0
  0
LINE
  5
E2
330
1F
100
AcDbEntity
  8
0
  6
Continuous
 62
     7
370
    25
100
AcDbLine
 10
422.9201840462
 20
267.025260948
 30
0.0
 11
422.9201840462
 21
245.025260948
 31
0.0
  0
LINE
  5
E3
330
1F
100
AcDbEntity
  8
0
  6
Continuous
 62
     7
370
    25
100
AcDbLine
 10
422.9201840462
 20
289.025260948
 30
0.0
 11
422.9201840462
 21
267.025260948
 31
0.0
  0
SPLINE
  5
E4
330
1F
100
AcDbEntity
  8
0
  6
Continuous
 62
     7
370
    25
100
AcDbSpline
210
0.0
220
0.0
230
1.0
 70
     8
 71
     3
 72
    10
 73
     6
 74
     0
 42
0.000000001
 43
0.00000001
 40
0.0
 40
0.0
 40
0.0
 40
0.0
 40
0.1573698477848704
 40
0.7151930176606719
 40
1.0
 40
1.0
 40
1.0
 40
1.0
 10
420.7163661502543
 20
241.2084930585951
 30
0.0
 10
420.7148348140626
 20
241.2057346025191
 30
0.0
 10
420.7078754062254
 20
241.193198347621
 30
0.0
 10
420.7371211855379
 20
241.2459241713595
 30
0.0
 10
420.7734640953669
 20
241.3111334039149
 30
0.0
 10
420.7857479122355
 20
241.3331739690381
 30
0.0
  0
SPLINE
  5
E5
330
1F
100
AcDbEntity
  8
0
  6
Continuous
 62
     7
370
    25
100
AcDbSpline
210
0.0
220
0.0
230
1.0
 70
     8
 71
     3
 72
    16
 73
    12
 74
     0
 42
0.000000001
 43
0.00000001
 40
0.0
 40
0.0
 40
0.0
 40
0.0
 40
0.2500000000000002
 40
0.2500000000000002
 40
0.5000000000000003
 40
0.5000000000000003
 40
0.6250000000000003
 40
0.6250000000000003
 40
0.7500000000000002
 40
0.7500000000000002
 40
1.0
 40
1.0
 40
1.0
 40
1.0
 10
420.7857479122357
 20
253.7462047566148
 30
0.0
 10
421.3517142282489
 20
252.7315343501192
 30
0.0
 10
421.8151878754607
 20
251.7100938674662
 30
0.0
 10
422.4551366783467
 20
249.648255432641
 30
0.0
 10
422.6297566660149
 20
248.6077349387414
 30
0.0
 10
422.6323650667095
 20
247.0298249058965
 30
0.0
 10
422.5899484087432
 20
246.4998889871205
 30
0.0
 10
422.4230529419897
 20
245.4505428031299
 30
0.0
 10
422.2988467913343
 20
244.9292328581055
 30
0.0
 10
421.8177431189301
 20
243.3742545909503
 30
0.0
 10
421.3526456816403
 20
242.3495142950408
 30
0.0
 10
420.7857479122356
 20
241.3331739690381
 30
0.0
  0
SPLINE
  5
E6
330
1F
100
AcDbEntity
  8
0
  6
Continuous
 62
     7
370
    25
100
AcDbSpline
210
0.0
220
0.0
230
1.0
 70
     8
 71
     3
 72
    10
 73
     6
 74
     0
 42
0.000000001
 43
0.00000001
 40
0.0
 40
0.0
 40
0.0
 40
0.0
 40
0.5
 40
0.5
 40
1.0
 40
1.0
 40
1.0
 40
1.0
 10
420.7857479122355
 20
253.7462047566148
 30
0.0
 10
420.7378694040058
 20
253.8320418533349
 30
0.0
 10
420.7112949705475
 20
253.9589073856278
 30
0.0
 10
420.7111182143806
 20
254.2639882689358
 30
0.0
 10
420.7378505034197
 20
254.4404881966173
 30
0.0
 10
420.7857479122355
 20
254.6122301603993
 30
0.0
  0
SPLINE
  5
E7
330
1F
100
AcDbEntity
  8
0
  6
Continuous
 62
     7
370
    25
100
AcDbSpline
210
0.0
220
0.0
230
1.0
 70
     8
 71
     3
 72
    10
 73
     6
 74
     0
 42
0.000000001
 43
0.00000001
 40
0.0
 40
0.0
 40
0.0
 40
0.0
 40
0.5
 40
0.5
 40
1.0
 40
1.0
 40
1.0
 40
1.0
 10
420.7857479122355
 20
279.4382917355533
 30
0.0
 10
420.737869144176
 20
279.6099668606444
 30
0.0
 10
420.7112949348381
 20
279.7848100351938
 30
0.0
 10
420.711118249728
 20
280.0902085787991
 30
0.0
 10
420.7378506348576
 20
280.2184463930899
 30
0.0
 10
420.7857479122355
 20
280.3043171393377
 30
0.0
  0
SPLINE
  5
E8
330
1F
100
AcDbEntity
  8
0
  6
Continuous
 62
     7
370
    25
100
AcDbSpline
210
0.0
220
0.0
230
1.0
 70
     8
 71
     3
 72
    16
 73
    12
 74
     0
 42
0.000000001
 43
0.00000001
 40
0.0
 40
0.0
 40
0.0
 40
0.0
 40
0.2499999999999999
 40
0.2499999999999999
 40
0.4999999999999998
 40
0.4999999999999998
 40
0.6249999999999998
 40
0.6249999999999998
 40
0.7499999999999997
 40
0.7499999999999997
 40
1.0
 40
1.0
 40
1.0
 40
1.0
 10
420.7857479122357
 20
292.7173479269149
 30
0.0
 10
421.3517142282489
 20
291.7026775204192
 30
0.0
 10
421.8151878754608
 20
290.6812370377662
 30
0.0
 10
422.4551366783467
 20
288.6193986029409
 30
0.0
 10
422.629756666015
 20
287.5788781090413
 30
0.0
 10
422.6323650667096
 20
286.0009680761963
 30
0.0
 10
422.5899484087432
 20
285.4710321574202
 30
0.0
 10
422.4230529419898
 20
284.4216859734296
 30
0.0
 10
422.2988467913344
 20
283.9003760284052
 30
0.0
 10
421.8177431189301
 20
282.34539776125
 30
0.0
 10
421.3526456816403
 20
281.3206574653404
 30
0.0
 10
420.7857479122356
 20
280.3043171393377
 30
0.0
  0
SPLINE
  5
E9
330
1F
100
AcDbEntity
  8
0
  6
Continuous
 62
     7
370
    25
100
AcDbSpline
210
0.0
220
0.0
230
1.0
 70
     8
 71
     3
 72
     9
 73
     5
 74
     0
 42
0.000000001
 43
0.00000001
 40
0.0
 40
0.0
 40
0.0
 40
0.0
 40
0.5781424202290926
 40
1.0
 40
1.0
 40
1.0
 40
1.0
 10
420.7857479122355
 20
292.7173479269149
 30
0.0
 10
420.7608047759408
 20
292.7621527219189
 30
0.0
 10
420.7176611915538
 20
292.8396505726842
 30
0.0
 10
420.7167503821184
 20
292.8413232188814
 30
0.0
 10
420.7163661502543
 20
292.8420288373579
 30
0.0
  0
LINE
  5
EA
330
1F
100
AcDbEntity
  8
0
  6
Continuous
 62
     7
370
    25
100
AcDbLine
 10
411.0546201802
 20
280.3043171393
 30
0.0
 11
420.7857479122
 21
280.3043171393
 31
0.0
  0
LINE
  5
EB
330
1F
100
AcDbEntity
  8
0
  6
Continuous
 62
     7
370
    25
100
AcDbLine
 10
415.6367990263
 20
270.6512221032
 30
0.0
 11
415.6367990263
 21
269.6263486013
 31
0.0
  0
LINE
  5
EC
330
1F
100
AcDbEntity
  8
0
  6
Continuous
 62
     7
370
    25
100
AcDbLine
 10
417.1866971179
 20
270.2735476638
 30
0.0
 11
415.8190715664
 21
270.7859844119
 31
0.0
  0
ELLIPSE
  5
ED
330
1F
100
AcDbEntity
  8
0
  6
Continuous
 62
     7
370
    25
100
AcDbEllipse
 10
417.1408217757
 20
270.1387853552
 30
0.0
 11
0.0
 21
0.1430989817498016
 31
0.0
210
0.0
220
0.0
230
1.0
 40
0.9531667975
 41
3.484616594010824
 42
5.94016136675845
  0
LINE
  5
EE
330
1F
100
AcDbEntity
  8
0
  6
Continuous
 62
     7
370
    25
100
AcDbLine
 10
415.8190715669
 20
269.4915862927
 30
0.0
 11
417.1866971179
 21
270.0040230466
 31
0.0
  0
ELLIPSE
  5
EF
330
1F
100
AcDbEntity
  8
0
  6
Continuous
 62
     7
370
    25
100
AcDbEllipse
 10
415.7731962245
 20
269.6263486013
 30
0.0
 11
0.0
 21
-0.1430989817498016
 31
0.0
210
0.0
220
0.0
230
1.0
 40
0.9531667975
 41
4.712388980384703
 42
6.626209249460975
  0
ELLIPSE
  5
F0
330
1F
100
AcDbEntity
  8
0
  6
Continuous
 62
     7
370
    25
100
AcDbEllipse
 10
415.7731962245
 20
270.6512221032
 30
0.0
 11
5.684341886080801E-14
 21
0.1430989817498016
 31
0.0
210
0.0
220
0.0
230
1.0
 40
0.9531667975
 41
5.940161368619759
 42
7.853981633974861
  0
LINE
  5
F1
330
1F
100
AcDbEntity
  8
0
  6
Continuous
 62
     7
370
    25
100
AcDbLine
 10
415.7902141972
 20
259.7993589026
 30
0.0
 11
418.0883578937
 21
259.7993589026
 31
0.0
  0
LINE
  5
F2
330
1F
100
AcDbEntity
  8
0
  6
Continuous
 62
     7
370
    25
100
AcDbLine
 10
415.7902141972
 20
261.3766826206
 30
0.0
 11
415.7902141972
 21
259.7993589026
 31
0.0
  0
LINE
  5
F3
330
1F
100
AcDbEntity
  8
0
  6
Continuous
 62
     7
370
    25
100
AcDbLine
 10
418.0883578937
 20
259.7993589026
 30
0.0
 11
415.7902141972
 21
261.3766826206
 31
0.0
  0
LINE
  5
F4
330
1F
100
AcDbEntity
  8
0
  6
Continuous
 62
     7
370
    25
100
AcDbLine
 10
420.7857479122
 20
253.7462047566
 30
0.0
 11
411.0546201802
 21
253.7462047566
 31
0.0
  0
LINE
  5
F5
330
1F
100
AcDbEntity
  8
0
  6
Continuous
 62
     7
370
    25
100
AcDbLine
 10
409.9201840462
 20
282.792213838
 30
0.0
 11
409.9201840462
 21
282.7372322783
 31
0.0
  0
SPLINE
  5
F6
330
1F
100
AcDbEntity
  8
0
  6
Continuous
 62
     7
370
    25
100
AcDbSpline
210
0.0
220
0.0
230
1.0
 70
     8
 71
     3
 72
     8
 73
     4
 74
     0
 42
0.000000001
 43
0.00000001
 40
0.0
 40
0.0
 40
0.0
 40
0.0
 40
1.0
 40
1.0
 40
1.0
 40
1.0
 10
409.6457721549716
 20
284.9038718830591
 30
0.0
 10
409.767554394411
 20
284.2009706233458
 30
0.0
 10
409.9201840462424
 20
283.4990715259846
 30
0.0
 10
409.9201840462424
 20
282.7922138379654
 30
0.0
  0
SPLINE
  5
F7
330
1F
100
AcDbEntity
  8
0
  6
Continuous
 62
     7
370
    25
100
AcDbSpline
210
0.0
220
0.0
230
1.0
 70
     8
 71
     3
 72
    10
 73
     6
 74
     0
 42
0.000000001
 43
0.00000001
 40
0.0
 40
0.0
 40
0.0
 40
0.0
 40
0.5
 40
0.5
 40
1.0
 40
1.0
 40
1.0
 40
1.0
 10
409.6457721549716
 20
288.1177931831936
 30
0.0
 10
409.553113690645
 20
287.5829881771591
 30
0.0
 10
409.5132183191085
 20
287.0474684226683
 30
0.0
 10
409.5131571323509
 20
285.9753488674978
 30
0.0
 10
409.5531303915337
 20
285.4385804950978
 30
0.0
 10
409.6457721549701
 20
284.9038718830589
 30
0.0
  0
SPLINE
  5
F8
330
1F
100
AcDbEntity
  8
0
  6
Continuous
 62
     7
370
    25
100
AcDbSpline
210
0.0
220
0.0
230
1.0
 70
     8
 71
     3
 72
     8
 73
     4
 74
     0
 42
0.000000001
 43
0.00000001
 40
0.0
 40
0.0
 40
0.0
 40
0.0
 40
1.0
 40
1.0
 40
1.0
 40
1.0
 10
409.9201840462424
 20
290.2294512282872
 30
0.0
 10
409.9201840462424
 20
289.522593540268
 30
0.0
 10
409.7675543944111
 20
288.820694442907
 30
0.0
 10
409.6457721549718
 20
288.1177931831936
 30
0.0
  0
LINE
  5
F9
330
1F
100
AcDbEntity
  8
0
  6
Continuous
 62
     7
370
    25
100
AcDbLine
 10
409.9201840462
 20
290.284432788
 30
0.0
 11
409.9201840462
 21
290.2294512283
 31
0.0
  0
LINE
  5
FA
330
1F
100
AcDbEntity
  8
0
  6
Continuous
 62
     7
370
    25
100
AcDbLine
 10
420.7857479122
 20
292.7173479269
 30
0.0
 11
411.0546201802
 21
292.7173479269
 31
0.0
  0
LINE
  5
FB
330
1F
100
AcDbEntity
  8
0
  6
Continuous
 62
     7
370
    25
100
AcDbLine
 10
409.9201840462
 20
243.8210706677
 30
0.0
 11
409.9201840462
 21
243.766089108
 31
0.0
  0
SPLINE
  5
FC
330
1F
100
AcDbEntity
  8
0
  6
Continuous
 62
     7
370
    25
100
AcDbSpline
210
0.0
220
0.0
230
1.0
 70
     8
 71
     3
 72
     8
 73
     4
 74
     0
 42
0.000000001
 43
0.00000001
 40
0.0
 40
0.0
 40
0.0
 40
0.0
 40
1.0
 40
1.0
 40
1.0
 40
1.0
 10
409.6457721549716
 20
245.9327287127597
 30
0.0
 10
409.767554394411
 20
245.2298274530463
 30
0.0
 10
409.9201840462424
 20
244.5279283556851
 30
0.0
 10
409.9201840462424
 20
243.8210706676658
 30
0.0
  0
SPLINE
  5
FD
330
1F
100
AcDbEntity
  8
0
  6
Continuous
 62
     7
370
    25
100
AcDbSpline
210
0.0
220
0.0
230
1.0
 70
     8
 71
     3
 72
    10
 73
     6
 74
     0
 42
0.000000001
 43
0.00000001
 40
0.0
 40
0.0
 40
0.0
 40
0.0
 40
0.5
 40
0.5
 40
1.0
 40
1.0
 40
1.0
 40
1.0
 10
409.6457721549716
 20
249.1466500128934
 30
0.0
 10
409.553113690645
 20
248.6118450068589
 30
0.0
 10
409.5132183191085
 20
248.0763252523683
 30
0.0
 10
409.513157132351
 20
247.004205697198
 30
0.0
 10
409.5531303915338
 20
246.4674373247982
 30
0.0
 10
409.6457721549701
 20
245.9327287127594
 30
0.0
  0
SPLINE
  5
FE
330
1F
100
AcDbEntity
  8
0
  6
Continuous
 62
     7
370
    25
100
AcDbSpline
210
0.0
220
0.0
230
1.0
 70
     8
 71
     3
 72
     8
 73
     4
 74
     0
 42
0.000000001
 43
0.00000001
 40
0.0
 40
0.0
 40
0.0
 40
0.0
 40
1.0
 40
1.0
 40
1.0
 40
1.0
 10
409.9201840462424
 20
251.2583080579872
 30
0.0
 10
409.9201840462424
 20
250.5514503699679
 30
0.0
 10
409.7675543944111
 20
249.8495512726068
 30
0.0
 10
409.6457721549717
 20
249.1466500128934
 30
0.0
  0
LINE
  5
FF
330
1F
100
AcDbEntity
  8
0
  6
Continuous
 62
     7
370
    25
100
AcDbLine
 10
409.9201840462
 20
251.3132896177
 30
0.0
 11
409.9201840462
 21
251.258308058
 31
0.0
  0
LINE
  5
100
330
1F
100
AcDbEntity
  8
0
  6
Continuous
 62
     7
370
    25
100
AcDbLine
 10
411.0546201802
 20
241.333173969
 30
0.0
 11
420.7857479122
 21
241.333173969
 31
0.0
  0
LINE
  5
101
330
1F
100
AcDbEntity
  8
0
  6
Continuous
 62
     7
370
    25
100
AcDbLine
 10
386.9227646914
 20
287.6459665931
 30
0.0
 11
386.9227646914
 21
246.4045553028
 31
0.0
  0
LINE
  5
102
330
1F
100
AcDbEntity
  8
0
  6
Continuous
 62
     7
370
    25
100
AcDbLine
 10
384.9201840462
 20
267.025260948
 30
0.0
 11
384.9201840462
 21
285.643385948
 31
0.0
  0
LINE
  5
103
330
1F
100
AcDbEntity
  8
0
  6
Continuous
 62
     7
370
    25
100
AcDbLine
 10
384.9201840462
 20
248.407135948
 30
0.0
 11
384.9201840462
 21
267.025260948
 31
0.0
  0
ARC
  5
104
330
1F
100
AcDbEntity
  8
0
  6
Continuous
 62
     7
370
    25
100
AcDbCircle
 10
409.9201838432
 20
281.6375659033
 30
0.0
 40
1.154647934705982
100
AcDbArc
 50
89.9999899263
 51
91.0008710471
  0
ARC
  5
105
330
1F
100
AcDbEntity
  8
0
  6
Continuous
 62
     7
370
    25
100
AcDbCircle
 10
409.9201838432
 20
252.4129559931
 30
0.0
 40
1.154647935161183
100
AcDbArc
 50
268.9991289534
 51
270.0000100737
  0
ARC
  5
106
330
1F
100
AcDbEntity
  8
0
  6
Continuous
 62
     7
370
    25
100
AcDbCircle
 10
409.6958977637
 20
283.7487306282
 30
0.0
 40
1.156228305880499
100
AcDbArc
 50
92.4847049669
 51
109.5186589272
  0
ARC
  5
107
330
1F
100
AcDbEntity
  8
0
  6
Continuous
 62
     7
370
    25
100
AcDbCircle
 10
409.6958977637
 20
250.3017912679
 30
0.0
 40
1.156228306006053
100
AcDbArc
 50
250.4813410738
 51
267.5152950325
  0
LINE
  5
108
330
1F
100
AcDbEntity
  8
0
  6
Continuous
 62
     7
370
    25
100
AcDbLine
 10
431.9201840462
 20
250.025260948
 30
0.0
 11
431.9201840462
 21
284.025260948
 31
0.0
  0
LINE
  5
109
330
1F
100
AcDbEntity
  8
0
  6
Continuous
 62
     7
370
    25
100
AcDbLine
 10
469.9201840462
 20
267.025260948
 30
0.0
 11
469.9201840462
 21
283.4261545895
 31
0.0
  0
LINE
  5
10A
330
1F
100
AcDbEntity
  8
0
  6
Continuous
 62
     7
370
    25
100
AcDbLine
 10
469.9201840462
 20
250.6243673065
 30
0.0
 11
469.9201840462
 21
267.025260948
 31
0.0
  0
LINE
  5
10B
330
1F
100
AcDbEntity
  8
0
  6
Continuous
 62
     7
370
    25
100
AcDbLine
 10
441.4201840462
 20
267.025260948
 30
0.0
 11
441.4201840462
 21
283.4090375838
 31
0.0
  0
LINE
  5
10C
330
1F
100
AcDbEntity
  8
0
  6
Continuous
 62
     7
370
    25
100
AcDbLine
 10
441.4201840462
 20
250.6414843122
 30
0.0
 11
441.4201840462
 21
267.025260948
 31
0.0
  0
LINE
  5
10D
330
1F
100
AcDbEntity
  8
0
  6
Continuous
 62
     7
370
    25
100
AcDbLine
 10
450.9201840462
 20
267.025260948
 30
0.0
 11
450.9201840462
 21
283.4090375838
 31
0.0
  0
LINE
  5
10E
330
1F
100
AcDbEntity
  8
0
  6
Continuous
 62
     7
370
    25
100
AcDbLine
 10
450.9201840462
 20
250.6414843122
 30
0.0
 11
450.9201840462
 21
267.025260948
 31
0.0
  0
LINE
  5
10F
330
1F
100
AcDbEntity
  8
0
  6
Continuous
 62
     7
370
    25
100
AcDbLine
 10
460.4201840462
 20
267.025260948
 30
0.0
 11
460.4201840462
 21
283.4090375838
 31
0.0
  0
LINE
  5
110
330
1F
100
AcDbEntity
  8
0
  6
Continuous
 62
     7
370
    25
100
AcDbLine
 10
460.4201840462
 20
250.6414843122
 30
0.0
 11
460.4201840462
 21
267.025260948
 31
0.0
  0
LINE
  5
111
330
1F
100
AcDbEntity
  8
0
  6
Continuous
 62
     7
370
    25
100
AcDbLine
 10
480.9201840462
 20
280.7733964179
 30
0.0
 11
480.9201840462
 21
253.2771254781
 31
0.0
  0
ARC
  5
112
330
1F
100
AcDbEntity
  8
0
  6
Continuous
 62
     7
370
    25
100
AcDbCircle
 10
409.5955758361
 20
287.0058357678
 30
0.0
 40
1.113089827459196
100
AcDbArc
 50
87.4152913196
 51
104.8881772022
  0
ARC
  5
113
330
1F
100
AcDbEntity
  8
0
  6
Continuous
 62
     7
370
    25
100
AcDbCircle
 10
409.5955758361
 20
247.0446861281
 30
0.0
 40
1.113089827462535
100
AcDbArc
 50
255.1118227979
 51
272.58470868
  0
ARC
  5
114
330
1F
100
AcDbEntity
  8
0
  6
Continuous
 62
     7
370
    25
100
AcDbCircle
 10
409.9201838432
 20
244.975718603
 30
0.0
 40
1.15464793536815
100
AcDbArc
 50
268.9991289534
 51
270.0000100735
  0
ARC
  5
115
330
1F
100
AcDbEntity
  8
0
  6
Continuous
 62
     7
370
    25
100
AcDbCircle
 10
409.9201838432
 20
289.0748032929
 30
0.0
 40
1.154647935368207
100
AcDbArc
 50
89.9999899266
 51
91.0008710468
  0
LINE
  5
116
330
1F
100
AcDbEntity
  8
0
  6
Continuous
 62
     8
370
    25
100
AcDbLine
 10
470.5096267653
 20
267.025260948
 30
0.0
 11
470.5096267653
 21
250.1324323514
 31
0.0
  0
LINE
  5
117
330
1F
100
AcDbEntity
  8
0
  6
Continuous
 62
     8
370
    25
100
AcDbLine
 10
470.5096267653
 20
283.9180895445
 30
0.0
 11
470.5096267653
 21
267.025260948
 31
0.0
  0
LINE
  5
118
330
1F
100
AcDbEntity
  8
0
  6
Continuous
 62
     8
370
    25
100
AcDbLine
 10
479.6885122035
 20
267.025260948
 30
0.0
 11
479.6885122035
 21
282.249201283
 31
0.0
  0
LINE
  5
119
330
1F
100
AcDbEntity
  8
0
  6
Continuous
 62
     8
370
    25
100
AcDbLine
 10
479.6885122035
 20
251.8013206129
 30
0.0
 11
479.6885122035
 21
267.025260948
 31
0.0
  0
LINE
  5
11A
330
1F
100
AcDbEntity
  8
0
  6
Continuous
 62
     8
370
    25
100
AcDbLine
 10
442.0231892868
 20
267.025260948
 30
0.0
 11
442.0231892868
 21
250.1522094197
 31
0.0
  0
LINE
  5
11B
330
1F
100
AcDbEntity
  8
0
  6
Continuous
 62
     8
370
    25
100
AcDbLine
 10
442.0231892868
 20
283.8983124763
 30
0.0
 11
442.0231892868
 21
267.025260948
 31
0.0
  0
LINE
  5
11C
330
1F
100
AcDbEntity
  8
0
  6
Continuous
 62
     8
370
    25
100
AcDbLine
 10
451.5231892868
 20
267.025260948
 30
0.0
 11
451.5231892868
 21
250.1522094197
 31
0.0
  0
LINE
  5
11D
330
1F
100
AcDbEntity
  8
0
  6
Continuous
 62
     8
370
    25
100
AcDbLine
 10
451.5231892868
 20
283.8983124763
 30
0.0
 11
451.5231892868
 21
267.025260948
 31
0.0
  0
LINE
  5
11E
330
1F
100
AcDbEntity
  8
0
  6
Continuous
 62
     8
370
    25
100
AcDbLine
 10
461.0231892868
 20
267.025260948
 30
0.0
 11
461.0231892868
 21
250.1522094197
 31
0.0
  0
LINE
  5
11F
330
1F
100
AcDbEntity
  8
0
  6
Continuous
 62
     8
370
    25
100
AcDbLine
 10
461.0231892868
 20
283.8983124763
 30
0.0
 11
461.0231892868
 21
267.025260948
 31
0.0
  0
LINE
  5
120
330
1F
100
AcDbEntity
  8
0
  6
Continuous
 62
     7
370
    18
100
AcDbLine
 10
385.7122964292
 20
286.4354983309
 30
0.0
 11
408.9201840462
 21
287.1607448189
 31
0.0
  0
LINE
  5
121
330
1F
100
AcDbEntity
  8
0
  6
Continuous
 62
     7
370
    18
100
AcDbLine
 10
385.7122964292
 20
247.615023565
 30
0.0
 11
408.9201840462
 21
246.889777077
 31
0.0
  0
LINE
  5
122
330
1F
100
AcDbEntity
  8
0
  6
Continuous
 62
     7
370
    18
100
AcDbLine
 10
408.9201840462
 20
245.717135948
 30
0.0
 11
408.9201840462
 21
288.333385948
 31
0.0
  0
LINE
  5
123
330
1F
100
AcDbEntity
  8
0
  6
CENTERX2
 62
     7
370
    18
100
AcDbLine
 10
418.9201840462
 20
267.025260948
 30
0.0
 11
483.6885122035
 21
267.025260948
 31
0.0
  0
LINE
  5
124
330
1F
100
AcDbEntity
  8
0
  6
CENTERX2
 62
     7
370
    18
100
AcDbLine
 10
412.9201840462
 20
267.025260948
 30
0.0
 11
382.9227646914
 21
267.025260948
 31
0.0
  0
LINE
  5
125
330
1F
100
AcDbEntity
  8
0
  6
CENTERX2
 62
     7
370
    18
100
AcDbLine
 10
407.0546201802
 20
267.025260948
 30
0.0
 11
424.7857479122
 21
267.025260948
 31
0.0
  0
CIRCLE
  5
126
330
1F
100
AcDbEntity
  8
0
  6
Continuous
 62
     7
370
    25
100
AcDbCircle
 10
551.6930511227
 20
267.025260948
 30
0.0
 40
16.90089364147735
  0
CIRCLE
  5
127
330
1F
100
AcDbEntity
  8
0
  6
Continuous
 62
     7
370
    25
100
AcDbCircle
 10
551.6930511227
 20
267.025260948
 30
0.0
 40
15.22394033503633
  0
CIRCLE
  5
128
330
1F
100
AcDbEntity
  8
0
  6
Continuous
 62
     7
370
    25
100
AcDbCircle
 10
551.6930511227
 20
267.025260948
 30
0.0
 40
13.74813546988651
  0
CIRCLE
  5
129
330
1F
100
AcDbEntity
  8
0
  6
Continuous
 62
     7
370
    25
100
AcDbCircle
 10
551.6930511227
 20
267.025260948
 30
0.0
 40
12.5
  0
CIRCLE
  5
12A
330
1F
100
AcDbEntity
  8
0
  6
Continuous
 62
     7
370
    25
100
AcDbCircle
 10
551.6930511227
 20
267.025260948
 30
0.0
 40
12.0
  0
CIRCLE
  5
12B
330
1F
100
AcDbEntity
  8
0
  6
Continuous
 62
     7
370
    25
100
AcDbCircle
 10
551.6930511227
 20
267.025260948
 30
0.0
 40
16.89282859652724
  0
CIRCLE
  5
12C
330
1F
100
AcDbEntity
  8
0
  6
Continuous
 62
     7
370
    25
100
AcDbCircle
 10
551.6930511227
 20
267.025260948
 30
0.0
 40
17.00000000000011
  0
CIRCLE
  5
12D
330
1F
100
AcDbEntity
  8
0
  6
Continuous
 62
     7
370
    25
100
AcDbCircle
 10
551.6930511227
 20
267.025260948
 30
0.0
 40
22.0
  0
SPLINE
  5
12E
330
1F
100
AcDbEntity
  8
0
  6
Continuous
 62
     7
370
    25
100
AcDbSpline
210
0.0
220
0.0
230
1.0
 70
     8
 71
     3
 72
    10
 73
     6
 74
     0
 42
0.000000001
 43
0.00000001
 40
0.0
 40
0.0
 40
0.0
 40
0.0
 40
0.5
 40
0.5
 40
1.0
 40
1.0
 40
1.0
 40
1.0
 10
573.693051122743
 20
280.304317139338
 30
0.0
 10
573.8417253354362
 20
280.218480042618
 30
0.0
 10
573.9703712338948
 20
280.0916145103251
 30
0.0
 10
574.1468775158911
 20
279.786533627017
 30
0.0
 10
574.193051122743
 20
279.6100336993356
 30
0.0
 10
574.193051122743
 20
279.4382917355535
 30
0.0
  0
SPLINE
  5
12F
330
1F
100
AcDbEntity
  8
0
  6
Continuous
 62
     7
370
    25
100
AcDbSpline
210
0.0
220
0.0
230
1.0
 70
    24
 71
     3
 72
    20
 73
    16
 74
     0
 42
0.000000001
 43
0.00000001
 40
0.0
 40
0.0
 40
0.0
 40
0.0
 40
0.1249999999999999
 40
0.1249999999999999
 40
0.2499999999999998
 40
0.2499999999999998
 40
0.4999999999999997
 40
0.4999999999999997
 40
0.6249999999999997
 40
0.6249999999999997
 40
0.6874999999999998
 40
0.6874999999999998
 40
0.7499999999999997
 40
0.7499999999999997
 40
1.0
 40
1.0
 40
1.0
 40
1.0
 10
574.193051122743
 20
279.4382917355535
 30
0.0
 10
574.193051122743
 20
278.4262944213282
 30
0.0
 10
574.193051122743
 20
277.403255933713
 30
0.0
 10
574.193051122743
 20
275.3420936949138
 30
0.0
 10
574.193051122743
 20
274.3091125958732
 30
0.0
 10
574.193051122743
 20
271.2018656984313
 30
0.0
 10
574.193051122743
 20
269.1191385715764
 30
0.0
 10
574.193051122743
 20
265.9755456240884
 30
0.0
 10
574.193051122743
 20
264.924466600456
 30
0.0
 10
574.193051122743
 20
263.3430785501554
 30
0.0
 10
574.1930511227431
 20
262.8160021776864
 30
0.0
 10
574.1930511227431
 20
261.769201384078
 30
0.0
 10
574.193051122743
 20
261.2484007414489
 30
0.0
 10
574.1930511227431
 20
258.6564331381404
 30
0.0
 10
574.1930511227431
 20
256.6212605266526
 30
0.0
 10
574.1930511227431
 20
254.6122301603996
 30
0.0
  0
SPLINE
  5
130
330
1F
100
AcDbEntity
  8
0
  6
Continuous
 62
     7
370
    25
100
AcDbSpline
210
0.0
220
0.0
230
1.0
 70
     8
 71
     3
 72
    10
 73
     6
 74
     0
 42
0.000000001
 43
0.00000001
 40
0.0
 40
0.0
 40
0.0
 40
0.0
 40
0.5
 40
0.5
 40
1.0
 40
1.0
 40
1.0
 40
1.0
 10
574.1930511227431
 20
254.6122301603996
 30
0.0
 10
574.1930511227431
 20
254.4405550353084
 30
0.0
 10
574.147504954496
 20
254.2657118607591
 30
0.0
 10
573.971550627191
 20
253.9603133171537
 30
0.0
 10
573.8417836181281
 20
253.832075502863
 30
0.0
 10
573.6930511227431
 20
253.7462047566152
 30
0.0
  0
SPLINE
  5
131
330
1F
100
AcDbEntity
  8
0
  6
Continuous
 62
     7
370
    25
100
AcDbSpline
210
0.0
220
0.0
230
1.0
 70
    24
 71
     3
 72
    16
 73
    12
 74
     0
 42
0.000000001
 43
0.00000001
 40
0.0
 40
0.0
 40
0.0
 40
0.0
 40
0.25
 40
0.25
 40
0.5
 40
0.5
 40
0.6250000000000001
 40
0.6250000000000001
 40
0.7500000000000002
 40
0.7500000000000002
 40
1.0
 40
1.0
 40
1.0
 40
1.0
 10
552.193051122743
 20
241.3331739690381
 30
0.0
 10
553.9505118197301
 20
242.3478443755339
 30
0.0
 10
555.7196986325929
 20
243.3692848581869
 30
0.0
 10
559.2909075587083
 20
245.4311232930121
 30
0.0
 10
561.0931419204592
 20
246.4716437869117
 30
0.0
 10
563.8261622671193
 20
248.0495538197567
 30
0.0
 10
564.7440382031951
 20
248.5794897385327
 30
0.0
 10
566.5615591085954
 20
249.6288359225233
 30
0.0
 10
567.4644944198685
 20
250.1501458675477
 30
0.0
 10
570.1577957832469
 20
251.7051241347029
 30
0.0
 10
571.9326980403252
 20
252.7298644306124
 30
0.0
 10
573.6930511227431
 20
253.7462047566152
 30
0.0
  0
SPLINE
  5
132
330
1F
100
AcDbEntity
  8
0
  6
Continuous
 62
     7
370
    25
100
AcDbSpline
210
0.0
220
0.0
230
1.0
 70
     8
 71
     3
 72
    10
 73
     6
 74
     0
 42
0.000000001
 43
0.00000001
 40
0.0
 40
0.0
 40
0.0
 40
0.0
 40
0.5
 40
0.5
 40
1.0
 40
1.0
 40
1.0
 40
1.0
 10
552.193051122743
 20
241.3331739690381
 30
0.0
 10
552.044376882589
 20
241.2473368564636
 30
0.0
 10
551.8701851224108
 20
241.1993590045993
 30
0.0
 10
551.51772411512
 20
241.1990405573511
 30
0.0
 10
551.3417836580752
 20
241.2473031997269
 30
0.0
 10
551.193051122743
 20
241.3331739690381
 30
0.0
  0
SPLINE
  5
133
330
1F
100
AcDbEntity
  8
0
  6
Continuous
 62
     7
370
    25
100
AcDbSpline
210
0.0
220
0.0
230
1.0
 70
    24
 71
     3
 72
    16
 73
    12
 74
     0
 42
0.000000001
 43
0.00000001
 40
0.0
 40
0.0
 40
0.0
 40
0.0
 40
0.2500000000000002
 40
0.2500000000000002
 40
0.5000000000000003
 40
0.5000000000000003
 40
0.6250000000000003
 40
0.6250000000000003
 40
0.7500000000000002
 40
0.7500000000000002
 40
1.0
 40
1.0
 40
1.0
 40
1.0
 10
529.6930511227431
 20
253.7462047566148
 30
0.0
 10
531.4505118197302
 20
252.7315343501192
 30
0.0
 10
533.219698632593
 20
251.7100938674662
 30
0.0
 10
536.7909075587085
 20
249.648255432641
 30
0.0
 10
538.5931419204593
 20
248.6077349387414
 30
0.0
 10
541.3261622671193
 20
247.0298249058965
 30
0.0
 10
542.2440382031953
 20
246.4998889871205
 30
0.0
 10
544.0615591085955
 20
245.4505428031299
 30
0.0
 10
544.9644944198686
 20
244.9292328581055
 30
0.0
 10
547.6577957832468
 20
243.3742545909503
 30
0.0
 10
549.4326980403252
 20
242.3495142950408
 30
0.0
 10
551.1930511227431
 20
241.3331739690381
 30
0.0
  0
SPLINE
  5
134
330
1F
100
AcDbEntity
  8
0
  6
Continuous
 62
     7
370
    25
100
AcDbSpline
210
0.0
220
0.0
230
1.0
 70
     8
 71
     3
 72
    10
 73
     6
 74
     0
 42
0.000000001
 43
0.00000001
 40
0.0
 40
0.0
 40
0.0
 40
0.0
 40
0.5
 40
0.5
 40
1.0
 40
1.0
 40
1.0
 40
1.0
 10
529.6930511227431
 20
253.7462047566148
 30
0.0
 10
529.54437691005
 20
253.8320418533349
 30
0.0
 10
529.4157310115914
 20
253.9589073856278
 30
0.0
 10
529.2392247295951
 20
254.2639882689358
 30
0.0
 10
529.1930511227432
 20
254.4404881966173
 30
0.0
 10
529.1930511227432
 20
254.6122301603993
 30
0.0
  0
SPLINE
  5
135
330
1F
100
AcDbEntity
  8
0
  6
Continuous
 62
     7
370
    25
100
AcDbSpline
210
0.0
220
0.0
230
1.0
 70
    24
 71
     3
 72
    20
 73
    16
 74
     0
 42
0.000000001
 43
0.00000001
 40
0.0
 40
0.0
 40
0.0
 40
0.0
 40
0.125
 40
0.125
 40
0.2500000000000001
 40
0.2500000000000001
 40
0.5000000000000001
 40
0.5000000000000001
 40
0.6250000000000001
 40
0.6250000000000001
 40
0.6875000000000001
 40
0.6875000000000001
 40
0.7500000000000002
 40
0.7500000000000002
 40
1.0
 40
1.0
 40
1.0
 40
1.0
 10
529.193051122743
 20
279.4382917355533
 30
0.0
 10
529.193051122743
 20
278.4262944213279
 30
0.0
 10
529.193051122743
 20
277.4032559337126
 30
0.0
 10
529.193051122743
 20
275.3420936949136
 30
0.0
 10
529.193051122743
 20
274.3091125958729
 30
0.0
 10
529.193051122743
 20
271.201865698431
 30
0.0
 10
529.1930511227431
 20
269.1191385715761
 30
0.0
 10
529.1930511227431
 20
265.9755456240881
 30
0.0
 10
529.1930511227431
 20
264.9244666004557
 30
0.0
 10
529.1930511227431
 20
263.3430785501552
 30
0.0
 10
529.1930511227431
 20
262.8160021776861
 30
0.0
 10
529.1930511227431
 20
261.7692013840778
 30
0.0
 10
529.1930511227431
 20
261.2484007414486
 30
0.0
 10
529.1930511227431
 20
258.6564331381401
 30
0.0
 10
529.1930511227432
 20
256.6212605266523
 30
0.0
 10
529.1930511227432
 20
254.6122301603993
 30
0.0
  0
SPLINE
  5
136
330
1F
100
AcDbEntity
  8
0
  6
Continuous
 62
     7
370
    25
100
AcDbSpline
210
0.0
220
0.0
230
1.0
 70
     8
 71
     3
 72
    10
 73
     6
 74
     0
 42
0.000000001
 43
0.00000001
 40
0.0
 40
0.0
 40
0.0
 40
0.0
 40
0.5
 40
0.5
 40
1.0
 40
1.0
 40
1.0
 40
1.0
 10
529.193051122743
 20
279.4382917355533
 30
0.0
 10
529.193051122743
 20
279.6099668606444
 30
0.0
 10
529.2385972909901
 20
279.7848100351938
 30
0.0
 10
529.4145516182949
 20
280.0902085787991
 30
0.0
 10
529.5443186273578
 20
280.2184463930899
 30
0.0
 10
529.6930511227429
 20
280.3043171393377
 30
0.0
  0
SPLINE
  5
137
330
1F
100
AcDbEntity
  8
0
  6
Continuous
 62
     7
370
    25
100
AcDbSpline
210
0.0
220
0.0
230
1.0
 70
    24
 71
     3
 72
    16
 73
    12
 74
     0
 42
0.000000001
 43
0.00000001
 40
0.0
 40
0.0
 40
0.0
 40
0.0
 40
0.2499999999999999
 40
0.2499999999999999
 40
0.4999999999999998
 40
0.4999999999999998
 40
0.6249999999999998
 40
0.6249999999999998
 40
0.7499999999999997
 40
0.7499999999999997
 40
1.0
 40
1.0
 40
1.0
 40
1.0
 10
551.1930511227429
 20
292.7173479269149
 30
0.0
 10
549.4355904257558
 20
291.7026775204192
 30
0.0
 10
547.6664036128931
 20
290.6812370377662
 30
0.0
 10
544.0951946867776
 20
288.6193986029409
 30
0.0
 10
542.2929603250267
 20
287.5788781090413
 30
0.0
 10
539.5599399783666
 20
286.0009680761963
 30
0.0
 10
538.6420640422907
 20
285.4710321574202
 30
0.0
 10
536.8245431368905
 20
284.4216859734296
 30
0.0
 10
535.9216078256172
 20
283.9003760284052
 30
0.0
 10
533.2283064622391
 20
282.34539776125
 30
0.0
 10
531.4534042051607
 20
281.3206574653404
 30
0.0
 10
529.6930511227429
 20
280.3043171393377
 30
0.0
  0
SPLINE
  5
138
330
1F
100
AcDbEntity
  8
0
  6
Continuous
 62
     7
370
    25
100
AcDbSpline
210
0.0
220
0.0
230
1.0
 70
     8
 71
     3
 72
    10
 73
     6
 74
     0
 42
0.000000001
 43
0.00000001
 40
0.0
 40
0.0
 40
0.0
 40
0.0
 40
0.5
 40
0.5
 40
1.0
 40
1.0
 40
1.0
 40
1.0
 10
551.1930511227429
 20
292.7173479269149
 30
0.0
 10
551.3417253628969
 20
292.8031850394894
 30
0.0
 10
551.515917123075
 20
292.8511628913538
 30
0.0
 10
551.8683781303658
 20
292.8514813386019
 30
0.0
 10
552.0443185874108
 20
292.8032186962262
 30
0.0
 10
552.1930511227429
 20
292.7173479269149
 30
0.0
  0
SPLINE
  5
139
330
1F
100
AcDbEntity
  8
0
  6
Continuous
 62
     7
370
    25
100
AcDbSpline
210
0.0
220
0.0
230
1.0
 70
    24
 71
     3
 72
    16
 73
    12
 74
     0
 42
0.000000001
 43
0.00000001
 40
0.0
 40
0.0
 40
0.0
 40
0.0
 40
0.2499999999999998
 40
0.2499999999999998
 40
0.4999999999999996
 40
0.4999999999999996
 40
0.6249999999999997
 40
0.6249999999999997
 40
0.7499999999999998
 40
0.7499999999999998
 40
1.0
 40
1.0
 40
1.0
 40
1.0
 10
573.6930511227431
 20
280.304317139338
 30
0.0
 10
571.9355904257558
 20
281.3189875458337
 30
0.0
 10
570.1664036128932
 20
282.3404280284867
 30
0.0
 10
566.5951946867776
 20
284.4022664633119
 30
0.0
 10
564.7929603250268
 20
285.4427869572115
 30
0.0
 10
562.0599399783665
 20
287.0206969900564
 30
0.0
 10
561.1420640422908
 20
287.5506329088325
 30
0.0
 10
559.3245431368905
 20
288.5999790928231
 30
0.0
 10
558.4216078256173
 20
289.1212890378475
 30
0.0
 10
555.7283064622392
 20
290.6762673050027
 30
0.0
 10
553.9534042051607
 20
291.7010076009122
 30
0.0
 10
552.1930511227429
 20
292.7173479269149
 30
0.0
  0
INSERT
  5
145
330
1F
100
AcDbEntity
  8
0
  6
Continuous
 62
     7
370
    18
100
AcDbBlockReference
  2
SW_CENTERMARKSYMBOL_0
 10
551.6930511227
 20
267.025260948
 30
0.0
  0
LINE
  5
146
330
1F
100
AcDbEntity
  8
0
  6
Continuous
 62
     7
370
    25
100
AcDbLine
 10
422.6315089116
 20
330.2755140747
 30
0.0
 11
422.9201840462
 21
330.7755140747
 31
0.0
  0
LINE
  5
147
330
1F
100
AcDbEntity
  8
0
  6
Continuous
 62
     7
370
    25
100
AcDbLine
 10
422.9201840462
 20
374.7755140747
 30
0.0
 11
422.6315089116
 21
375.2755140747
 31
0.0
  0
LINE
  5
148
330
1F
100
AcDbEntity
  8
0
  6
Continuous
 62
     7
370
    25
100
AcDbLine
 10
409.1789640082
 20
375.2237341168
 30
0.0
 11
408.9201840462
 21
374.7755140747
 31
0.0
  0
LINE
  5
149
330
1F
100
AcDbEntity
  8
0
  6
Continuous
 62
     7
370
    25
100
AcDbLine
 10
408.9201840462
 20
330.7755140747
 30
0.0
 11
409.1789640082
 21
330.3272940326
 31
0.0
  0
LINE
  5
14A
330
1F
100
AcDbEntity
  8
0
  6
Continuous
 62
     7
370
    25
100
AcDbLine
 10
408.9201840462
 20
374.0836390747
 30
0.0
 11
386.9227646914
 21
373.3962197199
 31
0.0
  0
LINE
  5
14B
330
1F
100
AcDbEntity
  8
0
  6
Continuous
 62
     7
370
    25
100
AcDbLine
 10
386.9227646914
 20
332.1548084296
 30
0.0
 11
408.9201840462
 21
331.4673890747
 31
0.0
  0
LINE
  5
14C
330
1F
100
AcDbEntity
  8
0
  6
Continuous
 62
     7
370
    25
100
AcDbLine
 10
386.9227646914
 20
373.3962197199
 30
0.0
 11
384.9201840462
 21
371.3936390747
 31
0.0
  0
LINE
  5
14D
330
1F
100
AcDbEntity
  8
0
  6
Continuous
 62
     7
370
    25
100
AcDbLine
 10
384.9201840462
 20
334.1573890747
 30
0.0
 11
386.9227646914
 21
332.1548084296
 31
0.0
  0
LINE
  5
14E
330
1F
100
AcDbEntity
  8
0
  6
Continuous
 62
     7
370
    25
100
AcDbLine
 10
431.9201840462
 20
335.7755140747
 30
0.0
 11
441.4201840462
 21
337.7755140747
 31
0.0
  0
LINE
  5
14F
330
1F
100
AcDbEntity
  8
0
  6
Continuous
 62
     7
370
    25
100
AcDbLine
 10
441.4201840462
 20
367.7755140747
 30
0.0
 11
431.9201840462
 21
369.7755140747
 31
0.0
  0
LINE
  5
150
330
1F
100
AcDbEntity
  8
0
  6
Continuous
 62
     7
370
    25
100
AcDbLine
 10
422.9201840462
 20
335.7755140747
 30
0.0
 11
431.9201840462
 21
335.7755140747
 31
0.0
  0
LINE
  5
151
330
1F
100
AcDbEntity
  8
0
  6
Continuous
 62
     7
370
    25
100
AcDbLine
 10
431.9201840462
 20
369.7755140747
 30
0.0
 11
422.9201840462
 21
369.7755140747
 31
0.0
  0
ARC
  5
152
330
1F
100
AcDbEntity
  8
0
  6
Continuous
 62
     7
370
    25
100
AcDbCircle
 10
470.4201840462
 20
369.1764077162
 30
0.0
 40
0.5000000000000037
100
AcDbArc
 50
79.6951535312
 51
180.0
  0
ARC
  5
153
330
1F
100
AcDbEntity
  8
0
  6
Continuous
 62
     7
370
    25
100
AcDbCircle
 10
470.4201840462
 20
336.3746204333
 30
0.0
 40
0.5000000000000037
100
AcDbArc
 50
180.0
 51
280.3048464688
  0
LINE
  5
154
330
1F
100
AcDbEntity
  8
0
  6
Continuous
 62
     7
370
    25
100
AcDbLine
 10
470.5096267653
 20
335.8826854782
 30
0.0
 11
479.6885122035
 21
337.5515737397
 31
0.0
  0
LINE
  5
155
330
1F
100
AcDbEntity
  8
0
  6
Continuous
 62
     7
370
    25
100
AcDbLine
 10
479.6885122035
 20
367.9994544098
 30
0.0
 11
470.5096267653
 21
369.6683426713
 31
0.0
  0
ARC
  5
156
330
1F
100
AcDbEntity
  8
0
  6
Continuous
 62
     7
370
    25
100
AcDbCircle
 10
460.9201840462
 20
369.1592907105
 30
0.0
 40
0.5000000000000366
100
AcDbArc
 50
78.1113419604
 51
180.0
  0
ARC
  5
157
330
1F
100
AcDbEntity
  8
0
  6
Continuous
 62
     7
370
    25
100
AcDbCircle
 10
460.9201840462
 20
336.3917374389
 30
0.0
 40
0.5000000000000366
100
AcDbArc
 50
180.0
 51
281.8886580396
  0
ARC
  5
158
330
1F
100
AcDbEntity
  8
0
  6
Continuous
 62
     7
370
    25
100
AcDbCircle
 10
451.4201840462
 20
369.1592907105
 30
0.0
 40
0.5000000000000484
100
AcDbArc
 50
78.1113419604
 51
180.0
  0
ARC
  5
159
330
1F
100
AcDbEntity
  8
0
  6
Continuous
 62
     7
370
    25
100
AcDbCircle
 10
451.4201840462
 20
336.3917374389
 30
0.0
 40
0.5000000000000484
100
AcDbArc
 50
180.0
 51
281.8886580396
  0
ARC
  5
15A
330
1F
100
AcDbEntity
  8
0
  6
Continuous
 62
     7
370
    25
100
AcDbCircle
 10
441.9201840462
 20
369.1592907105
 30
0.0
 40
0.5000000000000366
100
AcDbArc
 50
78.1113419604
 51
180.0
  0
ARC
  5
15B
330
1F
100
AcDbEntity
  8
0
  6
Continuous
 62
     7
370
    25
100
AcDbCircle
 10
441.9201840462
 20
336.3917374389
 30
0.0
 40
0.5000000000000366
100
AcDbArc
 50
180.0
 51
281.8886580396
  0
LINE
  5
15C
330
1F
100
AcDbEntity
  8
0
  6
Continuous
 62
     7
370
    25
100
AcDbLine
 10
461.0231892868
 20
335.9024625464
 30
0.0
 11
469.9201840462
 21
337.7755140747
 31
0.0
  0
LINE
  5
15D
330
1F
100
AcDbEntity
  8
0
  6
Continuous
 62
     7
370
    25
100
AcDbLine
 10
469.9201840462
 20
367.7755140747
 30
0.0
 11
461.0231892868
 21
369.648565603
 31
0.0
  0
LINE
  5
15E
330
1F
100
AcDbEntity
  8
0
  6
Continuous
 62
     7
370
    25
100
AcDbLine
 10
451.5231892868
 20
335.9024625464
 30
0.0
 11
460.4201840462
 21
337.7755140747
 31
0.0
  0
LINE
  5
15F
330
1F
100
AcDbEntity
  8
0
  6
Continuous
 62
     7
370
    25
100
AcDbLine
 10
460.4201840462
 20
367.7755140747
 30
0.0
 11
451.5231892868
 21
369.648565603
 31
0.0
  0
LINE
  5
160
330
1F
100
AcDbEntity
  8
0
  6
Continuous
 62
     7
370
    25
100
AcDbLine
 10
442.0231892868
 20
335.9024625464
 30
0.0
 11
450.9201840462
 21
337.7755140747
 31
0.0
  0
LINE
  5
161
330
1F
100
AcDbEntity
  8
0
  6
Continuous
 62
     7
370
    25
100
AcDbLine
 10
450.9201840462
 20
367.7755140747
 30
0.0
 11
442.0231892868
 21
369.648565603
 31
0.0
  0
ARC
  5
162
330
1F
100
AcDbEntity
  8
0
  6
Continuous
 62
     7
370
    25
100
AcDbCircle
 10
479.4201840462
 20
339.0273786048
 30
0.0
 40
1.500000000000026
100
AcDbArc
 50
280.3048464688
 51
0.0
  0
ARC
  5
163
330
1F
100
AcDbEntity
  8
0
  6
Continuous
 62
     7
370
    25
100
AcDbCircle
 10
479.4201840462
 20
366.5236495446
 30
0.0
 40
1.500000000000026
100
AcDbArc
 50
0.0
 51
79.6951535312
  0
ARC
  5
164
330
1F
100
AcDbEntity
  8
0
  6
Continuous
 62
     7
370
    25
100
AcDbCircle
 10
409.5132056782
 20
374.2755149221
 30
0.0
 40
0.9999991526704654
100
AcDbArc
 50
90.04368119
 51
108.8488617443
  0
ARC
  5
165
330
1F
100
AcDbEntity
  8
0
  6
Continuous
 62
     7
370
    25
100
AcDbCircle
 10
409.5132056782
 20
331.2755132276
 30
0.0
 40
0.9999991528241827
100
AcDbArc
 50
251.1159165944
 51
269.9563188091
  0
LINE
  5
166
330
1F
100
AcDbEntity
  8
0
  6
Continuous
 62
     7
370
    25
100
AcDbLine
 10
422.9201840462
 20
374.7755140747
 30
0.0
 11
422.9201840462
 21
330.7755140747
 31
0.0
  0
SPLINE
  5
167
330
1F
100
AcDbEntity
  8
0
  6
Continuous
 62
     7
370
    25
100
AcDbSpline
210
0.0
220
0.0
230
1.0
 70
     8
 71
     3
 72
    10
 73
     6
 74
     0
 42
0.000000001
 43
0.00000001
 40
0.0
 40
0.0
 40
0.0
 40
0.0
 40
0.5
 40
0.5
 40
1.0
 40
1.0
 40
1.0
 40
1.0
 10
420.7857479122355
 20
374.7755140747309
 30
0.0
 10
420.7378694040058
 20
374.9241882874242
 30
0.0
 10
420.7112949705475
 20
375.0528341858827
 30
0.0
 10
420.7111182143805
 20
375.2293404678791
 30
0.0
 10
420.7378505034197
 20
375.2755140747309
 30
0.0
 10
420.7857479122355
 20
375.2755140747309
 30
0.0
  0
SPLINE
  5
168
330
1F
100
AcDbEntity
  8
0
  6
Continuous
 62
     7
370
    25
100
AcDbSpline
210
0.0
220
0.0
230
1.0
 70
    24
 71
     3
 72
    11
 73
     7
 74
     0
 42
0.000000001
 43
0.00000001
 40
0.0
 40
0.0
 40
0.0
 40
0.0
 40
0.2426370379030156
 40
0.5102656009558207
 40
0.7794374652225154
 40
1.0
 40
1.0
 40
1.0
 40
1.0
 10
422.6218584367916
 20
375.275514074731
 30
0.0
 10
422.6026824672521
 20
375.275514074731
 30
0.0
 10
422.5623554104041
 20
375.275514074731
 30
0.0
 10
422.1512070014795
 20
375.275514074731
 30
0.0
 10
421.5513680059256
 20
375.275514074731
 30
0.0
 10
421.0234894826971
 20
375.275514074731
 30
0.0
 10
420.7857479122355
 20
375.2755140747309
 30
0.0
  0
SPLINE
  5
169
330
1F
100
AcDbEntity
  8
0
  6
Continuous
 62
     7
370
    25
100
AcDbSpline
210
0.0
220
0.0
230
1.0
 70
    24
 71
     3
 72
    11
 73
     7
 74
     0
 42
0.000000001
 43
0.00000001
 40
0.0
 40
0.0
 40
0.0
 40
0.0
 40
0.2205615814642918
 40
0.4815865436785379
 40
0.743897568257806
 40
0.9999999999999999
 40
0.9999999999999999
 40
0.9999999999999999
 40
0.9999999999999999
 10
420.7857479122355
 20
330.2755140747309
 30
0.0
 10
421.0234963861713
 20
330.2755140747309
 30
0.0
 10
421.5426097560858
 20
330.2755140747309
 30
0.0
 10
422.1351945966198
 20
330.275514074731
 30
0.0
 10
422.5551902946735
 20
330.275514074731
 30
0.0
 10
422.6024508917001
 20
330.2755140747311
 30
0.0
 10
422.625798190418
 20
330.2755140747311
 30
0.0
  0
SPLINE
  5
16A
330
1F
100
AcDbEntity
  8
0
  6
Continuous
 62
     7
370
    25
100
AcDbSpline
210
0.0
220
0.0
230
1.0
 70
     8
 71
     3
 72
    10
 73
     6
 74
     0
 42
0.000000001
 43
0.00000001
 40
0.0
 40
0.0
 40
0.0
 40
0.0
 40
0.5
 40
0.5
 40
1.0
 40
1.0
 40
1.0
 40
1.0
 10
420.7857479122355
 20
330.2755140747309
 30
0.0
 10
420.737869144176
 20
330.2755140747309
 30
0.0
 10
420.711294934838
 20
330.3210602429781
 30
0.0
 10
420.711118249728
 20
330.4970145702829
 30
0.0
 10
420.7378506348575
 20
330.6267815793459
 30
0.0
 10
420.7857479122355
 20
330.7755140747309
 30
0.0
  0
SPLINE
  5
16B
330
1F
100
AcDbEntity
  8
0
  6
Continuous
 62
     7
370
    25
100
AcDbSpline
210
0.0
220
0.0
230
1.0
 70
     8
 71
     3
 72
    16
 73
    12
 74
     0
 42
0.000000001
 43
0.00000001
 40
0.0
 40
0.0
 40
0.0
 40
0.0
 40
0.2499999999999999
 40
0.2499999999999999
 40
0.4999999999999998
 40
0.4999999999999998
 40
0.6249999999999998
 40
0.6249999999999998
 40
0.7499999999999997
 40
0.7499999999999997
 40
1.0
 40
1.0
 40
1.0
 40
1.0
 10
420.7857479122356
 20
352.2755140747309
 30
0.0
 10
421.3517142282488
 20
350.5180533777437
 30
0.0
 10
421.8151878754607
 20
348.7488665648811
 30
0.0
 10
422.4551366783466
 20
345.1776576387656
 30
0.0
 10
422.6297566660149
 20
343.3754232770148
 30
0.0
 10
422.6323650667095
 20
340.6424029303546
 30
0.0
 10
422.5899484087432
 20
339.7245269942788
 30
0.0
 10
422.4230529419897
 20
337.9070060888785
 30
0.0
 10
422.2988467913343
 20
337.0040707776053
 30
0.0
 10
421.8177431189301
 20
334.3107694142271
 30
0.0
 10
421.3526456816403
 20
332.5358671571487
 30
0.0
 10
420.7857479122355
 20
330.7755140747309
 30
0.0
  0
SPLINE
  5
16C
330
1F
100
AcDbEntity
  8
0
  6
Continuous
 62
     7
370
    25
100
AcDbSpline
210
0.0
220
0.0
230
1.0
 70
     8
 71
     3
 72
    10
 73
     6
 74
     0
 42
0.000000001
 43
0.00000001
 40
0.0
 40
0.0
 40
0.0
 40
0.0
 40
0.5
 40
0.5
 40
1.0
 40
1.0
 40
1.0
 40
1.0
 10
420.7857479122355
 20
352.2755140747308
 30
0.0
 10
420.7378693951623
 20
352.424188314885
 30
0.0
 10
420.7112949607198
 20
352.598380075063
 30
0.0
 10
420.7111182241077
 20
352.9508410823539
 30
0.0
 10
420.7378506219931
 20
353.1267815393987
 30
0.0
 10
420.7857479122355
 20
353.2755140747308
 30
0.0
  0
SPLINE
  5
16D
330
1F
100
AcDbEntity
  8
0
  6
Continuous
 62
     7
370
    25
100
AcDbSpline
210
0.0
220
0.0
230
1.0
 70
     8
 71
     3
 72
    16
 73
    12
 74
     0
 42
0.000000001
 43
0.00000001
 40
0.0
 40
0.0
 40
0.0
 40
0.0
 40
0.2499999999999998
 40
0.2499999999999998
 40
0.4999999999999996
 40
0.4999999999999996
 40
0.6249999999999997
 40
0.6249999999999997
 40
0.7499999999999998
 40
0.7499999999999998
 40
1.0
 40
1.0
 40
1.0
 40
1.0
 10
420.7857479122356
 20
374.775514074731
 30
0.0
 10
421.3517142282488
 20
373.0180533777439
 30
0.0
 10
421.8151878754607
 20
371.2488665648812
 30
0.0
 10
422.4551366783466
 20
367.6776576387657
 30
0.0
 10
422.6297566660149
 20
365.8754232770148
 30
0.0
 10
422.6323650667095
 20
363.1424029303546
 30
0.0
 10
422.5899484087432
 20
362.2245269942788
 30
0.0
 10
422.4230529419897
 20
360.4070060888785
 30
0.0
 10
422.2988467913343
 20
359.5040707776053
 30
0.0
 10
421.8177431189301
 20
356.8107694142271
 30
0.0
 10
421.3526456816402
 20
355.0358671571487
 30
0.0
 10
420.7857479122355
 20
353.2755140747308
 30
0.0
  0
LINE
  5
16E
330
1F
100
AcDbEntity
  8
0
  6
Continuous
 62
     7
370
    25
100
AcDbLine
 10
408.9201840462
 20
330.7755140747
 30
0.0
 11
408.9201840462
 21
374.7755140747
 31
0.0
  0
SPLINE
  5
16F
330
1F
100
AcDbEntity
  8
0
  6
Continuous
 62
     7
370
    25
100
AcDbSpline
210
0.0
220
0.0
230
1.0
 70
     8
 71
     3
 72
    10
 73
     6
 74
     0
 42
0.000000001
 43
0.00000001
 40
0.0
 40
0.0
 40
0.0
 40
0.0
 40
0.4999999999999994
 40
0.4999999999999994
 40
1.0
 40
1.0
 40
1.0
 40
1.0
 10
409.3095859054205
 20
338.7462825613088
 30
0.0
 10
409.3670044457525
 20
338.1370683665181
 30
0.0
 10
409.4467535371707
 20
337.5265297865283
 30
0.0
 10
409.6496391906786
 20
336.3016135458857
 30
0.0
 10
409.7726874135711
 20
335.6878853460919
 30
0.0
 10
409.9000149071651
 20
335.0847792696243
 30
0.0
  0
SPLINE
  5
170
330
1F
100
AcDbEntity
  8
0
  6
Continuous
 62
     7
370
    25
100
AcDbSpline
210
0.0
220
0.0
230
1.0
 70
     8
 71
     3
 72
     8
 73
     4
 74
     0
 42
0.000000001
 43
0.00000001
 40
0.0
 40
0.0
 40
0.0
 40
0.0
 40
1.0
 40
1.0
 40
1.0
 40
1.0
 10
409.9000149071651
 20
335.0847792696243
 30
0.0
 10
409.9067310860876
 20
335.0529670646994
 30
0.0
 10
409.9134542110382
 20
335.0211894940041
 30
0.0
 10
409.9201840462423
 20
334.9894467059094
 30
0.0
  0
SPLINE
  5
171
330
1F
100
AcDbEntity
  8
0
  6
Continuous
 62
     7
370
    25
100
AcDbSpline
210
0.0
220
0.0
230
1.0
 70
     8
 71
     3
 72
    10
 73
     6
 74
     0
 42
0.000000001
 43
0.00000001
 40
0.0
 40
0.0
 40
0.0
 40
0.0
 40
0.5
 40
0.5
 40
1.0
 40
1.0
 40
1.0
 40
1.0
 10
411.0546201802491
 20
330.7755140747309
 30
0.0
 10
410.8312421724026
 20
331.4691561842596
 30
0.0
 10
410.6228536354054
 20
332.1676152153029
 30
0.0
 10
410.2417614206885
 20
333.5760007379902
 30
0.0
 10
410.0700529791213
 20
334.2825560267087
 30
0.0
 10
409.9201840462423
 20
334.9894467059094
 30
0.0
  0
SPLINE
  5
172
330
1F
100
AcDbEntity
  8
0
  6
Continuous
 62
     7
370
    25
100
AcDbSpline
210
0.0
220
0.0
230
1.0
 70
     8
 71
     3
 72
    10
 73
     6
 74
     0
 42
0.000000001
 43
0.00000001
 40
0.0
 40
0.0
 40
0.0
 40
0.0
 40
0.5
 40
0.5
 40
1.0
 40
1.0
 40
1.0
 40
1.0
 10
411.0546201802491
 20
330.7755140747309
 30
0.0
 10
411.1024986884789
 20
330.6268398620377
 30
0.0
 10
411.1290731219372
 20
330.4981939635792
 30
0.0
 10
411.1292498781041
 20
330.3216876815828
 30
0.0
 10
411.102517589065
 20
330.2755140747309
 30
0.0
 10
411.0546201802491
 20
330.2755140747309
 30
0.0
  0
SPLINE
  5
173
330
1F
100
AcDbEntity
  8
0
  6
Continuous
 62
     7
370
    25
100
AcDbSpline
210
0.0
220
0.0
230
1.0
 70
    24
 71
     3
 72
     8
 73
     4
 74
     0
 42
0.000000001
 43
0.00000001
 40
0.0
 40
0.0
 40
0.0
 40
0.0
 40
1.0
 40
1.0
 40
1.0
 40
1.0
 10
409.9201840462423
 20
330.2755140747309
 30
0.0
 10
410.2225814161638
 20
330.2755140747309
 30
0.0
 10
410.6087590454765
 20
330.2755140747309
 30
0.0
 10
411.0546201802491
 20
330.2755140747309
 30
0.0
  0
SPLINE
  5
174
330
1F
100
AcDbEntity
  8
0
  6
Continuous
 62
     7
370
    25
100
AcDbSpline
210
0.0
220
0.0
230
1.0
 70
     8
 71
     3
 72
     8
 73
     4
 74
     0
 42
0.000000001
 43
0.00000001
 40
0.0
 40
0.0
 40
0.0
 40
0.0
 40
1.0
 40
1.0
 40
1.0
 40
1.0
 10
409.9201840462423
 20
330.2755140747309
 30
0.0
 10
409.9134542500555
 20
330.2755140747309
 30
0.0
 10
409.9067311249601
 20
330.2755820046145
 30
0.0
 10
409.9000149071651
 20
330.2757174925059
 30
0.0
  0
SPLINE
  5
175
330
1F
100
AcDbEntity
  8
0
  6
Continuous
 62
     7
370
    25
100
AcDbSpline
210
0.0
220
0.0
230
1.0
 70
     8
 71
     3
 72
    10
 73
     6
 74
     0
 42
0.000000001
 43
0.00000001
 40
0.0
 40
0.0
 40
0.0
 40
0.0
 40
0.5
 40
0.5
 40
1.0
 40
1.0
 40
1.0
 40
1.0
 10
409.9000149071651
 20
330.2757174925059
 30
0.0
 10
409.7726802652647
 20
330.2782862451377
 30
0.0
 10
409.6496053764172
 20
330.3015532121793
 30
0.0
 10
409.4467328501994
 20
330.3298841532529
 30
0.0
 10
409.3670060679515
 20
330.3354493166944
 30
0.0
 10
409.3095859054205
 20
330.3341689505008
 30
0.0
  0
SPLINE
  5
176
330
1F
100
AcDbEntity
  8
0
  6
Continuous
 62
     7
370
    25
100
AcDbSpline
210
0.0
220
0.0
230
1.0
 70
     8
 71
     3
 72
     9
 73
     5
 74
     0
 42
0.000000001
 43
0.00000001
 40
0.0
 40
0.0
 40
0.0
 40
0.0
 40
0.6162505379627061
 40
1.0
 40
1.0
 40
1.0
 40
1.0
 10
409.3095859054205
 20
330.3341689505008
 30
0.0
 10
409.2602693480297
 20
330.3341428498653
 30
0.0
 10
409.1802425499131
 20
330.3341004959299
 30
0.0
 10
409.1879685709833
 20
330.3341757148266
 30
0.0
 10
409.1909334274127
 20
330.3342045800378
 30
0.0
  0
SPLINE
  5
177
330
1F
100
AcDbEntity
  8
0
  6
Continuous
 62
     7
370
    25
100
AcDbSpline
210
0.0
220
0.0
230
1.0
 70
     8
 71
     3
 72
     9
 73
     5
 74
     0
 42
0.000000001
 43
0.00000001
 40
0.0
 40
0.0
 40
0.0
 40
0.0
 40
0.3069721421293085
 40
0.9999999999999999
 40
0.9999999999999999
 40
0.9999999999999999
 40
0.9999999999999999
 10
409.1909334274127
 20
375.2168235694243
 30
0.0
 10
409.1869325819222
 20
375.2168001976827
 30
0.0
 10
409.1738993292539
 20
375.2167240613225
 30
0.0
 10
409.2540436550167
 20
375.2168038814141
 30
0.0
 10
409.3095859054205
 20
375.2168591989612
 30
0.0
  0
SPLINE
  5
178
330
1F
100
AcDbEntity
  8
0
  6
Continuous
 62
     7
370
    25
100
AcDbSpline
210
0.0
220
0.0
230
1.0
 70
     8
 71
     3
 72
    10
 73
     6
 74
     0
 42
0.000000001
 43
0.00000001
 40
0.0
 40
0.0
 40
0.0
 40
0.0
 40
0.5
 40
0.5
 40
1.0
 40
1.0
 40
1.0
 40
1.0
 10
409.3095859054205
 20
375.2168591989612
 30
0.0
 10
409.3670044457525
 20
375.2155788689398
 30
0.0
 10
409.4467535371707
 20
375.2211462572549
 30
0.0
 10
409.6496391906786
 20
375.2494802874472
 30
0.0
 10
409.7726874135711
 20
375.2727420485288
 30
0.0
 10
409.9000149071651
 20
375.2753106569561
 30
0.0
  0
SPLINE
  5
179
330
1F
100
AcDbEntity
  8
0
  6
Continuous
 62
     7
370
    25
100
AcDbSpline
210
0.0
220
0.0
230
1.0
 70
     8
 71
     3
 72
     8
 73
     4
 74
     0
 42
0.000000001
 43
0.00000001
 40
0.0
 40
0.0
 40
0.0
 40
0.0
 40
1.0
 40
1.0
 40
1.0
 40
1.0
 10
409.9000149071651
 20
375.2753106569561
 30
0.0
 10
409.9067311249601
 20
375.2754461448475
 30
0.0
 10
409.9134542500555
 20
375.275514074731
 30
0.0
 10
409.9201840462423
 20
375.275514074731
 30
0.0
  0
SPLINE
  5
17A
330
1F
100
AcDbEntity
  8
0
  6
Continuous
 62
     7
370
    25
100
AcDbSpline
210
0.0
220
0.0
230
1.0
 70
    24
 71
     3
 72
     8
 73
     4
 74
     0
 42
0.000000001
 43
0.00000001
 40
0.0
 40
0.0
 40
0.0
 40
0.0
 40
1.0
 40
1.0
 40
1.0
 40
1.0
 10
411.0546201802491
 20
375.2755140747309
 30
0.0
 10
410.608763928381
 20
375.275514074731
 30
0.0
 10
410.2224149608716
 20
375.275514074731
 30
0.0
 10
409.9201840462423
 20
375.275514074731
 30
0.0
  0
SPLINE
  5
17B
330
1F
100
AcDbEntity
  8
0
  6
Continuous
 62
     7
370
    25
100
AcDbSpline
210
0.0
220
0.0
230
1.0
 70
     8
 71
     3
 72
    10
 73
     6
 74
     0
 42
0.000000001
 43
0.00000001
 40
0.0
 40
0.0
 40
0.0
 40
0.0
 40
0.5
 40
0.5
 40
1.0
 40
1.0
 40
1.0
 40
1.0
 10
411.0546201802491
 20
375.2755140747309
 30
0.0
 10
411.1024989483087
 20
375.2755140747309
 30
0.0
 10
411.1290731576466
 20
375.2299679064838
 30
0.0
 10
411.1292498427567
 20
375.054013579179
 30
0.0
 10
411.1025174576271
 20
374.924246570116
 30
0.0
 10
411.0546201802491
 20
374.7755140747309
 30
0.0
  0
SPLINE
  5
17C
330
1F
100
AcDbEntity
  8
0
  6
Continuous
 62
     7
370
    25
100
AcDbSpline
210
0.0
220
0.0
230
1.0
 70
     8
 71
     3
 72
     8
 73
     4
 74
     0
 42
0.000000001
 43
0.00000001
 40
0.0
 40
0.0
 40
0.0
 40
0.0
 40
1.0
 40
1.0
 40
1.0
 40
1.0
 10
409.9201840462423
 20
370.5615814435524
 30
0.0
 10
410.2223733345194
 20
371.986925490073
 30
0.0
 10
410.6082602950649
 20
373.3894599355925
 30
0.0
 10
411.0546201802491
 20
374.7755140747309
 30
0.0
  0
SPLINE
  5
17D
330
1F
100
AcDbEntity
  8
0
  6
Continuous
 62
     7
370
    25
100
AcDbSpline
210
0.0
220
0.0
230
1.0
 70
     8
 71
     3
 72
     8
 73
     4
 74
     0
 42
0.000000001
 43
0.00000001
 40
0.0
 40
0.0
 40
0.0
 40
0.0
 40
1.0
 40
1.0
 40
1.0
 40
1.0
 10
409.9201840462423
 20
370.5615814435524
 30
0.0
 10
409.9134542110382
 20
370.5298386554578
 30
0.0
 10
409.9067310860876
 20
370.4980610847624
 30
0.0
 10
409.9000149071651
 20
370.4662488798376
 30
0.0
  0
SPLINE
  5
17E
330
1F
100
AcDbEntity
  8
0
  6
Continuous
 62
     7
370
    25
100
AcDbSpline
210
0.0
220
0.0
230
1.0
 70
     8
 71
     3
 72
    10
 73
     6
 74
     0
 42
0.000000001
 43
0.00000001
 40
0.0
 40
0.0
 40
0.0
 40
0.0
 40
0.4999999999999996
 40
0.4999999999999996
 40
1.0
 40
1.0
 40
1.0
 40
1.0
 10
409.9000149071651
 20
370.4662488798376
 30
0.0
 10
409.7726802652647
 20
369.8631089443269
 30
0.0
 10
409.6496053764172
 20
369.249232339256
 30
0.0
 10
409.4467328501994
 20
368.0243515717635
 30
0.0
 10
409.3670060679515
 20
367.4139769945739
 30
0.0
 10
409.3095859054205
 20
366.8047455881533
 30
0.0
  0
SPLINE
  5
17F
330
1F
100
AcDbEntity
  8
0
  6
Continuous
 62
     7
370
    25
100
AcDbSpline
210
0.0
220
0.0
230
1.0
 70
     8
 71
     3
 72
    10
 73
     6
 74
     0
 42
0.000000001
 43
0.00000001
 40
0.0
 40
0.0
 40
0.0
 40
0.0
 40
0.5
 40
0.5
 40
1.0
 40
1.0
 40
1.0
 40
1.0
 10
409.3095859054205
 20
366.8047455881534
 30
0.0
 10
409.2215618762596
 20
365.8708053009661
 30
0.0
 10
409.1747607670202
 20
364.93161582471
 30
0.0
 10
409.1748378400976
 20
363.0580486018766
 30
0.0
 10
409.2215697160352
 20
362.1234473947107
 30
0.0
 10
409.3095859054205
 20
361.187627685539
 30
0.0
  0
SPLINE
  5
180
330
1F
100
AcDbEntity
  8
0
  6
Continuous
 62
     7
370
    25
100
AcDbSpline
210
0.0
220
0.0
230
1.0
 70
     8
 71
     3
 72
    10
 73
     6
 74
     0
 42
0.000000001
 43
0.00000001
 40
0.0
 40
0.0
 40
0.0
 40
0.0
 40
0.5
 40
0.5
 40
1.0
 40
1.0
 40
1.0
 40
1.0
 10
409.3095859054205
 20
361.187627685539
 30
0.0
 10
409.3670044457525
 20
360.5771331607269
 30
0.0
 10
409.4467535371707
 20
359.9721619690522
 30
0.0
 10
409.6496391906786
 20
358.7755797586019
 30
0.0
 10
409.7726874135711
 20
358.1851133198898
 30
0.0
 10
409.9000149071651
 20
357.5845758518493
 30
0.0
  0
SPLINE
  5
181
330
1F
100
AcDbEntity
  8
0
  6
Continuous
 62
     7
370
    25
100
AcDbSpline
210
0.0
220
0.0
230
1.0
 70
     8
 71
     3
 72
     8
 73
     4
 74
     0
 42
0.000000001
 43
0.00000001
 40
0.0
 40
0.0
 40
0.0
 40
0.0
 40
1.0
 40
1.0
 40
1.0
 40
1.0
 10
409.9000149071651
 20
357.5845758518493
 30
0.0
 10
409.9067311123695
 20
357.5528990100734
 30
0.0
 10
409.9134542374181
 20
357.5211893695773
 30
0.0
 10
409.9201840462423
 20
357.4894467059094
 30
0.0
  0
SPLINE
  5
182
330
1F
100
AcDbEntity
  8
0
  6
Continuous
 62
     7
370
    25
100
AcDbSpline
210
0.0
220
0.0
230
1.0
 70
     8
 71
     3
 72
    10
 73
     6
 74
     0
 42
0.000000001
 43
0.00000001
 40
0.0
 40
0.0
 40
0.0
 40
0.0
 40
0.5
 40
0.5
 40
1.0
 40
1.0
 40
1.0
 40
1.0
 10
411.0546201802491
 20
353.2755140747308
 30
0.0
 10
410.8312421724026
 20
353.9691561842596
 30
0.0
 10
410.6228536354054
 20
354.6676152153028
 30
0.0
 10
410.2417614206885
 20
356.0760007379901
 30
0.0
 10
410.0700529791213
 20
356.7825560267087
 30
0.0
 10
409.9201840462423
 20
357.4894467059094
 30
0.0
  0
SPLINE
  5
183
330
1F
100
AcDbEntity
  8
0
  6
Continuous
 62
     7
370
    25
100
AcDbSpline
210
0.0
220
0.0
230
1.0
 70
     8
 71
     3
 72
    10
 73
     6
 74
     0
 42
0.000000001
 43
0.00000001
 40
0.0
 40
0.0
 40
0.0
 40
0.0
 40
0.5
 40
0.5
 40
1.0
 40
1.0
 40
1.0
 40
1.0
 10
411.0546201802491
 20
353.2755140747308
 30
0.0
 10
411.1024986973223
 20
353.1268398345767
 30
0.0
 10
411.1290731317648
 20
352.9526480743987
 30
0.0
 10
411.1292498683769
 20
352.6001870671078
 30
0.0
 10
411.1025174704915
 20
352.424246610063
 30
0.0
 10
411.0546201802491
 20
352.2755140747308
 30
0.0
  0
SPLINE
  5
184
330
1F
100
AcDbEntity
  8
0
  6
Continuous
 62
     7
370
    25
100
AcDbSpline
210
0.0
220
0.0
230
1.0
 70
     8
 71
     3
 72
     8
 73
     4
 74
     0
 42
0.000000001
 43
0.00000001
 40
0.0
 40
0.0
 40
0.0
 40
0.0
 40
1.0
 40
1.0
 40
1.0
 40
1.0
 10
409.9201840462423
 20
348.0615814435523
 30
0.0
 10
410.2223733345194
 20
349.4869254900728
 30
0.0
 10
410.6082602950649
 20
350.8894599355925
 30
0.0
 10
411.0546201802491
 20
352.2755140747308
 30
0.0
  0
SPLINE
  5
185
330
1F
100
AcDbEntity
  8
0
  6
Continuous
 62
     7
370
    25
100
AcDbSpline
210
0.0
220
0.0
230
1.0
 70
     8
 71
     3
 72
     8
 73
     4
 74
     0
 42
0.000000001
 43
0.00000001
 40
0.0
 40
0.0
 40
0.0
 40
0.0
 40
1.0
 40
1.0
 40
1.0
 40
1.0
 10
409.9201840462423
 20
348.0615814435523
 30
0.0
 10
409.9134542374181
 20
348.0298387798845
 30
0.0
 10
409.9067311123695
 20
347.9981291393884
 30
0.0
 10
409.9000149071651
 20
347.9664522976124
 30
0.0
  0
SPLINE
  5
186
330
1F
100
AcDbEntity
  8
0
  6
Continuous
 62
     7
370
    25
100
AcDbSpline
210
0.0
220
0.0
230
1.0
 70
     8
 71
     3
 72
    10
 73
     6
 74
     0
 42
0.000000001
 43
0.00000001
 40
0.0
 40
0.0
 40
0.0
 40
0.0
 40
0.5
 40
0.5
 40
1.0
 40
1.0
 40
1.0
 40
1.0
 10
409.9000149071651
 20
347.9664522976124
 30
0.0
 10
409.7726802652647
 20
347.3658811147336
 30
0.0
 10
409.6496053764172
 20
346.7752714767042
 30
0.0
 10
409.4467328501994
 20
345.5787216502853
 30
0.0
 10
409.3670060679515
 20
344.9739122365372
 30
0.0
 10
409.3095859054205
 20
344.363400463923
 30
0.0
  0
SPLINE
  5
187
330
1F
100
AcDbEntity
  8
0
  6
Continuous
 62
     7
370
    25
100
AcDbSpline
210
0.0
220
0.0
230
1.0
 70
     8
 71
     3
 72
    10
 73
     6
 74
     0
 42
0.000000001
 43
0.00000001
 40
0.0
 40
0.0
 40
0.0
 40
0.0
 40
0.5
 40
0.5
 40
1.0
 40
1.0
 40
1.0
 40
1.0
 10
409.3095859054205
 20
344.3634004639231
 30
0.0
 10
409.2215618762596
 20
343.4274973994433
 30
0.0
 10
409.1747607670202
 20
342.4906100888682
 30
0.0
 10
409.1748378400976
 20
340.6170412970584
 30
0.0
 10
409.2215697160352
 20
339.6801396680007
 30
0.0
 10
409.3095859054205
 20
338.7462825613088
 30
0.0
  0
LINE
  5
188
330
1F
100
AcDbEntity
  8
0
  6
Continuous
 62
     7
370
    25
100
AcDbLine
 10
420.7857479122
 20
352.2755140747
 30
0.0
 11
411.0546201802
 21
352.2755140747
 31
0.0
  0
LINE
  5
189
330
1F
100
AcDbEntity
  8
0
  6
Continuous
 62
     7
370
    25
100
AcDbLine
 10
411.0546201802
 20
353.2755140747
 30
0.0
 11
420.7857479122
 21
353.2755140747
 31
0.0
  0
LINE
  5
18A
330
1F
100
AcDbEntity
  8
0
  6
Continuous
 62
     7
370
    25
100
AcDbLine
 10
409.9201840462
 20
357.5846775607
 30
0.0
 11
409.9201840462
 21
357.4894467059
 31
0.0
  0
SPLINE
  5
18B
330
1F
100
AcDbEntity
  8
0
  6
Continuous
 62
     7
370
    25
100
AcDbSpline
210
0.0
220
0.0
230
1.0
 70
     8
 71
     3
 72
     8
 73
     4
 74
     0
 42
0.000000001
 43
0.00000001
 40
0.0
 40
0.0
 40
0.0
 40
0.0
 40
1.0
 40
1.0
 40
1.0
 40
1.0
 10
409.6457721549716
 20
361.2421765830508
 30
0.0
 10
409.7675543944109
 20
360.024715888523
 30
0.0
 10
409.9201840462423
 20
358.8089909901068
 30
0.0
 10
409.9201840462423
 20
357.5846775607367
 30
0.0
  0
SPLINE
  5
18C
330
1F
100
AcDbEntity
  8
0
  6
Continuous
 62
     7
370
    25
100
AcDbSpline
210
0.0
220
0.0
230
1.0
 70
     8
 71
     3
 72
    10
 73
     6
 74
     0
 42
0.000000001
 43
0.00000001
 40
0.0
 40
0.0
 40
0.0
 40
0.0
 40
0.5
 40
0.5
 40
1.0
 40
1.0
 40
1.0
 40
1.0
 10
409.6457721549716
 20
366.8088515664115
 30
0.0
 10
409.5531136906449
 20
365.8825421238173
 30
0.0
 10
409.5132183191084
 20
364.9549947005825
 30
0.0
 10
409.5131571323508
 20
363.0980291592388
 30
0.0
 10
409.5531303915337
 20
362.1683190663462
 30
0.0
 10
409.6457721549701
 20
361.2421765830503
 30
0.0
  0
SPLINE
  5
18D
330
1F
100
AcDbEntity
  8
0
  6
Continuous
 62
     7
370
    25
100
AcDbSpline
210
0.0
220
0.0
230
1.0
 70
     8
 71
     3
 72
     8
 73
     4
 74
     0
 42
0.000000001
 43
0.00000001
 40
0.0
 40
0.0
 40
0.0
 40
0.0
 40
1.0
 40
1.0
 40
1.0
 40
1.0
 10
409.9201840462423
 20
370.466350588725
 30
0.0
 10
409.9201840462423
 20
369.2420371593551
 30
0.0
 10
409.7675543944111
 20
368.0263122609391
 30
0.0
 10
409.6457721549717
 20
366.8088515664114
 30
0.0
  0
LINE
  5
18E
330
1F
100
AcDbEntity
  8
0
  6
Continuous
 62
     7
370
    25
100
AcDbLine
 10
409.9201840462
 20
370.5615814436
 30
0.0
 11
409.9201840462
 21
370.4663505887
 31
0.0
  0
LINE
  5
18F
330
1F
100
AcDbEntity
  8
0
  6
Continuous
 62
     7
370
    25
100
AcDbLine
 10
420.7857479122
 20
374.7755140747
 30
0.0
 11
411.0546201802
 21
374.7755140747
 31
0.0
  0
LINE
  5
190
330
1F
100
AcDbEntity
  8
0
  6
Continuous
 62
     7
370
    25
100
AcDbLine
 10
409.9201840462
 20
335.0846775607
 30
0.0
 11
409.9201840462
 21
334.9894467059
 31
0.0
  0
SPLINE
  5
191
330
1F
100
AcDbEntity
  8
0
  6
Continuous
 62
     7
370
    25
100
AcDbSpline
210
0.0
220
0.0
230
1.0
 70
     8
 71
     3
 72
     8
 73
     4
 74
     0
 42
0.000000001
 43
0.00000001
 40
0.0
 40
0.0
 40
0.0
 40
0.0
 40
1.0
 40
1.0
 40
1.0
 40
1.0
 10
409.6457721549716
 20
338.7421765830507
 30
0.0
 10
409.7675543944109
 20
337.524715888523
 30
0.0
 10
409.9201840462423
 20
336.3089909901068
 30
0.0
 10
409.9201840462423
 20
335.0846775607368
 30
0.0
  0
SPLINE
  5
192
330
1F
100
AcDbEntity
  8
0
  6
Continuous
 62
     7
370
    25
100
AcDbSpline
210
0.0
220
0.0
230
1.0
 70
     8
 71
     3
 72
    10
 73
     6
 74
     0
 42
0.000000001
 43
0.00000001
 40
0.0
 40
0.0
 40
0.0
 40
0.0
 40
0.5
 40
0.5
 40
1.0
 40
1.0
 40
1.0
 40
1.0
 10
409.6457721549716
 20
344.3088515664114
 30
0.0
 10
409.5531136906449
 20
343.3825421238173
 30
0.0
 10
409.5132183191084
 20
342.4549947005826
 30
0.0
 10
409.5131571323508
 20
340.598029159239
 30
0.0
 10
409.5531303915337
 20
339.6683190663463
 30
0.0
 10
409.6457721549701
 20
338.7421765830503
 30
0.0
  0
SPLINE
  5
193
330
1F
100
AcDbEntity
  8
0
  6
Continuous
 62
     7
370
    25
100
AcDbSpline
210
0.0
220
0.0
230
1.0
 70
     8
 71
     3
 72
     8
 73
     4
 74
     0
 42
0.000000001
 43
0.00000001
 40
0.0
 40
0.0
 40
0.0
 40
0.0
 40
1.0
 40
1.0
 40
1.0
 40
1.0
 10
409.9201840462423
 20
347.9663505887249
 30
0.0
 10
409.9201840462423
 20
346.742037159355
 30
0.0
 10
409.7675543944111
 20
345.5263122609391
 30
0.0
 10
409.6457721549717
 20
344.3088515664114
 30
0.0
  0
LINE
  5
194
330
1F
100
AcDbEntity
  8
0
  6
Continuous
 62
     7
370
    25
100
AcDbLine
 10
409.9201840462
 20
348.0615814436
 30
0.0
 11
409.9201840462
 21
347.9663505887
 31
0.0
  0
LINE
  5
195
330
1F
100
AcDbEntity
  8
0
  6
Continuous
 62
     7
370
    25
100
AcDbLine
 10
411.0546201802
 20
330.7755140747
 30
0.0
 11
420.7857479122
 21
330.7755140747
 31
0.0
  0
ARC
  5
196
330
1F
100
AcDbEntity
  8
0
  6
Continuous
 62
     7
370
    25
100
AcDbCircle
 10
409.9201834372
 20
355.5849509003
 30
0.0
 40
1.999726660391538
100
AcDbArc
 50
89.9999825496
 51
90.5778745987
  0
ARC
  5
197
330
1F
100
AcDbEntity
  8
0
  6
Continuous
 62
     7
370
    25
100
AcDbCircle
 10
409.9201834372
 20
349.9660772546
 30
0.0
 40
1.999726665855043
100
AcDbArc
 50
269.4221254021
 51
270.0000174496
  0
ARC
  5
198
330
1F
100
AcDbEntity
  8
0
  6
Continuous
 62
     7
370
    25
100
AcDbCircle
 10
409.790587239
 20
359.286440846
 30
0.0
 40
1.961089921871753
100
AcDbArc
 50
94.2348147335
 51
104.1979353563
  0
ARC
  5
199
330
1F
100
AcDbEntity
  8
0
  6
Continuous
 62
     7
370
    25
100
AcDbCircle
 10
409.790587239
 20
346.2645873036
 30
0.0
 40
1.961089922076367
100
AcDbArc
 50
255.8020646443
 51
265.7651852662
  0
LINE
  5
19A
330
1F
100
AcDbEntity
  8
0
  6
Continuous
 62
     7
370
    25
100
AcDbLine
 10
386.9227646914
 20
373.3962197199
 30
0.0
 11
386.9227646914
 21
332.1548084296
 31
0.0
  0
ARC
  5
19B
330
1F
100
AcDbEntity
  8
0
  6
Continuous
 62
     7
370
    25
100
AcDbCircle
 10
409.5006266245
 20
364.9279124335
 30
0.0
 40
1.886531008698902
100
AcDbArc
 50
85.5874285918
 51
95.8120547533
  0
ARC
  5
19C
330
1F
100
AcDbEntity
  8
0
  6
Continuous
 62
     7
370
    25
100
AcDbCircle
 10
409.5006266245
 20
340.6231157158
 30
0.0
 40
1.886531008515126
100
AcDbArc
 50
264.1879452462
 51
274.4125714085
  0
LINE
  5
19D
330
1F
100
AcDbEntity
  8
0
  6
Continuous
 62
     7
370
    25
100
AcDbLine
 10
384.9201840462
 20
334.1573890747
 30
0.0
 11
384.9201840462
 21
371.3936390747
 31
0.0
  0
ARC
  5
19E
330
1F
100
AcDbEntity
  8
0
  6
Continuous
 62
     7
370
    25
100
AcDbCircle
 10
409.9201834372
 20
368.4666239244
 30
0.0
 40
1.99972666436495
100
AcDbArc
 50
89.9999825502
 51
90.5778745981
  0
ARC
  5
19F
330
1F
100
AcDbEntity
  8
0
  6
Continuous
 62
     7
370
    25
100
AcDbCircle
 10
409.9201834372
 20
337.0844042251
 30
0.0
 40
1.999726664365007
100
AcDbArc
 50
269.4221254019
 51
270.0000174498
  0
LINE
  5
1A0
330
1F
100
AcDbEntity
  8
0
  6
Continuous
 62
     7
370
    25
100
AcDbLine
 10
431.9201840462
 20
335.7755140747
 30
0.0
 11
431.9201840462
 21
369.7755140747
 31
0.0
  0
LINE
  5
1A1
330
1F
100
AcDbEntity
  8
0
  6
Continuous
 62
     7
370
    25
100
AcDbLine
 10
469.9201840462
 20
336.3746204333
 30
0.0
 11
469.9201840462
 21
369.1764077153
 31
0.0
  0
LINE
  5
1A2
330
1F
100
AcDbEntity
  8
0
  6
Continuous
 62
     7
370
    25
100
AcDbLine
 10
460.4201840462
 20
336.3917374389
 30
0.0
 11
460.4201840462
 21
369.1592907094
 31
0.0
  0
LINE
  5
1A3
330
1F
100
AcDbEntity
  8
0
  6
Continuous
 62
     7
370
    25
100
AcDbLine
 10
450.9201840462
 20
336.3917374389
 30
0.0
 11
450.9201840462
 21
369.1592907094
 31
0.0
  0
LINE
  5
1A4
330
1F
100
AcDbEntity
  8
0
  6
Continuous
 62
     7
370
    25
100
AcDbLine
 10
441.4201840462
 20
336.3917374389
 30
0.0
 11
441.4201840462
 21
369.1592907094
 31
0.0
  0
LINE
  5
1A5
330
1F
100
AcDbEntity
  8
0
  6
Continuous
 62
     7
370
    25
100
AcDbLine
 10
480.9201840462
 20
366.5236495446
 30
0.0
 11
480.9201840462
 21
339.0273786048
 31
0.0
  0
LINE
  5
1A6
330
1F
100
AcDbEntity
  8
0
  6
Continuous
 62
     7
370
    25
100
AcDbLine
 10
411.0546201802
 20
375.2755140747
 30
0.0
 11
420.7857479122
 21
375.2755140747
 31
0.0
  0
LINE
  5
1A7
330
1F
100
AcDbEntity
  8
0
  6
Continuous
 62
     7
370
    25
100
AcDbLine
 10
420.7857479122
 20
330.2755140747
 30
0.0
 11
411.0546201802
 21
330.2755140747
 31
0.0
  0
ARC
  5
1A8
330
1F
100
AcDbEntity
  8
0
  6
Continuous
 62
     7
370
    25
100
AcDbCircle
 10
409.6458017339
 20
374.2825746525
 30
0.0
 40
0.9929394227164419
100
AcDbArc
 50
90.0017068013
 51
109.7920025138
  0
SPLINE
  5
1A9
330
1F
100
AcDbEntity
  8
0
  6
Continuous
 62
     7
370
    25
100
AcDbSpline
210
0.0
220
0.0
230
1.0
 70
    24
 71
     3
 72
     8
 73
     4
 74
     0
 42
0.000000001
 43
0.00000001
 40
0.0
 40
0.0
 40
0.0
 40
0.0
 40
1.0
 40
1.0
 40
1.0
 40
1.0
 10
409.6457721549716
 20
375.275514074731
 30
0.0
 10
409.7675543944109
 20
375.275514074731
 30
0.0
 10
409.9201840462423
 20
375.275514074731
 30
0.0
 10
409.9201840462423
 20
375.275514074731
 30
0.0
  0
ARC
  5
1AA
330
1F
100
AcDbEntity
  8
0
  6
Continuous
 62
     7
370
    25
100
AcDbCircle
 10
409.6458017339
 20
331.268453497
 30
0.0
 40
0.992939422717642
100
AcDbArc
 50
250.2079974862
 51
269.9982931992
  0
SPLINE
  5
1AB
330
1F
100
AcDbEntity
  8
0
  6
Continuous
 62
     7
370
    25
100
AcDbSpline
210
0.0
220
0.0
230
1.0
 70
    24
 71
     3
 72
     8
 73
     4
 74
     0
 42
0.000000001
 43
0.00000001
 40
0.0
 40
0.0
 40
0.0
 40
0.0
 40
1.0
 40
1.0
 40
1.0
 40
1.0
 10
409.9201840462423
 20
330.275514074731
 30
0.0
 10
409.9201840462423
 20
330.275514074731
 30
0.0
 10
409.7675543944111
 20
330.275514074731
 30
0.0
 10
409.6457721549717
 20
330.275514074731
 30
0.0
  0
SPLINE
  5
1AC
330
1F
100
AcDbEntity
  8
0
  6
Continuous
 62
     7
370
    25
100
AcDbSpline
210
0.0
220
0.0
230
1.0
 70
    24
 71
     3
 72
     9
 73
     5
 74
     0
 42
0.000000001
 43
0.00000001
 40
0.0
 40
0.0
 40
0.0
 40
0.0
 40
0.3534578729901911
 40
0.9999999999999999
 40
0.9999999999999999
 40
0.9999999999999999
 40
0.9999999999999999
 10
409.5277465977059
 20
375.275514074731
 30
0.0
 10
409.5242896842378
 20
375.275514074731
 30
0.0
 10
409.5145094141342
 20
375.275514074731
 30
0.0
 10
409.5942296585645
 20
375.275514074731
 30
0.0
 10
409.6457721549642
 20
375.275514074731
 30
0.0
  0
SPLINE
  5
1AD
330
1F
100
AcDbEntity
  8
0
  6
Continuous
 62
     7
370
    25
100
AcDbSpline
210
0.0
220
0.0
230
1.0
 70
    24
 71
     3
 72
     9
 73
     5
 74
     0
 42
0.000000001
 43
0.00000001
 40
0.0
 40
0.0
 40
0.0
 40
0.0
 40
0.679839973333379
 40
1.0
 40
1.0
 40
1.0
 40
1.0
 10
409.6457721549716
 20
330.275514074731
 30
0.0
 10
409.5925643272731
 20
330.275514074731
 30
0.0
 10
409.5142991034181
 20
330.2755140747311
 30
0.0
 10
409.5244853641866
 20
330.2755140747311
 30
0.0
 10
409.5277465977059
 20
330.2755140747311
 30
0.0
  0
LINE
  5
1AE
330
1F
100
AcDbEntity
  8
0
  6
Continuous
 62
     8
370
    25
100
AcDbLine
 10
470.5096267653
 20
369.6683426713
 30
0.0
 11
470.5096267653
 21
335.8826854782
 31
0.0
  0
LINE
  5
1AF
330
1F
100
AcDbEntity
  8
0
  6
Continuous
 62
     8
370
    25
100
AcDbLine
 10
479.6885122035
 20
337.5515737397
 30
0.0
 11
479.6885122035
 21
367.9994544098
 31
0.0
  0
LINE
  5
1B0
330
1F
100
AcDbEntity
  8
0
  6
Continuous
 62
     8
370
    25
100
AcDbLine
 10
461.0231892868
 20
369.648565603
 30
0.0
 11
461.0231892868
 21
335.9024625464
 31
0.0
  0
LINE
  5
1B1
330
1F
100
AcDbEntity
  8
0
  6
Continuous
 62
     8
370
    25
100
AcDbLine
 10
451.5231892868
 20
369.648565603
 30
0.0
 11
451.5231892868
 21
335.9024625464
 31
0.0
  0
LINE
  5
1B2
330
1F
100
AcDbEntity
  8
0
  6
Continuous
 62
     8
370
    25
100
AcDbLine
 10
442.0231892868
 20
369.648565603
 30
0.0
 11
442.0231892868
 21
335.9024625464
 31
0.0
  0
LINE
  5
1B3
330
1F
100
AcDbEntity
  8
0
  6
Continuous
 62
     7
370
    18
100
AcDbLine
 10
385.7122964292
 20
372.1857514577
 30
0.0
 11
408.9201840462
 21
372.9109979457
 31
0.0
  0
LINE
  5
1B4
330
1F
100
AcDbEntity
  8
0
  6
Continuous
 62
     7
370
    18
100
AcDbLine
 10
385.7122964292
 20
333.3652766918
 30
0.0
 11
408.9201840462
 21
332.6400302038
 31
0.0
  0
LINE
  5
1B5
330
1F
100
AcDbEntity
  8
0
  6
Continuous
 62
     7
370
    18
100
AcDbLine
 10
408.9201840462
 20
331.4673890747
 30
0.0
 11
408.9201840462
 21
374.0836390747
 31
0.0
  0
LINE
  5
1B6
330
1F
100
AcDbEntity
  8
0
  6
CENTERX2
 62
     7
370
    18
100
AcDbLine
 10
416.7857479122
 20
352.7755140747
 30
0.0
 11
483.6885122035
 21
352.7755140747
 31
0.0
  0
LINE
  5
1B7
330
1F
100
AcDbEntity
  8
0
  6
CENTERX2
 62
     7
370
    18
100
AcDbLine
 10
413.3095859054
 20
352.7755140747
 30
0.0
 11
408.9201840462
 21
352.7755140747
 31
0.0
  0
LINE
  5
1B8
330
1F
100
AcDbEntity
  8
0
  6
CENTERX2
 62
     7
370
    18
100
AcDbLine
 10
408.9201840462
 20
352.7755140747
 30
0.0
 11
386.9227646914
 21
352.7755140747
 31
0.0
  0
LINE
  5
1B9
330
1F
100
AcDbEntity
  8
0
  6
CENTERX2
 62
     7
370
    18
100
AcDbLine
 10
386.9227646914
 20
352.7755140747
 30
0.0
 11
380.9201840462
 21
352.7755140747
 31
0.0
  0
ENDSEC
  0
SECTION
  2
OBJECTS
  0
DICTIONARY
  5
C
330
0
100
AcDbDictionary
281
     1
  3
ACAD_GROUP
350
D
  3
ACAD_LAYOUT
350
1A
  3
ACAD_MLINESTYLE
350
17
  3
ACAD_PLOTSETTINGS
350
19
  3
ACAD_PLOTSTYLENAME
350
E
  3
ACAD_SCALELIST
350
47
  0
DICTIONARY
  5
D
102
{ACAD_REACTORS
330
C
102
}
330
C
100
AcDbDictionary
281
     1
  0
DICTIONARY
  5
1A
102
{ACAD_REACTORS
330
C
102
}
330
C
100
AcDbDictionary
281
     1
  3
Layout1
350
1E
  3
Layout2
350
26
  3
Model
350
22
  0
DICTIONARY
  5
17
102
{ACAD_REACTORS
330
C
102
}
330
C
100
AcDbDictionary
281
     1
  3
Standard
350
18
  0
DICTIONARY
  5
19
102
{ACAD_REACTORS
330
C
102
}
330
C
100
AcDbDictionary
281
     1
  0
ACDBDICTIONARYWDFLT
  5
E
102
{ACAD_REACTORS
330
C
102
}
330
C
100
AcDbDictionary
281
     1
  3
Normal
350
F
100
AcDbDictionaryWithDefault
340
F
  0
DICTIONARY
  5
47
102
{ACAD_REACTORS
330
C
102
}
330
C
100
AcDbDictionary
281
     1
  3
A0
350
48
  3
A1
350
49
  3
A2
350
4A
  3
A3
350
4B
  3
A4
350
4C
  3
A5
350
4D
  3
A6
350
4E
  3
A7
350
4F
  3
A8
350
50
  3
A9
350
51
  3
B0
350
52
  3
B1
350
53
  3
B2
350
54
  3
B3
350
55
  3
B4
350
56
  3
B5
350
57
  3
B6
350
58
  3
B7
350
59
  3
B8
350
5A
  3
B9
350
5B
  3
C0
350
5C
  3
C1
350
5D
  3
C2
350
5E
  3
C3
350
5F
  3
C4
350
60
  3
C5
350
61
  3
C6
350
62
  3
C7
350
63
  3
C8
350
64
  3
C9
350
65
  3
D0
350
66
  3
D1
350
67
  3
D2
350
68
  0
LAYOUT
  5
1E
102
{ACAD_REACTORS
330
1A
102
}
330
1A
100
AcDbPlotSettings
  1

  2
none_device
  4

  6

 40
0.0
 41
0.0
 42
0.0
 43
0.0
 44
0.0
 45
0.0
 46
0.0
 47
0.0
 48
0.0
 49
0.0
140
0.0
141
0.0
142
1.0
143
1.0
 70
   688
 72
     1
 73
     0
 74
     5
  7

 75
    16
147
1.0
148
0.0
149
0.0
100
AcDbLayout
  1
Layout1
 70
     1
 71
     1
 10
0.0
 20
0.0
 11
420.0
 21
297.0
 12
0.0
 22
0.0
 32
0.0
 14
1.0000000000E+20
 24
1.0000000000E+20
 34
1.0000000000E+20
 15
-1.0000000000E+20
 25
-1.0000000000E+20
 35
-1.0000000000E+20
146
0.0
 13
0.0
 23
0.0
 33
0.0
 16
1.0
 26
0.0
 36
0.0
 17
0.0
 27
1.0
 37
0.0
 76
     0
330
1B
  0
LAYOUT
  5
26
102
{ACAD_REACTORS
330
1A
102
}
330
1A
100
AcDbPlotSettings
  1

  2
none_device
  4

  6

 40
0.0
 41
0.0
 42
0.0
 43
0.0
 44
0.0
 45
0.0
 46
0.0
 47
0.0
 48
0.0
 49
0.0
140
0.0
141
0.0
142
1.0
143
1.0
 70
   688
 72
     1
 73
     0
 74
     5
  7

 75
    16
147
1.0
148
0.0
149
0.0
100
AcDbLayout
  1
Layout2
 70
     1
 71
     2
 10
0.0
 20
0.0
 11
0.0
 21
0.0
 12
0.0
 22
0.0
 32
0.0
 14
0.0
 24
0.0
 34
0.0
 15
0.0
 25
0.0
 35
0.0
146
0.0
 13
0.0
 23
0.0
 33
0.0
 16
1.0
 26
0.0
 36
0.0
 17
0.0
 27
1.0
 37
0.0
 76
     0
330
23
  0
LAYOUT
  5
22
102
{ACAD_REACTORS
330
1A
102
}
330
1A
100
AcDbPlotSettings
  1

  2
none_device
  4
Letter_(8.50_x_11.00_Inches)
  6

 40
6.35
 41
6.35
 42
6.35000508
 43
6.35000508
 44
215.9
 45
279.4
 46
0.0
 47
0.0
 48
0.0
 49
0.0
140
0.0
141
0.0
142
1.0
143
1.0
 70
  1712
 72
     1
 73
     0
 74
     0
  7

 75
     0
147
1.0
148
0.0
149
0.0
100
AcDbLayout
  1
Model
 70
     1
 71
     0
 10
0.0
 20
0.0
 11
863.6
 21
558.8
 12
0.0
 22
0.0
 32
0.0
 14
0.0
 24
0.0
 34
0.0
 15
863.6
 25
558.8
 35
0.0
146
0.0
 13
0.0
 23
0.0
 33
0.0
 16
1.0
 26
0.0
 36
0.0
 17
0.0
 27
1.0
 37
0.0
 76
     0
330
1F
331
29
  0
MLINESTYLE
  5
18
102
{ACAD_REACTORS
330
17
102
}
330
17
100
AcDbMlineStyle
  2
Standard
 70
     0
  3

 62
   256
 51
90.0
 52
90.0
 71
     2
 49
0.5
 62
   256
  6
BYLAYER
 49
-0.5
 62
   256
  6
BYLAYER
  0
ACDBPLACEHOLDER
  5
F
102
{ACAD_REACTORS
330
E
102
}
330
E
  0
SCALE
  5
48
102
{ACAD_REACTORS
330
47
102
}
330
47
100
AcDbScale
 70
     0
300
1:1
140
1.0
141
1.0
290
     1
  0
SCALE
  5
49
102
{ACAD_REACTORS
330
47
102
}
330
47
100
AcDbScale
 70
     0
300
1:2
140
1.0
141
2.0
290
     0
  0
SCALE
  5
4A
102
{ACAD_REACTORS
330
47
102
}
330
47
100
AcDbScale
 70
     0
300
1:4
140
1.0
141
4.0
290
     0
  0
SCALE
  5
4B
102
{ACAD_REACTORS
330
47
102
}
330
47
100
AcDbScale
 70
     0
300
1:5
140
1.0
141
5.0
290
     0
  0
SCALE
  5
4C
102
{ACAD_REACTORS
330
47
102
}
330
47
100
AcDbScale
 70
     0
300
1:8
140
1.0
141
8.0
290
     0
  0
SCALE
  5
4D
102
{ACAD_REACTORS
330
47
102
}
330
47
100
AcDbScale
 70
     0
300
1:10
140
1.0
141
10.0
290
     0
  0
SCALE
  5
4E
102
{ACAD_REACTORS
330
47
102
}
330
47
100
AcDbScale
 70
     0
300
1:16
140
1.0
141
16.0
290
     0
  0
SCALE
  5
4F
102
{ACAD_REACTORS
330
47
102
}
330
47
100
AcDbScale
 70
     0
300
1:20
140
1.0
141
20.0
290
     0
  0
SCALE
  5
50
102
{ACAD_REACTORS
330
47
102
}
330
47
100
AcDbScale
 70
     0
300
1:30
140
1.0
141
30.0
290
     0
  0
SCALE
  5
51
102
{ACAD_REACTORS
330
47
102
}
330
47
100
AcDbScale
 70
     0
300
1:40
140
1.0
141
40.0
290
     0
  0
SCALE
  5
52
102
{ACAD_REACTORS
330
47
102
}
330
47
100
AcDbScale
 70
     0
300
1:50
140
1.0
141
50.0
290
     0
  0
SCALE
  5
53
102
{ACAD_REACTORS
330
47
102
}
330
47
100
AcDbScale
 70
     0
300
1:100
140
1.0
141
100.0
290
     0
  0
SCALE
  5
54
102
{ACAD_REACTORS
330
47
102
}
330
47
100
AcDbScale
 70
     0
300
2:1
140
2.0
141
1.0
290
     0
  0
SCALE
  5
55
102
{ACAD_REACTORS
330
47
102
}
330
47
100
AcDbScale
 70
     0
300
4:1
140
4.0
141
1.0
290
     0
  0
SCALE
  5
56
102
{ACAD_REACTORS
330
47
102
}
330
47
100
AcDbScale
 70
     0
300
8:1
140
8.0
141
1.0
290
     0
  0
SCALE
  5
57
102
{ACAD_REACTORS
330
47
102
}
330
47
100
AcDbScale
 70
     0
300
10:1
140
10.0
141
1.0
290
     0
  0
SCALE
  5
58
102
{ACAD_REACTORS
330
47
102
}
330
47
100
AcDbScale
 70
     0
300
100:1
140
100.0
141
1.0
290
     0
  0
SCALE
  5
59
102
{ACAD_REACTORS
330
47
102
}
330
47
100
AcDbScale
 70
     0
300
1/128" = 1'-0"
140
0.0078125
141
12.0
290
     0
  0
SCALE
  5
5A
102
{ACAD_REACTORS
330
47
102
}
330
47
100
AcDbScale
 70
     0
300
1/64" = 1'-0"
140
0.015625
141
12.0
290
     0
  0
SCALE
  5
5B
102
{ACAD_REACTORS
330
47
102
}
330
47
100
AcDbScale
 70
     0
300
1/32" = 1'-0"
140
0.03125
141
12.0
290
     0
  0
SCALE
  5
5C
102
{ACAD_REACTORS
330
47
102
}
330
47
100
AcDbScale
 70
     0
300
1/16" = 1'-0"
140
0.0625
141
12.0
290
     0
  0
SCALE
  5
5D
102
{ACAD_REACTORS
330
47
102
}
330
47
100
AcDbScale
 70
     0
300
3/32" = 1'-0"
140
0.09375
141
12.0
290
     0
  0
SCALE
  5
5E
102
{ACAD_REACTORS
330
47
102
}
330
47
100
AcDbScale
 70
     0
300
1/8" = 1'-0"
140
0.125
141
12.0
290
     0
  0
SCALE
  5
5F
102
{ACAD_REACTORS
330
47
102
}
330
47
100
AcDbScale
 70
     0
300
3/16" = 1'-0"
140
0.1875
141
12.0
290
     0
  0
SCALE
  5
60
102
{ACAD_REACTORS
330
47
102
}
330
47
100
AcDbScale
 70
     0
300
1/4" = 1'-0"
140
0.25
141
12.0
290
     0
  0
SCALE
  5
61
102
{ACAD_REACTORS
330
47
102
}
330
47
100
AcDbScale
 70
     0
300
3/8" = 1'-0"
140
0.375
141
12.0
290
     0
  0
SCALE
  5
62
102
{ACAD_REACTORS
330
47
102
}
330
47
100
AcDbScale
 70
     0
300
1/2" = 1'-0"
140
0.5
141
12.0
290
     0
  0
SCALE
  5
63
102
{ACAD_REACTORS
330
47
102
}
330
47
100
AcDbScale
 70
     0
300
3/4" = 1'-0"
140
0.75
141
12.0
290
     0
  0
SCALE
  5
64
102
{ACAD_REACTORS
330
47
102
}
330
47
100
AcDbScale
 70
     0
300
1" = 1'-0"
140
1.0
141
12.0
290
     0
  0
SCALE
  5
65
102
{ACAD_REACTORS
330
47
102
}
330
47
100
AcDbScale
 70
     0
300
1-1/2" = 1'-0"
140
1.5
141
12.0
290
     0
  0
SCALE
  5
66
102
{ACAD_REACTORS
330
47
102
}
330
47
100
AcDbScale
 70
     0
300
3" = 1'-0"
140
3.0
141
12.0
290
     0
  0
SCALE
  5
67
102
{ACAD_REACTORS
330
47
102
}
330
47
100
AcDbScale
 70
     0
300
6" = 1'-0"
140
6.0
141
12.0
290
     0
  0
SCALE
  5
68
102
{ACAD_REACTORS
330
47
102
}
330
47
100
AcDbScale
 70
     0
300
1'-0" = 1'-0"
140
12.0
141
12.0
290
     0
  0
ENDSEC
  0
EOF
