  0
SECTION
  2
HEADER
  9
$ACADVER
  1
AC1015
  9
$ACADMAINTVER
 70
     6
  9
$DWGCODEPAGE
  3
DOS932
  9
$INSBASE
 10
0.0
 20
0.0
 30
0.0
  9
$EXTMIN
 10
0.0
 20
0.0
 30
0.0
  9
$EXTMAX
 10
431.8
 20
279.4
 30
0.0
  9
$LIMMIN
 10
0.0
 20
0.0
  9
$LIMMAX
 10
431.8
 20
279.4
  9
$ORTHOMODE
 70
     0
  9
$REGENMODE
 70
     1
  9
$FILLMODE
 70
     1
  9
$QTEXTMODE
 70
     0
  9
$MIRRTEXT
 70
     1
  9
$LTSCALE
 40
1.0
  9
$ATTMODE
 70
     1
  9
$TEXTSIZE
 40
3.5
  9
$TRACEWID
 40
1.0
  9
$TEXTSTYLE
  7
Standard
  9
$CLAYER
  8
0
  9
$CELTYPE
  6
ByLayer
  9
$CECOLOR
 62
   256
  9
$CELTSCALE
 40
1.0
  9
$DISPSILH
 70
     0
  9
$DIMSCALE
 40
1.0
  9
$DIMASZ
 40
3.302
  9
$DIMEXO
 40
1.0
  9
$DIMDLI
 40
3.75
  9
$DIMRND
 40
0.0
  9
$DIMDLE
 40
0.0
  9
$DIMEXE
 40
1.0
  9
$DIMTP
 40
0.0
  9
$DIMTM
 40
0.0
  9
$DIMTXT
 40
3.5
  9
$DIMCEN
 40
2.5
  9
$DIMTSZ
 40
0.0
  9
$DIMTOL
 70
     0
  9
$DIMLIM
 70
     0
  9
$DIMTIH
 70
     1
  9
$DIMTOH
 70
     1
  9
$DIMSE1
 70
     0
  9
$DIMSE2
 70
     0
  9
$DIMTAD
 70
     1
  9
$DIMZIN
 70
     1
  9
$DIMBLK
  1

  9
$DIMASO
 70
     1
  9
$DIMSHO
 70
     1
  9
$DIMPOST
  1

  9
$DIMAPOST
  1

  9
$DIMALT
 70
     0
  9
$DIMALTD
 70
     3
  9
$DIMALTF
 40
0.0393700787
  9
$DIMLFAC
 40
1.0
  9
$DIMTOFL
 70
     1
  9
$DIMTVP
 40
0.0
  9
$DIMTIX
 70
     0
  9
$DIMSOXD
 70
     0
  9
$DIMSAH
 70
     0
  9
$DIMBLK1
  1

  9
$DIMBLK2
  1

  9
$DIMSTYLE
  2
ISO-25
  9
$DIMCLRD
 70
     0
  9
$DIMCLRE
 70
     0
  9
$DIMCLRT
 70
     0
  9
$DIMTFAC
 40
1.0
  9
$DIMGAP
 40
1.524
  9
$DIMJUST
 70
     0
  9
$DIMSD1
 70
     0
  9
$DIMSD2
 70
     0
  9
$DIMTOLJ
 70
     0
  9
$DIMTZIN
 70
     1
  9
$DIMALTZ
 70
     0
  9
$DIMALTTZ
 70
     0
  9
$DIMUPT
 70
     0
  9
$DIMDEC
 70
     2
  9
$DIMTDEC
 70
     2
  9
$DIMALTU
 70
     2
  9
$DIMALTTD
 70
     3
  9
$DIMTXSTY
  7
Standard
  9
$DIMAUNIT
 70
     0
  9
$DIMADEC
 70
     2
  9
$DIMALTRND
 40
0.0
  9
$DIMAZIN
 70
     0
  9
$DIMDSEP
 70
    44
  9
$DIMATFIT
 70
     3
  9
$DIMFRAC
 70
     0
  9
$DIMLDRBLK
  1

  9
$DIMLUNIT
 70
     2
  9
$DIMLWD
 70
    -2
  9
$DIMLWE
 70
    -2
  9
$DIMTMOVE
 70
     0
  9
$LUNITS
 70
     2
  9
$LUPREC
 70
     2
  9
$SKETCHINC
 40
1.0
  9
$FILLETRAD
 40
10.0
  9
$AUNITS
 70
     0
  9
$AUPREC
 70
     2
  9
$MENU
  1
.
  9
$ELEVATION
 40
0.0
  9
$PELEVATION
 40
0.0
  9
$THICKNESS
 40
0.0
  9
$LIMCHECK
 70
     0
  9
$CHAMFERA
 40
0.0
  9
$CHAMFERB
 40
0.0
  9
$CHAMFERC
 40
0.0
  9
$CHAMFERD
 40
0.0
  9
$SKPOLY
 70
     0
  9
$TDCREATE
 40
2459296.646619271
  9
$TDUCREATE
 40
2459296.271619271
  9
$TDUPDATE
 40
2459296.646620011
  9
$TDUUPDATE
 40
2459296.271620011
  9
$TDINDWG
 40
0.0000000116
  9
$TDUSRTIMER
 40
0.0000000116
  9
$USRTIMER
 70
     1
  9
$ANGBASE
 50
0.0
  9
$ANGDIR
 70
     0
  9
$PDMODE
 70
     0
  9
$PDSIZE
 40
-1.0
  9
$PLINEWID
 40
0.0
  9
$SPLFRAME
 70
     0
  9
$SPLINETYPE
 70
     6
  9
$SPLINESEGS
 70
     8
  9
$HANDSEED
  5
20E
  9
$SURFTAB1
 70
     6
  9
$SURFTAB2
 70
     6
  9
$SURFTYPE
 70
     6
  9
$SURFU
 70
     6
  9
$SURFV
 70
     6
  9
$UCSBASE
  2

  9
$UCSNAME
  2

  9
$UCSORG
 10
0.0
 20
0.0
 30
0.0
  9
$UCSXDIR
 10
1.0
 20
0.0
 30
0.0
  9
$UCSYDIR
 10
0.0
 20
1.0
 30
0.0
  9
$UCSORTHOREF
  2

  9
$UCSORTHOVIEW
 70
     0
  9
$UCSORGTOP
 10
0.0
 20
0.0
 30
0.0
  9
$UCSORGBOTTOM
 10
0.0
 20
0.0
 30
0.0
  9
$UCSORGLEFT
 10
0.0
 20
0.0
 30
0.0
  9
$UCSORGRIGHT
 10
0.0
 20
0.0
 30
0.0
  9
$UCSORGFRONT
 10
0.0
 20
0.0
 30
0.0
  9
$UCSORGBACK
 10
0.0
 20
0.0
 30
0.0
  9
$PUCSBASE
  2

  9
$PUCSNAME
  2

  9
$PUCSORG
 10
0.0
 20
0.0
 30
0.0
  9
$PUCSXDIR
 10
1.0
 20
0.0
 30
0.0
  9
$PUCSYDIR
 10
0.0
 20
1.0
 30
0.0
  9
$PUCSORTHOREF
  2

  9
$PUCSORTHOVIEW
 70
     0
  9
$PUCSORGTOP
 10
0.0
 20
0.0
 30
0.0
  9
$PUCSORGBOTTOM
 10
0.0
 20
0.0
 30
0.0
  9
$PUCSORGLEFT
 10
0.0
 20
0.0
 30
0.0
  9
$PUCSORGRIGHT
 10
0.0
 20
0.0
 30
0.0
  9
$PUCSORGFRONT
 10
0.0
 20
0.0
 30
0.0
  9
$PUCSORGBACK
 10
0.0
 20
0.0
 30
0.0
  9
$USERI1
 70
     0
  9
$USERI2
 70
     0
  9
$USERI3
 70
     0
  9
$USERI4
 70
     0
  9
$USERI5
 70
     0
  9
$USERR1
 40
0.0
  9
$USERR2
 40
0.0
  9
$USERR3
 40
0.0
  9
$USERR4
 40
0.0
  9
$USERR5
 40
0.0
  9
$WORLDVIEW
 70
     1
  9
$SHADEDGE
 70
     3
  9
$SHADEDIF
 70
    70
  9
$TILEMODE
 70
     1
  9
$MAXACTVP
 70
    64
  9
$PINSBASE
 10
0.0
 20
0.0
 30
0.0
  9
$PLIMCHECK
 70
     0
  9
$PEXTMIN
 10
1.0000000000E+20
 20
1.0000000000E+20
 30
1.0000000000E+20
  9
$PEXTMAX
 10
-1.0000000000E+20
 20
-1.0000000000E+20
 30
-1.0000000000E+20
  9
$PLIMMIN
 10
0.0
 20
0.0
  9
$PLIMMAX
 10
420.0
 20
297.0
  9
$UNITMODE
 70
     0
  9
$VISRETAIN
 70
     1
  9
$PLINEGEN
 70
     0
  9
$PSLTSCALE
 70
     1
  9
$TREEDEPTH
 70
  3020
  9
$CMLSTYLE
  2
Standard
  9
$CMLJUST
 70
     0
  9
$CMLSCALE
 40
20.0
  9
$PROXYGRAPHICS
 70
     1
  9
$MEASUREMENT
 70
     1
  9
$CELWEIGHT
370
    -1
  9
$ENDCAPS
280
     0
  9
$JOINSTYLE
280
     0
  9
$LWDISPLAY
290
     1
  9
$INSUNITS
 70
     4
  9
$HYPERLINKBASE
  1

  9
$STYLESHEET
  1

  9
$XEDIT
290
     1
  9
$CEPSNTYPE
380
     0
  9
$PSTYLEMODE
290
     1
  9
$FINGERPRINTGUID
  2
{6DC0EB15-73B5-4F19-8E99-73F57121E34F}
  9
$VERSIONGUID
  2
{FAEB1C32-E019-11D5-929B-00C0DF256EC4}
  9
$EXTNAMES
290
     1
  9
$PSVPSCALE
 40
0.0
  9
$OLESTARTUP
290
     0
  0
ENDSEC
  0
SECTION
  2
CLASSES
  0
CLASS
  1
ACDBDICTIONARYWDFLT
  2
AcDbDictionaryWithDefault
  3
ObjectDBX Classes
 90
        0
280
     0
281
     0
  0
CLASS
  1
VISUALSTYLE
  2
AcDbVisualStyle
  3
ObjectDBX Classes
 90
     4095
280
     0
281
     0
  0
CLASS
  1
MATERIAL
  2
AcDbMaterial
  3
ObjectDBX Classes
 90
     1153
280
     0
281
     0
  0
CLASS
  1
SCALE
  2
AcDbScale
  3
ObjectDBX Classes
 90
     1153
280
     0
281
     0
  0
CLASS
  1
TABLESTYLE
  2
AcDbTableStyle
  3
ObjectDBX Classes
 90
     4095
280
     0
281
     0
  0
CLASS
  1
MLEADERSTYLE
  2
AcDbMLeaderStyle
  3
ACDB_MLEADERSTYLE_CLASS
 90
     4095
280
     0
281
     0
  0
CLASS
  1
SUN
  2
AcDbSun
  3
SCENEOE
 90
     1153
280
     0
281
     0
  0
CLASS
  1
ACDBPLACEHOLDER
  2
AcDbPlaceHolder
  3
ObjectDBX Classes
 90
        0
280
     0
281
     0
  0
CLASS
  1
LAYOUT
  2
AcDbLayout
  3
ObjectDBX Classes
 90
        0
280
     0
281
     0
  0
ENDSEC
  0
SECTION
  2
TABLES
  0
TABLE
  2
VPORT
  5
8
330
0
100
AcDbSymbolTable
 70
     1
  0
VPORT
  5
29
330
8
100
AcDbSymbolTableRecord
100
AcDbViewportTableRecord
  2
*Active
 70
     0
 10
0.0
 20
0.0
 11
1.0
 21
1.0
 12
215.9
 22
139.7
 13
0.0
 23
0.0
 14
10.0
 24
10.0
 15
10.0
 25
10.0
 16
0.0
 26
0.0
 36
1.0
 17
0.0
 27
0.0
 37
0.0
 40
279.4
 41
1.5454545455
 42
50.0
 43
0.0
 44
0.0
 50
0.0
 51
0.0
 71
     0
 72
  2000
 73
     1
 74
     3
 75
     0
 76
     0
 77
     0
 78
     0
281
     0
 65
     1
110
0.0
120
0.0
130
0.0
111
1.0
121
0.0
131
0.0
112
0.0
122
1.0
132
0.0
 79
     0
146
0.0
  0
ENDTAB
  0
TABLE
  2
LTYPE
  5
5
330
0
100
AcDbSymbolTable
 70
     6
  0
LTYPE
  5
14
330
5
100
AcDbSymbolTableRecord
100
AcDbLinetypeTableRecord
  2
ByBlock
 70
     0
  3

 72
    65
 73
     0
 40
0.0
  0
LTYPE
  5
15
330
5
100
AcDbSymbolTableRecord
100
AcDbLinetypeTableRecord
  2
ByLayer
 70
     0
  3

 72
    65
 73
     0
 40
0.0
  0
LTYPE
  5
16
330
5
100
AcDbSymbolTableRecord
100
AcDbLinetypeTableRecord
  2
Continuous
 70
     0
  3
Solid line
 72
    65
 73
     0
 40
0.0
  0
LTYPE
  5
6E
330
5
100
AcDbSymbolTableRecord
100
AcDbLinetypeTableRecord
  2
HIDDEN
 70
     0
  3
Hidden __ __ __ __ __ __ __ __ __ __ __ __ __ __
 72
    65
 73
     2
 40
1.905
 49
1.27
 74
     0
 49
-0.635
 74
     0
  0
LTYPE
  5
6F
330
5
100
AcDbSymbolTableRecord
100
AcDbLinetypeTableRecord
  2
PHANTOM
 70
     0
  3
Phantom ______  __  __  ______  __  __  ______
 72
    65
 73
     6
 40
12.7
 49
6.35
 74
     0
 49
-1.27
 74
     0
 49
1.27
 74
     0
 49
-1.27
 74
     0
 49
1.27
 74
     0
 49
-1.27
 74
     0
  0
LTYPE
  5
70
330
5
100
AcDbSymbolTableRecord
100
AcDbLinetypeTableRecord
  2
CENTER
 70
     0
  3
Center ____ _ ____ _ ____ _ ____ _ ____ _ ____
 72
    65
 73
     4
 40
10.16
 49
6.35
 74
     0
 49
-1.27
 74
     0
 49
1.27
 74
     0
 49
-1.27
 74
     0
  0
LTYPE
  5
71
330
5
100
AcDbSymbolTableRecord
100
AcDbLinetypeTableRecord
  2
CENTERX2
 70
     0
  3
Center (2x) ________  __  ________  __  _____
 72
    65
 73
     4
 40
20.32
 49
12.7
 74
     0
 49
-2.54
 74
     0
 49
2.54
 74
     0
 49
-2.54
 74
     0
  0
LTYPE
  5
72
330
5
100
AcDbSymbolTableRecord
100
AcDbLinetypeTableRecord
  2
DOT2
 70
     0
  3
Dot (.5x) ........................................
 72
    65
 73
     2
 40
0.635
 49
0.0
 74
     0
 49
-0.635
 74
     0
  0
ENDTAB
  0
TABLE
  2
LAYER
  5
2
330
0
100
AcDbSymbolTable
 70
     1
  0
LAYER
  5
10
330
2
100
AcDbSymbolTableRecord
100
AcDbLayerTableRecord
  2
0
 70
     0
 62
     7
  6
Continuous
370
    -3
390
F
  0
ENDTAB
  0
TABLE
  2
STYLE
  5
3
330
0
100
AcDbSymbolTable
 70
     2
  0
STYLE
  5
11
330
3
100
AcDbSymbolTableRecord
100
AcDbTextStyleTableRecord
  2
Standard
 70
     0
 40
0.0
 41
1.0
 50
0.0
 71
     0
 42
3.5
  3
txt
  4
bigfont
  0
STYLE
  5
73
330
3
100
AcDbSymbolTableRecord
100
AcDbTextStyleTableRecord
  2
SLDTEXTSTYLE0
 70
     0
 40
0.0
 41
0.7
 50
0.0
 71
     0
 42
3.5
  3
TXT
  4
bigfont
  0
ENDTAB
  0
TABLE
  2
VIEW
  5
6
330
0
100
AcDbSymbolTable
 70
     0
  0
ENDTAB
  0
TABLE
  2
UCS
  5
7
330
0
100
AcDbSymbolTable
 70
     0
  0
ENDTAB
  0
TABLE
  2
APPID
  5
9
330
0
100
AcDbSymbolTable
 70
     1
  0
APPID
  5
12
330
9
100
AcDbSymbolTableRecord
100
AcDbRegAppTableRecord
  2
ACAD
 70
     0
  0
ENDTAB
  0
TABLE
  2
DIMSTYLE
  5
A
330
0
100
AcDbSymbolTable
 70
     1
100
AcDbDimStyleTable
  0
DIMSTYLE
105
27
330
A
100
AcDbSymbolTableRecord
100
AcDbDimStyleTableRecord
  2
ISO-25
 70
     0
 41
2.5
 42
0.625
 43
3.75
 44
1.25
 73
     0
 74
     0
 77
     1
 78
     8
140
2.5
141
2.5
143
0.0393700787
147
0.625
171
     3
172
     1
178
     0
271
     2
272
     2
274
     3
278
    44
283
     0
284
     8
340
11
  0
ENDTAB
  0
TABLE
  2
BLOCK_RECORD
  5
1
330
0
100
AcDbSymbolTable
 70
     3
  0
BLOCK_RECORD
  5
1F
330
1
100
AcDbSymbolTableRecord
100
AcDbBlockTableRecord
  2
*Model_Space
340
22
  0
BLOCK_RECORD
  5
1B
330
1
100
AcDbSymbolTableRecord
100
AcDbBlockTableRecord
  2
*Paper_Space
340
1E
  0
BLOCK_RECORD
  5
23
330
1
100
AcDbSymbolTableRecord
100
AcDbBlockTableRecord
  2
*Paper_Space0
340
26
  0
BLOCK_RECORD
  5
16B
330
1
100
AcDbSymbolTableRecord
100
AcDbBlockTableRecord
  2
SW_CENTERMARKSYMBOL_0
340
0
102
{BLKREFS
331
176
102
}
  0
BLOCK_RECORD
  5
202
330
1
100
AcDbSymbolTableRecord
100
AcDbBlockTableRecord
  2
SW_CENTERMARKSYMBOL_1
340
0
102
{BLKREFS
331
20D
102
}
  0
ENDTAB
  0
ENDSEC
  0
SECTION
  2
BLOCKS
  0
BLOCK
  5
20
330
1F
100
AcDbEntity
  8
0
100
AcDbBlockBegin
  2
*Model_Space
 70
     0
 10
0.0
 20
0.0
 30
0.0
  3
*Model_Space
  1

  0
ENDBLK
  5
21
330
1F
100
AcDbEntity
  8
0
100
AcDbBlockEnd
  0
BLOCK
  5
1C
330
1B
100
AcDbEntity
 67
     1
  8
0
100
AcDbBlockBegin
  2
*Paper_Space
 70
     0
 10
0.0
 20
0.0
 30
0.0
  3
*Paper_Space
  1

  0
ENDBLK
  5
1D
330
1B
100
AcDbEntity
 67
     1
  8
0
100
AcDbBlockEnd
  0
BLOCK
  5
24
330
23
100
AcDbEntity
  8
0
100
AcDbBlockBegin
  2
*Paper_Space0
 70
     0
 10
0.0
 20
0.0
 30
0.0
  3
*Paper_Space0
  1

  0
ENDBLK
  5
25
330
23
100
AcDbEntity
  8
0
100
AcDbBlockEnd
  0
BLOCK
  5
16C
330
16B
100
AcDbEntity
  8
0
100
AcDbBlockBegin
  2
SW_CENTERMARKSYMBOL_0
 70
     0
 10
0.0
 20
0.0
 30
0.0
  3
SW_CENTERMARKSYMBOL_0
  1

  0
LINE
  5
16E
330
16B
100
AcDbEntity
  8
0
  6
Continuous
 62
     0
370
    18
100
AcDbLine
 10
0.0
 20
0.0
 30
0.0
 11
0.0
 21
2.5
 31
0.0
  0
LINE
  5
16F
330
16B
100
AcDbEntity
  8
0
  6
Continuous
 62
     0
370
    18
100
AcDbLine
 10
0.0
 20
0.0
 30
0.0
 11
-2.5
 21
0.0
 31
0.0
  0
LINE
  5
170
330
16B
100
AcDbEntity
  8
0
  6
Continuous
 62
     0
370
    18
100
AcDbLine
 10
0.0
 20
0.0
 30
0.0
 11
0.0
 21
-2.5
 31
0.0
  0
LINE
  5
171
330
16B
100
AcDbEntity
  8
0
  6
Continuous
 62
     0
370
    18
100
AcDbLine
 10
0.0
 20
0.0
 30
0.0
 11
2.5
 21
0.0
 31
0.0
  0
LINE
  5
172
330
16B
100
AcDbEntity
  8
0
  6
Continuous
 62
     0
370
    18
100
AcDbLine
 10
0.0
 20
5.0
 30
0.0
 11
0.0
 21
31.6820340792
 31
0.0
  0
LINE
  5
173
330
16B
100
AcDbEntity
  8
0
  6
Continuous
 62
     0
370
    18
100
AcDbLine
 10
-5.0
 20
0.0
 30
0.0
 11
-14.25
 21
0.0
 31
0.0
  0
LINE
  5
174
330
16B
100
AcDbEntity
  8
0
  6
Continuous
 62
     0
370
    18
100
AcDbLine
 10
0.0
 20
-5.0
 30
0.0
 11
0.0
 21
-16.2971554964
 31
0.0
  0
LINE
  5
175
330
16B
100
AcDbEntity
  8
0
  6
Continuous
 62
     0
370
    18
100
AcDbLine
 10
5.0
 20
0.0
 30
0.0
 11
14.25
 21
0.0
 31
0.0
  0
ENDBLK
  5
16D
330
16B
100
AcDbEntity
  8
0
100
AcDbBlockEnd
  0
BLOCK
  5
203
330
202
100
AcDbEntity
  8
0
100
AcDbBlockBegin
  2
SW_CENTERMARKSYMBOL_1
 70
     0
 10
0.0
 20
0.0
 30
0.0
  3
SW_CENTERMARKSYMBOL_1
  1

  0
LINE
  5
205
330
202
100
AcDbEntity
  8
0
  6
Continuous
 62
     0
370
    18
100
AcDbLine
 10
0.0
 20
0.0
 30
0.0
 11
0.0
 21
2.5
 31
0.0
  0
LINE
  5
206
330
202
100
AcDbEntity
  8
0
  6
Continuous
 62
     0
370
    18
100
AcDbLine
 10
0.0
 20
0.0
 30
0.0
 11
-2.5
 21
0.0
 31
0.0
  0
LINE
  5
207
330
202
100
AcDbEntity
  8
0
  6
Continuous
 62
     0
370
    18
100
AcDbLine
 10
0.0
 20
0.0
 30
0.0
 11
0.0
 21
-2.5
 31
0.0
  0
LINE
  5
208
330
202
100
AcDbEntity
  8
0
  6
Continuous
 62
     0
370
    18
100
AcDbLine
 10
0.0
 20
0.0
 30
0.0
 11
2.5
 21
0.0
 31
0.0
  0
LINE
  5
209
330
202
100
AcDbEntity
  8
0
  6
Continuous
 62
     0
370
    18
100
AcDbLine
 10
0.0
 20
5.0
 30
0.0
 11
0.0
 21
12.8067622273
 31
0.0
  0
LINE
  5
20A
330
202
100
AcDbEntity
  8
0
  6
Continuous
 62
     0
370
    18
100
AcDbLine
 10
-5.0
 20
0.0
 30
0.0
 11
-12.8067622273
 21
0.0
 31
0.0
  0
LINE
  5
20B
330
202
100
AcDbEntity
  8
0
  6
Continuous
 62
     0
370
    18
100
AcDbLine
 10
0.0
 20
-5.0
 30
0.0
 11
0.0
 21
-12.8067622273
 31
0.0
  0
LINE
  5
20C
330
202
100
AcDbEntity
  8
0
  6
Continuous
 62
     0
370
    18
100
AcDbLine
 10
5.0
 20
0.0
 30
0.0
 11
67.2226553222
 21
0.0
 31
0.0
  0
ENDBLK
  5
204
330
202
100
AcDbEntity
  8
0
100
AcDbBlockEnd
  0
ENDSEC
  0
SECTION
  2
ENTITIES
  0
MTEXT
  5
74
330
1F
100
AcDbEntity
  8
0
  6
Continuous
 62
     7
370
     0
100
AcDbMText
 10
176.2160959023
 20
156.2021092182
 30
0.0
 40
4.7625
 41
0.0
 71
     1
 72
     1
  1
HL-1416R
  7
SLDTEXTSTYLE0
 73
     1
 44
1.0
  0
LINE
  5
75
330
1F
100
AcDbEntity
  8
0
  6
Continuous
 62
     7
370
    25
100
AcDbLine
 10
135.5365466437
 20
98.2420767352
 30
0.0
 11
142.0365466437
 21
98.2420767352
 31
0.0
  0
LINE
  5
76
330
1F
100
AcDbEntity
  8
0
  6
Continuous
 62
     7
370
    25
100
AcDbLine
 10
142.0365466437
 20
114.2420767352
 30
0.0
 11
135.5365466437
 21
114.2420767352
 31
0.0
  0
LINE
  5
77
330
1F
100
AcDbEntity
  8
0
  6
Continuous
 62
     7
370
    25
100
AcDbLine
 10
142.0365466437
 20
98.2420767352
 30
0.0
 11
146.5365466437
 21
98.9920767352
 31
0.0
  0
LINE
  5
78
330
1F
100
AcDbEntity
  8
0
  6
Continuous
 62
     7
370
    25
100
AcDbLine
 10
146.5365466437
 20
113.4920767352
 30
0.0
 11
142.0365466437
 21
114.2420767352
 31
0.0
  0
ARC
  5
79
330
1F
100
AcDbEntity
  8
0
  6
Continuous
 62
     7
370
    25
100
AcDbCircle
 10
160.1365466437
 20
114.1298747942
 30
0.0
 40
0.1000000000000129
100
AcDbArc
 50
83.4180553448
 51
180.0
  0
ARC
  5
7A
330
1F
100
AcDbEntity
  8
0
  6
Continuous
 62
     7
370
    25
100
AcDbCircle
 10
160.1365466437
 20
98.3542786761
 30
0.0
 40
0.0999999999999988
100
AcDbArc
 50
180.0
 51
276.5819446552
  0
LINE
  5
7B
330
1F
100
AcDbEntity
  8
0
  6
Continuous
 62
     7
370
    25
100
AcDbLine
 10
160.1480090545
 20
98.2549377826
 30
0.0
 11
165.9405012821
 21
98.9233022704
 31
0.0
  0
LINE
  5
7C
330
1F
100
AcDbEntity
  8
0
  6
Continuous
 62
     7
370
    25
100
AcDbLine
 10
165.9405012821
 20
113.5608511999
 30
0.0
 11
160.1480090545
 21
114.2292156878
 31
0.0
  0
ARC
  5
7D
330
1F
100
AcDbEntity
  8
0
  6
Continuous
 62
     7
370
    25
100
AcDbCircle
 10
151.1365466437
 20
114.124030693
 30
0.0
 40
0.0999999999999943
100
AcDbArc
 50
80.537677792
 51
180.0
  0
ARC
  5
7E
330
1F
100
AcDbEntity
  8
0
  6
Continuous
 62
     7
370
    25
100
AcDbCircle
 10
151.1365466437
 20
98.3601227773
 30
0.0
 40
0.0999999999999943
100
AcDbArc
 50
180.0
 51
279.462322208
  0
ARC
  5
7F
330
1F
100
AcDbEntity
  8
0
  6
Continuous
 62
     7
370
    25
100
AcDbCircle
 10
146.6365466437
 20
114.124030693
 30
0.0
 40
0.0999999999999964
100
AcDbArc
 50
80.537677792
 51
180.0
  0
ARC
  5
80
330
1F
100
AcDbEntity
  8
0
  6
Continuous
 62
     7
370
    25
100
AcDbCircle
 10
146.6365466437
 20
98.3601227773
 30
0.0
 40
0.0999999999999964
100
AcDbArc
 50
180.0
 51
279.462322208
  0
ARC
  5
81
330
1F
100
AcDbEntity
  8
0
  6
Continuous
 62
     7
370
    25
100
AcDbCircle
 10
155.6365466437
 20
114.124030693
 30
0.0
 40
0.0999999999999943
100
AcDbArc
 50
80.537677792
 51
180.0
  0
ARC
  5
82
330
1F
100
AcDbEntity
  8
0
  6
Continuous
 62
     7
370
    25
100
AcDbCircle
 10
155.6365466437
 20
98.3601227773
 30
0.0
 40
0.0999999999999943
100
AcDbArc
 50
180.0
 51
279.462322208
  0
LINE
  5
83
330
1F
100
AcDbEntity
  8
0
  6
Continuous
 62
     7
370
    25
100
AcDbLine
 10
151.1529865424
 20
98.2614833849
 30
0.0
 11
155.5365466437
 21
98.9920767352
 31
0.0
  0
LINE
  5
84
330
1F
100
AcDbEntity
  8
0
  6
Continuous
 62
     7
370
    25
100
AcDbLine
 10
155.5365466437
 20
113.4920767352
 30
0.0
 11
151.1529865424
 21
114.2226700854
 31
0.0
  0
LINE
  5
85
330
1F
100
AcDbEntity
  8
0
  6
Continuous
 62
     7
370
    25
100
AcDbLine
 10
146.6529865424
 20
98.2614833849
 30
0.0
 11
151.0365466437
 21
98.9920767352
 31
0.0
  0
LINE
  5
86
330
1F
100
AcDbEntity
  8
0
  6
Continuous
 62
     7
370
    25
100
AcDbLine
 10
151.0365466437
 20
113.4920767352
 30
0.0
 11
146.6529865424
 21
114.2226700854
 31
0.0
  0
LINE
  5
87
330
1F
100
AcDbEntity
  8
0
  6
Continuous
 62
     7
370
    25
100
AcDbLine
 10
155.6529865424
 20
98.2614833849
 30
0.0
 11
160.0365466437
 21
98.9920767352
 31
0.0
  0
LINE
  5
88
330
1F
100
AcDbEntity
  8
0
  6
Continuous
 62
     7
370
    25
100
AcDbLine
 10
160.0365466437
 20
113.4920767352
 30
0.0
 11
155.6529865424
 21
114.2226700854
 31
0.0
  0
LINE
  5
89
330
1F
100
AcDbEntity
  8
0
  6
Continuous
 62
     7
370
    25
100
AcDbLine
 10
165.9405012821
 20
98.9233022704
 30
0.0
 11
166.5365466437
 21
99.5920767352
 31
0.0
  0
LINE
  5
8A
330
1F
100
AcDbEntity
  8
0
  6
Continuous
 62
     7
370
    25
100
AcDbLine
 10
166.5365466437
 20
112.8920767352
 30
0.0
 11
165.9405012821
 21
113.5608511999
 31
0.0
  0
LINE
  5
8B
330
1F
100
AcDbEntity
  8
0
  6
Continuous
 62
     7
370
    25
100
AcDbLine
 10
132.3204123066
 20
92.3856702746
 30
0.0
 11
133.5365466437
 21
94.4920767352
 31
0.0
  0
LINE
  5
8C
330
1F
100
AcDbEntity
  8
0
  6
Continuous
 62
     7
370
    25
100
AcDbLine
 10
133.5365466437
 20
117.9920767352
 30
0.0
 11
132.3204123066
 21
120.0984831957
 31
0.0
  0
LINE
  5
8D
330
1F
100
AcDbEntity
  8
0
  6
Continuous
 62
     7
370
    25
100
AcDbLine
 10
122.7526809807
 20
120.0984831957
 30
0.0
 11
121.5365466437
 21
117.9920767352
 31
0.0
  0
LINE
  5
8E
330
1F
100
AcDbEntity
  8
0
  6
Continuous
 62
     7
370
    25
100
AcDbLine
 10
121.5365466437
 20
94.4920767352
 30
0.0
 11
122.7526809807
 21
92.3856702746
 31
0.0
  0
LINE
  5
8F
330
1F
100
AcDbEntity
  8
0
  6
Continuous
 62
     7
370
    25
100
AcDbLine
 10
135.0365466437
 20
94.4920767352
 30
0.0
 11
135.5365466437
 21
94.9920767352
 31
0.0
  0
LINE
  5
90
330
1F
100
AcDbEntity
  8
0
  6
Continuous
 62
     7
370
    25
100
AcDbLine
 10
135.5365466437
 20
117.4920767352
 30
0.0
 11
135.0365466437
 21
117.9920767352
 31
0.0
  0
LINE
  5
91
330
1F
100
AcDbEntity
  8
0
  6
Continuous
 62
     7
370
    25
100
AcDbLine
 10
120.0365466437
 20
117.9920767352
 30
0.0
 11
119.5365466437
 21
117.4920767352
 31
0.0
  0
LINE
  5
92
330
1F
100
AcDbEntity
  8
0
  6
Continuous
 62
     7
370
    25
100
AcDbLine
 10
119.5365466437
 20
94.9920767352
 30
0.0
 11
120.0365466437
 21
94.4920767352
 31
0.0
  0
LINE
  5
93
330
1F
100
AcDbEntity
  8
0
  6
Continuous
 62
     7
370
    25
100
AcDbLine
 10
133.5365466437
 20
94.4920767352
 30
0.0
 11
135.0365466437
 21
94.4920767352
 31
0.0
  0
LINE
  5
94
330
1F
100
AcDbEntity
  8
0
  6
Continuous
 62
     7
370
    25
100
AcDbLine
 10
135.0365466437
 20
117.9920767352
 30
0.0
 11
133.5365466437
 21
117.9920767352
 31
0.0
  0
LINE
  5
95
330
1F
100
AcDbEntity
  8
0
  6
Continuous
 62
     7
370
    25
100
AcDbLine
 10
121.5365466437
 20
117.9920767352
 30
0.0
 11
120.0365466437
 21
117.9920767352
 31
0.0
  0
LINE
  5
96
330
1F
100
AcDbEntity
  8
0
  6
Continuous
 62
     7
370
    25
100
AcDbLine
 10
120.0365466437
 20
94.4920767352
 30
0.0
 11
121.5365466437
 21
94.4920767352
 31
0.0
  0
LINE
  5
97
330
1F
100
AcDbEntity
  8
0
  6
Continuous
 62
     7
370
    25
100
AcDbLine
 10
127.6705212399
 20
120.0984831957
 30
0.0
 11
127.5365466437
 21
119.5984831957
 31
0.0
  0
LINE
  5
98
330
1F
100
AcDbEntity
  8
0
  6
Continuous
 62
     7
370
    25
100
AcDbLine
 10
127.5365466437
 20
119.5984831957
 30
0.0
 11
127.4025720475
 21
120.0984831957
 31
0.0
  0
LINE
  5
99
330
1F
100
AcDbEntity
  8
0
  6
Continuous
 62
     7
370
    25
100
AcDbLine
 10
127.4025720475
 20
92.3856702746
 30
0.0
 11
127.5365466437
 21
92.8856702746
 31
0.0
  0
LINE
  5
9A
330
1F
100
AcDbEntity
  8
0
  6
Continuous
 62
     7
370
    25
100
AcDbLine
 10
127.5365466437
 20
92.8856702746
 30
0.0
 11
127.6705212399
 21
92.3856702746
 31
0.0
  0
LINE
  5
9B
330
1F
100
AcDbEntity
  8
0
  6
Continuous
 62
     7
370
    25
100
AcDbLine
 10
112.7840097783
 20
121.5816951898
 30
0.0
 11
112.4413850823
 21
132.5456854622
 31
0.0
  0
LINE
  5
9C
330
1F
100
AcDbEntity
  8
0
  6
Continuous
 62
     7
370
    25
100
AcDbLine
 10
91.8278606277
 20
132.5456854622
 30
0.0
 11
91.4852359317
 21
121.5816951898
 31
0.0
  0
ARC
  5
9D
330
1F
100
AcDbEntity
  8
0
  6
Continuous
 62
     7
370
    25
100
AcDbCircle
 10
110.884622855
 20
123.20721951
 30
0.0
 40
2.500000000000003
100
AcDbArc
 50
296.7436839504
 51
319.4425836613
  0
ARC
  5
9E
330
1F
100
AcDbEntity
  8
0
  6
Continuous
 62
     7
370
    25
100
AcDbCircle
 10
93.384622855
 20
123.20721951
 30
0.0
 40
2.500000000000003
100
AcDbArc
 50
220.5574163387
 51
243.2563160496
  0
LINE
  5
9F
330
1F
100
AcDbEntity
  8
0
  6
Continuous
 62
     7
370
    25
100
AcDbLine
 10
119.5365466437
 20
116.7195767352
 30
0.0
 11
117.2926287369
 21
116.7195767352
 31
0.0
  0
LINE
  5
A0
330
1F
100
AcDbEntity
  8
0
  6
Continuous
 62
     7
370
    25
100
AcDbLine
 10
117.2926287369
 20
95.7645767352
 30
0.0
 11
119.5365466437
 21
95.7645767352
 31
0.0
  0
ARC
  5
A1
330
1F
100
AcDbEntity
  8
0
  6
Continuous
 62
     7
370
    25
100
AcDbCircle
 10
119.0997656299
 20
97.4920767352
 30
0.0
 40
2.499999999999986
100
AcDbArc
 50
206.7436839504
 51
223.7093197495
  0
ARC
  5
A2
330
1F
100
AcDbEntity
  8
0
  6
Continuous
 62
     7
370
    25
100
AcDbCircle
 10
119.0997656299
 20
114.9920767352
 30
0.0
 40
2.499999999999986
100
AcDbArc
 50
136.2906802505
 51
153.2563160496
  0
LINE
  5
A3
330
1F
100
AcDbEntity
  8
0
  6
Continuous
 62
     7
370
    25
100
AcDbLine
 10
112.4413850823
 20
132.5456854622
 30
0.0
 11
110.884622855
 21
135.2420767352
 31
0.0
  0
LINE
  5
A4
330
1F
100
AcDbEntity
  8
0
  6
Continuous
 62
     7
370
    25
100
AcDbLine
 10
93.384622855
 20
135.2420767352
 30
0.0
 11
91.8278606277
 21
132.5456854622
 31
0.0
  0
ARC
  5
A5
330
1F
100
AcDbEntity
  8
0
  6
Continuous
 62
     7
370
    25
100
AcDbCircle
 10
113.134622855
 20
118.7420767352
 30
0.0
 40
2.5
100
AcDbArc
 50
116.7436839504
 51
180.0
  0
ARC
  5
A6
330
1F
100
AcDbEntity
  8
0
  6
Continuous
 62
     7
370
    25
100
AcDbCircle
 10
91.134622855
 20
118.7420767352
 30
0.0
 40
2.5
100
AcDbArc
 50
0.0
 51
63.2563160496
  0
ARC
  5
A7
330
1F
100
AcDbEntity
  8
0
  6
Continuous
 62
     7
370
    25
100
AcDbCircle
 10
114.634622855
 20
95.2420767352
 30
0.0
 40
2.500000000000009
100
AcDbArc
 50
26.7436839504
 51
90.0
  0
ARC
  5
A8
330
1F
100
AcDbEntity
  8
0
  6
Continuous
 62
     7
370
    25
100
AcDbCircle
 10
114.634622855
 20
117.2420767352
 30
0.0
 40
2.500000000000009
100
AcDbArc
 50
270.0
 51
333.2563160496
  0
LINE
  5
A9
330
1F
100
AcDbEntity
  8
0
  6
Continuous
 62
     7
370
    25
100
AcDbLine
 10
93.634622855
 20
118.7420767352
 30
0.0
 11
93.634622855
 21
100.7376760667
 31
0.0
  0
LINE
  5
AA
330
1F
100
AcDbEntity
  8
0
  6
Continuous
 62
     7
370
    25
100
AcDbLine
 10
110.634622855
 20
115.2420767352
 30
0.0
 11
110.634622855
 21
118.7420767352
 31
0.0
  0
LINE
  5
AB
330
1F
100
AcDbEntity
  8
0
  6
Continuous
 62
     7
370
    25
100
AcDbLine
 10
114.634622855
 20
114.7420767352
 30
0.0
 11
111.134622855
 21
114.7420767352
 31
0.0
  0
LINE
  5
AC
330
1F
100
AcDbEntity
  8
0
  6
Continuous
 62
     7
370
    25
100
AcDbLine
 10
96.6302221866
 20
97.7420767352
 30
0.0
 11
114.634622855
 21
97.7420767352
 31
0.0
  0
SPLINE
  5
AD
330
1F
100
AcDbEntity
  8
0
  6
Continuous
 62
     7
370
    25
100
AcDbSpline
210
0.0
220
0.0
230
1.0
 70
     8
 71
     3
 72
    18
 73
    14
 74
     0
 42
0.000000001
 43
0.00000001
 40
0.0
 40
0.0
 40
0.0
 40
0.0
 40
0.0827064529141086
 40
0.157774629988733
 40
0.2847974390907824
 40
0.3813326480059515
 40
0.4519486919440617
 40
0.542152133493574
 40
0.6634999391290143
 40
0.7359335745171601
 40
0.8161561932238498
 40
0.9041841948346939
 40
1.0
 40
1.0
 40
1.0
 40
1.0
 10
93.63462285528527
 20
100.7420371121864
 30
0.0
 10
93.6395429550951
 20
100.6121514789718
 30
0.0
 10
93.64892876357378
 20
100.3643756767309
 30
0.0
 10
93.73588760782745
 20
99.92456662501682
 30
0.0
 10
93.8952646104893
 20
99.48057851928705
 30
0.0
 10
94.12743535124494
 20
99.07947050500049
 30
0.0
 10
94.37349520492137
 20
98.75830356740576
 30
0.0
 10
94.686129589869
 20
98.4426902160944
 30
0.0
 10
95.05042115968897
 20
98.18093193320038
 30
0.0
 10
95.4340079897397
 20
97.9847266639765
 30
0.0
 10
95.789626420161
 20
97.85522221848511
 30
0.0
 10
96.19532105586687
 20
97.76129616733229
 30
0.0
 10
96.48408506466453
 20
97.7486616166987
 30
0.0
 10
96.63458323205396
 20
97.74207673541774
 30
0.0
  0
SPLINE
  5
AE
330
1F
100
AcDbEntity
  8
0
  6
Continuous
 62
     7
370
    25
100
AcDbSpline
210
0.0
220
0.0
230
1.0
 70
     8
 71
     3
 72
    11
 73
     7
 74
     0
 42
0.000000001
 43
0.00000001
 40
0.0
 40
0.0
 40
0.0
 40
0.0
 40
0.2500481156911711
 40
0.5000000000000012
 40
0.7499518843088333
 40
1.0
 40
1.0
 40
1.0
 40
1.0
 10
111.1394561861971
 20
114.7420767351527
 30
0.0
 10
111.0730550527103
 20
114.749169159412
 30
0.0
 10
110.9402783403098
 20
114.7633512784009
 30
0.0
 10
110.7726800317248
 20
114.8801339118572
 30
0.0
 10
110.6558973982684
 20
115.0477322204423
 30
0.0
 10
110.6417152792796
 20
115.1805089328427
 30
0.0
 10
110.6346228550202
 20
115.2469100663295
 30
0.0
  0
LINE
  5
AF
330
1F
100
AcDbEntity
  8
0
  6
Continuous
 62
     7
370
    25
100
AcDbLine
 10
142.0365466437
 20
98.2420767352
 30
0.0
 11
142.0365466437
 21
114.2420767352
 31
0.0
  0
LINE
  5
B0
330
1F
100
AcDbEntity
  8
0
  6
Continuous
 62
     7
370
    25
100
AcDbLine
 10
160.0365466437
 20
101.6908854651
 30
0.0
 11
160.0365466437
 21
114.1298747942
 31
0.0
  0
LINE
  5
B1
330
1F
100
AcDbEntity
  8
0
  6
Continuous
 62
     7
370
    25
100
AcDbLine
 10
160.0365466437
 20
98.3542786761
 30
0.0
 11
160.0365466437
 21
101.6908854651
 31
0.0
  0
LINE
  5
B2
330
1F
100
AcDbEntity
  8
0
  6
Continuous
 62
     7
370
    25
100
AcDbLine
 10
165.9405012821
 20
102.0192071583
 30
0.0
 11
165.9405012821
 21
113.5608511999
 31
0.0
  0
LINE
  5
B3
330
1F
100
AcDbEntity
  8
0
  6
Continuous
 62
     7
370
    25
100
AcDbLine
 10
165.9405012821
 20
98.9233022704
 30
0.0
 11
165.9405012821
 21
102.0192071583
 31
0.0
  0
LINE
  5
B4
330
1F
100
AcDbEntity
  8
0
  6
Continuous
 62
     7
370
    25
100
AcDbLine
 10
151.0365466437
 20
101.6942574609
 30
0.0
 11
151.0365466437
 21
114.124030693
 31
0.0
  0
LINE
  5
B5
330
1F
100
AcDbEntity
  8
0
  6
Continuous
 62
     7
370
    25
100
AcDbLine
 10
151.0365466437
 20
98.3601227773
 30
0.0
 11
151.0365466437
 21
101.6942574609
 31
0.0
  0
LINE
  5
B6
330
1F
100
AcDbEntity
  8
0
  6
Continuous
 62
     7
370
    25
100
AcDbLine
 10
146.5365466437
 20
101.6942574609
 30
0.0
 11
146.5365466437
 21
114.124030693
 31
0.0
  0
LINE
  5
B7
330
1F
100
AcDbEntity
  8
0
  6
Continuous
 62
     7
370
    25
100
AcDbLine
 10
146.5365466437
 20
98.3601227773
 30
0.0
 11
146.5365466437
 21
101.6942574609
 31
0.0
  0
LINE
  5
B8
330
1F
100
AcDbEntity
  8
0
  6
Continuous
 62
     7
370
    25
100
AcDbLine
 10
155.5365466437
 20
101.6942574609
 30
0.0
 11
155.5365466437
 21
114.124030693
 31
0.0
  0
LINE
  5
B9
330
1F
100
AcDbEntity
  8
0
  6
Continuous
 62
     7
370
    25
100
AcDbLine
 10
155.5365466437
 20
98.3601227773
 30
0.0
 11
155.5365466437
 21
101.6942574609
 31
0.0
  0
LINE
  5
BA
330
1F
100
AcDbEntity
  8
0
  6
Continuous
 62
     7
370
    25
100
AcDbLine
 10
166.5365466437
 20
112.8920767352
 30
0.0
 11
166.5365466437
 21
99.5920767352
 31
0.0
  0
LINE
  5
BB
330
1F
100
AcDbEntity
  8
0
  6
Continuous
 62
     7
370
    25
100
AcDbLine
 10
127.6705212399
 20
120.0984831957
 30
0.0
 11
127.5365466437
 21
119.5666841545
 31
0.0
  0
LINE
  5
BC
330
1F
100
AcDbEntity
  8
0
  6
Continuous
 62
     7
370
    25
100
AcDbLine
 10
132.3204123066
 20
120.0984831957
 30
0.0
 11
127.6705212399
 21
120.0984831957
 31
0.0
  0
SPLINE
  5
BD
330
1F
100
AcDbEntity
  8
0
  6
Continuous
 62
     7
370
    25
100
AcDbSpline
210
0.0
220
0.0
230
1.0
 70
     8
 71
     3
 72
    15
 73
    11
 74
     0
 42
0.000000001
 43
0.00000001
 40
0.0
 40
0.0
 40
0.0
 40
0.0
 40
0.1323065044264403
 40
0.2645755999739297
 40
0.3998036789671094
 40
0.5350073556765894
 40
0.6501969475405022
 40
0.7654045076453767
 40
0.8826909144168968
 40
1.0
 40
1.0
 40
1.0
 40
1.0
 10
132.3204123066451
 20
120.0984831957037
 30
0.0
 10
132.4835713885628
 20
119.7991543729331
 30
0.0
 10
132.8098434201361
 20
119.2005813608402
 30
0.0
 10
133.160898123156
 20
118.2788315840474
 30
0.0
 10
133.3719749086851
 20
117.3397064702968
 30
0.0
 10
133.4137722189707
 20
116.4346055722536
 30
0.0
 10
133.30531358627
 20
115.5784088674691
 30
0.0
 10
133.0830876772091
 20
114.7703763586596
 30
0.0
 10
132.7571099039228
 20
113.9659972895496
 30
0.0
 10
132.4659875535293
 20
113.435536167045
 30
0.0
 10
132.3204123066451
 20
113.1702799654282
 30
0.0
  0
LINE
  5
BE
330
1F
100
AcDbEntity
  8
0
  6
Continuous
 62
     7
370
    25
100
AcDbLine
 10
132.3204123066
 20
113.1702799654
 30
0.0
 11
127.6705212399
 21
113.1702799654
 31
0.0
  0
LINE
  5
BF
330
1F
100
AcDbEntity
  8
0
  6
Continuous
 62
     7
370
    25
100
AcDbLine
 10
127.5365466437
 20
113.7020790067
 30
0.0
 11
127.6705212399
 21
113.1702799654
 31
0.0
  0
LINE
  5
C0
330
1F
100
AcDbEntity
  8
0
  6
Continuous
 62
     7
370
    25
100
AcDbLine
 10
127.5365466437
 20
113.7020790067
 30
0.0
 11
127.4025720475
 21
113.1702799654
 31
0.0
  0
LINE
  5
C1
330
1F
100
AcDbEntity
  8
0
  6
Continuous
 62
     7
370
    25
100
AcDbLine
 10
127.4025720475
 20
113.1702799654
 30
0.0
 11
122.7526809807
 21
113.1702799654
 31
0.0
  0
SPLINE
  5
C2
330
1F
100
AcDbEntity
  8
0
  6
Continuous
 62
     7
370
    25
100
AcDbSpline
210
0.0
220
0.0
230
1.0
 70
     8
 71
     3
 72
    15
 73
    11
 74
     0
 42
0.000000001
 43
0.00000001
 40
0.0
 40
0.0
 40
0.0
 40
0.0
 40
0.1323065044264403
 40
0.2645755999739297
 40
0.3998036789671094
 40
0.5350073556765894
 40
0.6501969475405022
 40
0.7654045076453767
 40
0.8826909144168968
 40
1.0
 40
1.0
 40
1.0
 40
1.0
 10
122.7526809806889
 20
120.0984831957037
 30
0.0
 10
122.5895218987712
 20
119.7991543729331
 30
0.0
 10
122.2632498671978
 20
119.2005813608402
 30
0.0
 10
121.9121951641779
 20
118.2788315840474
 30
0.0
 10
121.7011183786488
 20
117.3397064702968
 30
0.0
 10
121.6593210683632
 20
116.4346055722536
 30
0.0
 10
121.767779701064
 20
115.5784088674691
 30
0.0
 10
121.9900056101249
 20
114.7703763586596
 30
0.0
 10
122.3159833834112
 20
113.9659972895496
 30
0.0
 10
122.6071057338046
 20
113.435536167045
 30
0.0
 10
122.7526809806889
 20
113.1702799654282
 30
0.0
  0
LINE
  5
C3
330
1F
100
AcDbEntity
  8
0
  6
Continuous
 62
     7
370
    25
100
AcDbLine
 10
127.4025720475
 20
120.0984831957
 30
0.0
 11
122.7526809807
 21
120.0984831957
 31
0.0
  0
LINE
  5
C4
330
1F
100
AcDbEntity
  8
0
  6
Continuous
 62
     7
370
    25
100
AcDbLine
 10
127.4025720475
 20
120.0984831957
 30
0.0
 11
127.5365466437
 21
119.5666841545
 31
0.0
  0
LINE
  5
C5
330
1F
100
AcDbEntity
  8
0
  6
Continuous
 62
     7
370
    25
100
AcDbLine
 10
127.5365466437
 20
113.7020790067
 30
0.0
 11
127.5365466437
 21
112.1066818829
 31
0.0
  0
LINE
  5
C6
330
1F
100
AcDbEntity
  8
0
  6
Continuous
 62
     7
370
    25
100
AcDbLine
 10
127.4025720475
 20
113.1702799654
 30
0.0
 11
127.5365466437
 21
112.1066818829
 31
0.0
  0
LINE
  5
C7
330
1F
100
AcDbEntity
  8
0
  6
Continuous
 62
     7
370
    25
100
AcDbLine
 10
127.6705212399
 20
113.1702799654
 30
0.0
 11
127.5365466437
 21
112.1066818829
 31
0.0
  0
SPLINE
  5
C8
330
1F
100
AcDbEntity
  8
0
  6
Continuous
 62
     7
370
    25
100
AcDbSpline
210
0.0
220
0.0
230
1.0
 70
     8
 71
     3
 72
    16
 73
    12
 74
     0
 42
0.000000001
 43
0.00000001
 40
0.0
 40
0.0
 40
0.0
 40
0.0
 40
0.0915356978782496
 40
0.1830633432235329
 40
0.2753996771146607
 40
0.3677267146962475
 40
0.4925705318074073
 40
0.6174129202940688
 40
0.745583249032783
 40
0.8737882839722001
 40
1.0
 40
1.0
 40
1.0
 40
1.0
 10
132.3204123066451
 20
113.1702799654282
 30
0.0
 10
132.4352076553171
 20
112.756680236874
 30
0.0
 10
132.6647882539417
 20
111.9295171647555
 30
0.0
 10
132.946022615475
 20
110.6686419332726
 30
0.0
 10
133.169345572863
 20
109.3925625182058
 30
0.0
 10
133.3407062226444
 20
107.9507294120347
 30
0.0
 10
133.4156527563002
 20
106.3470006571288
 30
0.0
 10
133.3510611680661
 20
104.5743583144796
 30
0.0
 10
133.1335708119988
 20
102.7984885656414
 30
0.0
 10
132.7912803114255
 20
101.0357692257268
 30
0.0
 10
132.4765463430063
 20
99.88483293800913
 30
0.0
 10
132.3204123066451
 20
99.3138735048772
 30
0.0
  0
LINE
  5
C9
330
1F
100
AcDbEntity
  8
0
  6
Continuous
 62
     7
370
    25
100
AcDbLine
 10
132.3204123066
 20
99.3138735049
 30
0.0
 11
127.6705212399
 21
99.3138735049
 31
0.0
  0
LINE
  5
CA
330
1F
100
AcDbEntity
  8
0
  6
Continuous
 62
     7
370
    25
100
AcDbLine
 10
127.5365466437
 20
100.3774715874
 30
0.0
 11
127.6705212399
 21
99.3138735049
 31
0.0
  0
LINE
  5
CB
330
1F
100
AcDbEntity
  8
0
  6
Continuous
 62
     7
370
    25
100
AcDbLine
 10
127.5365466437
 20
100.3774715874
 30
0.0
 11
127.4025720475
 21
99.3138735049
 31
0.0
  0
LINE
  5
CC
330
1F
100
AcDbEntity
  8
0
  6
Continuous
 62
     7
370
    25
100
AcDbLine
 10
127.4025720475
 20
99.3138735049
 30
0.0
 11
122.7526809807
 21
99.3138735049
 31
0.0
  0
SPLINE
  5
CD
330
1F
100
AcDbEntity
  8
0
  6
Continuous
 62
     7
370
    25
100
AcDbSpline
210
0.0
220
0.0
230
1.0
 70
     8
 71
     3
 72
    16
 73
    12
 74
     0
 42
0.000000001
 43
0.00000001
 40
0.0
 40
0.0
 40
0.0
 40
0.0
 40
0.0915356978782496
 40
0.1830633432235329
 40
0.2753996771146607
 40
0.3677267146962474
 40
0.4925705318074073
 40
0.6174129202940688
 40
0.745583249032783
 40
0.8737882839722001
 40
0.9999999999999999
 40
0.9999999999999999
 40
0.9999999999999999
 40
0.9999999999999999
 10
122.7526809806889
 20
113.1702799654282
 30
0.0
 10
122.6378856320169
 20
112.756680236874
 30
0.0
 10
122.4083050333923
 20
111.9295171647555
 30
0.0
 10
122.1270706718589
 20
110.6686419332726
 30
0.0
 10
121.9037477144709
 20
109.3925625182058
 30
0.0
 10
121.7323870646896
 20
107.9507294120347
 30
0.0
 10
121.6574405310337
 20
106.3470006571288
 30
0.0
 10
121.7220321192678
 20
104.5743583144796
 30
0.0
 10
121.9395224753352
 20
102.7984885656414
 30
0.0
 10
122.2818129759085
 20
101.0357692257268
 30
0.0
 10
122.5965469443276
 20
99.88483293800913
 30
0.0
 10
122.7526809806889
 20
99.3138735048772
 30
0.0
  0
SPLINE
  5
CE
330
1F
100
AcDbEntity
  8
0
  6
Continuous
 62
     7
370
    25
100
AcDbSpline
210
0.0
220
0.0
230
1.0
 70
     8
 71
     3
 72
    15
 73
    11
 74
     0
 42
0.000000001
 43
0.00000001
 40
0.0
 40
0.0
 40
0.0
 40
0.0
 40
0.1323065044264403
 40
0.2645755999739298
 40
0.3998036789671093
 40
0.5350073556765895
 40
0.6501969475405022
 40
0.7654045076453766
 40
0.8826909144168967
 40
1.0
 40
1.0
 40
1.0
 40
1.0
 10
132.3204123066451
 20
99.3138735048772
 30
0.0
 10
132.4835713885628
 20
99.01454468210657
 30
0.0
 10
132.8098434201361
 20
98.41597167001365
 30
0.0
 10
133.160898123156
 20
97.49422189322085
 30
0.0
 10
133.3719749086851
 20
96.5550967794703
 30
0.0
 10
133.4137722189707
 20
95.6499958814271
 30
0.0
 10
133.30531358627
 20
94.79379917664255
 30
0.0
 10
133.0830876772091
 20
93.98576666783305
 30
0.0
 10
132.7571099039228
 20
93.18138759872313
 30
0.0
 10
132.4659875535293
 20
92.65092647621847
 30
0.0
 10
132.3204123066451
 20
92.38567027460168
 30
0.0
  0
LINE
  5
CF
330
1F
100
AcDbEntity
  8
0
  6
Continuous
 62
     7
370
    25
100
AcDbLine
 10
133.5365466437
 20
117.9920767352
 30
0.0
 11
133.5365466437
 21
94.4920767352
 31
0.0
  0
SPLINE
  5
D0
330
1F
100
AcDbEntity
  8
0
  6
Continuous
 62
     7
370
    25
100
AcDbSpline
210
0.0
220
0.0
230
1.0
 70
     8
 71
     3
 72
    15
 73
    11
 74
     0
 42
0.000000001
 43
0.00000001
 40
0.0
 40
0.0
 40
0.0
 40
0.0
 40
0.1323065044264403
 40
0.2645755999739297
 40
0.3998036789671092
 40
0.5350073556765894
 40
0.6501969475405021
 40
0.7654045076453764
 40
0.8826909144168966
 40
1.0
 40
1.0
 40
1.0
 40
1.0
 10
122.7526809806889
 20
99.3138735048772
 30
0.0
 10
122.5895218987711
 20
99.01454468210659
 30
0.0
 10
122.2632498671978
 20
98.41597167001365
 30
0.0
 10
121.9121951641779
 20
97.49422189322085
 30
0.0
 10
121.7011183786488
 20
96.5550967794703
 30
0.0
 10
121.6593210683632
 20
95.6499958814271
 30
0.0
 10
121.767779701064
 20
94.79379917664255
 30
0.0
 10
121.9900056101249
 20
93.98576666783306
 30
0.0
 10
122.3159833834111
 20
93.18138759872312
 30
0.0
 10
122.6071057338046
 20
92.65092647621847
 30
0.0
 10
122.7526809806889
 20
92.38567027460168
 30
0.0
  0
LINE
  5
D1
330
1F
100
AcDbEntity
  8
0
  6
Continuous
 62
     7
370
    25
100
AcDbLine
 10
121.5365466437
 20
117.9920767352
 30
0.0
 11
121.5365466437
 21
94.4920767352
 31
0.0
  0
LINE
  5
D2
330
1F
100
AcDbEntity
  8
0
  6
Continuous
 62
     7
370
    25
100
AcDbLine
 10
127.5365466437
 20
100.3774715874
 30
0.0
 11
127.5365466437
 21
98.7820744636
 31
0.0
  0
LINE
  5
D3
330
1F
100
AcDbEntity
  8
0
  6
Continuous
 62
     7
370
    25
100
AcDbLine
 10
127.4025720475
 20
99.3138735049
 30
0.0
 11
127.5365466437
 21
98.7820744636
 31
0.0
  0
LINE
  5
D4
330
1F
100
AcDbEntity
  8
0
  6
Continuous
 62
     7
370
    25
100
AcDbLine
 10
127.6705212399
 20
99.3138735049
 30
0.0
 11
127.5365466437
 21
98.7820744636
 31
0.0
  0
LINE
  5
D5
330
1F
100
AcDbEntity
  8
0
  6
Continuous
 62
     7
370
    25
100
AcDbLine
 10
132.3204123066
 20
92.3856702746
 30
0.0
 11
127.6705212399
 21
92.3856702746
 31
0.0
  0
LINE
  5
D6
330
1F
100
AcDbEntity
  8
0
  6
Continuous
 62
     7
370
    25
100
AcDbLine
 10
127.5365466437
 20
92.9174693158
 30
0.0
 11
127.6705212399
 21
92.3856702746
 31
0.0
  0
LINE
  5
D7
330
1F
100
AcDbEntity
  8
0
  6
Continuous
 62
     7
370
    25
100
AcDbLine
 10
127.5365466437
 20
92.9174693158
 30
0.0
 11
127.4025720475
 21
92.3856702746
 31
0.0
  0
LINE
  5
D8
330
1F
100
AcDbEntity
  8
0
  6
Continuous
 62
     7
370
    25
100
AcDbLine
 10
127.4025720475
 20
92.3856702746
 30
0.0
 11
122.7526809807
 21
92.3856702746
 31
0.0
  0
LINE
  5
D9
330
1F
100
AcDbEntity
  8
0
  6
Continuous
 62
     7
370
    25
100
AcDbLine
 10
135.5365466437
 20
117.4920767352
 30
0.0
 11
135.5365466437
 21
94.9920767352
 31
0.0
  0
LINE
  5
DA
330
1F
100
AcDbEntity
  8
0
  6
Continuous
 62
     7
370
    25
100
AcDbLine
 10
135.0365466437
 20
94.4920767352
 30
0.0
 11
135.0365466437
 21
117.9920767352
 31
0.0
  0
LINE
  5
DB
330
1F
100
AcDbEntity
  8
0
  6
Continuous
 62
     7
370
    25
100
AcDbLine
 10
120.0365466437
 20
106.2420767352
 30
0.0
 11
120.0365466437
 21
94.4920767352
 31
0.0
  0
LINE
  5
DC
330
1F
100
AcDbEntity
  8
0
  6
Continuous
 62
     7
370
    25
100
AcDbLine
 10
120.0365466437
 20
117.9920767352
 30
0.0
 11
120.0365466437
 21
106.2420767352
 31
0.0
  0
LINE
  5
DD
330
1F
100
AcDbEntity
  8
0
  6
Continuous
 62
     7
370
    25
100
AcDbLine
 10
119.5365466437
 20
106.2420767352
 30
0.0
 11
119.5365466437
 21
117.4920767352
 31
0.0
  0
LINE
  5
DE
330
1F
100
AcDbEntity
  8
0
  6
Continuous
 62
     7
370
    25
100
AcDbLine
 10
119.5365466437
 20
94.9920767352
 30
0.0
 11
119.5365466437
 21
106.2420767352
 31
0.0
  0
LINE
  5
DF
330
1F
100
AcDbEntity
  8
0
  6
Continuous
 62
     7
370
    25
100
AcDbLine
 10
127.5365466437
 20
119.5984831957
 30
0.0
 11
127.5365466437
 21
119.5666841545
 31
0.0
  0
LINE
  5
E0
330
1F
100
AcDbEntity
  8
0
  6
Continuous
 62
     7
370
    25
100
AcDbLine
 10
127.5365466437
 20
92.9174693158
 30
0.0
 11
127.5365466437
 21
92.8856702746
 31
0.0
  0
LINE
  5
E1
330
1F
100
AcDbEntity
  8
0
  6
Continuous
 62
     7
370
    25
100
AcDbLine
 10
112.4413850823
 20
132.5456854622
 30
0.0
 11
91.8278606277
 21
132.5456854622
 31
0.0
  0
LINE
  5
E2
330
1F
100
AcDbEntity
  8
0
  6
Continuous
 62
     7
370
    25
100
AcDbLine
 10
112.7840097783
 20
121.5816951898
 30
0.0
 11
91.4852359317
 21
121.5816951898
 31
0.0
  0
LINE
  5
E3
330
1F
100
AcDbEntity
  8
0
  6
Continuous
 62
     7
370
    25
100
AcDbLine
 10
117.2926287369
 20
95.7645767352
 30
0.0
 11
117.2926287369
 21
116.7195767352
 31
0.0
  0
LINE
  5
E4
330
1F
100
AcDbEntity
  8
0
  6
Continuous
 62
     7
370
    25
100
AcDbLine
 10
102.134622855
 20
135.2420767352
 30
0.0
 11
110.884622855
 21
135.2420767352
 31
0.0
  0
LINE
  5
E5
330
1F
100
AcDbEntity
  8
0
  6
Continuous
 62
     7
370
    25
100
AcDbLine
 10
93.384622855
 20
135.2420767352
 30
0.0
 11
102.134622855
 21
135.2420767352
 31
0.0
  0
SPLINE
  5
E6
330
1F
100
AcDbEntity
  8
0
  6
Continuous
 62
     7
370
    25
100
AcDbSpline
210
0.0
220
0.0
230
1.0
 70
    24
 71
     3
 72
     8
 73
     4
 74
     0
 42
0.000000001
 43
0.00000001
 40
0.0
 40
0.0
 40
0.0
 40
0.0
 40
1.0
 40
1.0
 40
1.0
 40
1.0
 10
102.1346228550202
 20
114.7420767351527
 30
0.0
 10
103.1112761977831
 20
114.7420767351527
 30
0.0
 10
104.0877010321595
 20
114.7420767351527
 30
0.0
 10
105.0069041782892
 20
114.7420767351527
 30
0.0
  0
SPLINE
  5
E7
330
1F
100
AcDbEntity
  8
0
  6
Continuous
 62
     7
370
    25
100
AcDbSpline
210
0.0
220
0.0
230
1.0
 70
    24
 71
     3
 72
     8
 73
     4
 74
     0
 42
0.000000001
 43
0.00000001
 40
0.0
 40
0.0
 40
0.0
 40
0.0
 40
1.0
 40
1.0
 40
1.0
 40
1.0
 10
99.2623415317512
 20
114.7420767351527
 30
0.0
 10
100.1815446778809
 20
114.7420767351527
 30
0.0
 10
101.1579695122574
 20
114.7420767351527
 30
0.0
 10
102.1346228550202
 20
114.7420767351527
 30
0.0
  0
SPLINE
  5
E8
330
1F
100
AcDbEntity
  8
0
  6
Continuous
 62
     7
370
    25
100
AcDbSpline
210
0.0
220
0.0
230
1.0
 70
     8
 71
     3
 72
     8
 73
     4
 74
     0
 42
0.000000001
 43
0.00000001
 40
0.0
 40
0.0
 40
0.0
 40
0.0
 40
1.0
 40
1.0
 40
1.0
 40
1.0
 10
95.24259847897513
 20
114.552426358298
 30
0.0
 10
95.1705322326327
 20
114.4613944280189
 30
0.0
 10
95.11003927506648
 20
114.3514391978447
 30
0.0
 10
95.0512895216869
 20
114.2420767351527
 30
0.0
  0
LINE
  5
E9
330
1F
100
AcDbEntity
  8
0
  6
Continuous
 62
     7
370
    25
100
AcDbLine
 10
95.0512895217
 20
114.2420767352
 30
0.0
 11
95.0512895217
 21
102.2420767352
 31
0.0
  0
SPLINE
  5
EA
330
1F
100
AcDbEntity
  8
0
  6
Continuous
 62
     7
370
    25
100
AcDbSpline
210
0.0
220
0.0
230
1.0
 70
     8
 71
     3
 72
    10
 73
     6
 74
     0
 42
0.000000001
 43
0.00000001
 40
0.0
 40
0.0
 40
0.0
 40
0.0
 40
0.0280934765544326
 40
0.0280934765544326
 40
0.0561869531088653
 40
0.0561869531088653
 40
0.0561869531088653
 40
0.0561869531088653
 10
95.0512895216869
 20
102.2420767351527
 30
0.0
 10
95.0512895216869
 20
102.1484318133046
 30
0.0
 10
95.05486701593146
 20
102.0543759081
 30
0.0
 10
95.06902849399198
 20
101.868105195994
 30
0.0
 10
95.07960776583829
 20
101.7759227267099
 30
0.0
 10
95.09328877163007
 20
101.6859193870767
 30
0.0
  0
ELLIPSE
  5
EB
330
1F
100
AcDbEntity
  8
0
  6
Continuous
 62
     7
370
    25
100
AcDbEllipse
 10
107.134622855
 20
104.703225843
 30
0.0
 11
0.5653269642954513
 21
1.222133505507372E-12
 31
0.0
210
0.0
220
0.0
230
1.0
 40
0.9531667975
 41
0.4357918987532778
 42
2.705800754832199
  0
LINE
  5
EC
330
1F
100
AcDbEntity
  8
0
  6
Continuous
 62
     7
370
    25
100
AcDbLine
 10
105.5300378736
 20
101.8772386259
 30
0.0
 11
106.6221335855
 21
104.9306901179
 31
0.0
  0
ELLIPSE
  5
ED
330
1F
100
AcDbEntity
  8
0
  6
Continuous
 62
     7
370
    25
100
AcDbEllipse
 10
104.9731986084
 20
102.0581797733
 30
0.0
 11
-0.5883077352006721
 21
1.421085471520200E-14
 31
0.0
210
0.0
220
0.0
230
1.0
 40
0.9531667975
 41
1.047197551197051
 42
2.813039483038246
  0
LINE
  5
EE
330
1F
100
AcDbEntity
  8
0
  6
Continuous
 62
     7
370
    25
100
AcDbLine
 10
104.6343149804
 20
101.5971666356
 30
0.0
 11
104.6790447408
 21
101.5725513516
 31
0.0
  0
LINE
  5
EF
330
1F
100
AcDbEntity
  8
0
  6
Continuous
 62
     7
370
    25
100
AcDbLine
 10
105.3248251087
 20
100.2808239803
 30
0.0
 11
104.6343149804
 21
101.5971666356
 31
0.0
  0
ELLIPSE
  5
F0
330
1F
100
AcDbEntity
  8
0
  6
Continuous
 62
     7
370
    25
100
AcDbEllipse
 10
105.3905999131
 20
100.3121711601
 30
0.0
 11
0.07353846690023147
 21
1.421085471520200E-14
 31
0.0
210
0.0
220
0.0
230
1.0
 40
0.9531667975
 41
3.605240262590429
 42
5.462183310214723
  0
ELLIPSE
  5
F1
330
1F
100
AcDbEntity
  8
0
  6
Continuous
 62
     7
370
    25
100
AcDbEllipse
 10
107.134622855
 20
98.527030821
 30
0.0
 11
2.485600181227426
 21
-1.705302565824240E-13
 31
0.0
210
0.0
220
0.0
230
1.0
 40
0.9531667975
 41
0.821001996964504
 42
2.320590656625393
  0
ELLIPSE
  5
F2
330
1F
100
AcDbEntity
  8
0
  6
Continuous
 62
     7
370
    25
100
AcDbEllipse
 10
108.878645797
 20
100.3121711601
 30
0.0
 11
0.07353846690018884
 21
4.263256414560601E-14
 31
0.0
210
0.0
220
0.0
230
1.0
 40
0.9531667975
 41
3.962594650553749
 42
5.819537698178179
  0
LINE
  5
F3
330
1F
100
AcDbEntity
  8
0
  6
Continuous
 62
     7
370
    25
100
AcDbLine
 10
109.6349307296
 20
101.5971666356
 30
0.0
 11
108.9444206013
 21
100.2808239803
 31
0.0
  0
LINE
  5
F4
330
1F
100
AcDbEntity
  8
0
  6
Continuous
 62
     7
370
    25
100
AcDbLine
 10
109.5988123078
 20
101.5765263903
 30
0.0
 11
109.6349307296
 21
101.5971666356
 31
0.0
  0
ELLIPSE
  5
F5
330
1F
100
AcDbEntity
  8
0
  6
Continuous
 62
     7
370
    25
100
AcDbEllipse
 10
109.2963016592
 20
102.0574680414
 30
0.0
 11
-0.588307735201596
 21
-1.421085471520200E-13
 31
0.0
210
0.0
220
0.0
230
1.0
 40
0.9531667975
 41
0.328553170551225
 42
2.110876526947613
  0
LINE
  5
F6
330
1F
100
AcDbEntity
  8
0
  6
Continuous
 62
     7
370
    25
100
AcDbLine
 10
107.6471121246
 20
104.9306901179
 30
0.0
 11
108.7394623941
 21
101.8765268939
 31
0.0
  0
SPLINE
  5
F7
330
1F
100
AcDbEntity
  8
0
  6
Continuous
 62
     7
370
    25
100
AcDbSpline
210
0.0
220
0.0
230
1.0
 70
     8
 71
     3
 72
    10
 73
     6
 74
     0
 42
0.000000001
 43
0.00000001
 40
-0.2904940295525288
 40
-0.2904940295525288
 40
-0.2904940295525288
 40
-0.2904940295525288
 40
-0.1303072746110114
 40
-0.1303072746110114
 40
0.001056361752625
 40
0.001056361752625
 40
0.001056361752625
 40
0.001056361752625
 10
110.6346228550202
 20
106.2420767351527
 30
0.0
 10
110.5051195392459
 20
105.7240634720556
 30
0.0
 10
110.3733285610963
 20
105.2001376684115
 30
0.0
 10
110.1949046216555
 20
104.2417352048163
 30
0.0
 10
110.1346228550202
 20
103.8076741997625
 30
0.0
 10
110.1346228550202
 20
103.3697954118837
 30
0.0
  0
LINE
  5
F8
330
1F
100
AcDbEntity
  8
0
  6
Continuous
 62
     7
370
    25
100
AcDbLine
 10
110.134622855
 20
103.3697954119
 30
0.0
 11
110.134622855
 21
99.7420767352
 31
0.0
  0
LINE
  5
F9
330
1F
100
AcDbEntity
  8
0
  6
Continuous
 62
     7
370
    25
100
AcDbLine
 10
110.134622855
 20
99.7420767352
 30
0.0
 11
98.134622855
 21
99.7420767352
 31
0.0
  0
ARC
  5
FA
330
1F
100
AcDbEntity
  8
0
  6
Continuous
 62
     7
370
    25
100
AcDbCircle
 10
98.134622855
 20
102.2420767352
 30
0.0
 40
2.5
100
AcDbArc
 50
180.0
 51
270.0
  0
LINE
  5
FB
330
1F
100
AcDbEntity
  8
0
  6
Continuous
 62
     7
370
    25
100
AcDbLine
 10
95.634622855
 20
102.2420767352
 30
0.0
 11
95.634622855
 21
114.2420767352
 31
0.0
  0
LINE
  5
FC
330
1F
100
AcDbEntity
  8
0
  6
Continuous
 62
     7
370
    25
100
AcDbLine
 10
95.634622855
 20
114.2420767352
 30
0.0
 11
99.2623415318
 21
114.2420767352
 31
0.0
  0
SPLINE
  5
FD
330
1F
100
AcDbEntity
  8
0
  6
Continuous
 62
     7
370
    25
100
AcDbSpline
210
0.0
220
0.0
230
1.0
 70
     8
 71
     3
 72
    10
 73
     6
 74
     0
 42
0.000000001
 43
0.00000001
 40
-0.8711658249657241
 40
-0.8711658249657241
 40
-0.8711658249657241
 40
-0.8711658249657241
 40
-0.7398021886020881
 40
-0.7398021886020881
 40
-0.5796154507864705
 40
-0.5796154507864705
 40
-0.5796154507864705
 40
-0.5796154507864705
 10
99.2623415317512
 20
114.2420767351527
 30
0.0
 10
99.70022031962999
 20
114.2420767351527
 30
0.0
 10
100.1342813246844
 20
114.3023585017881
 30
0.0
 10
101.092683731982
 20
114.4807824307481
 30
0.0
 10
101.6166096472896
 20
114.6125734332199
 30
0.0
 10
102.1346228550202
 20
114.7420767351527
 30
0.0
  0
SPLINE
  5
FE
330
1F
100
AcDbEntity
  8
0
  6
Continuous
 62
     7
370
    25
100
AcDbSpline
210
0.0
220
0.0
230
1.0
 70
     8
 71
     3
 72
    10
 73
     6
 74
     0
 42
0.000000001
 43
0.00000001
 40
-0.2904940295525327
 40
-0.2904940295525327
 40
-0.2904940295525327
 40
-0.2904940295525327
 40
-0.130307291676468
 40
-0.130307291676468
 40
0.0010563446871674
 40
0.0010563446871674
 40
0.0010563446871674
 40
0.0010563446871674
 10
102.1346228550202
 20
114.7420767351527
 30
0.0
 10
102.6526360629464
 20
114.6125734331711
 30
0.0
 10
103.1765619778598
 20
114.4807824307851
 30
0.0
 10
104.1349643853561
 20
114.3023585017881
 30
0.0
 10
104.5690253904105
 20
114.2420767351527
 30
0.0
 10
105.0069041782892
 20
114.2420767351527
 30
0.0
  0
LINE
  5
FF
330
1F
100
AcDbEntity
  8
0
  6
Continuous
 62
     7
370
    25
100
AcDbLine
 10
105.0069041783
 20
114.2420767352
 30
0.0
 11
108.634622855
 21
114.2420767352
 31
0.0
  0
ARC
  5
100
330
1F
100
AcDbEntity
  8
0
  6
Continuous
 62
     7
370
    25
100
AcDbCircle
 10
110.134622855
 20
114.2420767352
 30
0.0
 40
1.500000000000014
100
AcDbArc
 50
180.0
 51
270.0
  0
LINE
  5
101
330
1F
100
AcDbEntity
  8
0
  6
Continuous
 62
     7
370
    25
100
AcDbLine
 10
110.134622855
 20
112.7420767352
 30
0.0
 11
110.134622855
 21
109.1143580584
 31
0.0
  0
SPLINE
  5
102
330
1F
100
AcDbEntity
  8
0
  6
Continuous
 62
     7
370
    25
100
AcDbSpline
210
0.0
220
0.0
230
1.0
 70
     8
 71
     3
 72
    10
 73
     6
 74
     0
 42
0.000000001
 43
0.00000001
 40
-0.8711658421011628
 40
-0.8711658421011628
 40
-0.8711658421011628
 40
-0.8711658421011628
 40
-0.739802205737527
 40
-0.739802205737527
 40
-0.579615450786466
 40
-0.579615450786466
 40
-0.579615450786466
 40
-0.579615450786466
 10
110.1346228550202
 20
109.1143580584217
 30
0.0
 10
110.1346228550202
 20
108.6764792705429
 30
0.0
 10
110.1949046216555
 20
108.2424182654891
 30
0.0
 10
110.3733285611021
 20
107.2840158018626
 30
0.0
 10
110.5051195392382
 20
106.7600899982806
 30
0.0
 10
110.6346228550202
 20
106.2420767351527
 30
0.0
  0
SPLINE
  5
103
330
1F
100
AcDbEntity
  8
0
  6
Continuous
 62
     7
370
    25
100
AcDbSpline
210
0.0
220
0.0
230
1.0
 70
    24
 71
     3
 72
     8
 73
     4
 74
     0
 42
0.000000001
 43
0.00000001
 40
0.0
 40
0.0
 40
0.0
 40
0.0
 40
1.0
 40
1.0
 40
1.0
 40
1.0
 10
110.6346228550202
 20
106.2420767351527
 30
0.0
 10
110.6346228550202
 20
105.2654233923899
 30
0.0
 10
110.6346228550202
 20
104.2889985580134
 30
0.0
 10
110.6346228550202
 20
103.3697954118837
 30
0.0
  0
SPLINE
  5
104
330
1F
100
AcDbEntity
  8
0
  6
Continuous
 62
     7
370
    25
100
AcDbSpline
210
0.0
220
0.0
230
1.0
 70
    24
 71
     3
 72
     8
 73
     4
 74
     0
 42
0.000000001
 43
0.00000001
 40
0.0
 40
0.0
 40
0.0
 40
0.0
 40
1.0
 40
1.0
 40
1.0
 40
1.0
 10
110.6346228550202
 20
109.1143580584217
 30
0.0
 10
110.6346228550202
 20
108.195154912292
 30
0.0
 10
110.6346228550202
 20
107.2187300779155
 30
0.0
 10
110.6346228550202
 20
106.2420767351527
 30
0.0
  0
SPLINE
  5
105
330
1F
100
AcDbEntity
  8
0
  6
Continuous
 62
     7
370
    25
100
AcDbSpline
210
0.0
220
0.0
230
1.0
 70
     8
 71
     3
 72
    10
 73
     6
 74
     0
 42
0.000000001
 43
0.00000001
 40
0.0
 40
0.0
 40
0.0
 40
0.0
 40
0.0280934765544328
 40
0.0280934765544328
 40
0.0561869531088657
 40
0.0561869531088657
 40
0.0561869531088657
 40
0.0561869531088657
 10
97.57846550694424
 20
99.20074265176255
 30
0.0
 10
97.6684688465774
 20
99.18706164597076
 30
0.0
 10
97.76065131586152
 20
99.17648237412446
 30
0.0
 10
97.94692202796755
 20
99.16232089606395
 30
0.0
 10
98.04097793317213
 20
99.15874340181936
 30
0.0
 10
98.13462285502023
 20
99.15874340181936
 30
0.0
  0
LINE
  5
106
330
1F
100
AcDbEntity
  8
0
  6
Continuous
 62
     7
370
    25
100
AcDbLine
 10
98.1346194219
 20
99.1587434018
 30
0.0
 11
110.134622855
 21
99.1587434018
 31
0.0
  0
SPLINE
  5
107
330
1F
100
AcDbEntity
  8
0
  6
Continuous
 62
     7
370
    25
100
AcDbSpline
210
0.0
220
0.0
230
1.0
 70
     8
 71
     3
 72
     8
 73
     4
 74
     0
 42
0.000000001
 43
0.00000001
 40
0.0
 40
0.0
 40
0.0
 40
0.0
 40
1.0
 40
1.0
 40
1.0
 40
1.0
 10
110.4449724781656
 20
99.35005235910758
 30
0.0
 10
110.3539405478865
 20
99.27798611276516
 30
0.0
 10
110.2439853177149
 20
99.2174931551974
 30
0.0
 10
110.1346228550202
 20
99.15874340181936
 30
0.0
  0
LINE
  5
108
330
1F
100
AcDbEntity
  8
0
  6
Continuous
 62
     7
370
    25
100
AcDbLine
 10
109.134622855
 20
114.7420767352
 30
0.0
 11
105.0069041783
 21
114.7420767352
 31
0.0
  0
LINE
  5
109
330
1F
100
AcDbEntity
  8
0
  6
Continuous
 62
     7
370
    25
100
AcDbLine
 10
108.634622855
 20
114.2420767352
 30
0.0
 11
109.134622855
 21
114.7420767352
 31
0.0
  0
SPLINE
  5
10A
330
1F
100
AcDbEntity
  8
0
  6
Continuous
 62
     7
370
    25
100
AcDbSpline
210
0.0
220
0.0
230
1.0
 70
    24
 71
     3
 72
    10
 73
     6
 74
     0
 42
0.000000001
 43
0.00000001
 40
0.0
 40
0.0
 40
0.0
 40
0.0
 40
0.5
 40
0.5
 40
1.0
 40
1.0
 40
1.0
 40
1.0
 10
105.0069041782893
 20
114.7420767351527
 30
0.0
 10
105.0069041782893
 20
114.7420767351527
 30
0.0
 10
105.0069041782893
 20
114.6881901869576
 30
0.0
 10
105.0069041782893
 20
114.5030700645343
 30
0.0
 10
105.0069041782893
 20
114.3729764290523
 30
0.0
 10
105.0069041782893
 20
114.2420767351527
 30
0.0
  0
SPLINE
  5
10B
330
1F
100
AcDbEntity
  8
0
  6
Continuous
 62
     7
370
    25
100
AcDbSpline
210
0.0
220
0.0
230
1.0
 70
    24
 71
     3
 72
    10
 73
     6
 74
     0
 42
0.000000001
 43
0.00000001
 40
0.0
 40
0.0
 40
0.0
 40
0.0
 40
0.5
 40
0.5
 40
1.0
 40
1.0
 40
1.0
 40
1.0
 10
110.6346228550202
 20
103.3697954118837
 30
0.0
 10
110.6346228550202
 20
103.3697954118837
 30
0.0
 10
110.5807363068251
 20
103.3697954118837
 30
0.0
 10
110.3956161844019
 20
103.3697954118837
 30
0.0
 10
110.2655225489198
 20
103.3697954118837
 30
0.0
 10
110.1346228550202
 20
103.3697954118837
 30
0.0
  0
LINE
  5
10C
330
1F
100
AcDbEntity
  8
0
  6
Continuous
 62
     7
370
    25
100
AcDbLine
 10
110.634622855
 20
99.7420767352
 30
0.0
 11
110.634622855
 21
103.3697954119
 31
0.0
  0
LINE
  5
10D
330
1F
100
AcDbEntity
  8
0
  6
Continuous
 62
     7
370
    25
100
AcDbLine
 10
110.134622855
 20
99.7420767352
 30
0.0
 11
110.634622855
 21
99.7420767352
 31
0.0
  0
SPLINE
  5
10E
330
1F
100
AcDbEntity
  8
0
  6
Continuous
 62
     7
370
    25
100
AcDbSpline
210
0.0
220
0.0
230
1.0
 70
    24
 71
     3
 72
    10
 73
     6
 74
     0
 42
0.000000001
 43
0.00000001
 40
0.0
 40
0.0
 40
0.0
 40
0.0
 40
0.5
 40
0.5
 40
1.0
 40
1.0
 40
1.0
 40
1.0
 10
99.2623415317512
 20
114.2420767351527
 30
0.0
 10
99.2623415317512
 20
114.3729764290523
 30
0.0
 10
99.2623415317512
 20
114.5030700645343
 30
0.0
 10
99.2623415317512
 20
114.6881901869576
 30
0.0
 10
99.2623415317512
 20
114.7420767351527
 30
0.0
 10
99.2623415317512
 20
114.7420767351527
 30
0.0
  0
LINE
  5
10F
330
1F
100
AcDbEntity
  8
0
  6
Continuous
 62
     7
370
    25
100
AcDbLine
 10
95.634622855
 20
114.7420767352
 30
0.0
 11
95.634622855
 21
114.2420767352
 31
0.0
  0
LINE
  5
110
330
1F
100
AcDbEntity
  8
0
  6
Continuous
 62
     7
370
    25
100
AcDbLine
 10
99.2623415318
 20
114.7420767352
 30
0.0
 11
95.634622855
 21
114.7420767352
 31
0.0
  0
LINE
  5
111
330
1F
100
AcDbEntity
  8
0
  6
Continuous
 62
     7
370
    25
100
AcDbLine
 10
110.634622855
 20
109.1143580584
 30
0.0
 11
110.634622855
 21
112.7420767352
 31
0.0
  0
SPLINE
  5
112
330
1F
100
AcDbEntity
  8
0
  6
Continuous
 62
     7
370
    25
100
AcDbSpline
210
0.0
220
0.0
230
1.0
 70
    24
 71
     3
 72
    10
 73
     6
 74
     0
 42
0.000000001
 43
0.00000001
 40
0.0
 40
0.0
 40
0.0
 40
0.0
 40
0.5
 40
0.5
 40
1.0
 40
1.0
 40
1.0
 40
1.0
 10
110.1346228550202
 20
109.1143580584217
 30
0.0
 10
110.2655225489198
 20
109.1143580584217
 30
0.0
 10
110.3956161844019
 20
109.1143580584217
 30
0.0
 10
110.5807363068251
 20
109.1143580584217
 30
0.0
 10
110.6346228550202
 20
109.1143580584217
 30
0.0
 10
110.6346228550202
 20
109.1143580584217
 30
0.0
  0
LINE
  5
113
330
1F
100
AcDbEntity
  8
0
  6
Continuous
 62
     7
370
    25
100
AcDbLine
 10
110.134622855
 20
112.7420767352
 30
0.0
 11
110.634622855
 21
112.7420767352
 31
0.0
  0
ELLIPSE
  5
114
330
1F
100
AcDbEntity
  8
0
  6
Continuous
 62
     7
370
    25
100
AcDbEllipse
 10
106.8712819664
 20
101.9476387606
 30
0.0
 11
-0.07353846690023147
 21
0.0
 31
0.0
210
0.0
220
0.0
230
1.0
 40
0.9531667975
 41
5.940161364897931
 42
7.853981633974483
  0
LINE
  5
115
330
1F
100
AcDbEntity
  8
0
  6
Continuous
 62
     7
370
    25
100
AcDbLine
 10
107.0653686004
 20
102.6740358837
 30
0.0
 11
106.80202771
 21
101.971214067
 31
0.0
  0
ELLIPSE
  5
116
330
1F
100
AcDbEntity
  8
0
  6
Continuous
 62
     7
370
    25
100
AcDbEllipse
 10
107.1346228568
 20
102.6504605773
 30
0.0
 11
0.07353846690021726
 21
0.0
 31
0.0
210
0.0
220
0.0
230
1.0
 40
0.9531667975
 41
0.3430239394902344
 42
2.798568712238788
  0
LINE
  5
117
330
1F
100
AcDbEntity
  8
0
  6
Continuous
 62
     7
370
    25
100
AcDbLine
 10
107.4672180005
 20
101.9712140668
 30
0.0
 11
107.2038771132
 21
102.6740358836
 31
0.0
  0
ELLIPSE
  5
118
330
1F
100
AcDbEntity
  8
0
  6
Continuous
 62
     7
370
    25
100
AcDbEllipse
 10
107.3979637441
 20
101.9476387606
 30
0.0
 11
0.07353846690021726
 21
1.421085471520200E-14
 31
0.0
210
0.0
220
0.0
230
1.0
 40
0.9531667975
 41
4.712388980384518
 42
6.626209245739139
  0
LINE
  5
119
330
1F
100
AcDbEntity
  8
0
  6
Continuous
 62
     7
370
    25
100
AcDbLine
 10
106.8712819664
 20
101.8775443356
 30
0.0
 11
107.3979637441
 21
101.8775443356
 31
0.0
  0
ARC
  5
11A
330
1F
100
AcDbEntity
  8
0
  6
Continuous
 62
     7
370
    25
100
AcDbCircle
 10
95.634622855
 20
114.2420767352
 30
0.0
 40
0.5
100
AcDbArc
 50
90.0
 51
180.0
  0
LINE
  5
11B
330
1F
100
AcDbEntity
  8
0
  6
Continuous
 62
     7
370
    25
100
AcDbLine
 10
95.634622855
 20
114.2420767352
 30
0.0
 11
95.134622855
 21
114.2420767352
 31
0.0
  0
ARC
  5
11C
330
1F
100
AcDbEntity
  8
0
  6
Continuous
 62
     7
370
    25
100
AcDbCircle
 10
110.134622855
 20
99.7420767352
 30
0.0
 40
0.5
100
AcDbArc
 50
270.0
 51
0.0
  0
LINE
  5
11D
330
1F
100
AcDbEntity
  8
0
  6
Continuous
 62
     7
370
    25
100
AcDbLine
 10
110.134622855
 20
99.2420767352
 30
0.0
 11
110.134622855
 21
99.7420767352
 31
0.0
  0
LINE
  5
11E
330
1F
100
AcDbEntity
  8
0
  6
Continuous
 62
     7
370
    25
100
AcDbLine
 10
98.134622855
 20
99.7420767352
 30
0.0
 11
98.134622855
 21
99.2420767352
 31
0.0
  0
ARC
  5
11F
330
1F
100
AcDbEntity
  8
0
  6
Continuous
 62
     7
370
    25
100
AcDbCircle
 10
98.134622855
 20
102.2420767352
 30
0.0
 40
3.0
100
AcDbArc
 50
180.0
 51
270.0
  0
LINE
  5
120
330
1F
100
AcDbEntity
  8
0
  6
Continuous
 62
     7
370
    25
100
AcDbLine
 10
95.634622855
 20
102.2420767352
 30
0.0
 11
95.134622855
 21
102.2420767352
 31
0.0
  0
LINE
  5
121
330
1F
100
AcDbEntity
  8
0
  6
Continuous
 62
     7
370
    25
100
AcDbLine
 10
95.134622855
 20
114.2420767352
 30
0.0
 11
95.134622855
 21
102.2420767352
 31
0.0
  0
LINE
  5
122
330
1F
100
AcDbEntity
  8
0
  6
Continuous
 62
     7
370
    25
100
AcDbLine
 10
109.134622855
 20
114.2420767352
 30
0.0
 11
109.134622855
 21
114.7420767352
 31
0.0
  0
LINE
  5
123
330
1F
100
AcDbEntity
  8
0
  6
Continuous
 62
     7
370
    25
100
AcDbLine
 10
108.634622855
 20
114.2420767352
 30
0.0
 11
109.134622855
 21
114.2420767352
 31
0.0
  0
LINE
  5
124
330
1F
100
AcDbEntity
  8
0
  6
Continuous
 62
     7
370
    25
100
AcDbLine
 10
110.134622855
 20
112.7420767352
 30
0.0
 11
110.134622855
 21
113.2420767352
 31
0.0
  0
ARC
  5
125
330
1F
100
AcDbEntity
  8
0
  6
Continuous
 62
     7
370
    25
100
AcDbCircle
 10
110.134622855
 20
112.7420767352
 30
0.0
 40
0.5
100
AcDbArc
 50
0.0
 51
90.0
  0
LINE
  5
126
330
1F
100
AcDbEntity
  8
0
  6
Continuous
 62
     7
370
    25
100
AcDbLine
 10
98.134622855
 20
99.2420767352
 30
0.0
 11
110.134622855
 21
99.2420767352
 31
0.0
  0
ARC
  5
127
330
1F
100
AcDbEntity
  8
0
  6
Continuous
 62
     7
370
    25
100
AcDbCircle
 10
110.134622855
 20
114.2420767352
 30
0.0
 40
1.000000000000014
100
AcDbArc
 50
180.0
 51
270.0
  0
LWPOLYLINE
  5
128
330
1F
100
AcDbEntity
  8
0
  6
Continuous
 62
     7
370
    25
100
AcDbPolyline
 90
        9
 70
   128
 43
0.0
 10
97.6579165567
 20
99.2801937015
 10
97.6490371639
 20
99.2801363082
 10
97.6397434822
 20
99.2771813097
 10
97.6300900697
 20
99.271346053
 10
97.6201335967
 20
99.2626647939
 10
97.6099325123
 20
99.2511884956
 10
97.5995467017
 20
99.2369845292
 10
97.5890371346
 20
99.2201362789
 10
97.5784655069
 20
99.2007426518
  0
SPLINE
  5
129
330
1F
100
AcDbEntity
  8
0
  6
Continuous
 62
     7
370
    25
100
AcDbSpline
210
0.0
220
0.0
230
1.0
 70
     8
 71
     3
 72
    14
 73
    10
 74
     0
 42
0.000000001
 43
0.00000001
 40
-0.4399100083495733
 40
-0.4399100083495733
 40
-0.4399100083495733
 40
-0.4399100083495733
 40
-0.2980125372576002
 40
-0.2980125372576002
 40
-0.1727985319285605
 40
-0.1727985319285605
 40
-0.0664609738186771
 40
-0.0664609738186771
 40
0.0
 40
0.0
 40
0.0
 40
0.0
 10
95.09328877163007
 20
101.6859193870767
 30
0.0
 10
95.15091355920586
 20
101.2911745749852
 30
0.0
 10
95.2903309465269
 20
100.9025537240348
 30
0.0
 10
95.69323530500809
 20
100.2524279376331
 30
0.0
 10
95.9396049974956
 20
99.9816262062713
 30
0.0
 10
96.471473222553
 20
99.57981167501585
 30
0.0
 10
96.74180062109374
 20
99.43567184885762
 30
0.0
 10
97.20857422257596
 20
99.27267112043326
 30
0.0
 10
97.39357761275147
 20
99.22773255841071
 30
0.0
 10
97.57846550694424
 20
99.20074265176255
 30
0.0
  0
LWPOLYLINE
  5
12A
330
1F
100
AcDbEntity
  8
0
  6
Continuous
 62
     7
370
    25
100
AcDbPolyline
 90
        9
 70
   128
 43
0.0
 10
95.1727398214
 20
101.7653704368
 10
95.1726824281
 20
101.756491044
 10
95.1697274295
 20
101.7471973623
 10
95.1638921728
 20
101.7375439499
 10
95.1552109138
 20
101.7275874769
 10
95.1437346154
 20
101.7173863925
 10
95.1295306491
 20
101.7070005819
 10
95.1126823988
 20
101.6964910147
 10
95.0932887716
 20
101.6859193871
  0
LINE
  5
12B
330
1F
100
AcDbEntity
  8
0
  6
Continuous
 62
     7
370
    25
100
AcDbLine
 10
95.134622855
 20
102.2420767352
 30
0.0
 11
95.0512895217
 21
102.2420767352
 31
0.0
  0
LWPOLYLINE
  5
12C
330
1F
100
AcDbEntity
  8
0
  6
Continuous
 62
     7
370
    25
100
AcDbPolyline
 90
        9
 70
   128
 43
0.0
 10
98.134622855
 20
99.2420767352
 10
98.134622855
 20
99.2407373821
 10
98.134622855
 20
99.2367264986
 10
98.134622855
 20
99.2300655724
 10
98.134622855
 20
99.220790289
 10
98.134622855
 20
99.2089503399
 10
98.134622855
 20
99.1946091564
 10
98.134622855
 20
99.1778435704
 10
98.1346194219
 20
99.1587434018
  0
LINE
  5
12D
330
1F
100
AcDbEntity
  8
0
  6
Continuous
 62
     7
370
    25
100
AcDbLine
 10
95.134622855
 20
114.2420767352
 30
0.0
 11
95.0512895217
 21
114.2420767352
 31
0.0
  0
LINE
  5
12E
330
1F
100
AcDbEntity
  8
0
  6
Continuous
 62
     7
370
    25
100
AcDbLine
 10
110.134622855
 20
99.1587434018
 30
0.0
 11
110.134622855
 21
99.2420767352
 31
0.0
  0
LINE
  5
12F
330
1F
100
AcDbEntity
  8
0
  6
Continuous
 62
     8
370
    25
100
AcDbLine
 10
160.1480090545
 20
101.6335666285
 30
0.0
 11
160.1480090545
 21
98.2549377826
 31
0.0
  0
LINE
  5
130
330
1F
100
AcDbEntity
  8
0
  6
Continuous
 62
     8
370
    25
100
AcDbLine
 10
160.1480090545
 20
114.2292156878
 30
0.0
 11
160.1480090545
 21
101.6335666285
 31
0.0
  0
LINE
  5
131
330
1F
100
AcDbEntity
  8
0
  6
Continuous
 62
     8
370
    25
100
AcDbLine
 10
151.1529865424
 20
101.6373433845
 30
0.0
 11
151.1529865424
 21
98.2614833849
 31
0.0
  0
LINE
  5
132
330
1F
100
AcDbEntity
  8
0
  6
Continuous
 62
     8
370
    25
100
AcDbLine
 10
151.1529865424
 20
114.2226700854
 30
0.0
 11
151.1529865424
 21
101.6373433845
 31
0.0
  0
LINE
  5
133
330
1F
100
AcDbEntity
  8
0
  6
Continuous
 62
     8
370
    25
100
AcDbLine
 10
146.6529865424
 20
101.6373433845
 30
0.0
 11
146.6529865424
 21
98.2614833849
 31
0.0
  0
LINE
  5
134
330
1F
100
AcDbEntity
  8
0
  6
Continuous
 62
     8
370
    25
100
AcDbLine
 10
146.6529865424
 20
114.2226700854
 30
0.0
 11
146.6529865424
 21
101.6373433845
 31
0.0
  0
LINE
  5
135
330
1F
100
AcDbEntity
  8
0
  6
Continuous
 62
     8
370
    25
100
AcDbLine
 10
155.6529865424
 20
101.6373433845
 30
0.0
 11
155.6529865424
 21
98.2614833849
 31
0.0
  0
LINE
  5
136
330
1F
100
AcDbEntity
  8
0
  6
Continuous
 62
     8
370
    25
100
AcDbLine
 10
155.6529865424
 20
114.2226700854
 30
0.0
 11
155.6529865424
 21
101.6373433845
 31
0.0
  0
LINE
  5
137
330
1F
100
AcDbEntity
  8
0
  6
Continuous
 62
     8
370
    25
100
AcDbLine
 10
92.259622855
 20
120.9746481226
 30
0.0
 11
112.009622855
 21
120.9746481226
 31
0.0
  0
LINE
  5
138
330
1F
100
AcDbEntity
  8
0
  6
Continuous
 62
     8
370
    25
100
AcDbLine
 10
116.8671942425
 20
116.1170767352
 30
0.0
 11
116.8671942425
 21
96.3670767352
 31
0.0
  0
LINE
  5
139
330
1F
100
AcDbEntity
  8
0
  6
Continuous
 62
     8
370
    25
100
AcDbLine
 10
93.634622855
 20
118.7420767352
 30
0.0
 11
110.634622855
 21
118.7420767352
 31
0.0
  0
LINE
  5
13A
330
1F
100
AcDbEntity
  8
0
  6
Continuous
 62
     8
370
    25
100
AcDbLine
 10
114.634622855
 20
114.7420767352
 30
0.0
 11
114.634622855
 21
97.7420767352
 31
0.0
  0
SPLINE
  5
13B
330
1F
100
AcDbEntity
  8
0
  6
Continuous
 62
     8
370
    25
100
AcDbSpline
210
0.0
220
0.0
230
1.0
 70
    24
 71
     3
 72
    12
 73
     8
 74
     0
 42
0.000000001
 43
0.00000001
 40
-0.5788447217180464
 40
-0.5788447217180464
 40
-0.5788447217180464
 40
-0.5788447217180464
 40
-0.3728576618289314
 40
-0.3728576618289314
 40
-0.0432783660063474
 40
-0.0432783660063474
 40
0.0
 40
0.0
 40
0.0
 40
0.0
 10
110.6346228550202
 20
115.2420767351527
 30
0.0
 10
110.6346228550204
 20
115.2420767351529
 30
0.0
 10
110.5743010988271
 20
115.17820664036
 30
0.0
 10
110.2639342642657
 20
114.8495829331773
 30
0.0
 10
109.9209991800237
 20
114.486475196921
 30
0.0
 10
109.3818731640267
 20
113.9156358858654
 30
0.0
 10
109.3169839958765
 20
113.846929707824
 30
0.0
 10
109.2498607449893
 20
113.7758580304141
 30
0.0
  0
SPLINE
  5
13C
330
1F
100
AcDbEntity
  8
0
  6
Continuous
 62
     8
370
    25
100
AcDbSpline
210
0.0
220
0.0
230
1.0
 70
     8
 71
     3
 72
    12
 73
     8
 74
     0
 42
0.000000001
 43
0.00000001
 40
0.0
 40
0.0
 40
0.0
 40
0.0
 40
0.0430206627346149
 40
0.0430206627346149
 40
0.3824319177041577
 40
0.3824319177041577
 40
0.594563952060122
 40
0.594563952060122
 40
0.594563952060122
 40
0.594563952060122
 10
95.09333996370981
 20
101.6859193738213
 30
0.0
 10
95.02503515504996
 20
101.6417218428165
 30
0.0
 10
94.958909436856
 20
101.5989343214701
 30
0.0
 10
94.39112082005818
 20
101.2315391815482
 30
0.0
 10
94.02763351825602
 20
100.9963399058286
 30
0.0
 10
93.69861147209576
 20
100.7834418048536
 30
0.0
 10
93.63462285528527
 20
100.7420371121864
 30
0.0
 10
93.63462285528527
 20
100.7420371121864
 30
0.0
  0
SPLINE
  5
13D
330
1F
100
AcDbEntity
  8
0
  6
Continuous
 62
     8
370
    25
100
AcDbSpline
210
0.0
220
0.0
230
1.0
 70
    24
 71
     3
 72
    12
 73
     8
 74
     0
 42
0.000000001
 43
0.00000001
 40
-0.5788447217180465
 40
-0.5788447217180465
 40
-0.5788447217180465
 40
-0.5788447217180465
 40
-0.535566355711699
 40
-0.535566355711699
 40
-0.205987059889115
 40
-0.205987059889115
 40
0.0
 40
0.0
 40
0.0
 40
0.0
 10
109.6684041502816
 20
113.3573146251218
 30
0.0
 10
109.7394758276915
 20
113.4244378760089
 30
0.0
 10
109.8081820057329
 20
113.4893270441592
 30
0.0
 10
110.3790213167886
 20
114.0284530601561
 30
0.0
 10
110.7421290530449
 20
114.3713881443982
 30
0.0
 10
111.0707527602275
 20
114.6817549789596
 30
0.0
 10
111.1346228550204
 20
114.7420767351529
 30
0.0
 10
111.1346228550202
 20
114.7420767351527
 30
0.0
  0
SPLINE
  5
13E
330
1F
100
AcDbEntity
  8
0
  6
Continuous
 62
     8
370
    25
100
AcDbSpline
210
0.0
220
0.0
230
1.0
 70
     8
 71
     3
 72
    12
 73
     8
 74
     0
 42
0.000000001
 43
0.00000001
 40
0.0
 40
0.0
 40
0.0
 40
0.0
 40
0.2121320343559643
 40
0.2121320343559643
 40
0.5515432893255071
 40
0.5515432893255071
 40
0.5945639520601226
 40
0.5945639520601226
 40
0.5945639520601226
 40
0.5945639520601226
 10
96.63458323205396
 20
97.74207673541774
 30
0.0
 10
96.63458323205396
 20
97.74207673541774
 30
0.0
 10
96.67598792472116
 20
97.80606535222823
 30
0.0
 10
96.88888602569615
 20
98.13508739838849
 30
0.0
 10
97.12408530141575
 20
98.49857470019066
 30
0.0
 10
97.4914804413376
 20
99.06636331698849
 30
0.0
 10
97.53426796268398
 20
99.13248903518243
 30
0.0
 10
97.57846549368882
 20
99.20079384384228
 30
0.0
  0
LINE
  5
13F
330
1F
100
AcDbEntity
  8
0
  6
Continuous
 62
     7
370
     0
100
AcDbLine
 10
111.4824829837
 20
134.2065526164
 30
0.0
 11
111.876997855
 21
121.5820767352
 31
0.0
  0
LINE
  5
140
330
1F
100
AcDbEntity
  8
0
  6
Continuous
 62
     7
370
     0
100
AcDbLine
 10
92.7867627263
 20
134.2065526164
 30
0.0
 11
92.392247855
 21
121.5820767352
 31
0.0
  0
LINE
  5
141
330
1F
100
AcDbEntity
  8
0
  6
Continuous
 62
     7
370
     0
100
AcDbLine
 10
91.485247855
 20
121.5820767352
 30
0.0
 11
112.783997855
 21
121.5820767352
 31
0.0
  0
LINE
  5
142
330
1F
100
AcDbEntity
  8
0
  6
CENTERX2
 62
     7
370
    18
100
AcDbLine
 10
89.09372128
 20
106.2420767352
 30
0.0
 11
124.7365466437
 21
106.2420767352
 31
0.0
  0
LINE
  5
143
330
1F
100
AcDbEntity
  8
0
  6
CENTERX2
 62
     7
370
    18
100
AcDbLine
 10
168.5365466437
 20
106.2420767352
 30
0.0
 11
124.7365466437
 21
106.2420767352
 31
0.0
  0
LINE
  5
144
330
1F
100
AcDbEntity
  8
0
  6
CENTERX2
 62
     7
370
    18
100
AcDbLine
 10
102.134622855
 20
132.5456854622
 30
0.0
 11
102.134622855
 21
92.7822462965
 31
0.0
  0
LINE
  5
145
330
1F
100
AcDbEntity
  8
0
  6
CENTERX2
 62
     7
370
    18
100
AcDbLine
 10
102.134622855
 20
132.5456854622
 30
0.0
 11
102.134622855
 21
137.2420767352
 31
0.0
  0
CIRCLE
  5
146
330
1F
100
AcDbEntity
  8
0
  6
Continuous
 62
     7
370
    25
100
AcDbCircle
 10
202.9579695506
 20
106.2420767352
 30
0.0
 40
7.987798059013056
  0
LINE
  5
147
330
1F
100
AcDbEntity
  8
0
  6
Continuous
 62
     7
370
    25
100
AcDbLine
 10
213.6073564739
 20
121.5816951898
 30
0.0
 11
213.2647317779
 21
132.5456854622
 31
0.0
  0
LINE
  5
148
330
1F
100
AcDbEntity
  8
0
  6
Continuous
 62
     7
370
    25
100
AcDbLine
 10
192.6512073233
 20
132.5456854622
 30
0.0
 11
192.3085826273
 21
121.5816951898
 31
0.0
  0
ARC
  5
149
330
1F
100
AcDbEntity
  8
0
  6
Continuous
 62
     7
370
    25
100
AcDbCircle
 10
211.7079695506
 20
123.20721951
 30
0.0
 40
2.500000000000009
100
AcDbArc
 50
296.7436839504
 51
319.4425836613
  0
ARC
  5
14A
330
1F
100
AcDbEntity
  8
0
  6
Continuous
 62
     7
370
    25
100
AcDbCircle
 10
194.2079695506
 20
123.20721951
 30
0.0
 40
2.500000000000022
100
AcDbArc
 50
220.5574163387
 51
243.2563160496
  0
LINE
  5
14B
330
1F
100
AcDbEntity
  8
0
  6
Continuous
 62
     7
370
    25
100
AcDbLine
 10
213.2647317779
 20
132.5456854622
 30
0.0
 11
211.7079695506
 21
135.2420767352
 31
0.0
  0
LINE
  5
14C
330
1F
100
AcDbEntity
  8
0
  6
Continuous
 62
     7
370
    25
100
AcDbLine
 10
194.2079695506
 20
135.2420767352
 30
0.0
 11
192.6512073233
 21
132.5456854622
 31
0.0
  0
ARC
  5
14D
330
1F
100
AcDbEntity
  8
0
  6
Continuous
 62
     7
370
    25
100
AcDbCircle
 10
213.9579695506
 20
118.7420767352
 30
0.0
 40
2.5
100
AcDbArc
 50
116.7436839504
 51
180.0
  0
ARC
  5
14E
330
1F
100
AcDbEntity
  8
0
  6
Continuous
 62
     7
370
    25
100
AcDbCircle
 10
191.9579695506
 20
118.7420767352
 30
0.0
 40
2.5
100
AcDbArc
 50
0.0
 51
63.2563160496
  0
LINE
  5
14F
330
1F
100
AcDbEntity
  8
0
  6
Continuous
 62
     7
370
    25
100
AcDbLine
 10
194.4579695506
 20
118.7420767352
 30
0.0
 11
194.4579695506
 21
115.1910059076
 31
0.0
  0
LINE
  5
150
330
1F
100
AcDbEntity
  8
0
  6
Continuous
 62
     7
370
    25
100
AcDbLine
 10
211.4579695506
 20
115.1910059076
 30
0.0
 11
211.4579695506
 21
118.7420767352
 31
0.0
  0
CIRCLE
  5
151
330
1F
100
AcDbEntity
  8
0
  6
Continuous
 62
     7
370
    25
100
AcDbCircle
 10
202.9579695506
 20
106.2420767352
 30
0.0
 40
7.318774464791074
  0
CIRCLE
  5
152
330
1F
100
AcDbEntity
  8
0
  6
Continuous
 62
     7
370
    25
100
AcDbCircle
 10
202.9579695506
 20
106.2420767352
 30
0.0
 40
6.650000000000008
  0
CIRCLE
  5
153
330
1F
100
AcDbEntity
  8
0
  6
Continuous
 62
     7
370
    25
100
AcDbCircle
 10
202.9579695506
 20
106.2420767352
 30
0.0
 40
5.94999999999999
  0
CIRCLE
  5
154
330
1F
100
AcDbEntity
  8
0
  6
Continuous
 62
     7
370
    25
100
AcDbCircle
 10
202.9579695506
 20
106.2420767352
 30
0.0
 40
5.749999999999999
  0
CIRCLE
  5
155
330
1F
100
AcDbEntity
  8
0
  6
Continuous
 62
     7
370
    25
100
AcDbCircle
 10
202.9579695506
 20
106.2420767352
 30
0.0
 40
7.987138952600174
  0
CIRCLE
  5
156
330
1F
100
AcDbEntity
  8
0
  6
Continuous
 62
     7
370
    25
100
AcDbCircle
 10
202.9579695506
 20
106.2420767352
 30
0.0
 40
7.999999999999978
  0
CIRCLE
  5
157
330
1F
100
AcDbEntity
  8
0
  6
Continuous
 62
     7
370
    25
100
AcDbCircle
 10
202.9579695506
 20
106.2420767352
 30
0.0
 40
11.25
  0
CIRCLE
  5
158
330
1F
100
AcDbEntity
  8
0
  6
Continuous
 62
     7
370
    25
100
AcDbCircle
 10
202.9579695506
 20
106.2420767352
 30
0.0
 40
8.349999999999966
  0
CIRCLE
  5
159
330
1F
100
AcDbEntity
  8
0
  6
Continuous
 62
     7
370
    25
100
AcDbCircle
 10
202.9579695506
 20
106.2420767352
 30
0.0
 40
11.75
  0
CIRCLE
  5
15A
330
1F
100
AcDbEntity
  8
0
  6
Continuous
 62
     7
370
    25
100
AcDbCircle
 10
202.9579695506
 20
106.2420767352
 30
0.0
 40
8.25
  0
SPLINE
  5
15B
330
1F
100
AcDbEntity
  8
0
  6
Continuous
 62
     7
370
    25
100
AcDbSpline
210
0.0
220
0.0
230
1.0
 70
    24
 71
     3
 72
    15
 73
    11
 74
     0
 42
0.000000001
 43
0.00000001
 40
0.0
 40
0.0
 40
0.0
 40
0.0
 40
0.1323065044264401
 40
0.2645755999739294
 40
0.3998036789671088
 40
0.5350073556765887
 40
0.6501969475405015
 40
0.765404507645376
 40
0.8826909144168965
 40
1.0
 40
1.0
 40
1.0
 40
1.0
 10
214.9579695505943
 20
113.1702799654282
 30
0.0
 10
214.4395168213858
 20
113.4696087881988
 30
0.0
 10
213.4027579524013
 20
114.0681818002918
 30
0.0
 10
211.806240507131
 20
114.9899315770845
 30
0.0
 10
210.1796280954511
 20
115.9290566908351
 30
0.0
 10
208.6119473540641
 20
116.8341575888783
 30
0.0
 10
207.1289711601042
 20
117.6903542936628
 30
0.0
 10
205.7294178006788
 20
118.4983868024723
 30
0.0
 10
204.3361923844354
 20
119.3027658715823
 30
0.0
 10
203.4174067688173
 20
119.8332269940869
 30
0.0
 10
202.9579695505943
 20
120.0984831957037
 30
0.0
  0
SPLINE
  5
15C
330
1F
100
AcDbEntity
  8
0
  6
Continuous
 62
     7
370
    25
100
AcDbSpline
210
0.0
220
0.0
230
1.0
 70
    24
 71
     3
 72
    16
 73
    12
 74
     0
 42
0.000000001
 43
0.00000001
 40
0.0
 40
0.0
 40
0.0
 40
0.0
 40
0.1262118512103691
 40
0.251202065376351
 40
0.3761607760521392
 40
0.5042162939840996
 40
0.6322727081776326
 40
0.7237405332378763
 40
0.815217305758078
 40
0.9076044663789501
 40
1.0
 40
1.0
 40
1.0
 40
1.0
 10
214.9579695505943
 20
99.3138735048772
 30
0.0
 10
214.9579695505943
 20
99.88483081544955
 30
0.0
 10
214.9579695505943
 20
101.0212189935965
 30
0.0
 10
214.9579695505943
 20
102.7539624597811
 30
0.0
 10
214.9579695505943
 20
104.5141078527592
 30
0.0
 10
214.9579695505943
 20
106.3017187240928
 30
0.0
 10
214.9579695505943
 20
107.9317409635271
 30
0.0
 10
214.9579695505943
 20
109.3805585090873
 30
0.0
 10
214.9579695505943
 20
110.6528217474357
 30
0.0
 10
214.9579695505943
 20
111.9178284326079
 30
0.0
 10
214.9579695505943
 20
112.7527835098024
 30
0.0
 10
214.9579695505943
 20
113.1702799654282
 30
0.0
  0
SPLINE
  5
15D
330
1F
100
AcDbEntity
  8
0
  6
Continuous
 62
     7
370
    25
100
AcDbSpline
210
0.0
220
0.0
230
1.0
 70
    24
 71
     3
 72
    15
 73
    11
 74
     0
 42
0.000000001
 43
0.00000001
 40
0.0
 40
0.0
 40
0.0
 40
0.0
 40
0.1323065044264402
 40
0.2645755999739297
 40
0.3998036789671092
 40
0.5350073556765894
 40
0.6501969475405021
 40
0.7654045076453765
 40
0.8826909144168967
 40
1.0
 40
1.0
 40
1.0
 40
1.0
 10
202.9579695505943
 20
92.3856702746017
 30
0.0
 10
203.4764222798028
 20
92.6849990973723
 30
0.0
 10
204.5131811487873
 20
93.28357210946523
 30
0.0
 10
206.1096985940577
 20
94.20532188625802
 30
0.0
 10
207.7363110057375
 20
95.14444700000858
 30
0.0
 10
209.3039917471246
 20
96.04954789805178
 30
0.0
 10
210.7869679410845
 20
96.90574460283632
 30
0.0
 10
212.1865213005099
 20
97.71377711164584
 30
0.0
 10
213.5797467167532
 20
98.51815618075575
 30
0.0
 10
214.4985323323713
 20
99.04861730326041
 30
0.0
 10
214.9579695505943
 20
99.3138735048772
 30
0.0
  0
SPLINE
  5
15E
330
1F
100
AcDbEntity
  8
0
  6
Continuous
 62
     7
370
    25
100
AcDbSpline
210
0.0
220
0.0
230
1.0
 70
    24
 71
     3
 72
    15
 73
    11
 74
     0
 42
0.000000001
 43
0.00000001
 40
0.0
 40
0.0
 40
0.0
 40
0.0
 40
0.1323065044264402
 40
0.2645755999739298
 40
0.3998036789671093
 40
0.5350073556765894
 40
0.6501969475405021
 40
0.7654045076453765
 40
0.8826909144168967
 40
1.0
 40
1.0
 40
1.0
 40
1.0
 10
190.9579695505943
 20
99.3138735048772
 30
0.0
 10
191.4764222798028
 20
99.01454468210659
 30
0.0
 10
192.5131811487873
 20
98.41597167001365
 30
0.0
 10
194.1096985940577
 20
97.49422189322087
 30
0.0
 10
195.7363110057376
 20
96.5550967794703
 30
0.0
 10
197.3039917471246
 20
95.64999588142712
 30
0.0
 10
198.7869679410845
 20
94.79379917664255
 30
0.0
 10
200.1865213005099
 20
93.98576666783306
 30
0.0
 10
201.5797467167532
 20
93.18138759872313
 30
0.0
 10
202.4985323323713
 20
92.65092647621847
 30
0.0
 10
202.9579695505943
 20
92.3856702746017
 30
0.0
  0
SPLINE
  5
15F
330
1F
100
AcDbEntity
  8
0
  6
Continuous
 62
     7
370
    25
100
AcDbSpline
210
0.0
220
0.0
230
1.0
 70
    24
 71
     3
 72
    16
 73
    12
 74
     0
 42
0.000000001
 43
0.00000001
 40
0.0
 40
0.0
 40
0.0
 40
0.0
 40
0.0915356978782497
 40
0.183063343223533
 40
0.2753996771146608
 40
0.3677267146962475
 40
0.4925705318074075
 40
0.6174129202940689
 40
0.745583249032783
 40
0.8737882839722001
 40
1.0
 40
1.0
 40
1.0
 40
1.0
 10
190.9579695505943
 20
113.1702799654282
 30
0.0
 10
190.9579695505943
 20
112.756680236874
 30
0.0
 10
190.9579695505943
 20
111.9295171647555
 30
0.0
 10
190.9579695505943
 20
110.6686419332726
 30
0.0
 10
190.9579695505943
 20
109.3925625182058
 30
0.0
 10
190.9579695505943
 20
107.9507294120347
 30
0.0
 10
190.9579695505943
 20
106.3470006571288
 30
0.0
 10
190.9579695505943
 20
104.5743583144796
 30
0.0
 10
190.9579695505943
 20
102.7984885656414
 30
0.0
 10
190.9579695505943
 20
101.0357692257268
 30
0.0
 10
190.9579695505943
 20
99.88483293800913
 30
0.0
 10
190.9579695505943
 20
99.3138735048772
 30
0.0
  0
SPLINE
  5
160
330
1F
100
AcDbEntity
  8
0
  6
Continuous
 62
     7
370
    25
100
AcDbSpline
210
0.0
220
0.0
230
1.0
 70
    24
 71
     3
 72
    15
 73
    11
 74
     0
 42
0.000000001
 43
0.00000001
 40
0.0
 40
0.0
 40
0.0
 40
0.0
 40
0.1323065044264403
 40
0.2645755999739297
 40
0.3998036789671093
 40
0.5350073556765894
 40
0.6501969475405021
 40
0.7654045076453766
 40
0.8826909144168967
 40
0.9999999999999999
 40
0.9999999999999999
 40
0.9999999999999999
 40
0.9999999999999999
 10
202.9579695505943
 20
120.0984831957037
 30
0.0
 10
202.4395168213858
 20
119.7991543729331
 30
0.0
 10
201.4027579524013
 20
119.2005813608402
 30
0.0
 10
199.806240507131
 20
118.2788315840474
 30
0.0
 10
198.1796280954511
 20
117.3397064702968
 30
0.0
 10
196.611947354064
 20
116.4346055722536
 30
0.0
 10
195.1289711601042
 20
115.5784088674691
 30
0.0
 10
193.7294178006788
 20
114.7703763586596
 30
0.0
 10
192.3361923844354
 20
113.9659972895496
 30
0.0
 10
191.4174067688173
 20
113.435536167045
 30
0.0
 10
190.9579695505943
 20
113.1702799654282
 30
0.0
  0
CIRCLE
  5
161
330
1F
100
AcDbEntity
  8
0
  6
Continuous
 62
     7
370
    25
100
AcDbCircle
 10
202.9579695506
 20
106.2420767352
 30
0.0
 40
5.0
  0
LINE
  5
162
330
1F
100
AcDbEntity
  8
0
  6
Continuous
 62
     7
370
    25
100
AcDbLine
 10
202.9579695506
 20
132.5456854622
 30
0.0
 11
192.6512073233
 21
132.5456854622
 31
0.0
  0
LINE
  5
163
330
1F
100
AcDbEntity
  8
0
  6
Continuous
 62
     7
370
    25
100
AcDbLine
 10
213.2647317779
 20
132.5456854622
 30
0.0
 11
202.9579695506
 21
132.5456854622
 31
0.0
  0
LINE
  5
164
330
1F
100
AcDbEntity
  8
0
  6
Continuous
 62
     7
370
    25
100
AcDbLine
 10
213.6073564739
 20
121.5816951898
 30
0.0
 11
192.3085826273
 21
121.5816951898
 31
0.0
  0
LINE
  5
165
330
1F
100
AcDbEntity
  8
0
  6
Continuous
 62
     7
370
    25
100
AcDbLine
 10
194.2079695506
 20
135.2420767352
 30
0.0
 11
211.7079695506
 21
135.2420767352
 31
0.0
  0
LINE
  5
166
330
1F
100
AcDbEntity
  8
0
  6
Continuous
 62
     7
370
    25
100
AcDbLine
 10
207.5405452456
 20
104.2420767352
 30
0.0
 11
198.3753938556
 21
104.2420767352
 31
0.0
  0
LINE
  5
167
330
1F
100
AcDbEntity
  8
0
  6
Continuous
 62
     8
370
    25
100
AcDbLine
 10
202.9579695506
 20
120.9746481226
 30
0.0
 11
212.8329695506
 21
120.9746481226
 31
0.0
  0
LINE
  5
168
330
1F
100
AcDbEntity
  8
0
  6
Continuous
 62
     8
370
    25
100
AcDbLine
 10
193.0829695506
 20
120.9746481226
 30
0.0
 11
202.9579695506
 21
120.9746481226
 31
0.0
  0
LINE
  5
169
330
1F
100
AcDbEntity
  8
0
  6
Continuous
 62
     8
370
    25
100
AcDbLine
 10
205.3146001213
 20
118.7420767352
 30
0.0
 11
211.4579695506
 21
118.7420767352
 31
0.0
  0
LINE
  5
16A
330
1F
100
AcDbEntity
  8
0
  6
Continuous
 62
     8
370
    25
100
AcDbLine
 10
194.4579695506
 20
118.7420767352
 30
0.0
 11
200.6020953865
 21
118.7420767352
 31
0.0
  0
INSERT
  5
176
330
1F
100
AcDbEntity
  8
0
  6
Continuous
 62
     7
370
    18
100
AcDbBlockReference
  2
SW_CENTERMARKSYMBOL_0
 10
202.9579695506
 20
106.2420767352
 30
0.0
  0
LINE
  5
177
330
1F
100
AcDbEntity
  8
0
  6
Continuous
 62
     7
370
     0
100
AcDbLine
 10
212.3058296793
 20
134.2065526164
 30
0.0
 11
212.7003445506
 21
121.5820767352
 31
0.0
  0
LINE
  5
178
330
1F
100
AcDbEntity
  8
0
  6
Continuous
 62
     7
370
     0
100
AcDbLine
 10
193.6101094219
 20
134.2065526164
 30
0.0
 11
193.2155945506
 21
121.5820767352
 31
0.0
  0
LINE
  5
179
330
1F
100
AcDbEntity
  8
0
  6
Continuous
 62
     7
370
     0
100
AcDbLine
 10
192.3085945506
 20
121.5820767352
 30
0.0
 11
213.6073445506
 21
121.5820767352
 31
0.0
  0
ARC
  5
17A
330
1F
100
AcDbEntity
  8
0
  6
Continuous
 62
     7
370
     0
100
AcDbCircle
 10
202.9579695506
 20
106.2420767352
 30
0.0
 40
10.4775
100
AcDbArc
 50
75.0
 51
345.0
  0
LINE
  5
17B
330
1F
100
AcDbEntity
  8
0
  6
Continuous
 62
     7
370
    25
100
AcDbLine
 10
135.5365466437
 20
170.1964057753
 30
0.0
 11
142.0365466437
 21
170.1964057753
 31
0.0
  0
LINE
  5
17C
330
1F
100
AcDbEntity
  8
0
  6
Continuous
 62
     7
370
    25
100
AcDbLine
 10
142.0365466437
 20
186.1964057753
 30
0.0
 11
135.5365466437
 21
186.1964057753
 31
0.0
  0
LINE
  5
17D
330
1F
100
AcDbEntity
  8
0
  6
Continuous
 62
     7
370
    25
100
AcDbLine
 10
142.0365466437
 20
170.1964057753
 30
0.0
 11
146.5365466437
 21
170.9464057753
 31
0.0
  0
LINE
  5
17E
330
1F
100
AcDbEntity
  8
0
  6
Continuous
 62
     7
370
    25
100
AcDbLine
 10
146.5365466437
 20
185.4464057753
 30
0.0
 11
142.0365466437
 21
186.1964057753
 31
0.0
  0
ARC
  5
17F
330
1F
100
AcDbEntity
  8
0
  6
Continuous
 62
     7
370
    25
100
AcDbCircle
 10
160.1365466437
 20
186.0842038343
 30
0.0
 40
0.0999999999999988
100
AcDbArc
 50
83.4180553448
 51
180.0
  0
ARC
  5
180
330
1F
100
AcDbEntity
  8
0
  6
Continuous
 62
     7
370
    25
100
AcDbCircle
 10
160.1365466437
 20
170.3086077163
 30
0.0
 40
0.0999999999999988
100
AcDbArc
 50
180.0
 51
276.5819446552
  0
LINE
  5
181
330
1F
100
AcDbEntity
  8
0
  6
Continuous
 62
     7
370
    25
100
AcDbLine
 10
160.1480090545
 20
170.2092668227
 30
0.0
 11
165.9405012821
 21
170.8776313105
 31
0.0
  0
LINE
  5
182
330
1F
100
AcDbEntity
  8
0
  6
Continuous
 62
     7
370
    25
100
AcDbLine
 10
165.9405012821
 20
185.5151802401
 30
0.0
 11
160.1480090545
 21
186.1835447279
 31
0.0
  0
ARC
  5
183
330
1F
100
AcDbEntity
  8
0
  6
Continuous
 62
     7
370
    25
100
AcDbCircle
 10
151.1365466437
 20
186.0783597331
 30
0.0
 40
0.0999999999999943
100
AcDbArc
 50
80.537677792
 51
180.0
  0
ARC
  5
184
330
1F
100
AcDbEntity
  8
0
  6
Continuous
 62
     7
370
    25
100
AcDbCircle
 10
151.1365466437
 20
170.3144518174
 30
0.0
 40
0.0999999999999943
100
AcDbArc
 50
180.0
 51
279.462322208
  0
ARC
  5
185
330
1F
100
AcDbEntity
  8
0
  6
Continuous
 62
     7
370
    25
100
AcDbCircle
 10
146.6365466437
 20
186.0783597331
 30
0.0
 40
0.0999999999999964
100
AcDbArc
 50
80.537677792
 51
180.0
  0
ARC
  5
186
330
1F
100
AcDbEntity
  8
0
  6
Continuous
 62
     7
370
    25
100
AcDbCircle
 10
146.6365466437
 20
170.3144518174
 30
0.0
 40
0.0999999999999964
100
AcDbArc
 50
180.0
 51
279.462322208
  0
ARC
  5
187
330
1F
100
AcDbEntity
  8
0
  6
Continuous
 62
     7
370
    25
100
AcDbCircle
 10
155.6365466437
 20
186.0783597331
 30
0.0
 40
0.0999999999999943
100
AcDbArc
 50
80.537677792
 51
180.0
  0
ARC
  5
188
330
1F
100
AcDbEntity
  8
0
  6
Continuous
 62
     7
370
    25
100
AcDbCircle
 10
155.6365466437
 20
170.3144518174
 30
0.0
 40
0.1000000000000197
100
AcDbArc
 50
180.0
 51
279.462322208
  0
LINE
  5
189
330
1F
100
AcDbEntity
  8
0
  6
Continuous
 62
     7
370
    25
100
AcDbLine
 10
151.1529865424
 20
170.2158124251
 30
0.0
 11
155.5365466437
 21
170.9464057753
 31
0.0
  0
LINE
  5
18A
330
1F
100
AcDbEntity
  8
0
  6
Continuous
 62
     7
370
    25
100
AcDbLine
 10
155.5365466437
 20
185.4464057753
 30
0.0
 11
151.1529865424
 21
186.1769991255
 31
0.0
  0
LINE
  5
18B
330
1F
100
AcDbEntity
  8
0
  6
Continuous
 62
     7
370
    25
100
AcDbLine
 10
146.6529865424
 20
170.2158124251
 30
0.0
 11
151.0365466437
 21
170.9464057753
 31
0.0
  0
LINE
  5
18C
330
1F
100
AcDbEntity
  8
0
  6
Continuous
 62
     7
370
    25
100
AcDbLine
 10
151.0365466437
 20
185.4464057753
 30
0.0
 11
146.6529865424
 21
186.1769991255
 31
0.0
  0
LINE
  5
18D
330
1F
100
AcDbEntity
  8
0
  6
Continuous
 62
     7
370
    25
100
AcDbLine
 10
155.6529865424
 20
170.2158124251
 30
0.0
 11
160.0365466437
 21
170.9464057753
 31
0.0
  0
LINE
  5
18E
330
1F
100
AcDbEntity
  8
0
  6
Continuous
 62
     7
370
    25
100
AcDbLine
 10
160.0365466437
 20
185.4464057753
 30
0.0
 11
155.6529865424
 21
186.1769991255
 31
0.0
  0
LINE
  5
18F
330
1F
100
AcDbEntity
  8
0
  6
Continuous
 62
     7
370
    25
100
AcDbLine
 10
165.9405012821
 20
170.8776313105
 30
0.0
 11
166.5365466437
 21
171.5464057753
 31
0.0
  0
LINE
  5
190
330
1F
100
AcDbEntity
  8
0
  6
Continuous
 62
     7
370
    25
100
AcDbLine
 10
166.5365466437
 20
184.8464057753
 30
0.0
 11
165.9405012821
 21
185.5151802401
 31
0.0
  0
LINE
  5
191
330
1F
100
AcDbEntity
  8
0
  6
Continuous
 62
     7
370
    25
100
AcDbLine
 10
121.680884211
 20
190.1964057753
 30
0.0
 11
121.5365466437
 21
189.9464057753
 31
0.0
  0
LINE
  5
192
330
1F
100
AcDbEntity
  8
0
  6
Continuous
 62
     7
370
    25
100
AcDbLine
 10
121.5365466437
 20
166.4464057753
 30
0.0
 11
121.680884211
 21
166.1964057753
 31
0.0
  0
LINE
  5
193
330
1F
100
AcDbEntity
  8
0
  6
Continuous
 62
     7
370
    25
100
AcDbLine
 10
133.3922090764
 20
166.1964057753
 30
0.0
 11
133.5365466437
 21
166.4464057753
 31
0.0
  0
LINE
  5
194
330
1F
100
AcDbEntity
  8
0
  6
Continuous
 62
     7
370
    25
100
AcDbLine
 10
133.5365466437
 20
189.9464057753
 30
0.0
 11
133.3922090764
 21
190.1964057753
 31
0.0
  0
LINE
  5
195
330
1F
100
AcDbEntity
  8
0
  6
Continuous
 62
     7
370
    25
100
AcDbLine
 10
133.5365466437
 20
166.4464057753
 30
0.0
 11
135.0365466437
 21
166.4464057753
 31
0.0
  0
LINE
  5
196
330
1F
100
AcDbEntity
  8
0
  6
Continuous
 62
     7
370
    25
100
AcDbLine
 10
135.0365466437
 20
189.9464057753
 30
0.0
 11
133.5365466437
 21
189.9464057753
 31
0.0
  0
LINE
  5
197
330
1F
100
AcDbEntity
  8
0
  6
Continuous
 62
     7
370
    25
100
AcDbLine
 10
121.5365466437
 20
189.9464057753
 30
0.0
 11
120.0365466437
 21
189.9464057753
 31
0.0
  0
LINE
  5
198
330
1F
100
AcDbEntity
  8
0
  6
Continuous
 62
     7
370
    25
100
AcDbLine
 10
120.0365466437
 20
166.4464057753
 30
0.0
 11
121.5365466437
 21
166.4464057753
 31
0.0
  0
LINE
  5
199
330
1F
100
AcDbEntity
  8
0
  6
Continuous
 62
     7
370
    25
100
AcDbLine
 10
135.0365466437
 20
166.4464057753
 30
0.0
 11
135.5365466437
 21
166.9464057753
 31
0.0
  0
LINE
  5
19A
330
1F
100
AcDbEntity
  8
0
  6
Continuous
 62
     7
370
    25
100
AcDbLine
 10
135.5365466437
 20
189.4464057753
 30
0.0
 11
135.0365466437
 21
189.9464057753
 31
0.0
  0
LINE
  5
19B
330
1F
100
AcDbEntity
  8
0
  6
Continuous
 62
     7
370
    25
100
AcDbLine
 10
120.0365466437
 20
189.9464057753
 30
0.0
 11
119.5365466437
 21
189.4464057753
 31
0.0
  0
LINE
  5
19C
330
1F
100
AcDbEntity
  8
0
  6
Continuous
 62
     7
370
    25
100
AcDbLine
 10
119.5365466437
 20
166.9464057753
 30
0.0
 11
120.0365466437
 21
166.4464057753
 31
0.0
  0
LINE
  5
19D
330
1F
100
AcDbEntity
  8
0
  6
Continuous
 62
     7
370
    25
100
AcDbLine
 10
119.5365466437
 20
188.6739057753
 30
0.0
 11
117.2926287369
 21
188.6739057753
 31
0.0
  0
LINE
  5
19E
330
1F
100
AcDbEntity
  8
0
  6
Continuous
 62
     7
370
    25
100
AcDbLine
 10
117.2926287369
 20
167.7189057753
 30
0.0
 11
119.5365466437
 21
167.7189057753
 31
0.0
  0
ARC
  5
19F
330
1F
100
AcDbEntity
  8
0
  6
Continuous
 62
     7
370
    25
100
AcDbCircle
 10
119.0997656299
 20
169.4464057753
 30
0.0
 40
2.499999999999986
100
AcDbArc
 50
206.7436839504
 51
223.7093197495
  0
ARC
  5
1A0
330
1F
100
AcDbEntity
  8
0
  6
Continuous
 62
     7
370
    25
100
AcDbCircle
 10
119.0997656299
 20
186.9464057753
 30
0.0
 40
2.499999999999986
100
AcDbArc
 50
136.2906802505
 51
153.2563160496
  0
ARC
  5
1A1
330
1F
100
AcDbEntity
  8
0
  6
Continuous
 62
     7
370
    25
100
AcDbCircle
 10
114.634622855
 20
167.1964057753
 30
0.0
 40
2.500000000000009
100
AcDbArc
 50
26.7436839504
 51
90.0
  0
ARC
  5
1A2
330
1F
100
AcDbEntity
  8
0
  6
Continuous
 62
     7
370
    25
100
AcDbCircle
 10
114.634622855
 20
189.1964057753
 30
0.0
 40
2.500000000000022
100
AcDbArc
 50
270.0
 51
333.2563160496
  0
LINE
  5
1A3
330
1F
100
AcDbEntity
  8
0
  6
Continuous
 62
     7
370
    25
100
AcDbLine
 10
114.634622855
 20
186.6964057753
 30
0.0
 11
110.634622855
 21
186.6964057753
 31
0.0
  0
LINE
  5
1A4
330
1F
100
AcDbEntity
  8
0
  6
Continuous
 62
     7
370
    25
100
AcDbLine
 10
110.634622855
 20
169.6964057753
 30
0.0
 11
114.634622855
 21
169.6964057753
 31
0.0
  0
LINE
  5
1A5
330
1F
100
AcDbEntity
  8
0
  6
Continuous
 62
     7
370
    25
100
AcDbLine
 10
142.0365466437
 20
184.7304078159
 30
0.0
 11
142.0365466437
 21
186.1964057753
 31
0.0
  0
LINE
  5
1A6
330
1F
100
AcDbEntity
  8
0
  6
Continuous
 62
     7
370
    25
100
AcDbLine
 10
142.0365466437
 20
170.1964057753
 30
0.0
 11
142.0365466437
 21
184.7304078159
 31
0.0
  0
LINE
  5
1A7
330
1F
100
AcDbEntity
  8
0
  6
Continuous
 62
     7
370
    25
100
AcDbLine
 10
160.0365466437
 20
170.3086077163
 30
0.0
 11
160.0365466437
 21
186.0842038343
 31
0.0
  0
LINE
  5
1A8
330
1F
100
AcDbEntity
  8
0
  6
Continuous
 62
     7
370
    25
100
AcDbLine
 10
165.9405012821
 20
170.8776313105
 30
0.0
 11
165.9405012821
 21
185.5151802401
 31
0.0
  0
LINE
  5
1A9
330
1F
100
AcDbEntity
  8
0
  6
Continuous
 62
     7
370
    25
100
AcDbLine
 10
151.0365466437
 20
170.3144518174
 30
0.0
 11
151.0365466437
 21
186.0783597331
 31
0.0
  0
LINE
  5
1AA
330
1F
100
AcDbEntity
  8
0
  6
Continuous
 62
     7
370
    25
100
AcDbLine
 10
146.5365466437
 20
170.3144518174
 30
0.0
 11
146.5365466437
 21
186.0783597331
 31
0.0
  0
LINE
  5
1AB
330
1F
100
AcDbEntity
  8
0
  6
Continuous
 62
     7
370
    25
100
AcDbLine
 10
155.5365466437
 20
170.3144518174
 30
0.0
 11
155.5365466437
 21
186.0783597331
 31
0.0
  0
LINE
  5
1AC
330
1F
100
AcDbEntity
  8
0
  6
Continuous
 62
     7
370
    25
100
AcDbLine
 10
166.5365466437
 20
183.6277949716
 30
0.0
 11
166.5365466437
 21
171.5464057753
 31
0.0
  0
LINE
  5
1AD
330
1F
100
AcDbEntity
  8
0
  6
Continuous
 62
     7
370
    25
100
AcDbLine
 10
166.5365466437
 20
184.8464057753
 30
0.0
 11
166.5365466437
 21
183.6277949716
 31
0.0
  0
LINE
  5
1AE
330
1F
100
AcDbEntity
  8
0
  6
Continuous
 62
     7
370
    25
100
AcDbLine
 10
127.6705212399
 20
190.1964057753
 30
0.0
 11
127.5365466437
 21
189.2753028164
 31
0.0
  0
LINE
  5
1AF
330
1F
100
AcDbEntity
  8
0
  6
Continuous
 62
     7
370
    25
100
AcDbLine
 10
132.3204123066
 20
190.1964057753
 30
0.0
 11
127.6705212399
 21
190.1964057753
 31
0.0
  0
SPLINE
  5
1B0
330
1F
100
AcDbEntity
  8
0
  6
Continuous
 62
     7
370
    25
100
AcDbSpline
210
0.0
220
0.0
230
1.0
 70
     8
 71
     3
 72
    15
 73
    11
 74
     0
 42
0.000000001
 43
0.00000001
 40
0.0
 40
0.0
 40
0.0
 40
0.0
 40
0.13230650442644
 40
0.2645755999739293
 40
0.3998036789671087
 40
0.5350073556765887
 40
0.6501969475405015
 40
0.7654045076453762
 40
0.8826909144168965
 40
1.0
 40
1.0
 40
1.0
 40
1.0
 10
132.3204123066451
 20
190.1964057752753
 30
0.0
 10
132.4835713885628
 20
189.6779530460668
 30
0.0
 10
132.8098434201361
 20
188.6411941770823
 30
0.0
 10
133.160898123156
 20
187.044676731812
 30
0.0
 10
133.3719749086851
 20
185.4180643201321
 30
0.0
 10
133.4137722189707
 20
183.8503835787451
 30
0.0
 10
133.30531358627
 20
182.3674073847852
 30
0.0
 10
133.0830876772091
 20
180.9678540253598
 30
0.0
 10
132.7571099039228
 20
179.5746286091164
 30
0.0
 10
132.4659875535293
 20
178.6558429934983
 30
0.0
 10
132.3204123066451
 20
178.1964057752753
 30
0.0
  0
LINE
  5
1B1
330
1F
100
AcDbEntity
  8
0
  6
Continuous
 62
     7
370
    25
100
AcDbLine
 10
132.3204123066
 20
178.1964057753
 30
0.0
 11
127.6705212399
 21
178.1964057753
 31
0.0
  0
LINE
  5
1B2
330
1F
100
AcDbEntity
  8
0
  6
Continuous
 62
     7
370
    25
100
AcDbLine
 10
127.5365466437
 20
179.1175087341
 30
0.0
 11
127.6705212399
 21
178.1964057753
 31
0.0
  0
LINE
  5
1B3
330
1F
100
AcDbEntity
  8
0
  6
Continuous
 62
     7
370
    25
100
AcDbLine
 10
127.5365466437
 20
179.1175087341
 30
0.0
 11
127.4025720475
 21
178.1964057753
 31
0.0
  0
LINE
  5
1B4
330
1F
100
AcDbEntity
  8
0
  6
Continuous
 62
     7
370
    25
100
AcDbLine
 10
127.4025720475
 20
178.1964057753
 30
0.0
 11
122.7526809807
 21
178.1964057753
 31
0.0
  0
SPLINE
  5
1B5
330
1F
100
AcDbEntity
  8
0
  6
Continuous
 62
     7
370
    25
100
AcDbSpline
210
0.0
220
0.0
230
1.0
 70
     8
 71
     3
 72
    15
 73
    11
 74
     0
 42
0.000000001
 43
0.00000001
 40
0.0
 40
0.0
 40
0.0
 40
0.0
 40
0.13230650442644
 40
0.2645755999739293
 40
0.3998036789671087
 40
0.5350073556765887
 40
0.6501969475405015
 40
0.7654045076453762
 40
0.8826909144168965
 40
1.0
 40
1.0
 40
1.0
 40
1.0
 10
122.7526809806889
 20
190.1964057752753
 30
0.0
 10
122.5895218987712
 20
189.6779530460668
 30
0.0
 10
122.2632498671978
 20
188.6411941770823
 30
0.0
 10
121.9121951641779
 20
187.044676731812
 30
0.0
 10
121.7011183786488
 20
185.4180643201321
 30
0.0
 10
121.6593210683632
 20
183.8503835787451
 30
0.0
 10
121.767779701064
 20
182.3674073847852
 30
0.0
 10
121.9900056101249
 20
180.9678540253598
 30
0.0
 10
122.3159833834112
 20
179.5746286091164
 30
0.0
 10
122.6071057338046
 20
178.6558429934983
 30
0.0
 10
122.7526809806889
 20
178.1964057752753
 30
0.0
  0
LINE
  5
1B6
330
1F
100
AcDbEntity
  8
0
  6
Continuous
 62
     7
370
    25
100
AcDbLine
 10
127.4025720475
 20
190.1964057753
 30
0.0
 11
122.7526809807
 21
190.1964057753
 31
0.0
  0
LINE
  5
1B7
330
1F
100
AcDbEntity
  8
0
  6
Continuous
 62
     7
370
    25
100
AcDbLine
 10
127.4025720475
 20
190.1964057753
 30
0.0
 11
127.5365466437
 21
189.2753028164
 31
0.0
  0
SPLINE
  5
1B8
330
1F
100
AcDbEntity
  8
0
  6
Continuous
 62
     7
370
    25
100
AcDbSpline
210
0.0
220
0.0
230
1.0
 70
     8
 71
     3
 72
    15
 73
    11
 74
     0
 42
0.000000001
 43
0.00000001
 40
0.0
 40
0.0
 40
0.0
 40
0.0
 40
0.1323065044264403
 40
0.2645755999739298
 40
0.3998036789671094
 40
0.5350073556765895
 40
0.6501969475405022
 40
0.7654045076453766
 40
0.8826909144168967
 40
1.0
 40
1.0
 40
1.0
 40
1.0
 10
122.7526809806889
 20
178.1964057752753
 30
0.0
 10
122.5895218987712
 20
177.6779530460668
 30
0.0
 10
122.2632498671978
 20
176.6411941770823
 30
0.0
 10
121.9121951641779
 20
175.044676731812
 30
0.0
 10
121.7011183786488
 20
173.4180643201321
 30
0.0
 10
121.6593210683632
 20
171.850383578745
 30
0.0
 10
121.767779701064
 20
170.3674073847852
 30
0.0
 10
121.9900056101249
 20
168.9678540253598
 30
0.0
 10
122.3159833834112
 20
167.5746286091164
 30
0.0
 10
122.6071057338046
 20
166.6558429934983
 30
0.0
 10
122.7526809806889
 20
166.1964057752753
 30
0.0
  0
SPLINE
  5
1B9
330
1F
100
AcDbEntity
  8
0
  6
Continuous
 62
     7
370
    25
100
AcDbSpline
210
0.0
220
0.0
230
1.0
 70
    24
 71
     3
 72
    13
 73
     9
 74
     0
 42
0.000000001
 43
0.00000001
 40
0.0
 40
0.0
 40
0.0
 40
0.0
 40
0.1829117447713371
 40
0.3661282920189838
 40
0.5505266344219539
 40
0.7354574074707192
 40
0.9842761709650016
 40
1.0
 40
1.0
 40
1.0
 40
1.0
 10
122.7526809806889
 20
166.1964057752753
 30
0.0
 10
122.6379411025855
 20
166.1964057752753
 30
0.0
 10
122.4082701448842
 20
166.1964057752753
 30
0.0
 10
122.1277934444841
 20
166.1964057752753
 30
0.0
 10
121.9018839132434
 20
166.1964057752753
 30
0.0
 10
121.7404271922998
 20
166.1964057752753
 30
0.0
 10
121.6595476569999
 20
166.1964057752753
 30
0.0
 10
121.6838106232033
 20
166.1964057752753
 30
0.0
 10
121.6852527604743
 20
166.1964057752753
 30
0.0
  0
SPLINE
  5
1BA
330
1F
100
AcDbEntity
  8
0
  6
Continuous
 62
     7
370
    25
100
AcDbSpline
210
0.0
220
0.0
230
1.0
 70
    24
 71
     3
 72
    13
 73
     9
 74
     0
 42
0.000000001
 43
0.00000001
 40
0.0
 40
0.0
 40
0.0
 40
0.0
 40
0.0074753697975734
 40
0.2645373576378469
 40
0.4472066472687537
 40
0.6304309312106214
 40
0.8150415585451579
 40
1.0
 40
1.0
 40
1.0
 40
1.0
 10
121.6830727526296
 20
190.1964057752753
 30
0.0
 10
121.6823459731388
 20
190.1964057752753
 30
0.0
 10
121.656626800539
 20
190.1964057752753
 30
0.0
 10
121.7383944463185
 20
190.1964057752753
 30
0.0
 10
121.9000690431589
 20
190.1964057752753
 30
0.0
 10
122.1242327124143
 20
190.1964057752753
 30
0.0
 10
122.4049607031172
 20
190.1964057752753
 30
0.0
 10
122.6367015217553
 20
190.1964057752753
 30
0.0
 10
122.7526809806889
 20
190.1964057752753
 30
0.0
  0
LINE
  5
1BB
330
1F
100
AcDbEntity
  8
0
  6
Continuous
 62
     7
370
    25
100
AcDbLine
 10
121.5365466437
 20
189.9464057753
 30
0.0
 11
121.5365466437
 21
166.4464057753
 31
0.0
  0
SPLINE
  5
1BC
330
1F
100
AcDbEntity
  8
0
  6
Continuous
 62
     7
370
    25
100
AcDbSpline
210
0.0
220
0.0
230
1.0
 70
    24
 71
     3
 72
    13
 73
     9
 74
     0
 42
0.000000001
 43
0.00000001
 40
0.0
 40
0.0
 40
0.0
 40
0.0
 40
0.0074753697975734
 40
0.264537357637847
 40
0.4472066472687536
 40
0.6304309312106214
 40
0.8150415585451577
 40
1.0
 40
1.0
 40
1.0
 40
1.0
 10
133.3900205347044
 20
190.1964057752753
 30
0.0
 10
133.3907473141952
 20
190.1964057752753
 30
0.0
 10
133.4164664867949
 20
190.1964057752753
 30
0.0
 10
133.3346988410155
 20
190.1964057752753
 30
0.0
 10
133.173024244175
 20
190.1964057752753
 30
0.0
 10
132.9488605749196
 20
190.1964057752753
 30
0.0
 10
132.6681325842167
 20
190.1964057752753
 30
0.0
 10
132.4363917655786
 20
190.1964057752753
 30
0.0
 10
132.3204123066451
 20
190.1964057752753
 30
0.0
  0
SPLINE
  5
1BD
330
1F
100
AcDbEntity
  8
0
  6
Continuous
 62
     7
370
    25
100
AcDbSpline
210
0.0
220
0.0
230
1.0
 70
    24
 71
     3
 72
    13
 73
     9
 74
     0
 42
0.000000001
 43
0.00000001
 40
0.0
 40
0.0
 40
0.0
 40
0.0
 40
0.182911744771337
 40
0.3661282920189839
 40
0.5505266344219539
 40
0.7354574074707193
 40
0.9842761709650018
 40
1.0
 40
1.0
 40
1.0
 40
1.0
 10
132.3204123066451
 20
166.1964057752753
 30
0.0
 10
132.4351521847484
 20
166.1964057752753
 30
0.0
 10
132.6648231424498
 20
166.1964057752753
 30
0.0
 10
132.9452998428499
 20
166.1964057752753
 30
0.0
 10
133.1712093740905
 20
166.1964057752753
 30
0.0
 10
133.3326660950341
 20
166.1964057752753
 30
0.0
 10
133.4135456303341
 20
166.1964057752754
 30
0.0
 10
133.3892826641307
 20
166.1964057752753
 30
0.0
 10
133.3878405268596
 20
166.1964057752753
 30
0.0
  0
SPLINE
  5
1BE
330
1F
100
AcDbEntity
  8
0
  6
Continuous
 62
     7
370
    25
100
AcDbSpline
210
0.0
220
0.0
230
1.0
 70
     8
 71
     3
 72
    15
 73
    11
 74
     0
 42
0.000000001
 43
0.00000001
 40
0.0
 40
0.0
 40
0.0
 40
0.0
 40
0.1323065044264403
 40
0.2645755999739298
 40
0.3998036789671095
 40
0.5350073556765896
 40
0.6501969475405022
 40
0.7654045076453766
 40
0.8826909144168967
 40
1.0
 40
1.0
 40
1.0
 40
1.0
 10
132.3204123066451
 20
178.1964057752753
 30
0.0
 10
132.4835713885628
 20
177.6779530460668
 30
0.0
 10
132.8098434201361
 20
176.6411941770823
 30
0.0
 10
133.160898123156
 20
175.044676731812
 30
0.0
 10
133.3719749086851
 20
173.4180643201321
 30
0.0
 10
133.4137722189707
 20
171.850383578745
 30
0.0
 10
133.30531358627
 20
170.3674073847852
 30
0.0
 10
133.0830876772091
 20
168.9678540253598
 30
0.0
 10
132.7571099039228
 20
167.5746286091164
 30
0.0
 10
132.4659875535293
 20
166.6558429934983
 30
0.0
 10
132.3204123066451
 20
166.1964057752753
 30
0.0
  0
LINE
  5
1BF
330
1F
100
AcDbEntity
  8
0
  6
Continuous
 62
     7
370
    25
100
AcDbLine
 10
133.5365466437
 20
189.9464057753
 30
0.0
 11
133.5365466437
 21
166.4464057753
 31
0.0
  0
LINE
  5
1C0
330
1F
100
AcDbEntity
  8
0
  6
Continuous
 62
     7
370
    25
100
AcDbLine
 10
127.6705212399
 20
178.1964057753
 30
0.0
 11
127.5365466437
 21
177.2753028164
 31
0.0
  0
LINE
  5
1C1
330
1F
100
AcDbEntity
  8
0
  6
Continuous
 62
     7
370
    25
100
AcDbLine
 10
127.5365466437
 20
179.1175087341
 30
0.0
 11
127.5365466437
 21
177.2753028164
 31
0.0
  0
LINE
  5
1C2
330
1F
100
AcDbEntity
  8
0
  6
Continuous
 62
     7
370
    25
100
AcDbLine
 10
127.4025720475
 20
178.1964057753
 30
0.0
 11
127.5365466437
 21
177.2753028164
 31
0.0
  0
LINE
  5
1C3
330
1F
100
AcDbEntity
  8
0
  6
Continuous
 62
     7
370
    25
100
AcDbLine
 10
132.3204123066
 20
166.1964057753
 30
0.0
 11
127.6705212399
 21
166.1964057753
 31
0.0
  0
LINE
  5
1C4
330
1F
100
AcDbEntity
  8
0
  6
Continuous
 62
     7
370
    25
100
AcDbLine
 10
127.5365466437
 20
167.1175087341
 30
0.0
 11
127.6705212399
 21
166.1964057753
 31
0.0
  0
LINE
  5
1C5
330
1F
100
AcDbEntity
  8
0
  6
Continuous
 62
     7
370
    25
100
AcDbLine
 10
127.5365466437
 20
167.1175087341
 30
0.0
 11
127.4025720475
 21
166.1964057753
 31
0.0
  0
LINE
  5
1C6
330
1F
100
AcDbEntity
  8
0
  6
Continuous
 62
     7
370
    25
100
AcDbLine
 10
127.4025720475
 20
166.1964057753
 30
0.0
 11
122.7526809807
 21
166.1964057753
 31
0.0
  0
LINE
  5
1C7
330
1F
100
AcDbEntity
  8
0
  6
Continuous
 62
     7
370
    25
100
AcDbLine
 10
135.0365466437
 20
166.4464057753
 30
0.0
 11
135.0365466437
 21
189.9464057753
 31
0.0
  0
LINE
  5
1C8
330
1F
100
AcDbEntity
  8
0
  6
Continuous
 62
     7
370
    25
100
AcDbLine
 10
120.0365466437
 20
189.9464057753
 30
0.0
 11
120.0365466437
 21
166.4464057753
 31
0.0
  0
LINE
  5
1C9
330
1F
100
AcDbEntity
  8
0
  6
Continuous
 62
     7
370
    25
100
AcDbLine
 10
135.5365466437
 20
189.4464057753
 30
0.0
 11
135.5365466437
 21
166.9464057753
 31
0.0
  0
LINE
  5
1CA
330
1F
100
AcDbEntity
  8
0
  6
Continuous
 62
     7
370
    25
100
AcDbLine
 10
119.5365466437
 20
166.9464057753
 30
0.0
 11
119.5365466437
 21
189.4464057753
 31
0.0
  0
LINE
  5
1CB
330
1F
100
AcDbEntity
  8
0
  6
Continuous
 62
     7
370
    25
100
AcDbLine
 10
127.5365466437
 20
190.1964057753
 30
0.0
 11
127.5365466437
 21
189.2753028164
 31
0.0
  0
LINE
  5
1CC
330
1F
100
AcDbEntity
  8
0
  6
Continuous
 62
     7
370
    25
100
AcDbLine
 10
127.5365466437
 20
190.1964057753
 30
0.0
 11
127.6705212399
 21
190.1964057753
 31
0.0
  0
LINE
  5
1CD
330
1F
100
AcDbEntity
  8
0
  6
Continuous
 62
     7
370
    25
100
AcDbLine
 10
127.5365466437
 20
190.1964057753
 30
0.0
 11
127.4025720475
 21
190.1964057753
 31
0.0
  0
LINE
  5
1CE
330
1F
100
AcDbEntity
  8
0
  6
Continuous
 62
     7
370
    25
100
AcDbLine
 10
127.6705212399
 20
166.1964057753
 30
0.0
 11
127.5365466437
 21
166.1964057753
 31
0.0
  0
LINE
  5
1CF
330
1F
100
AcDbEntity
  8
0
  6
Continuous
 62
     7
370
    25
100
AcDbLine
 10
127.5365466437
 20
167.1175087341
 30
0.0
 11
127.5365466437
 21
166.1964057753
 31
0.0
  0
LINE
  5
1D0
330
1F
100
AcDbEntity
  8
0
  6
Continuous
 62
     7
370
    25
100
AcDbLine
 10
127.4025720475
 20
166.1964057753
 30
0.0
 11
127.5365466437
 21
166.1964057753
 31
0.0
  0
CIRCLE
  5
1D1
330
1F
100
AcDbEntity
  8
0
  6
Continuous
 62
     7
370
    25
100
AcDbCircle
 10
102.134622855
 20
178.1964057753
 30
0.0
 40
8.75
  0
CIRCLE
  5
1D2
330
1F
100
AcDbEntity
  8
0
  6
Continuous
 62
     7
370
    25
100
AcDbCircle
 10
102.134622855
 20
178.1964057753
 30
0.0
 40
10.30676222727978
  0
CIRCLE
  5
1D3
330
1F
100
AcDbEntity
  8
0
  6
Continuous
 62
     7
370
    25
100
AcDbCircle
 10
102.134622855
 20
178.1964057753
 30
0.0
 40
6.999999999999972
  0
CIRCLE
  5
1D4
330
1F
100
AcDbEntity
  8
0
  6
Continuous
 62
     7
370
    25
100
AcDbCircle
 10
102.134622855
 20
178.1964057753
 30
0.0
 40
6.5
  0
CIRCLE
  5
1D5
330
1F
100
AcDbEntity
  8
0
  6
Continuous
 62
     7
370
    25
100
AcDbCircle
 10
102.134622855
 20
178.1964057753
 30
0.0
 40
10.64938692329201
  0
LINE
  5
1D6
330
1F
100
AcDbEntity
  8
0
  6
Continuous
 62
     7
370
    25
100
AcDbLine
 10
117.2926287369
 20
167.7189057753
 30
0.0
 11
117.2926287369
 21
188.6739057753
 31
0.0
  0
SPLINE
  5
1D7
330
1F
100
AcDbEntity
  8
0
  6
Continuous
 62
     7
370
    25
100
AcDbSpline
210
0.0
220
0.0
230
1.0
 70
    24
 71
     3
 72
     8
 73
     4
 74
     0
 42
0.000000001
 43
0.00000001
 40
0.0
 40
0.0
 40
0.0
 40
0.0
 40
1.0
 40
1.0
 40
1.0
 40
1.0
 10
110.6346228550202
 20
170.1964057752753
 30
0.0
 10
110.6346228550202
 20
169.8663795216605
 30
0.0
 10
110.6346228550202
 20
169.6964057752753
 30
0.0
 10
110.6346228550202
 20
169.6964057752753
 30
0.0
  0
SPLINE
  5
1D8
330
1F
100
AcDbEntity
  8
0
  6
Continuous
 62
     7
370
    25
100
AcDbSpline
210
0.0
220
0.0
230
1.0
 70
    24
 71
     3
 72
     8
 73
     4
 74
     0
 42
0.000000001
 43
0.00000001
 40
0.0
 40
0.0
 40
0.0
 40
0.0
 40
1.0
 40
1.0
 40
1.0
 40
1.0
 10
110.6346228550202
 20
186.6964057752753
 30
0.0
 10
110.6346228550202
 20
186.6964057752753
 30
0.0
 10
110.6346228550202
 20
186.5264320288901
 30
0.0
 10
110.6346228550202
 20
186.1964057752753
 30
0.0
  0
ARC
  5
1D9
330
1F
100
AcDbEntity
  8
0
  6
Continuous
 62
     7
370
    25
100
AcDbCircle
 10
108.634622855
 20
170.1964057753
 30
0.0
 40
0.5
100
AcDbArc
 50
270.0
 51
0.0
  0
LINE
  5
1DA
330
1F
100
AcDbEntity
  8
0
  6
Continuous
 62
     7
370
    25
100
AcDbLine
 10
108.5501853278
 20
169.6964057753
 30
0.0
 11
108.634622855
 21
169.6964057753
 31
0.0
  0
LINE
  5
1DB
330
1F
100
AcDbEntity
  8
0
  6
Continuous
 62
     7
370
    25
100
AcDbLine
 10
95.7190603823
 20
186.6964057753
 30
0.0
 11
95.634622855
 21
186.6964057753
 31
0.0
  0
LINE
  5
1DC
330
1F
100
AcDbEntity
  8
0
  6
Continuous
 62
     7
370
    25
100
AcDbLine
 10
95.634622855
 20
169.6964057753
 30
0.0
 11
95.7190603823
 21
169.6964057753
 31
0.0
  0
ARC
  5
1DD
330
1F
100
AcDbEntity
  8
0
  6
Continuous
 62
     7
370
    25
100
AcDbCircle
 10
108.634622855
 20
186.1964057753
 30
0.0
 40
0.5
100
AcDbArc
 50
0.0
 51
90.0
  0
LINE
  5
1DE
330
1F
100
AcDbEntity
  8
0
  6
Continuous
 62
     7
370
    25
100
AcDbLine
 10
108.634622855
 20
186.6964057753
 30
0.0
 11
108.5501853278
 21
186.6964057753
 31
0.0
  0
ARC
  5
1DF
330
1F
100
AcDbEntity
  8
0
  6
Continuous
 62
     7
370
    25
100
AcDbCircle
 10
95.634622855
 20
186.1964057753
 30
0.0
 40
0.5000000000000014
100
AcDbArc
 50
90.0
 51
177.0025302101
  0
ARC
  5
1E0
330
1F
100
AcDbEntity
  8
0
  6
Continuous
 62
     7
370
    25
100
AcDbCircle
 10
95.634622855
 20
170.1964057753
 30
0.0
 40
0.5
100
AcDbArc
 50
182.9974697899
 51
270.0
  0
LINE
  5
1E1
330
1F
100
AcDbEntity
  8
0
  6
Continuous
 62
     7
370
    25
100
AcDbLine
 10
110.134622855
 20
186.6964057753
 30
0.0
 11
110.134622855
 21
186.1964057753
 31
0.0
  0
LINE
  5
1E2
330
1F
100
AcDbEntity
  8
0
  6
Continuous
 62
     7
370
    25
100
AcDbLine
 10
110.134622855
 20
186.6964057753
 30
0.0
 11
108.634622855
 21
186.6964057753
 31
0.0
  0
LINE
  5
1E3
330
1F
100
AcDbEntity
  8
0
  6
Continuous
 62
     7
370
    25
100
AcDbLine
 10
110.134622855
 20
169.6964057753
 30
0.0
 11
110.134622855
 21
170.1964057753
 31
0.0
  0
LINE
  5
1E4
330
1F
100
AcDbEntity
  8
0
  6
Continuous
 62
     7
370
    25
100
AcDbLine
 10
108.634622855
 20
169.6964057753
 30
0.0
 11
110.134622855
 21
169.6964057753
 31
0.0
  0
ARC
  5
1E5
330
1F
100
AcDbEntity
  8
0
  6
Continuous
 62
     7
370
    25
100
AcDbCircle
 10
110.134622855
 20
186.1964057753
 30
0.0
 40
0.5
100
AcDbArc
 50
0.0
 51
90.0
  0
LINE
  5
1E6
330
1F
100
AcDbEntity
  8
0
  6
Continuous
 62
     7
370
    25
100
AcDbLine
 10
110.134622855
 20
186.1964057753
 30
0.0
 11
110.634622855
 21
186.1964057753
 31
0.0
  0
LINE
  5
1E7
330
1F
100
AcDbEntity
  8
0
  6
Continuous
 62
     7
370
    25
100
AcDbLine
 10
110.634622855
 20
184.611968248
 30
0.0
 11
110.634622855
 21
186.1964057753
 31
0.0
  0
LINE
  5
1E8
330
1F
100
AcDbEntity
  8
0
  6
Continuous
 62
     7
370
    25
100
AcDbLine
 10
110.634622855
 20
170.1964057753
 30
0.0
 11
110.634622855
 21
171.7808433025
 31
0.0
  0
LINE
  5
1E9
330
1F
100
AcDbEntity
  8
0
  6
Continuous
 62
     7
370
    25
100
AcDbLine
 10
110.134622855
 20
170.1964057753
 30
0.0
 11
110.634622855
 21
170.1964057753
 31
0.0
  0
ARC
  5
1EA
330
1F
100
AcDbEntity
  8
0
  6
Continuous
 62
     7
370
    25
100
AcDbCircle
 10
110.134622855
 20
170.1964057753
 30
0.0
 40
0.5
100
AcDbArc
 50
270.0
 51
0.0
  0
SPLINE
  5
1EB
330
1F
100
AcDbEntity
  8
0
  6
Continuous
 62
     7
370
    25
100
AcDbSpline
210
0.0
220
0.0
230
1.0
 70
     8
 71
     3
 72
    52
 73
    48
 74
     0
 42
0.000000001
 43
0.00000001
 40
0.0
 40
0.0
 40
0.0
 40
0.0
 40
0.1249999999999999
 40
0.1249999999999999
 40
0.1874999999999998
 40
0.1874999999999998
 40
0.2499999999999998
 40
0.2499999999999998
 40
0.2812499999999998
 40
0.2812499999999998
 40
0.3124999999999998
 40
0.3124999999999998
 40
0.3281249999999998
 40
0.3281249999999998
 40
0.3437499999999998
 40
0.3437499999999998
 40
0.3749999999999998
 40
0.3749999999999998
 40
0.4062499999999997
 40
0.4062499999999997
 40
0.4374999999999997
 40
0.4374999999999997
 40
0.4687499999999997
 40
0.4687499999999997
 40
0.4999999999999997
 40
0.4999999999999997
 40
0.5624999999999996
 40
0.5624999999999996
 40
0.5937499999999996
 40
0.5937499999999996
 40
0.6249999999999996
 40
0.6249999999999996
 40
0.6562499999999996
 40
0.6562499999999996
 40
0.6718749999999996
 40
0.6718749999999996
 40
0.6874999999999994
 40
0.6874999999999994
 40
0.7187499999999996
 40
0.7187499999999996
 40
0.7499999999999997
 40
0.7499999999999997
 40
0.8124999999999997
 40
0.8124999999999997
 40
0.8749999999999998
 40
0.8749999999999998
 40
1.0
 40
1.0
 40
1.0
 40
1.0
 10
106.7443950836667
 20
182.7789814702312
 30
0.0
 10
106.1762635883048
 20
182.6493568139538
 30
0.0
 10
105.6164536505272
 20
182.487755895324
 30
0.0
 10
104.7965600999841
 20
182.1782928944122
 30
0.0
 10
104.5262571966043
 20
182.0637736481518
 30
0.0
 10
103.9979750348685
 20
181.8032894537984
 30
0.0
 10
103.7413664860297
 20
181.6597419288483
 30
0.0
 10
103.3859235248099
 20
181.4035854638381
 30
0.0
 10
103.2712534535206
 20
181.3104784568765
 30
0.0
 10
103.0725041061095
 20
181.1007333685717
 30
0.0
 10
102.9864389255655
 20
180.9812559510339
 30
0.0
 10
102.9283352277296
 20
180.7771392500846
 30
0.0
 10
102.9215885157038
 20
180.7049664755691
 30
0.0
 10
102.9318341012188
 20
180.5616196331632
 30
0.0
 10
102.9484113890755
 20
180.4887453573973
 30
0.0
 10
103.0150026842686
 20
180.2765127731615
 30
0.0
 10
103.080018550648
 20
180.1392247969483
 30
0.0
 10
103.2107485107225
 20
179.8598567416914
 30
0.0
 10
103.2778698622001
 20
179.717625370445
 30
0.0
 10
103.3996822019147
 20
179.427111841258
 30
0.0
 10
103.4547185453578
 20
179.2788801741861
 30
0.0
 10
103.5460478951657
 20
178.9742539344348
 30
0.0
 10
103.5824418308701
 20
178.8178883669333
 30
0.0
 10
103.6313047674974
 20
178.4950958231811
 30
0.0
 10
103.6431912849275
 20
178.3303326144403
 30
0.0
 10
103.6385622229873
 20
177.8424611894551
 30
0.0
 10
103.5795354775529
 20
177.514958936735
 30
0.0
 10
103.4350792285358
 20
177.0583898707046
 30
0.0
 10
103.3779269089638
 20
176.9106184525977
 30
0.0
 10
103.2532767996116
 20
176.6212409997383
 30
0.0
 10
103.1854041660491
 20
176.4797510036611
 30
0.0
 10
103.0557203512438
 20
176.2003299650538
 30
0.0
 10
102.9920285366235
 20
176.061089117132
 30
0.0
 10
102.935892569265
 20
175.8488472643859
 30
0.0
 10
102.9243078082255
 20
175.7763479645895
 30
0.0
 10
102.9257296995712
 20
175.6347301411919
 30
0.0
 10
102.9389559510946
 20
175.5649888353126
 30
0.0
 10
103.0133227295853
 20
175.3671502441984
 30
0.0
 10
103.1045908901766
 20
175.2531304092571
 30
0.0
 10
103.30682770579
 20
175.0520026814613
 30
0.0
 10
103.4202500393618
 20
174.9626592018535
 30
0.0
 10
103.7771022843833
 20
174.7119290485129
 30
0.0
 10
104.0308256727306
 20
174.5720777199937
 30
0.0
 10
104.5491449259835
 20
174.3191411513874
 30
0.0
 10
104.8148675450557
 20
174.2071587662008
 30
0.0
 10
105.6247181672298
 20
173.9028745246965
 30
0.0
 10
106.1822285132551
 20
173.7420937816899
 30
0.0
 10
106.7443950836667
 20
173.6138300803195
 30
0.0
  0
SPLINE
  5
1EC
330
1F
100
AcDbEntity
  8
0
  6
Continuous
 62
     7
370
    25
100
AcDbSpline
210
0.0
220
0.0
230
1.0
 70
    24
 71
     3
 72
    10
 73
     6
 74
     0
 42
0.000000001
 43
0.00000001
 40
-0.2904940295525288
 40
-0.2904940295525288
 40
-0.2904940295525288
 40
-0.2904940295525288
 40
-0.1303072746364131
 40
-0.1303072746364131
 40
0.0010563617272233
 40
0.0010563617272233
 40
0.0010563617272233
 40
0.0010563617272233
 10
110.6346228550202
 20
186.6964057752753
 30
0.0
 10
110.5051195392666
 20
186.6964057752753
 30
0.0
 10
110.3733285610807
 20
186.6964057752753
 30
0.0
 10
110.1949046216555
 20
186.6964057752753
 30
0.0
 10
110.1346228550202
 20
186.6964057752753
 30
0.0
 10
110.1346228550202
 20
186.6964057752753
 30
0.0
  0
SPLINE
  5
1ED
330
1F
100
AcDbEntity
  8
0
  6
Continuous
 62
     7
370
    25
100
AcDbSpline
210
0.0
220
0.0
230
1.0
 70
    24
 71
     3
 72
    10
 73
     6
 74
     0
 42
0.000000001
 43
0.00000001
 40
-0.8711658421011628
 40
-0.8711658421011628
 40
-0.8711658421011628
 40
-0.8711658421011628
 40
-0.739802205737527
 40
-0.739802205737527
 40
-0.579615450786466
 40
-0.579615450786466
 40
-0.579615450786466
 40
-0.579615450786466
 10
110.1346228550202
 20
169.6964057752753
 30
0.0
 10
110.1346228550202
 20
169.6964057752753
 30
0.0
 10
110.1949046216555
 20
169.6964057752753
 30
0.0
 10
110.3733285611021
 20
169.6964057752753
 30
0.0
 10
110.5051195392382
 20
169.6964057752753
 30
0.0
 10
110.6346228550202
 20
169.6964057752753
 30
0.0
  0
SPLINE
  5
1EE
330
1F
100
AcDbEntity
  8
0
  6
Continuous
 62
     7
370
    25
100
AcDbSpline
210
0.0
220
0.0
230
1.0
 70
     8
 71
     3
 72
    14
 73
    10
 74
     0
 42
0.000000001
 43
0.00000001
 40
0.0
 40
0.0
 40
0.0
 40
0.0
 40
0.25
 40
0.25
 40
0.5
 40
0.5
 40
0.75
 40
0.75
 40
1.0
 40
1.0
 40
1.0
 40
1.0
 10
101.1346228550202
 20
175.2280239297618
 30
0.0
 10
101.2017589963481
 20
175.3045269093431
 30
0.0
 10
101.2594511652568
 20
175.3867655913596
 30
0.0
 10
101.3359152778687
 20
175.5717033668224
 30
0.0
 10
101.3506536921884
 20
175.6718879788208
 30
0.0
 10
101.3321633011697
 20
175.8748340734867
 30
0.0
 10
101.3019805345899
 20
175.9743439758525
 30
0.0
 10
101.225975370552
 20
176.1734114414885
 30
0.0
 10
101.1807053605336
 20
176.2715018807327
 30
0.0
 10
101.1346228550201
 20
176.3702465952699
 30
0.0
  0
SPLINE
  5
1EF
330
1F
100
AcDbEntity
  8
0
  6
Continuous
 62
     7
370
    25
100
AcDbSpline
210
0.0
220
0.0
230
1.0
 70
     8
 71
     3
 72
     8
 73
     4
 74
     0
 42
0.000000001
 43
0.00000001
 40
0.0
 40
0.0
 40
0.0
 40
0.0
 40
1.0
 40
1.0
 40
1.0
 40
1.0
 10
101.1346228550202
 20
176.37024659527
 30
0.0
 10
101.1004251609491
 20
175.9895792269325
 30
0.0
 10
101.1004600679652
 20
175.6088100019664
 30
0.0
 10
101.1346228550202
 20
175.2280239297618
 30
0.0
  0
SPLINE
  5
1F0
330
1F
100
AcDbEntity
  8
0
  6
Continuous
 62
     7
370
    25
100
AcDbSpline
210
0.0
220
0.0
230
1.0
 70
     8
 71
     3
 72
    14
 73
    10
 74
     0
 42
0.000000001
 43
0.00000001
 40
0.0
 40
0.0
 40
0.0
 40
0.0
 40
0.25
 40
0.25
 40
0.5
 40
0.5
 40
0.75
 40
0.75
 40
1.0
 40
1.0
 40
1.0
 40
1.0
 10
101.1346228550202
 20
180.0225649552806
 30
0.0
 10
101.1808397452446
 20
180.121597626815
 30
0.0
 10
101.2260858591936
 20
180.2197312760179
 30
0.0
 10
101.3016521933122
 20
180.4175659435268
 30
0.0
 10
101.3323194699939
 20
180.5191122864196
 30
0.0
 10
101.3505656780893
 20
180.7205389734898
 30
0.0
 10
101.3355794678626
 20
180.8218565580787
 30
0.0
 10
101.2599122917727
 20
181.0049943860115
 30
0.0
 10
101.2011305451717
 20
181.0890007739278
 30
0.0
 10
101.1346228550202
 20
181.1647876207889
 30
0.0
  0
SPLINE
  5
1F1
330
1F
100
AcDbEntity
  8
0
  6
Continuous
 62
     7
370
    25
100
AcDbSpline
210
0.0
220
0.0
230
1.0
 70
     8
 71
     3
 72
     8
 73
     4
 74
     0
 42
0.000000001
 43
0.00000001
 40
0.0
 40
0.0
 40
0.0
 40
0.0
 40
1.0
 40
1.0
 40
1.0
 40
1.0
 10
101.1346228550202
 20
181.1647876207889
 30
0.0
 10
101.1004600679652
 20
180.7840015485842
 30
0.0
 10
101.1004251609491
 20
180.4032323236182
 30
0.0
 10
101.1346228550202
 20
180.0225649552806
 30
0.0
  0
LINE
  5
1F2
330
1F
100
AcDbEntity
  8
0
  6
Continuous
 62
     7
370
    25
100
AcDbLine
 10
101.134622855
 20
180.0225649553
 30
0.0
 11
101.134622855
 21
181.1647876208
 31
0.0
  0
LINE
  5
1F3
330
1F
100
AcDbEntity
  8
0
  6
Continuous
 62
     7
370
    25
100
AcDbLine
 10
101.134622855
 20
175.2280239298
 30
0.0
 11
101.134622855
 21
176.3702465953
 31
0.0
  0
LINE
  5
1F4
330
1F
100
AcDbEntity
  8
0
  6
Continuous
 62
     8
370
    25
100
AcDbLine
 10
160.1480090545
 20
186.1835447279
 30
0.0
 11
160.1480090545
 21
170.2092668227
 31
0.0
  0
LINE
  5
1F5
330
1F
100
AcDbEntity
  8
0
  6
Continuous
 62
     8
370
    25
100
AcDbLine
 10
151.1529865424
 20
186.1769991255
 30
0.0
 11
151.1529865424
 21
170.2158124251
 31
0.0
  0
LINE
  5
1F6
330
1F
100
AcDbEntity
  8
0
  6
Continuous
 62
     8
370
    25
100
AcDbLine
 10
146.6529865424
 20
186.1769991255
 30
0.0
 11
146.6529865424
 21
170.2158124251
 31
0.0
  0
LINE
  5
1F7
330
1F
100
AcDbEntity
  8
0
  6
Continuous
 62
     8
370
    25
100
AcDbLine
 10
155.6529865424
 20
186.1769991255
 30
0.0
 11
155.6529865424
 21
170.2158124251
 31
0.0
  0
LINE
  5
1F8
330
1F
100
AcDbEntity
  8
0
  6
Continuous
 62
     8
370
    25
100
AcDbLine
 10
116.8671942425
 20
178.1964057753
 30
0.0
 11
116.8671942425
 21
168.3214057753
 31
0.0
  0
LINE
  5
1F9
330
1F
100
AcDbEntity
  8
0
  6
Continuous
 62
     8
370
    25
100
AcDbLine
 10
116.8671942425
 20
188.0714057753
 30
0.0
 11
116.8671942425
 21
178.1964057753
 31
0.0
  0
LINE
  5
1FA
330
1F
100
AcDbEntity
  8
0
  6
Continuous
 62
     8
370
    25
100
AcDbLine
 10
114.634622855
 20
178.1964057753
 30
0.0
 11
114.634622855
 21
169.6964057753
 31
0.0
  0
LINE
  5
1FB
330
1F
100
AcDbEntity
  8
0
  6
Continuous
 62
     8
370
    25
100
AcDbLine
 10
114.634622855
 20
186.6964057753
 30
0.0
 11
114.634622855
 21
178.1964057753
 31
0.0
  0
LINE
  5
1FC
330
1F
100
AcDbEntity
  8
0
  6
Continuous
 62
     8
370
    25
100
AcDbLine
 10
95.634622855
 20
186.6964057753
 30
0.0
 11
95.634622855
 21
186.6320113755
 31
0.0
  0
LINE
  5
1FD
330
1F
100
AcDbEntity
  8
0
  6
Continuous
 62
     8
370
    25
100
AcDbLine
 10
95.634622855
 20
169.7608001751
 30
0.0
 11
95.634622855
 21
169.6964057753
 31
0.0
  0
LINE
  5
1FE
330
1F
100
AcDbEntity
  8
0
  6
Continuous
 62
     8
370
    25
100
AcDbLine
 10
110.134622855
 20
185.2255907808
 30
0.0
 11
110.134622855
 21
186.1964057753
 31
0.0
  0
LINE
  5
1FF
330
1F
100
AcDbEntity
  8
0
  6
Continuous
 62
     8
370
    25
100
AcDbLine
 10
109.1638078606
 20
186.1964057753
 30
0.0
 11
110.134622855
 21
186.1964057753
 31
0.0
  0
LINE
  5
200
330
1F
100
AcDbEntity
  8
0
  6
Continuous
 62
     8
370
    25
100
AcDbLine
 10
110.134622855
 20
170.1964057753
 30
0.0
 11
110.134622855
 21
171.1672207697
 31
0.0
  0
LINE
  5
201
330
1F
100
AcDbEntity
  8
0
  6
Continuous
 62
     8
370
    25
100
AcDbLine
 10
110.134622855
 20
170.1964057753
 30
0.0
 11
109.1638078606
 21
170.1964057753
 31
0.0
  0
INSERT
  5
20D
330
1F
100
AcDbEntity
  8
0
  6
Continuous
 62
     7
370
    18
100
AcDbBlockReference
  2
SW_CENTERMARKSYMBOL_1
 10
102.134622855
 20
178.1964057753
 30
0.0
  0
ENDSEC
  0
SECTION
  2
OBJECTS
  0
DICTIONARY
  5
C
330
0
100
AcDbDictionary
281
     1
  3
ACAD_GROUP
350
D
  3
ACAD_LAYOUT
350
1A
  3
ACAD_MLINESTYLE
350
17
  3
ACAD_PLOTSETTINGS
350
19
  3
ACAD_PLOTSTYLENAME
350
E
  3
ACAD_SCALELIST
350
47
  0
DICTIONARY
  5
D
102
{ACAD_REACTORS
330
C
102
}
330
C
100
AcDbDictionary
281
     1
  0
DICTIONARY
  5
1A
102
{ACAD_REACTORS
330
C
102
}
330
C
100
AcDbDictionary
281
     1
  3
Layout1
350
1E
  3
Layout2
350
26
  3
Model
350
22
  0
DICTIONARY
  5
17
102
{ACAD_REACTORS
330
C
102
}
330
C
100
AcDbDictionary
281
     1
  3
Standard
350
18
  0
DICTIONARY
  5
19
102
{ACAD_REACTORS
330
C
102
}
330
C
100
AcDbDictionary
281
     1
  0
ACDBDICTIONARYWDFLT
  5
E
102
{ACAD_REACTORS
330
C
102
}
330
C
100
AcDbDictionary
281
     1
  3
Normal
350
F
100
AcDbDictionaryWithDefault
340
F
  0
DICTIONARY
  5
47
102
{ACAD_REACTORS
330
C
102
}
330
C
100
AcDbDictionary
281
     1
  3
A0
350
48
  3
A1
350
49
  3
A2
350
4A
  3
A3
350
4B
  3
A4
350
4C
  3
A5
350
4D
  3
A6
350
4E
  3
A7
350
4F
  3
A8
350
50
  3
A9
350
51
  3
B0
350
52
  3
B1
350
53
  3
B2
350
54
  3
B3
350
55
  3
B4
350
56
  3
B5
350
57
  3
B6
350
58
  3
B7
350
59
  3
B8
350
5A
  3
B9
350
5B
  3
C0
350
5C
  3
C1
350
5D
  3
C2
350
5E
  3
C3
350
5F
  3
C4
350
60
  3
C5
350
61
  3
C6
350
62
  3
C7
350
63
  3
C8
350
64
  3
C9
350
65
  3
D0
350
66
  3
D1
350
67
  3
D2
350
68
  0
LAYOUT
  5
1E
102
{ACAD_REACTORS
330
1A
102
}
330
1A
100
AcDbPlotSettings
  1

  2
none_device
  4

  6

 40
0.0
 41
0.0
 42
0.0
 43
0.0
 44
0.0
 45
0.0
 46
0.0
 47
0.0
 48
0.0
 49
0.0
140
0.0
141
0.0
142
1.0
143
1.0
 70
   688
 72
     1
 73
     0
 74
     5
  7

 75
    16
147
1.0
148
0.0
149
0.0
100
AcDbLayout
  1
Layout1
 70
     1
 71
     1
 10
0.0
 20
0.0
 11
420.0
 21
297.0
 12
0.0
 22
0.0
 32
0.0
 14
1.0000000000E+20
 24
1.0000000000E+20
 34
1.0000000000E+20
 15
-1.0000000000E+20
 25
-1.0000000000E+20
 35
-1.0000000000E+20
146
0.0
 13
0.0
 23
0.0
 33
0.0
 16
1.0
 26
0.0
 36
0.0
 17
0.0
 27
1.0
 37
0.0
 76
     0
330
1B
  0
LAYOUT
  5
26
102
{ACAD_REACTORS
330
1A
102
}
330
1A
100
AcDbPlotSettings
  1

  2
none_device
  4

  6

 40
0.0
 41
0.0
 42
0.0
 43
0.0
 44
0.0
 45
0.0
 46
0.0
 47
0.0
 48
0.0
 49
0.0
140
0.0
141
0.0
142
1.0
143
1.0
 70
   688
 72
     1
 73
     0
 74
     5
  7

 75
    16
147
1.0
148
0.0
149
0.0
100
AcDbLayout
  1
Layout2
 70
     1
 71
     2
 10
0.0
 20
0.0
 11
0.0
 21
0.0
 12
0.0
 22
0.0
 32
0.0
 14
0.0
 24
0.0
 34
0.0
 15
0.0
 25
0.0
 35
0.0
146
0.0
 13
0.0
 23
0.0
 33
0.0
 16
1.0
 26
0.0
 36
0.0
 17
0.0
 27
1.0
 37
0.0
 76
     0
330
23
  0
LAYOUT
  5
22
102
{ACAD_REACTORS
330
1A
102
}
330
1A
100
AcDbPlotSettings
  1

  2
none_device
  4
Letter_(8.50_x_11.00_Inches)
  6

 40
6.35
 41
6.35
 42
6.35000508
 43
6.35000508
 44
215.9
 45
279.4
 46
0.0
 47
0.0
 48
0.0
 49
0.0
140
0.0
141
0.0
142
1.0
143
1.0
 70
  1712
 72
     1
 73
     0
 74
     0
  7

 75
     0
147
1.0
148
0.0
149
0.0
100
AcDbLayout
  1
Model
 70
     1
 71
     0
 10
0.0
 20
0.0
 11
431.8
 21
279.4
 12
0.0
 22
0.0
 32
0.0
 14
0.0
 24
0.0
 34
0.0
 15
431.8
 25
279.4
 35
0.0
146
0.0
 13
0.0
 23
0.0
 33
0.0
 16
1.0
 26
0.0
 36
0.0
 17
0.0
 27
1.0
 37
0.0
 76
     0
330
1F
331
29
  0
MLINESTYLE
  5
18
102
{ACAD_REACTORS
330
17
102
}
330
17
100
AcDbMlineStyle
  2
Standard
 70
     0
  3

 62
   256
 51
90.0
 52
90.0
 71
     2
 49
0.5
 62
   256
  6
BYLAYER
 49
-0.5
 62
   256
  6
BYLAYER
  0
ACDBPLACEHOLDER
  5
F
102
{ACAD_REACTORS
330
E
102
}
330
E
  0
SCALE
  5
48
102
{ACAD_REACTORS
330
47
102
}
330
47
100
AcDbScale
 70
     0
300
1:1
140
1.0
141
1.0
290
     1
  0
SCALE
  5
49
102
{ACAD_REACTORS
330
47
102
}
330
47
100
AcDbScale
 70
     0
300
1:2
140
1.0
141
2.0
290
     0
  0
SCALE
  5
4A
102
{ACAD_REACTORS
330
47
102
}
330
47
100
AcDbScale
 70
     0
300
1:4
140
1.0
141
4.0
290
     0
  0
SCALE
  5
4B
102
{ACAD_REACTORS
330
47
102
}
330
47
100
AcDbScale
 70
     0
300
1:5
140
1.0
141
5.0
290
     0
  0
SCALE
  5
4C
102
{ACAD_REACTORS
330
47
102
}
330
47
100
AcDbScale
 70
     0
300
1:8
140
1.0
141
8.0
290
     0
  0
SCALE
  5
4D
102
{ACAD_REACTORS
330
47
102
}
330
47
100
AcDbScale
 70
     0
300
1:10
140
1.0
141
10.0
290
     0
  0
SCALE
  5
4E
102
{ACAD_REACTORS
330
47
102
}
330
47
100
AcDbScale
 70
     0
300
1:16
140
1.0
141
16.0
290
     0
  0
SCALE
  5
4F
102
{ACAD_REACTORS
330
47
102
}
330
47
100
AcDbScale
 70
     0
300
1:20
140
1.0
141
20.0
290
     0
  0
SCALE
  5
50
102
{ACAD_REACTORS
330
47
102
}
330
47
100
AcDbScale
 70
     0
300
1:30
140
1.0
141
30.0
290
     0
  0
SCALE
  5
51
102
{ACAD_REACTORS
330
47
102
}
330
47
100
AcDbScale
 70
     0
300
1:40
140
1.0
141
40.0
290
     0
  0
SCALE
  5
52
102
{ACAD_REACTORS
330
47
102
}
330
47
100
AcDbScale
 70
     0
300
1:50
140
1.0
141
50.0
290
     0
  0
SCALE
  5
53
102
{ACAD_REACTORS
330
47
102
}
330
47
100
AcDbScale
 70
     0
300
1:100
140
1.0
141
100.0
290
     0
  0
SCALE
  5
54
102
{ACAD_REACTORS
330
47
102
}
330
47
100
AcDbScale
 70
     0
300
2:1
140
2.0
141
1.0
290
     0
  0
SCALE
  5
55
102
{ACAD_REACTORS
330
47
102
}
330
47
100
AcDbScale
 70
     0
300
4:1
140
4.0
141
1.0
290
     0
  0
SCALE
  5
56
102
{ACAD_REACTORS
330
47
102
}
330
47
100
AcDbScale
 70
     0
300
8:1
140
8.0
141
1.0
290
     0
  0
SCALE
  5
57
102
{ACAD_REACTORS
330
47
102
}
330
47
100
AcDbScale
 70
     0
300
10:1
140
10.0
141
1.0
290
     0
  0
SCALE
  5
58
102
{ACAD_REACTORS
330
47
102
}
330
47
100
AcDbScale
 70
     0
300
100:1
140
100.0
141
1.0
290
     0
  0
SCALE
  5
59
102
{ACAD_REACTORS
330
47
102
}
330
47
100
AcDbScale
 70
     0
300
1/128" = 1'-0"
140
0.0078125
141
12.0
290
     0
  0
SCALE
  5
5A
102
{ACAD_REACTORS
330
47
102
}
330
47
100
AcDbScale
 70
     0
300
1/64" = 1'-0"
140
0.015625
141
12.0
290
     0
  0
SCALE
  5
5B
102
{ACAD_REACTORS
330
47
102
}
330
47
100
AcDbScale
 70
     0
300
1/32" = 1'-0"
140
0.03125
141
12.0
290
     0
  0
SCALE
  5
5C
102
{ACAD_REACTORS
330
47
102
}
330
47
100
AcDbScale
 70
     0
300
1/16" = 1'-0"
140
0.0625
141
12.0
290
     0
  0
SCALE
  5
5D
102
{ACAD_REACTORS
330
47
102
}
330
47
100
AcDbScale
 70
     0
300
3/32" = 1'-0"
140
0.09375
141
12.0
290
     0
  0
SCALE
  5
5E
102
{ACAD_REACTORS
330
47
102
}
330
47
100
AcDbScale
 70
     0
300
1/8" = 1'-0"
140
0.125
141
12.0
290
     0
  0
SCALE
  5
5F
102
{ACAD_REACTORS
330
47
102
}
330
47
100
AcDbScale
 70
     0
300
3/16" = 1'-0"
140
0.1875
141
12.0
290
     0
  0
SCALE
  5
60
102
{ACAD_REACTORS
330
47
102
}
330
47
100
AcDbScale
 70
     0
300
1/4" = 1'-0"
140
0.25
141
12.0
290
     0
  0
SCALE
  5
61
102
{ACAD_REACTORS
330
47
102
}
330
47
100
AcDbScale
 70
     0
300
3/8" = 1'-0"
140
0.375
141
12.0
290
     0
  0
SCALE
  5
62
102
{ACAD_REACTORS
330
47
102
}
330
47
100
AcDbScale
 70
     0
300
1/2" = 1'-0"
140
0.5
141
12.0
290
     0
  0
SCALE
  5
63
102
{ACAD_REACTORS
330
47
102
}
330
47
100
AcDbScale
 70
     0
300
3/4" = 1'-0"
140
0.75
141
12.0
290
     0
  0
SCALE
  5
64
102
{ACAD_REACTORS
330
47
102
}
330
47
100
AcDbScale
 70
     0
300
1" = 1'-0"
140
1.0
141
12.0
290
     0
  0
SCALE
  5
65
102
{ACAD_REACTORS
330
47
102
}
330
47
100
AcDbScale
 70
     0
300
1-1/2" = 1'-0"
140
1.5
141
12.0
290
     0
  0
SCALE
  5
66
102
{ACAD_REACTORS
330
47
102
}
330
47
100
AcDbScale
 70
     0
300
3" = 1'-0"
140
3.0
141
12.0
290
     0
  0
SCALE
  5
67
102
{ACAD_REACTORS
330
47
102
}
330
47
100
AcDbScale
 70
     0
300
6" = 1'-0"
140
6.0
141
12.0
290
     0
  0
SCALE
  5
68
102
{ACAD_REACTORS
330
47
102
}
330
47
100
AcDbScale
 70
     0
300
1'-0" = 1'-0"
140
12.0
141
12.0
290
     0
  0
ENDSEC
  0
EOF
