  0
SECTION
  2
HEADER
  9
$ACADVER
  1
AC1015
  9
$ACADMAINTVER
 70
     6
  9
$DWGCODEPAGE
  3
DOS932
  9
$INSBASE
 10
0.0
 20
0.0
 30
0.0
  9
$EXTMIN
 10
0.0
 20
0.0
 30
0.0
  9
$EXTMAX
 10
431.8
 20
279.4
 30
0.0
  9
$LIMMIN
 10
0.0
 20
0.0
  9
$LIMMAX
 10
431.8
 20
279.4
  9
$ORTHOMODE
 70
     0
  9
$REGENMODE
 70
     1
  9
$FILLMODE
 70
     1
  9
$QTEXTMODE
 70
     0
  9
$MIRRTEXT
 70
     1
  9
$LTSCALE
 40
1.0
  9
$ATTMODE
 70
     1
  9
$TEXTSIZE
 40
3.5
  9
$TRACEWID
 40
1.0
  9
$TEXTSTYLE
  7
Standard
  9
$CLAYER
  8
0
  9
$CELTYPE
  6
ByLayer
  9
$CECOLOR
 62
   256
  9
$CELTSCALE
 40
1.0
  9
$DISPSILH
 70
     0
  9
$DIMSCALE
 40
1.0
  9
$DIMASZ
 40
3.302
  9
$DIMEXO
 40
1.0
  9
$DIMDLI
 40
3.75
  9
$DIMRND
 40
0.0
  9
$DIMDLE
 40
0.0
  9
$DIMEXE
 40
1.0
  9
$DIMTP
 40
0.0
  9
$DIMTM
 40
0.0
  9
$DIMTXT
 40
3.5
  9
$DIMCEN
 40
2.5
  9
$DIMTSZ
 40
0.0
  9
$DIMTOL
 70
     0
  9
$DIMLIM
 70
     0
  9
$DIMTIH
 70
     1
  9
$DIMTOH
 70
     1
  9
$DIMSE1
 70
     0
  9
$DIMSE2
 70
     0
  9
$DIMTAD
 70
     1
  9
$DIMZIN
 70
     1
  9
$DIMBLK
  1

  9
$DIMASO
 70
     1
  9
$DIMSHO
 70
     1
  9
$DIMPOST
  1

  9
$DIMAPOST
  1

  9
$DIMALT
 70
     0
  9
$DIMALTD
 70
     3
  9
$DIMALTF
 40
0.0393700787
  9
$DIMLFAC
 40
1.0
  9
$DIMTOFL
 70
     1
  9
$DIMTVP
 40
0.0
  9
$DIMTIX
 70
     0
  9
$DIMSOXD
 70
     0
  9
$DIMSAH
 70
     0
  9
$DIMBLK1
  1

  9
$DIMBLK2
  1

  9
$DIMSTYLE
  2
ISO-25
  9
$DIMCLRD
 70
     0
  9
$DIMCLRE
 70
     0
  9
$DIMCLRT
 70
     0
  9
$DIMTFAC
 40
1.0
  9
$DIMGAP
 40
1.524
  9
$DIMJUST
 70
     0
  9
$DIMSD1
 70
     0
  9
$DIMSD2
 70
     0
  9
$DIMTOLJ
 70
     0
  9
$DIMTZIN
 70
     1
  9
$DIMALTZ
 70
     0
  9
$DIMALTTZ
 70
     0
  9
$DIMUPT
 70
     0
  9
$DIMDEC
 70
     2
  9
$DIMTDEC
 70
     2
  9
$DIMALTU
 70
     2
  9
$DIMALTTD
 70
     3
  9
$DIMTXSTY
  7
Standard
  9
$DIMAUNIT
 70
     0
  9
$DIMADEC
 70
     2
  9
$DIMALTRND
 40
0.0
  9
$DIMAZIN
 70
     0
  9
$DIMDSEP
 70
    44
  9
$DIMATFIT
 70
     3
  9
$DIMFRAC
 70
     0
  9
$DIMLDRBLK
  1

  9
$DIMLUNIT
 70
     2
  9
$DIMLWD
 70
    -2
  9
$DIMLWE
 70
    -2
  9
$DIMTMOVE
 70
     0
  9
$LUNITS
 70
     2
  9
$LUPREC
 70
     2
  9
$SKETCHINC
 40
1.0
  9
$FILLETRAD
 40
10.0
  9
$AUNITS
 70
     0
  9
$AUPREC
 70
     2
  9
$MENU
  1
.
  9
$ELEVATION
 40
0.0
  9
$PELEVATION
 40
0.0
  9
$THICKNESS
 40
0.0
  9
$LIMCHECK
 70
     0
  9
$CHAMFERA
 40
0.0
  9
$CHAMFERB
 40
0.0
  9
$CHAMFERC
 40
0.0
  9
$CHAMFERD
 40
0.0
  9
$SKPOLY
 70
     0
  9
$TDCREATE
 40
2459296.643832593
  9
$TDUCREATE
 40
2459296.268832593
  9
$TDUPDATE
 40
2459296.643833148
  9
$TDUUPDATE
 40
2459296.268833148
  9
$TDINDWG
 40
0.0000000116
  9
$TDUSRTIMER
 40
0.0000000116
  9
$USRTIMER
 70
     1
  9
$ANGBASE
 50
0.0
  9
$ANGDIR
 70
     0
  9
$PDMODE
 70
     0
  9
$PDSIZE
 40
-1.0
  9
$PLINEWID
 40
0.0
  9
$SPLFRAME
 70
     0
  9
$SPLINETYPE
 70
     6
  9
$SPLINESEGS
 70
     8
  9
$HANDSEED
  5
1F5
  9
$SURFTAB1
 70
     6
  9
$SURFTAB2
 70
     6
  9
$SURFTYPE
 70
     6
  9
$SURFU
 70
     6
  9
$SURFV
 70
     6
  9
$UCSBASE
  2

  9
$UCSNAME
  2

  9
$UCSORG
 10
0.0
 20
0.0
 30
0.0
  9
$UCSXDIR
 10
1.0
 20
0.0
 30
0.0
  9
$UCSYDIR
 10
0.0
 20
1.0
 30
0.0
  9
$UCSORTHOREF
  2

  9
$UCSORTHOVIEW
 70
     0
  9
$UCSORGTOP
 10
0.0
 20
0.0
 30
0.0
  9
$UCSORGBOTTOM
 10
0.0
 20
0.0
 30
0.0
  9
$UCSORGLEFT
 10
0.0
 20
0.0
 30
0.0
  9
$UCSORGRIGHT
 10
0.0
 20
0.0
 30
0.0
  9
$UCSORGFRONT
 10
0.0
 20
0.0
 30
0.0
  9
$UCSORGBACK
 10
0.0
 20
0.0
 30
0.0
  9
$PUCSBASE
  2

  9
$PUCSNAME
  2

  9
$PUCSORG
 10
0.0
 20
0.0
 30
0.0
  9
$PUCSXDIR
 10
1.0
 20
0.0
 30
0.0
  9
$PUCSYDIR
 10
0.0
 20
1.0
 30
0.0
  9
$PUCSORTHOREF
  2

  9
$PUCSORTHOVIEW
 70
     0
  9
$PUCSORGTOP
 10
0.0
 20
0.0
 30
0.0
  9
$PUCSORGBOTTOM
 10
0.0
 20
0.0
 30
0.0
  9
$PUCSORGLEFT
 10
0.0
 20
0.0
 30
0.0
  9
$PUCSORGRIGHT
 10
0.0
 20
0.0
 30
0.0
  9
$PUCSORGFRONT
 10
0.0
 20
0.0
 30
0.0
  9
$PUCSORGBACK
 10
0.0
 20
0.0
 30
0.0
  9
$USERI1
 70
     0
  9
$USERI2
 70
     0
  9
$USERI3
 70
     0
  9
$USERI4
 70
     0
  9
$USERI5
 70
     0
  9
$USERR1
 40
0.0
  9
$USERR2
 40
0.0
  9
$USERR3
 40
0.0
  9
$USERR4
 40
0.0
  9
$USERR5
 40
0.0
  9
$WORLDVIEW
 70
     1
  9
$SHADEDGE
 70
     3
  9
$SHADEDIF
 70
    70
  9
$TILEMODE
 70
     1
  9
$MAXACTVP
 70
    64
  9
$PINSBASE
 10
0.0
 20
0.0
 30
0.0
  9
$PLIMCHECK
 70
     0
  9
$PEXTMIN
 10
1.0000000000E+20
 20
1.0000000000E+20
 30
1.0000000000E+20
  9
$PEXTMAX
 10
-1.0000000000E+20
 20
-1.0000000000E+20
 30
-1.0000000000E+20
  9
$PLIMMIN
 10
0.0
 20
0.0
  9
$PLIMMAX
 10
420.0
 20
297.0
  9
$UNITMODE
 70
     0
  9
$VISRETAIN
 70
     1
  9
$PLINEGEN
 70
     0
  9
$PSLTSCALE
 70
     1
  9
$TREEDEPTH
 70
  3020
  9
$CMLSTYLE
  2
Standard
  9
$CMLJUST
 70
     0
  9
$CMLSCALE
 40
20.0
  9
$PROXYGRAPHICS
 70
     1
  9
$MEASUREMENT
 70
     1
  9
$CELWEIGHT
370
    -1
  9
$ENDCAPS
280
     0
  9
$JOINSTYLE
280
     0
  9
$LWDISPLAY
290
     1
  9
$INSUNITS
 70
     4
  9
$HYPERLINKBASE
  1

  9
$STYLESHEET
  1

  9
$XEDIT
290
     1
  9
$CEPSNTYPE
380
     0
  9
$PSTYLEMODE
290
     1
  9
$FINGERPRINTGUID
  2
{8E6C4255-E26E-4A7C-8479-F4B4BBAE3B9E}
  9
$VERSIONGUID
  2
{FAEB1C32-E019-11D5-929B-00C0DF256EC4}
  9
$EXTNAMES
290
     1
  9
$PSVPSCALE
 40
0.0
  9
$OLESTARTUP
290
     0
  0
ENDSEC
  0
SECTION
  2
CLASSES
  0
CLASS
  1
ACDBDICTIONARYWDFLT
  2
AcDbDictionaryWithDefault
  3
ObjectDBX Classes
 90
        0
280
     0
281
     0
  0
CLASS
  1
VISUALSTYLE
  2
AcDbVisualStyle
  3
ObjectDBX Classes
 90
     4095
280
     0
281
     0
  0
CLASS
  1
MATERIAL
  2
AcDbMaterial
  3
ObjectDBX Classes
 90
     1153
280
     0
281
     0
  0
CLASS
  1
SCALE
  2
AcDbScale
  3
ObjectDBX Classes
 90
     1153
280
     0
281
     0
  0
CLASS
  1
TABLESTYLE
  2
AcDbTableStyle
  3
ObjectDBX Classes
 90
     4095
280
     0
281
     0
  0
CLASS
  1
MLEADERSTYLE
  2
AcDbMLeaderStyle
  3
ACDB_MLEADERSTYLE_CLASS
 90
     4095
280
     0
281
     0
  0
CLASS
  1
SUN
  2
AcDbSun
  3
SCENEOE
 90
     1153
280
     0
281
     0
  0
CLASS
  1
ACDBPLACEHOLDER
  2
AcDbPlaceHolder
  3
ObjectDBX Classes
 90
        0
280
     0
281
     0
  0
CLASS
  1
LAYOUT
  2
AcDbLayout
  3
ObjectDBX Classes
 90
        0
280
     0
281
     0
  0
ENDSEC
  0
SECTION
  2
TABLES
  0
TABLE
  2
VPORT
  5
8
330
0
100
AcDbSymbolTable
 70
     1
  0
VPORT
  5
29
330
8
100
AcDbSymbolTableRecord
100
AcDbViewportTableRecord
  2
*Active
 70
     0
 10
0.0
 20
0.0
 11
1.0
 21
1.0
 12
215.9
 22
139.7
 13
0.0
 23
0.0
 14
10.0
 24
10.0
 15
10.0
 25
10.0
 16
0.0
 26
0.0
 36
1.0
 17
0.0
 27
0.0
 37
0.0
 40
279.4
 41
1.5454545455
 42
50.0
 43
0.0
 44
0.0
 50
0.0
 51
0.0
 71
     0
 72
  2000
 73
     1
 74
     3
 75
     0
 76
     0
 77
     0
 78
     0
281
     0
 65
     1
110
0.0
120
0.0
130
0.0
111
1.0
121
0.0
131
0.0
112
0.0
122
1.0
132
0.0
 79
     0
146
0.0
  0
ENDTAB
  0
TABLE
  2
LTYPE
  5
5
330
0
100
AcDbSymbolTable
 70
     6
  0
LTYPE
  5
14
330
5
100
AcDbSymbolTableRecord
100
AcDbLinetypeTableRecord
  2
ByBlock
 70
     0
  3

 72
    65
 73
     0
 40
0.0
  0
LTYPE
  5
15
330
5
100
AcDbSymbolTableRecord
100
AcDbLinetypeTableRecord
  2
ByLayer
 70
     0
  3

 72
    65
 73
     0
 40
0.0
  0
LTYPE
  5
16
330
5
100
AcDbSymbolTableRecord
100
AcDbLinetypeTableRecord
  2
Continuous
 70
     0
  3
Solid line
 72
    65
 73
     0
 40
0.0
  0
LTYPE
  5
6E
330
5
100
AcDbSymbolTableRecord
100
AcDbLinetypeTableRecord
  2
HIDDEN
 70
     0
  3
Hidden __ __ __ __ __ __ __ __ __ __ __ __ __ __
 72
    65
 73
     2
 40
1.905
 49
1.27
 74
     0
 49
-0.635
 74
     0
  0
LTYPE
  5
6F
330
5
100
AcDbSymbolTableRecord
100
AcDbLinetypeTableRecord
  2
PHANTOM
 70
     0
  3
Phantom ______  __  __  ______  __  __  ______
 72
    65
 73
     6
 40
12.7
 49
6.35
 74
     0
 49
-1.27
 74
     0
 49
1.27
 74
     0
 49
-1.27
 74
     0
 49
1.27
 74
     0
 49
-1.27
 74
     0
  0
LTYPE
  5
70
330
5
100
AcDbSymbolTableRecord
100
AcDbLinetypeTableRecord
  2
CENTER
 70
     0
  3
Center ____ _ ____ _ ____ _ ____ _ ____ _ ____
 72
    65
 73
     4
 40
10.16
 49
6.35
 74
     0
 49
-1.27
 74
     0
 49
1.27
 74
     0
 49
-1.27
 74
     0
  0
LTYPE
  5
71
330
5
100
AcDbSymbolTableRecord
100
AcDbLinetypeTableRecord
  2
CENTERX2
 70
     0
  3
Center (2x) ________  __  ________  __  _____
 72
    65
 73
     4
 40
20.32
 49
12.7
 74
     0
 49
-2.54
 74
     0
 49
2.54
 74
     0
 49
-2.54
 74
     0
  0
LTYPE
  5
72
330
5
100
AcDbSymbolTableRecord
100
AcDbLinetypeTableRecord
  2
DOT2
 70
     0
  3
Dot (.5x) ........................................
 72
    65
 73
     2
 40
0.635
 49
0.0
 74
     0
 49
-0.635
 74
     0
  0
ENDTAB
  0
TABLE
  2
LAYER
  5
2
330
0
100
AcDbSymbolTable
 70
     1
  0
LAYER
  5
10
330
2
100
AcDbSymbolTableRecord
100
AcDbLayerTableRecord
  2
0
 70
     0
 62
     7
  6
Continuous
370
    -3
390
F
  0
ENDTAB
  0
TABLE
  2
STYLE
  5
3
330
0
100
AcDbSymbolTable
 70
     2
  0
STYLE
  5
11
330
3
100
AcDbSymbolTableRecord
100
AcDbTextStyleTableRecord
  2
Standard
 70
     0
 40
0.0
 41
1.0
 50
0.0
 71
     0
 42
3.5
  3
txt
  4
bigfont
  0
STYLE
  5
73
330
3
100
AcDbSymbolTableRecord
100
AcDbTextStyleTableRecord
  2
SLDTEXTSTYLE0
 70
     0
 40
0.0
 41
0.7
 50
0.0
 71
     0
 42
3.5
  3
TXT
  4
bigfont
  0
ENDTAB
  0
TABLE
  2
VIEW
  5
6
330
0
100
AcDbSymbolTable
 70
     0
  0
ENDTAB
  0
TABLE
  2
UCS
  5
7
330
0
100
AcDbSymbolTable
 70
     0
  0
ENDTAB
  0
TABLE
  2
APPID
  5
9
330
0
100
AcDbSymbolTable
 70
     1
  0
APPID
  5
12
330
9
100
AcDbSymbolTableRecord
100
AcDbRegAppTableRecord
  2
ACAD
 70
     0
  0
ENDTAB
  0
TABLE
  2
DIMSTYLE
  5
A
330
0
100
AcDbSymbolTable
 70
     1
100
AcDbDimStyleTable
  0
DIMSTYLE
105
27
330
A
100
AcDbSymbolTableRecord
100
AcDbDimStyleTableRecord
  2
ISO-25
 70
     0
 41
2.5
 42
0.625
 43
3.75
 44
1.25
 73
     0
 74
     0
 77
     1
 78
     8
140
2.5
141
2.5
143
0.0393700787
147
0.625
171
     3
172
     1
178
     0
271
     2
272
     2
274
     3
278
    44
283
     0
284
     8
340
11
  0
ENDTAB
  0
TABLE
  2
BLOCK_RECORD
  5
1
330
0
100
AcDbSymbolTable
 70
     3
  0
BLOCK_RECORD
  5
1F
330
1
100
AcDbSymbolTableRecord
100
AcDbBlockTableRecord
  2
*Model_Space
340
22
  0
BLOCK_RECORD
  5
1B
330
1
100
AcDbSymbolTableRecord
100
AcDbBlockTableRecord
  2
*Paper_Space
340
1E
  0
BLOCK_RECORD
  5
23
330
1
100
AcDbSymbolTableRecord
100
AcDbBlockTableRecord
  2
*Paper_Space0
340
26
  0
BLOCK_RECORD
  5
156
330
1
100
AcDbSymbolTableRecord
100
AcDbBlockTableRecord
  2
SW_CENTERMARKSYMBOL_0
340
0
102
{BLKREFS
331
161
102
}
  0
BLOCK_RECORD
  5
1E9
330
1
100
AcDbSymbolTableRecord
100
AcDbBlockTableRecord
  2
SW_CENTERMARKSYMBOL_1
340
0
102
{BLKREFS
331
1F4
102
}
  0
ENDTAB
  0
ENDSEC
  0
SECTION
  2
BLOCKS
  0
BLOCK
  5
20
330
1F
100
AcDbEntity
  8
0
100
AcDbBlockBegin
  2
*Model_Space
 70
     0
 10
0.0
 20
0.0
 30
0.0
  3
*Model_Space
  1

  0
ENDBLK
  5
21
330
1F
100
AcDbEntity
  8
0
100
AcDbBlockEnd
  0
BLOCK
  5
1C
330
1B
100
AcDbEntity
 67
     1
  8
0
100
AcDbBlockBegin
  2
*Paper_Space
 70
     0
 10
0.0
 20
0.0
 30
0.0
  3
*Paper_Space
  1

  0
ENDBLK
  5
1D
330
1B
100
AcDbEntity
 67
     1
  8
0
100
AcDbBlockEnd
  0
BLOCK
  5
24
330
23
100
AcDbEntity
  8
0
100
AcDbBlockBegin
  2
*Paper_Space0
 70
     0
 10
0.0
 20
0.0
 30
0.0
  3
*Paper_Space0
  1

  0
ENDBLK
  5
25
330
23
100
AcDbEntity
  8
0
100
AcDbBlockEnd
  0
BLOCK
  5
157
330
156
100
AcDbEntity
  8
0
100
AcDbBlockBegin
  2
SW_CENTERMARKSYMBOL_0
 70
     0
 10
0.0
 20
0.0
 30
0.0
  3
SW_CENTERMARKSYMBOL_0
  1

  0
LINE
  5
159
330
156
100
AcDbEntity
  8
0
  6
Continuous
 62
     0
370
    18
100
AcDbLine
 10
0.0
 20
0.0
 30
0.0
 11
0.0
 21
2.5
 31
0.0
  0
LINE
  5
15A
330
156
100
AcDbEntity
  8
0
  6
Continuous
 62
     0
370
    18
100
AcDbLine
 10
0.0
 20
0.0
 30
0.0
 11
-2.5
 21
0.0
 31
0.0
  0
LINE
  5
15B
330
156
100
AcDbEntity
  8
0
  6
Continuous
 62
     0
370
    18
100
AcDbLine
 10
0.0
 20
0.0
 30
0.0
 11
0.0
 21
-2.5
 31
0.0
  0
LINE
  5
15C
330
156
100
AcDbEntity
  8
0
  6
Continuous
 62
     0
370
    18
100
AcDbLine
 10
0.0
 20
0.0
 30
0.0
 11
2.5
 21
0.0
 31
0.0
  0
LINE
  5
15D
330
156
100
AcDbEntity
  8
0
  6
Continuous
 62
     0
370
    18
100
AcDbLine
 10
0.0
 20
5.0
 30
0.0
 11
0.0
 21
31.4804461532
 31
0.0
  0
LINE
  5
15E
330
156
100
AcDbEntity
  8
0
  6
Continuous
 62
     0
370
    18
100
AcDbLine
 10
-5.0
 20
0.0
 30
0.0
 11
-14.25
 21
0.0
 31
0.0
  0
LINE
  5
15F
330
156
100
AcDbEntity
  8
0
  6
Continuous
 62
     0
370
    18
100
AcDbLine
 10
0.0
 20
-5.0
 30
0.0
 11
0.0
 21
-14.25
 31
0.0
  0
LINE
  5
160
330
156
100
AcDbEntity
  8
0
  6
Continuous
 62
     0
370
    18
100
AcDbLine
 10
5.0
 20
0.0
 30
0.0
 11
14.25
 21
0.0
 31
0.0
  0
ENDBLK
  5
158
330
156
100
AcDbEntity
  8
0
100
AcDbBlockEnd
  0
BLOCK
  5
1EA
330
1E9
100
AcDbEntity
  8
0
100
AcDbBlockBegin
  2
SW_CENTERMARKSYMBOL_1
 70
     0
 10
0.0
 20
0.0
 30
0.0
  3
SW_CENTERMARKSYMBOL_1
  1

  0
LINE
  5
1EC
330
1E9
100
AcDbEntity
  8
0
  6
Continuous
 62
     0
370
    18
100
AcDbLine
 10
0.0
 20
0.0
 30
0.0
 11
0.0
 21
2.5
 31
0.0
  0
LINE
  5
1ED
330
1E9
100
AcDbEntity
  8
0
  6
Continuous
 62
     0
370
    18
100
AcDbLine
 10
0.0
 20
0.0
 30
0.0
 11
-2.5
 21
0.0
 31
0.0
  0
LINE
  5
1EE
330
1E9
100
AcDbEntity
  8
0
  6
Continuous
 62
     0
370
    18
100
AcDbLine
 10
0.0
 20
0.0
 30
0.0
 11
0.0
 21
-2.5
 31
0.0
  0
LINE
  5
1EF
330
1E9
100
AcDbEntity
  8
0
  6
Continuous
 62
     0
370
    18
100
AcDbLine
 10
0.0
 20
0.0
 30
0.0
 11
2.5
 21
0.0
 31
0.0
  0
LINE
  5
1F0
330
1E9
100
AcDbEntity
  8
0
  6
Continuous
 62
     0
370
    18
100
AcDbLine
 10
0.0
 20
5.0
 30
0.0
 11
0.0
 21
13.1493869233
 31
0.0
  0
LINE
  5
1F1
330
1E9
100
AcDbEntity
  8
0
  6
Continuous
 62
     0
370
    18
100
AcDbLine
 10
-5.0
 20
0.0
 30
0.0
 11
-13.1493869233
 21
0.0
 31
0.0
  0
LINE
  5
1F2
330
1E9
100
AcDbEntity
  8
0
  6
Continuous
 62
     0
370
    18
100
AcDbLine
 10
0.0
 20
-5.0
 30
0.0
 11
0.0
 21
-13.1493869233
 31
0.0
  0
LINE
  5
1F3
330
1E9
100
AcDbEntity
  8
0
  6
Continuous
 62
     0
370
    18
100
AcDbLine
 10
5.0
 20
0.0
 30
0.0
 11
65.9890510786
 21
0.0
 31
0.0
  0
ENDBLK
  5
1EB
330
1E9
100
AcDbEntity
  8
0
100
AcDbBlockEnd
  0
ENDSEC
  0
SECTION
  2
ENTITIES
  0
MTEXT
  5
74
330
1F
100
AcDbEntity
  8
0
  6
Continuous
 62
     7
370
     0
100
AcDbMText
 10
177.1321259979
 20
147.3011809466
 30
0.0
 40
4.7625
 41
0.0
 71
     1
 72
     1
  1
HL-1414R
  7
SLDTEXTSTYLE0
 73
     1
 44
1.0
  0
LINE
  5
75
330
1F
100
AcDbEntity
  8
0
  6
Continuous
 62
     7
370
    25
100
AcDbLine
 10
136.0490157261
 20
86.1873412394
 30
0.0
 11
136.5490157261
 21
86.1873412394
 31
0.0
  0
LINE
  5
76
330
1F
100
AcDbEntity
  8
0
  6
Continuous
 62
     7
370
    25
100
AcDbLine
 10
136.5490157261
 20
102.1873412394
 30
0.0
 11
136.0490157261
 21
102.1873412394
 31
0.0
  0
LINE
  5
77
330
1F
100
AcDbEntity
  8
0
  6
Continuous
 62
     7
370
    25
100
AcDbLine
 10
142.5490157261
 20
87.1873412394
 30
0.0
 11
147.0490157261
 21
87.9373412394
 31
0.0
  0
LINE
  5
78
330
1F
100
AcDbEntity
  8
0
  6
Continuous
 62
     7
370
    25
100
AcDbLine
 10
147.0490157261
 20
100.4373412394
 30
0.0
 11
142.5490157261
 21
101.1873412394
 31
0.0
  0
LINE
  5
79
330
1F
100
AcDbEntity
  8
0
  6
Continuous
 62
     7
370
    25
100
AcDbLine
 10
142.5490157261
 20
101.1873412394
 30
0.0
 11
136.5490157261
 21
101.1873412394
 31
0.0
  0
LINE
  5
7A
330
1F
100
AcDbEntity
  8
0
  6
Continuous
 62
     7
370
    25
100
AcDbLine
 10
136.5490157261
 20
87.1873412394
 30
0.0
 11
142.5490157261
 21
87.1873412394
 31
0.0
  0
LINE
  5
7B
330
1F
100
AcDbEntity
  8
0
  6
Continuous
 62
     7
370
    25
100
AcDbLine
 10
156.0490157261
 20
87.1873412394
 30
0.0
 11
160.5490157261
 21
87.9373412394
 31
0.0
  0
LINE
  5
7C
330
1F
100
AcDbEntity
  8
0
  6
Continuous
 62
     7
370
    25
100
AcDbLine
 10
160.5490157261
 20
100.4373412394
 30
0.0
 11
156.0490157261
 21
101.1873412394
 31
0.0
  0
LINE
  5
7D
330
1F
100
AcDbEntity
  8
0
  6
Continuous
 62
     7
370
    25
100
AcDbLine
 10
160.5490157261
 20
87.1873412394
 30
0.0
 11
166.353629471
 21
87.8571043638
 31
0.0
  0
LINE
  5
7E
330
1F
100
AcDbEntity
  8
0
  6
Continuous
 62
     7
370
    25
100
AcDbLine
 10
166.353629471
 20
100.517578115
 30
0.0
 11
160.5490157261
 21
101.1873412394
 31
0.0
  0
LINE
  5
7F
330
1F
100
AcDbEntity
  8
0
  6
Continuous
 62
     7
370
    25
100
AcDbLine
 10
147.0490157261
 20
87.1873412394
 30
0.0
 11
151.5490157261
 21
87.9373412394
 31
0.0
  0
LINE
  5
80
330
1F
100
AcDbEntity
  8
0
  6
Continuous
 62
     7
370
    25
100
AcDbLine
 10
151.5490157261
 20
100.4373412394
 30
0.0
 11
147.0490157261
 21
101.1873412394
 31
0.0
  0
LINE
  5
81
330
1F
100
AcDbEntity
  8
0
  6
Continuous
 62
     7
370
    25
100
AcDbLine
 10
151.5490157261
 20
87.1873412394
 30
0.0
 11
156.0490157261
 21
87.9373412394
 31
0.0
  0
LINE
  5
82
330
1F
100
AcDbEntity
  8
0
  6
Continuous
 62
     7
370
    25
100
AcDbLine
 10
156.0490157261
 20
100.4373412394
 30
0.0
 11
151.5490157261
 21
101.1873412394
 31
0.0
  0
LINE
  5
83
330
1F
100
AcDbEntity
  8
0
  6
Continuous
 62
     7
370
    25
100
AcDbLine
 10
166.353629471
 20
87.8571043638
 30
0.0
 11
167.0490157261
 21
88.733895729
 31
0.0
  0
LINE
  5
84
330
1F
100
AcDbEntity
  8
0
  6
Continuous
 62
     7
370
    25
100
AcDbLine
 10
167.0490157261
 20
99.6407867499
 30
0.0
 11
166.353629471
 21
100.517578115
 31
0.0
  0
LINE
  5
85
330
1F
100
AcDbEntity
  8
0
  6
Continuous
 62
     7
370
    25
100
AcDbLine
 10
132.8328813891
 20
80.3309347789
 30
0.0
 11
134.0490157261
 21
82.4373412394
 31
0.0
  0
LINE
  5
86
330
1F
100
AcDbEntity
  8
0
  6
Continuous
 62
     7
370
    25
100
AcDbLine
 10
134.0490157261
 20
105.9373412394
 30
0.0
 11
132.8328813891
 21
108.0437477
 31
0.0
  0
LINE
  5
87
330
1F
100
AcDbEntity
  8
0
  6
Continuous
 62
     7
370
    25
100
AcDbLine
 10
123.2651500631
 20
108.0437477
 30
0.0
 11
122.0490157261
 21
105.9373412394
 31
0.0
  0
LINE
  5
88
330
1F
100
AcDbEntity
  8
0
  6
Continuous
 62
     7
370
    25
100
AcDbLine
 10
122.0490157261
 20
82.4373412394
 30
0.0
 11
123.2651500631
 21
80.3309347789
 31
0.0
  0
LINE
  5
89
330
1F
100
AcDbEntity
  8
0
  6
Continuous
 62
     7
370
    25
100
AcDbLine
 10
135.5490157261
 20
82.4373412394
 30
0.0
 11
136.0490157261
 21
82.9373412394
 31
0.0
  0
LINE
  5
8A
330
1F
100
AcDbEntity
  8
0
  6
Continuous
 62
     7
370
    25
100
AcDbLine
 10
136.0490157261
 20
105.4373412394
 30
0.0
 11
135.5490157261
 21
105.9373412394
 31
0.0
  0
LINE
  5
8B
330
1F
100
AcDbEntity
  8
0
  6
Continuous
 62
     7
370
    25
100
AcDbLine
 10
120.5490157261
 20
105.9373412394
 30
0.0
 11
120.0490157261
 21
105.4373412394
 31
0.0
  0
LINE
  5
8C
330
1F
100
AcDbEntity
  8
0
  6
Continuous
 62
     7
370
    25
100
AcDbLine
 10
120.0490157261
 20
82.9373412394
 30
0.0
 11
120.5490157261
 21
82.4373412394
 31
0.0
  0
LINE
  5
8D
330
1F
100
AcDbEntity
  8
0
  6
Continuous
 62
     7
370
    25
100
AcDbLine
 10
134.0490157261
 20
82.4373412394
 30
0.0
 11
135.5490157261
 21
82.4373412394
 31
0.0
  0
LINE
  5
8E
330
1F
100
AcDbEntity
  8
0
  6
Continuous
 62
     7
370
    25
100
AcDbLine
 10
135.5490157261
 20
105.9373412394
 30
0.0
 11
134.0490157261
 21
105.9373412394
 31
0.0
  0
LINE
  5
8F
330
1F
100
AcDbEntity
  8
0
  6
Continuous
 62
     7
370
    25
100
AcDbLine
 10
122.0490157261
 20
105.9373412394
 30
0.0
 11
120.5490157261
 21
105.9373412394
 31
0.0
  0
LINE
  5
90
330
1F
100
AcDbEntity
  8
0
  6
Continuous
 62
     7
370
    25
100
AcDbLine
 10
120.5490157261
 20
82.4373412394
 30
0.0
 11
122.0490157261
 21
82.4373412394
 31
0.0
  0
LINE
  5
91
330
1F
100
AcDbEntity
  8
0
  6
Continuous
 62
     7
370
    25
100
AcDbLine
 10
128.0490157261
 20
107.5437477
 30
0.0
 11
127.9150411299
 21
108.0437477
 31
0.0
  0
LINE
  5
92
330
1F
100
AcDbEntity
  8
0
  6
Continuous
 62
     7
370
    25
100
AcDbLine
 10
128.1829903223
 20
108.0437477
 30
0.0
 11
128.0490157261
 21
107.5437477
 31
0.0
  0
LINE
  5
93
330
1F
100
AcDbEntity
  8
0
  6
Continuous
 62
     7
370
    25
100
AcDbLine
 10
128.0490157261
 20
80.8309347789
 30
0.0
 11
128.1829903223
 21
80.3309347789
 31
0.0
  0
LINE
  5
94
330
1F
100
AcDbEntity
  8
0
  6
Continuous
 62
     7
370
    25
100
AcDbLine
 10
127.9150411299
 20
80.3309347789
 30
0.0
 11
128.0490157261
 21
80.8309347789
 31
0.0
  0
LINE
  5
95
330
1F
100
AcDbEntity
  8
0
  6
Continuous
 62
     7
370
    25
100
AcDbLine
 10
113.2964788608
 20
109.5269596941
 30
0.0
 11
112.9538541647
 21
120.4909499665
 31
0.0
  0
LINE
  5
96
330
1F
100
AcDbEntity
  8
0
  6
Continuous
 62
     7
370
    25
100
AcDbLine
 10
92.3403297102
 20
120.4909499665
 30
0.0
 11
91.9977050142
 21
109.5269596941
 31
0.0
  0
ARC
  5
97
330
1F
100
AcDbEntity
  8
0
  6
Continuous
 62
     7
370
    25
100
AcDbCircle
 10
111.3970919375
 20
111.1524840143
 30
0.0
 40
2.500000000000016
100
AcDbArc
 50
296.7436839504
 51
319.4425836613
  0
ARC
  5
98
330
1F
100
AcDbEntity
  8
0
  6
Continuous
 62
     7
370
    25
100
AcDbCircle
 10
93.8970919375
 20
111.1524840143
 30
0.0
 40
2.500000000000016
100
AcDbArc
 50
220.5574163387
 51
243.2563160496
  0
ARC
  5
99
330
1F
100
AcDbEntity
  8
0
  6
Continuous
 62
     7
370
    25
100
AcDbCircle
 10
119.6122347123
 20
85.4373412394
 30
0.0
 40
2.499999999999996
100
AcDbArc
 50
206.7436839504
 51
223.7093197495
  0
ARC
  5
9A
330
1F
100
AcDbEntity
  8
0
  6
Continuous
 62
     7
370
    25
100
AcDbCircle
 10
119.6122347123
 20
102.9373412394
 30
0.0
 40
2.499999999999986
100
AcDbArc
 50
136.2906802505
 51
153.2563160496
  0
LINE
  5
9B
330
1F
100
AcDbEntity
  8
0
  6
Continuous
 62
     7
370
    25
100
AcDbLine
 10
120.0490157261
 20
104.6648412394
 30
0.0
 11
117.8050978194
 21
104.6648412394
 31
0.0
  0
LINE
  5
9C
330
1F
100
AcDbEntity
  8
0
  6
Continuous
 62
     7
370
    25
100
AcDbLine
 10
117.8050978194
 20
83.7098412394
 30
0.0
 11
120.0490157261
 21
83.7098412394
 31
0.0
  0
LINE
  5
9D
330
1F
100
AcDbEntity
  8
0
  6
Continuous
 62
     7
370
    25
100
AcDbLine
 10
112.9538541647
 20
120.4909499665
 30
0.0
 11
111.3970919375
 21
123.1873412394
 31
0.0
  0
LINE
  5
9E
330
1F
100
AcDbEntity
  8
0
  6
Continuous
 62
     7
370
    25
100
AcDbLine
 10
93.8970919375
 20
123.1873412394
 30
0.0
 11
92.3403297102
 21
120.4909499665
 31
0.0
  0
ARC
  5
9F
330
1F
100
AcDbEntity
  8
0
  6
Continuous
 62
     7
370
    25
100
AcDbCircle
 10
113.6470919375
 20
106.6873412394
 30
0.0
 40
2.5
100
AcDbArc
 50
116.7436839504
 51
180.0
  0
ARC
  5
A0
330
1F
100
AcDbEntity
  8
0
  6
Continuous
 62
     7
370
    25
100
AcDbCircle
 10
91.6470919375
 20
106.6873412394
 30
0.0
 40
2.500000000000014
100
AcDbArc
 50
0.0
 51
63.2563160496
  0
ARC
  5
A1
330
1F
100
AcDbEntity
  8
0
  6
Continuous
 62
     7
370
    25
100
AcDbCircle
 10
115.1470919375
 20
83.1873412394
 30
0.0
 40
2.500000000000009
100
AcDbArc
 50
26.7436839504
 51
90.0
  0
ARC
  5
A2
330
1F
100
AcDbEntity
  8
0
  6
Continuous
 62
     7
370
    25
100
AcDbCircle
 10
115.1470919375
 20
105.1873412394
 30
0.0
 40
2.500000000000009
100
AcDbArc
 50
270.0
 51
333.2563160496
  0
LINE
  5
A3
330
1F
100
AcDbEntity
  8
0
  6
Continuous
 62
     7
370
    25
100
AcDbLine
 10
94.1470919375
 20
106.6873412394
 30
0.0
 11
94.1470919375
 21
88.682940571
 31
0.0
  0
LINE
  5
A4
330
1F
100
AcDbEntity
  8
0
  6
Continuous
 62
     7
370
    25
100
AcDbLine
 10
111.1470919375
 20
103.1873412394
 30
0.0
 11
111.1470919375
 21
106.6873412394
 31
0.0
  0
LINE
  5
A5
330
1F
100
AcDbEntity
  8
0
  6
Continuous
 62
     7
370
    25
100
AcDbLine
 10
115.1470919375
 20
102.6873412394
 30
0.0
 11
111.6470919375
 21
102.6873412394
 31
0.0
  0
LINE
  5
A6
330
1F
100
AcDbEntity
  8
0
  6
Continuous
 62
     7
370
    25
100
AcDbLine
 10
97.142691269
 20
85.6873412394
 30
0.0
 11
115.1470919375
 21
85.6873412394
 31
0.0
  0
SPLINE
  5
A7
330
1F
100
AcDbEntity
  8
0
  6
Continuous
 62
     7
370
    25
100
AcDbSpline
210
0.0
220
0.0
230
1.0
 70
     8
 71
     3
 72
    18
 73
    14
 74
     0
 42
0.000000001
 43
0.00000001
 40
0.0
 40
0.0
 40
0.0
 40
0.0
 40
0.0827064529141086
 40
0.157774629988733
 40
0.2847974390907824
 40
0.3813326480059515
 40
0.4519486919440617
 40
0.542152133493574
 40
0.6634999391290143
 40
0.7359335745171601
 40
0.8161561932238498
 40
0.9041841948346939
 40
1.0
 40
1.0
 40
1.0
 40
1.0
 10
94.1470919377334
 20
88.68730161645567
 30
0.0
 10
94.15201203754323
 20
88.55741598324103
 30
0.0
 10
94.16139784602191
 20
88.30964018100012
 30
0.0
 10
94.24835669027557
 20
87.86983112928607
 30
0.0
 10
94.40773369293746
 20
87.42584302355628
 30
0.0
 10
94.63990443369308
 20
87.02473500926973
 30
0.0
 10
94.8859642873695
 20
86.70356807167501
 30
0.0
 10
95.19859867231712
 20
86.38795472036365
 30
0.0
 10
95.5628902421371
 20
86.1261964374696
 30
0.0
 10
95.94647707218783
 20
85.92999116824575
 30
0.0
 10
96.30209550260913
 20
85.80048672275436
 30
0.0
 10
96.707790138315
 20
85.70656067160151
 30
0.0
 10
96.99655414711265
 20
85.69392612096793
 30
0.0
 10
97.14705231450209
 20
85.68734123968699
 30
0.0
  0
SPLINE
  5
A8
330
1F
100
AcDbEntity
  8
0
  6
Continuous
 62
     7
370
    25
100
AcDbSpline
210
0.0
220
0.0
230
1.0
 70
     8
 71
     3
 72
    11
 73
     7
 74
     0
 42
0.000000001
 43
0.00000001
 40
0.0
 40
0.0
 40
0.0
 40
0.0
 40
0.2500481156911711
 40
0.5000000000000012
 40
0.7499518843088333
 40
1.0
 40
1.0
 40
1.0
 40
1.0
 10
111.6519252686452
 20
102.6873412394219
 30
0.0
 10
111.5855241351584
 20
102.6944336636813
 30
0.0
 10
111.4527474227579
 20
102.7086157826701
 30
0.0
 10
111.2851491141729
 20
102.8253984161265
 30
0.0
 10
111.1683664807165
 20
102.9929967247115
 30
0.0
 10
111.1541843617277
 20
103.125773437112
 30
0.0
 10
111.1470919374684
 20
103.1921745705988
 30
0.0
  0
LINE
  5
A9
330
1F
100
AcDbEntity
  8
0
  6
Continuous
 62
     7
370
    25
100
AcDbLine
 10
136.5490157261
 20
102.1873412394
 30
0.0
 11
136.5490157261
 21
86.1873412394
 31
0.0
  0
LINE
  5
AA
330
1F
100
AcDbEntity
  8
0
  6
Continuous
 62
     7
370
    25
100
AcDbLine
 10
142.5490157261
 20
101.1873412394
 30
0.0
 11
142.5490157261
 21
87.1873412394
 31
0.0
  0
LINE
  5
AB
330
1F
100
AcDbEntity
  8
0
  6
Continuous
 62
     7
370
    25
100
AcDbLine
 10
156.0490157261
 20
101.1873412394
 30
0.0
 11
156.0490157261
 21
87.1873412394
 31
0.0
  0
LINE
  5
AC
330
1F
100
AcDbEntity
  8
0
  6
Continuous
 62
     7
370
    25
100
AcDbLine
 10
160.5490157261
 20
101.1873412394
 30
0.0
 11
160.5490157261
 21
87.1873412394
 31
0.0
  0
LINE
  5
AD
330
1F
100
AcDbEntity
  8
0
  6
Continuous
 62
     7
370
    25
100
AcDbLine
 10
166.353629471
 20
87.8571043638
 30
0.0
 11
166.353629471
 21
100.517578115
 31
0.0
  0
LINE
  5
AE
330
1F
100
AcDbEntity
  8
0
  6
Continuous
 62
     7
370
    25
100
AcDbLine
 10
147.0490157261
 20
101.1873412394
 30
0.0
 11
147.0490157261
 21
87.1873412394
 31
0.0
  0
LINE
  5
AF
330
1F
100
AcDbEntity
  8
0
  6
Continuous
 62
     7
370
    25
100
AcDbLine
 10
151.5490157261
 20
101.1873412394
 30
0.0
 11
151.5490157261
 21
87.1873412394
 31
0.0
  0
LINE
  5
B0
330
1F
100
AcDbEntity
  8
0
  6
Continuous
 62
     7
370
    25
100
AcDbLine
 10
167.0490157261
 20
99.6407867499
 30
0.0
 11
167.0490157261
 21
88.733895729
 31
0.0
  0
LINE
  5
B1
330
1F
100
AcDbEntity
  8
0
  6
Continuous
 62
     7
370
    25
100
AcDbLine
 10
128.0490157261
 20
101.6473435109
 30
0.0
 11
127.9150411299
 21
101.1155444697
 31
0.0
  0
LINE
  5
B2
330
1F
100
AcDbEntity
  8
0
  6
Continuous
 62
     7
370
    25
100
AcDbLine
 10
128.0490157261
 20
101.6473435109
 30
0.0
 11
128.0490157261
 21
100.0519463872
 31
0.0
  0
LINE
  5
B3
330
1F
100
AcDbEntity
  8
0
  6
Continuous
 62
     7
370
    25
100
AcDbLine
 10
127.9150411299
 20
101.1155444697
 30
0.0
 11
128.0490157261
 21
100.0519463872
 31
0.0
  0
LINE
  5
B4
330
1F
100
AcDbEntity
  8
0
  6
Continuous
 62
     7
370
    25
100
AcDbLine
 10
128.1829903223
 20
108.0437477
 30
0.0
 11
128.0490157261
 21
107.5119486587
 31
0.0
  0
LINE
  5
B5
330
1F
100
AcDbEntity
  8
0
  6
Continuous
 62
     7
370
    25
100
AcDbLine
 10
132.8328813891
 20
108.0437477
 30
0.0
 11
128.1829903223
 21
108.0437477
 31
0.0
  0
SPLINE
  5
B6
330
1F
100
AcDbEntity
  8
0
  6
Continuous
 62
     7
370
    25
100
AcDbSpline
210
0.0
220
0.0
230
1.0
 70
     8
 71
     3
 72
    15
 73
    11
 74
     0
 42
0.000000001
 43
0.00000001
 40
0.0
 40
0.0
 40
0.0
 40
0.0
 40
0.1323065044264403
 40
0.2645755999739297
 40
0.3998036789671094
 40
0.5350073556765894
 40
0.6501969475405022
 40
0.7654045076453767
 40
0.882690914416897
 40
1.0
 40
1.0
 40
1.0
 40
1.0
 10
132.8328813890932
 20
108.043747699973
 30
0.0
 10
132.9960404710109
 20
107.7444188772023
 30
0.0
 10
133.3223125025842
 20
107.1458458651094
 30
0.0
 10
133.6733672056041
 20
106.2240960883166
 30
0.0
 10
133.8844439911333
 20
105.2849709745661
 30
0.0
 10
133.9262413014188
 20
104.3798700765229
 30
0.0
 10
133.8177826687181
 20
103.5236733717383
 30
0.0
 10
133.5955567596572
 20
102.7156408629288
 30
0.0
 10
133.2695789863709
 20
101.9112617938189
 30
0.0
 10
132.9784566359774
 20
101.3808006713142
 30
0.0
 10
132.8328813890932
 20
101.1155444696975
 30
0.0
  0
LINE
  5
B7
330
1F
100
AcDbEntity
  8
0
  6
Continuous
 62
     7
370
    25
100
AcDbLine
 10
132.8328813891
 20
101.1155444697
 30
0.0
 11
128.1829903223
 21
101.1155444697
 31
0.0
  0
LINE
  5
B8
330
1F
100
AcDbEntity
  8
0
  6
Continuous
 62
     7
370
    25
100
AcDbLine
 10
128.0490157261
 20
101.6473435109
 30
0.0
 11
128.1829903223
 21
101.1155444697
 31
0.0
  0
LINE
  5
B9
330
1F
100
AcDbEntity
  8
0
  6
Continuous
 62
     7
370
    25
100
AcDbLine
 10
127.9150411299
 20
101.1155444697
 30
0.0
 11
123.2651500631
 21
101.1155444697
 31
0.0
  0
SPLINE
  5
BA
330
1F
100
AcDbEntity
  8
0
  6
Continuous
 62
     7
370
    25
100
AcDbSpline
210
0.0
220
0.0
230
1.0
 70
     8
 71
     3
 72
    15
 73
    11
 74
     0
 42
0.000000001
 43
0.00000001
 40
0.0
 40
0.0
 40
0.0
 40
0.0
 40
0.1323065044264403
 40
0.2645755999739297
 40
0.3998036789671093
 40
0.5350073556765893
 40
0.6501969475405021
 40
0.7654045076453765
 40
0.8826909144168968
 40
1.0
 40
1.0
 40
1.0
 40
1.0
 10
123.265150063137
 20
108.043747699973
 30
0.0
 10
123.1019909812193
 20
107.7444188772024
 30
0.0
 10
122.7757189496459
 20
107.1458458651094
 30
0.0
 10
122.424664246626
 20
106.2240960883166
 30
0.0
 10
122.2135874610969
 20
105.2849709745661
 30
0.0
 10
122.1717901508113
 20
104.3798700765229
 30
0.0
 10
122.2802487835121
 20
103.5236733717383
 30
0.0
 10
122.5024746925729
 20
102.7156408629288
 30
0.0
 10
122.8284524658593
 20
101.9112617938189
 30
0.0
 10
123.1195748162527
 20
101.3808006713142
 30
0.0
 10
123.265150063137
 20
101.1155444696975
 30
0.0
  0
LINE
  5
BB
330
1F
100
AcDbEntity
  8
0
  6
Continuous
 62
     7
370
    25
100
AcDbLine
 10
127.9150411299
 20
108.0437477
 30
0.0
 11
123.2651500631
 21
108.0437477
 31
0.0
  0
LINE
  5
BC
330
1F
100
AcDbEntity
  8
0
  6
Continuous
 62
     7
370
    25
100
AcDbLine
 10
127.9150411299
 20
108.0437477
 30
0.0
 11
128.0490157261
 21
107.5119486587
 31
0.0
  0
LINE
  5
BD
330
1F
100
AcDbEntity
  8
0
  6
Continuous
 62
     7
370
    25
100
AcDbLine
 10
128.1829903223
 20
101.1155444697
 30
0.0
 11
128.0490157261
 21
100.0519463872
 31
0.0
  0
SPLINE
  5
BE
330
1F
100
AcDbEntity
  8
0
  6
Continuous
 62
     7
370
    25
100
AcDbSpline
210
0.0
220
0.0
230
1.0
 70
     8
 71
     3
 72
    16
 73
    12
 74
     0
 42
0.000000001
 43
0.00000001
 40
0.0
 40
0.0
 40
0.0
 40
0.0
 40
0.0915356978782495
 40
0.1830633432235329
 40
0.2753996771146607
 40
0.3677267146962475
 40
0.4925705318074073
 40
0.6174129202940688
 40
0.745583249032783
 40
0.8737882839722001
 40
1.0
 40
1.0
 40
1.0
 40
1.0
 10
132.8328813890932
 20
101.1155444696975
 30
0.0
 10
132.9476767377652
 20
100.7019447411432
 30
0.0
 10
133.1772573363898
 20
99.87478166902471
 30
0.0
 10
133.4584916979231
 20
98.61390643754183
 30
0.0
 10
133.6818146553111
 20
97.3378270224751
 30
0.0
 10
133.8531753050925
 20
95.89599391630392
 30
0.0
 10
133.9281218387483
 20
94.29226516139809
 30
0.0
 10
133.8635302505142
 20
92.51962281874883
 30
0.0
 10
133.6460398944469
 20
90.74375306991064
 30
0.0
 10
133.3037493938736
 20
88.98103372999603
 30
0.0
 10
132.9890154254544
 20
87.83009744227836
 30
0.0
 10
132.8328813890932
 20
87.25913800914644
 30
0.0
  0
LINE
  5
BF
330
1F
100
AcDbEntity
  8
0
  6
Continuous
 62
     7
370
    25
100
AcDbLine
 10
132.8328813891
 20
87.2591380091
 30
0.0
 11
128.1829903223
 21
87.2591380091
 31
0.0
  0
LINE
  5
C0
330
1F
100
AcDbEntity
  8
0
  6
Continuous
 62
     7
370
    25
100
AcDbLine
 10
128.0490157261
 20
88.3227360916
 30
0.0
 11
128.1829903223
 21
87.2591380091
 31
0.0
  0
LINE
  5
C1
330
1F
100
AcDbEntity
  8
0
  6
Continuous
 62
     7
370
    25
100
AcDbLine
 10
128.0490157261
 20
88.3227360916
 30
0.0
 11
127.9150411299
 21
87.2591380091
 31
0.0
  0
LINE
  5
C2
330
1F
100
AcDbEntity
  8
0
  6
Continuous
 62
     7
370
    25
100
AcDbLine
 10
127.9150411299
 20
87.2591380091
 30
0.0
 11
123.2651500631
 21
87.2591380091
 31
0.0
  0
SPLINE
  5
C3
330
1F
100
AcDbEntity
  8
0
  6
Continuous
 62
     7
370
    25
100
AcDbSpline
210
0.0
220
0.0
230
1.0
 70
     8
 71
     3
 72
    16
 73
    12
 74
     0
 42
0.000000001
 43
0.00000001
 40
0.0
 40
0.0
 40
0.0
 40
0.0
 40
0.0915356978782495
 40
0.1830633432235329
 40
0.2753996771146607
 40
0.3677267146962474
 40
0.4925705318074073
 40
0.6174129202940688
 40
0.745583249032783
 40
0.8737882839722001
 40
0.9999999999999999
 40
0.9999999999999999
 40
0.9999999999999999
 40
0.9999999999999999
 10
123.265150063137
 20
101.1155444696975
 30
0.0
 10
123.150354714465
 20
100.7019447411432
 30
0.0
 10
122.9207741158404
 20
99.87478166902471
 30
0.0
 10
122.639539754307
 20
98.61390643754183
 30
0.0
 10
122.416216796919
 20
97.3378270224751
 30
0.0
 10
122.2448561471377
 20
95.89599391630392
 30
0.0
 10
122.1699096134818
 20
94.29226516139809
 30
0.0
 10
122.2345012017159
 20
92.51962281874883
 30
0.0
 10
122.4519915577833
 20
90.74375306991064
 30
0.0
 10
122.7942820583566
 20
88.98103372999604
 30
0.0
 10
123.1090160267757
 20
87.83009744227836
 30
0.0
 10
123.265150063137
 20
87.25913800914644
 30
0.0
  0
SPLINE
  5
C4
330
1F
100
AcDbEntity
  8
0
  6
Continuous
 62
     7
370
    25
100
AcDbSpline
210
0.0
220
0.0
230
1.0
 70
     8
 71
     3
 72
    15
 73
    11
 74
     0
 42
0.000000001
 43
0.00000001
 40
0.0
 40
0.0
 40
0.0
 40
0.0
 40
0.1323065044264402
 40
0.2645755999739297
 40
0.3998036789671093
 40
0.5350073556765894
 40
0.6501969475405021
 40
0.7654045076453765
 40
0.8826909144168966
 40
0.9999999999999999
 40
0.9999999999999999
 40
0.9999999999999999
 40
0.9999999999999999
 10
132.8328813890932
 20
87.25913800914644
 30
0.0
 10
132.9960404710109
 20
86.95980918637584
 30
0.0
 10
133.3223125025842
 20
86.3612361742829
 30
0.0
 10
133.6733672056041
 20
85.43948639749009
 30
0.0
 10
133.8844439911333
 20
84.50036128373954
 30
0.0
 10
133.9262413014188
 20
83.59526038569633
 30
0.0
 10
133.8177826687181
 20
82.7390636809118
 30
0.0
 10
133.5955567596572
 20
81.9310311721023
 30
0.0
 10
133.2695789863709
 20
81.12665210299237
 30
0.0
 10
132.9784566359774
 20
80.59619098048772
 30
0.0
 10
132.8328813890932
 20
80.33093477887093
 30
0.0
  0
LINE
  5
C5
330
1F
100
AcDbEntity
  8
0
  6
Continuous
 62
     7
370
    25
100
AcDbLine
 10
134.0490157261
 20
105.9373412394
 30
0.0
 11
134.0490157261
 21
82.4373412394
 31
0.0
  0
SPLINE
  5
C6
330
1F
100
AcDbEntity
  8
0
  6
Continuous
 62
     7
370
    25
100
AcDbSpline
210
0.0
220
0.0
230
1.0
 70
     8
 71
     3
 72
    15
 73
    11
 74
     0
 42
0.000000001
 43
0.00000001
 40
0.0
 40
0.0
 40
0.0
 40
0.0
 40
0.1323065044264403
 40
0.2645755999739297
 40
0.3998036789671092
 40
0.5350073556765893
 40
0.6501969475405021
 40
0.7654045076453764
 40
0.8826909144168966
 40
1.0
 40
1.0
 40
1.0
 40
1.0
 10
123.265150063137
 20
87.25913800914644
 30
0.0
 10
123.1019909812193
 20
86.95980918637584
 30
0.0
 10
122.7757189496459
 20
86.3612361742829
 30
0.0
 10
122.424664246626
 20
85.4394863974901
 30
0.0
 10
122.2135874610969
 20
84.50036128373954
 30
0.0
 10
122.1717901508113
 20
83.59526038569633
 30
0.0
 10
122.2802487835121
 20
82.73906368091178
 30
0.0
 10
122.502474692573
 20
81.9310311721023
 30
0.0
 10
122.8284524658592
 20
81.12665210299235
 30
0.0
 10
123.1195748162527
 20
80.5961909804877
 30
0.0
 10
123.265150063137
 20
80.33093477887093
 30
0.0
  0
LINE
  5
C7
330
1F
100
AcDbEntity
  8
0
  6
Continuous
 62
     7
370
    25
100
AcDbLine
 10
122.0490157261
 20
105.9373412394
 30
0.0
 11
122.0490157261
 21
82.4373412394
 31
0.0
  0
LINE
  5
C8
330
1F
100
AcDbEntity
  8
0
  6
Continuous
 62
     7
370
    25
100
AcDbLine
 10
128.0490157261
 20
88.3227360916
 30
0.0
 11
128.0490157261
 21
86.7273389679
 31
0.0
  0
LINE
  5
C9
330
1F
100
AcDbEntity
  8
0
  6
Continuous
 62
     7
370
    25
100
AcDbLine
 10
127.9150411299
 20
87.2591380091
 30
0.0
 11
128.0490157261
 21
86.7273389679
 31
0.0
  0
LINE
  5
CA
330
1F
100
AcDbEntity
  8
0
  6
Continuous
 62
     7
370
    25
100
AcDbLine
 10
128.1829903223
 20
87.2591380091
 30
0.0
 11
128.0490157261
 21
86.7273389679
 31
0.0
  0
LINE
  5
CB
330
1F
100
AcDbEntity
  8
0
  6
Continuous
 62
     7
370
    25
100
AcDbLine
 10
132.8328813891
 20
80.3309347789
 30
0.0
 11
128.1829903223
 21
80.3309347789
 31
0.0
  0
LINE
  5
CC
330
1F
100
AcDbEntity
  8
0
  6
Continuous
 62
     7
370
    25
100
AcDbLine
 10
128.0490157261
 20
80.8627338201
 30
0.0
 11
128.1829903223
 21
80.3309347789
 31
0.0
  0
LINE
  5
CD
330
1F
100
AcDbEntity
  8
0
  6
Continuous
 62
     7
370
    25
100
AcDbLine
 10
128.0490157261
 20
80.8627338201
 30
0.0
 11
127.9150411299
 21
80.3309347789
 31
0.0
  0
LINE
  5
CE
330
1F
100
AcDbEntity
  8
0
  6
Continuous
 62
     7
370
    25
100
AcDbLine
 10
127.9150411299
 20
80.3309347789
 30
0.0
 11
123.2651500631
 21
80.3309347789
 31
0.0
  0
LINE
  5
CF
330
1F
100
AcDbEntity
  8
0
  6
Continuous
 62
     7
370
    25
100
AcDbLine
 10
136.0490157261
 20
105.4373412394
 30
0.0
 11
136.0490157261
 21
82.9373412394
 31
0.0
  0
LINE
  5
D0
330
1F
100
AcDbEntity
  8
0
  6
Continuous
 62
     7
370
    25
100
AcDbLine
 10
135.5490157261
 20
82.4373412394
 30
0.0
 11
135.5490157261
 21
105.9373412394
 31
0.0
  0
LINE
  5
D1
330
1F
100
AcDbEntity
  8
0
  6
Continuous
 62
     7
370
    25
100
AcDbLine
 10
120.5490157261
 20
94.1873412394
 30
0.0
 11
120.5490157261
 21
82.4373412394
 31
0.0
  0
LINE
  5
D2
330
1F
100
AcDbEntity
  8
0
  6
Continuous
 62
     7
370
    25
100
AcDbLine
 10
120.5490157261
 20
105.9373412394
 30
0.0
 11
120.5490157261
 21
94.1873412394
 31
0.0
  0
LINE
  5
D3
330
1F
100
AcDbEntity
  8
0
  6
Continuous
 62
     7
370
    25
100
AcDbLine
 10
120.0490157261
 20
94.1873412394
 30
0.0
 11
120.0490157261
 21
105.4373412394
 31
0.0
  0
LINE
  5
D4
330
1F
100
AcDbEntity
  8
0
  6
Continuous
 62
     7
370
    25
100
AcDbLine
 10
120.0490157261
 20
82.9373412394
 30
0.0
 11
120.0490157261
 21
94.1873412394
 31
0.0
  0
LINE
  5
D5
330
1F
100
AcDbEntity
  8
0
  6
Continuous
 62
     7
370
    25
100
AcDbLine
 10
128.0490157261
 20
107.5437477
 30
0.0
 11
128.0490157261
 21
107.5119486587
 31
0.0
  0
LINE
  5
D6
330
1F
100
AcDbEntity
  8
0
  6
Continuous
 62
     7
370
    25
100
AcDbLine
 10
128.0490157261
 20
80.8627338201
 30
0.0
 11
128.0490157261
 21
80.8309347789
 31
0.0
  0
LINE
  5
D7
330
1F
100
AcDbEntity
  8
0
  6
Continuous
 62
     7
370
    25
100
AcDbLine
 10
112.9538541647
 20
120.4909499665
 30
0.0
 11
92.3403297102
 21
120.4909499665
 31
0.0
  0
LINE
  5
D8
330
1F
100
AcDbEntity
  8
0
  6
Continuous
 62
     7
370
    25
100
AcDbLine
 10
113.2964788608
 20
109.5269596941
 30
0.0
 11
91.9977050142
 21
109.5269596941
 31
0.0
  0
LINE
  5
D9
330
1F
100
AcDbEntity
  8
0
  6
Continuous
 62
     7
370
    25
100
AcDbLine
 10
117.8050978194
 20
83.7098412394
 30
0.0
 11
117.8050978194
 21
104.6648412394
 31
0.0
  0
LINE
  5
DA
330
1F
100
AcDbEntity
  8
0
  6
Continuous
 62
     7
370
    25
100
AcDbLine
 10
102.6470919375
 20
123.1873412394
 30
0.0
 11
111.3970919375
 21
123.1873412394
 31
0.0
  0
LINE
  5
DB
330
1F
100
AcDbEntity
  8
0
  6
Continuous
 62
     7
370
    25
100
AcDbLine
 10
93.8970919375
 20
123.1873412394
 30
0.0
 11
102.6470919375
 21
123.1873412394
 31
0.0
  0
SPLINE
  5
DC
330
1F
100
AcDbEntity
  8
0
  6
Continuous
 62
     7
370
    25
100
AcDbSpline
210
0.0
220
0.0
230
1.0
 70
    24
 71
     3
 72
     8
 73
     4
 74
     0
 42
0.000000001
 43
0.00000001
 40
0.0
 40
0.0
 40
0.0
 40
0.0
 40
1.0
 40
1.0
 40
1.0
 40
1.0
 10
102.6470919374684
 20
102.6873412394219
 30
0.0
 10
103.6237452802312
 20
102.6873412394219
 30
0.0
 10
104.6001701146076
 20
102.6873412394219
 30
0.0
 10
105.5193732607374
 20
102.6873412394219
 30
0.0
  0
SPLINE
  5
DD
330
1F
100
AcDbEntity
  8
0
  6
Continuous
 62
     7
370
    25
100
AcDbSpline
210
0.0
220
0.0
230
1.0
 70
    24
 71
     3
 72
     8
 73
     4
 74
     0
 42
0.000000001
 43
0.00000001
 40
0.0
 40
0.0
 40
0.0
 40
0.0
 40
1.0
 40
1.0
 40
1.0
 40
1.0
 10
99.77481061419934
 20
102.6873412394219
 30
0.0
 10
100.6940137603291
 20
102.6873412394219
 30
0.0
 10
101.6704385947055
 20
102.6873412394219
 30
0.0
 10
102.6470919374684
 20
102.6873412394219
 30
0.0
  0
SPLINE
  5
DE
330
1F
100
AcDbEntity
  8
0
  6
Continuous
 62
     7
370
    25
100
AcDbSpline
210
0.0
220
0.0
230
1.0
 70
     8
 71
     3
 72
     8
 73
     4
 74
     0
 42
0.000000001
 43
0.00000001
 40
0.0
 40
0.0
 40
0.0
 40
0.0
 40
1.0
 40
1.0
 40
1.0
 40
1.0
 10
95.75506756142326
 20
102.4976908625673
 30
0.0
 10
95.68300131508083
 20
102.4066589322882
 30
0.0
 10
95.62250835751462
 20
102.2967037021139
 30
0.0
 10
95.56375860413502
 20
102.1873412394219
 30
0.0
  0
LINE
  5
DF
330
1F
100
AcDbEntity
  8
0
  6
Continuous
 62
     7
370
    25
100
AcDbLine
 10
95.5637586041
 20
102.1873412394
 30
0.0
 11
95.5637586041
 21
90.1873412394
 31
0.0
  0
SPLINE
  5
E0
330
1F
100
AcDbEntity
  8
0
  6
Continuous
 62
     7
370
    25
100
AcDbSpline
210
0.0
220
0.0
230
1.0
 70
     8
 71
     3
 72
    10
 73
     6
 74
     0
 42
0.000000001
 43
0.00000001
 40
0.0
 40
0.0
 40
0.0
 40
0.0
 40
0.0280934765544326
 40
0.0280934765544326
 40
0.0561869531088653
 40
0.0561869531088653
 40
0.0561869531088653
 40
0.0561869531088653
 10
95.56375860413503
 20
90.18734123942193
 30
0.0
 10
95.56375860413503
 20
90.09369631757383
 30
0.0
 10
95.5673360983796
 20
89.99964041236926
 30
0.0
 10
95.58149757644013
 20
89.81336970026324
 30
0.0
 10
95.59207684828641
 20
89.7211872309791
 30
0.0
 10
95.6057578540782
 20
89.63118389134597
 30
0.0
  0
ELLIPSE
  5
E1
330
1F
100
AcDbEntity
  8
0
  6
Continuous
 62
     7
370
    25
100
AcDbEllipse
 10
107.6470919375
 20
92.6484903473
 30
0.0
 11
0.5653269642954655
 21
1.222133505507372E-12
 31
0.0
210
0.0
220
0.0
230
1.0
 40
0.9531667975
 41
0.4357918987532529
 42
2.705800754832179
  0
LINE
  5
E2
330
1F
100
AcDbEntity
  8
0
  6
Continuous
 62
     7
370
    25
100
AcDbLine
 10
106.042506956
 20
89.8225031301
 30
0.0
 11
107.1346026679
 21
92.8759546222
 31
0.0
  0
ELLIPSE
  5
E3
330
1F
100
AcDbEntity
  8
0
  6
Continuous
 62
     7
370
    25
100
AcDbEllipse
 10
105.4856676909
 20
90.0034442775
 30
0.0
 11
-0.588307735200658
 21
2.842170943040401E-14
 31
0.0
210
0.0
220
0.0
230
1.0
 40
0.9531667975
 41
1.047197551197063
 42
2.813039483038271
  0
LINE
  5
E4
330
1F
100
AcDbEntity
  8
0
  6
Continuous
 62
     7
370
    25
100
AcDbLine
 10
105.1467840629
 20
89.5424311399
 30
0.0
 11
105.1915138233
 21
89.5178158559
 31
0.0
  0
LINE
  5
E5
330
1F
100
AcDbEntity
  8
0
  6
Continuous
 62
     7
370
    25
100
AcDbLine
 10
105.8372941911
 20
88.2260884846
 30
0.0
 11
105.1467840629
 21
89.5424311399
 31
0.0
  0
ELLIPSE
  5
E6
330
1F
100
AcDbEntity
  8
0
  6
Continuous
 62
     7
370
    25
100
AcDbEllipse
 10
105.9030689955
 20
88.2574356644
 30
0.0
 11
0.07353846690023147
 21
1.421085471520200E-14
 31
0.0
210
0.0
220
0.0
230
1.0
 40
0.9531667975
 41
3.605240262590616
 42
5.462183310214823
  0
ELLIPSE
  5
E7
330
1F
100
AcDbEntity
  8
0
  6
Continuous
 62
     7
370
    25
100
AcDbEllipse
 10
107.6470919375
 20
86.4722953253
 30
0.0
 11
2.485600181227454
 21
-1.563194018672220E-13
 31
0.0
210
0.0
220
0.0
230
1.0
 40
0.9531667975
 41
0.8210019969645039
 42
2.320590656625369
  0
ELLIPSE
  5
E8
330
1F
100
AcDbEntity
  8
0
  6
Continuous
 62
     7
370
    25
100
AcDbEllipse
 10
109.3911148794
 20
88.2574356644
 30
0.0
 11
0.07353846690017463
 21
2.842170943040401E-14
 31
0.0
210
0.0
220
0.0
230
1.0
 40
0.9531667975
 41
3.962594650553603
 42
5.819537698178623
  0
LINE
  5
E9
330
1F
100
AcDbEntity
  8
0
  6
Continuous
 62
     7
370
    25
100
AcDbLine
 10
110.1473998121
 20
89.5424311399
 30
0.0
 11
109.4568896838
 21
88.2260884846
 31
0.0
  0
LINE
  5
EA
330
1F
100
AcDbEntity
  8
0
  6
Continuous
 62
     7
370
    25
100
AcDbLine
 10
110.1112813903
 20
89.5217908946
 30
0.0
 11
110.1473998121
 21
89.5424311399
 31
0.0
  0
ELLIPSE
  5
EB
330
1F
100
AcDbEntity
  8
0
  6
Continuous
 62
     7
370
    25
100
AcDbEllipse
 10
109.8087707417
 20
90.0027325456
 30
0.0
 11
-0.5883077352015817
 21
-1.705302565824240E-13
 31
0.0
210
0.0
220
0.0
230
1.0
 40
0.9531667975
 41
0.3285531705511837
 42
2.110876526947608
  0
LINE
  5
EC
330
1F
100
AcDbEntity
  8
0
  6
Continuous
 62
     7
370
    25
100
AcDbLine
 10
108.159581207
 20
92.8759546222
 30
0.0
 11
109.2519314765
 21
89.8217913982
 31
0.0
  0
SPLINE
  5
ED
330
1F
100
AcDbEntity
  8
0
  6
Continuous
 62
     7
370
    25
100
AcDbSpline
210
0.0
220
0.0
230
1.0
 70
     8
 71
     3
 72
    10
 73
     6
 74
     0
 42
0.000000001
 43
0.00000001
 40
-0.2904940295525288
 40
-0.2904940295525288
 40
-0.2904940295525288
 40
-0.2904940295525288
 40
-0.1303072746110114
 40
-0.1303072746110114
 40
0.001056361752625
 40
0.001056361752625
 40
0.001056361752625
 40
0.001056361752625
 10
111.1470919374684
 20
94.18734123942194
 30
0.0
 10
111.017588621694
 20
93.66932797632484
 30
0.0
 10
110.8857976435444
 20
93.14540217268073
 30
0.0
 10
110.7073737041037
 20
92.18699970908555
 30
0.0
 10
110.6470919374684
 20
91.75293870403172
 30
0.0
 10
110.6470919374684
 20
91.31505991615292
 30
0.0
  0
LINE
  5
EE
330
1F
100
AcDbEntity
  8
0
  6
Continuous
 62
     7
370
    25
100
AcDbLine
 10
110.6470919375
 20
91.3150599162
 30
0.0
 11
110.6470919375
 21
87.6873412394
 31
0.0
  0
LINE
  5
EF
330
1F
100
AcDbEntity
  8
0
  6
Continuous
 62
     7
370
    25
100
AcDbLine
 10
110.6470919375
 20
87.6873412394
 30
0.0
 11
98.6470919375
 21
87.6873412394
 31
0.0
  0
ARC
  5
F0
330
1F
100
AcDbEntity
  8
0
  6
Continuous
 62
     7
370
    25
100
AcDbCircle
 10
98.6470919375
 20
90.1873412394
 30
0.0
 40
2.5
100
AcDbArc
 50
180.0
 51
270.0
  0
LINE
  5
F1
330
1F
100
AcDbEntity
  8
0
  6
Continuous
 62
     7
370
    25
100
AcDbLine
 10
96.1470919375
 20
90.1873412394
 30
0.0
 11
96.1470919375
 21
102.1873412394
 31
0.0
  0
LINE
  5
F2
330
1F
100
AcDbEntity
  8
0
  6
Continuous
 62
     7
370
    25
100
AcDbLine
 10
96.1470919375
 20
102.1873412394
 30
0.0
 11
99.7748106142
 21
102.1873412394
 31
0.0
  0
SPLINE
  5
F3
330
1F
100
AcDbEntity
  8
0
  6
Continuous
 62
     7
370
    25
100
AcDbSpline
210
0.0
220
0.0
230
1.0
 70
     8
 71
     3
 72
    10
 73
     6
 74
     0
 42
0.000000001
 43
0.00000001
 40
-0.8711658249657241
 40
-0.8711658249657241
 40
-0.8711658249657241
 40
-0.8711658249657241
 40
-0.7398021886020881
 40
-0.7398021886020881
 40
-0.5796154507864705
 40
-0.5796154507864705
 40
-0.5796154507864705
 40
-0.5796154507864705
 10
99.77481061419935
 20
102.1873412394219
 30
0.0
 10
100.2126894020781
 20
102.1873412394219
 30
0.0
 10
100.6467504071325
 20
102.2476230060573
 30
0.0
 10
101.6051528144301
 20
102.4260469350173
 30
0.0
 10
102.1290787297377
 20
102.5578379374892
 30
0.0
 10
102.6470919374684
 20
102.6873412394219
 30
0.0
  0
SPLINE
  5
F4
330
1F
100
AcDbEntity
  8
0
  6
Continuous
 62
     7
370
    25
100
AcDbSpline
210
0.0
220
0.0
230
1.0
 70
     8
 71
     3
 72
    10
 73
     6
 74
     0
 42
0.000000001
 43
0.00000001
 40
-0.2904940295525327
 40
-0.2904940295525327
 40
-0.2904940295525327
 40
-0.2904940295525327
 40
-0.130307291676468
 40
-0.130307291676468
 40
0.0010563446871674
 40
0.0010563446871674
 40
0.0010563446871674
 40
0.0010563446871674
 10
102.6470919374684
 20
102.6873412394219
 30
0.0
 10
103.1651051453945
 20
102.5578379374404
 30
0.0
 10
103.6890310603079
 20
102.4260469350543
 30
0.0
 10
104.6474334678042
 20
102.2476230060573
 30
0.0
 10
105.0814944728586
 20
102.1873412394219
 30
0.0
 10
105.5193732607374
 20
102.1873412394219
 30
0.0
  0
LINE
  5
F5
330
1F
100
AcDbEntity
  8
0
  6
Continuous
 62
     7
370
    25
100
AcDbLine
 10
105.5193732607
 20
102.1873412394
 30
0.0
 11
109.1470919375
 21
102.1873412394
 31
0.0
  0
ARC
  5
F6
330
1F
100
AcDbEntity
  8
0
  6
Continuous
 62
     7
370
    25
100
AcDbCircle
 10
110.6470919375
 20
102.1873412394
 30
0.0
 40
1.5
100
AcDbArc
 50
180.0
 51
270.0
  0
LINE
  5
F7
330
1F
100
AcDbEntity
  8
0
  6
Continuous
 62
     7
370
    25
100
AcDbLine
 10
110.6470919375
 20
100.6873412394
 30
0.0
 11
110.6470919375
 21
97.0596225627
 31
0.0
  0
SPLINE
  5
F8
330
1F
100
AcDbEntity
  8
0
  6
Continuous
 62
     7
370
    25
100
AcDbSpline
210
0.0
220
0.0
230
1.0
 70
     8
 71
     3
 72
    10
 73
     6
 74
     0
 42
0.000000001
 43
0.00000001
 40
-0.8711658421011628
 40
-0.8711658421011628
 40
-0.8711658421011628
 40
-0.8711658421011628
 40
-0.739802205737527
 40
-0.739802205737527
 40
-0.579615450786466
 40
-0.579615450786466
 40
-0.579615450786466
 40
-0.579615450786466
 10
110.6470919374684
 20
97.05962256269096
 30
0.0
 10
110.6470919374684
 20
96.62174377481217
 30
0.0
 10
110.7073737041037
 20
96.18768276975833
 30
0.0
 10
110.8857976435502
 20
95.22928030613178
 30
0.0
 10
111.0175886216863
 20
94.70535450254988
 30
0.0
 10
111.1470919374684
 20
94.18734123942194
 30
0.0
  0
SPLINE
  5
F9
330
1F
100
AcDbEntity
  8
0
  6
Continuous
 62
     7
370
    25
100
AcDbSpline
210
0.0
220
0.0
230
1.0
 70
    24
 71
     3
 72
     8
 73
     4
 74
     0
 42
0.000000001
 43
0.00000001
 40
0.0
 40
0.0
 40
0.0
 40
0.0
 40
1.0
 40
1.0
 40
1.0
 40
1.0
 10
111.1470919374684
 20
94.18734123942195
 30
0.0
 10
111.1470919374684
 20
93.21068789665911
 30
0.0
 10
111.1470919374684
 20
92.23426306228265
 30
0.0
 10
111.1470919374684
 20
91.31505991615292
 30
0.0
  0
SPLINE
  5
FA
330
1F
100
AcDbEntity
  8
0
  6
Continuous
 62
     7
370
    25
100
AcDbSpline
210
0.0
220
0.0
230
1.0
 70
    24
 71
     3
 72
     8
 73
     4
 74
     0
 42
0.000000001
 43
0.00000001
 40
0.0
 40
0.0
 40
0.0
 40
0.0
 40
1.0
 40
1.0
 40
1.0
 40
1.0
 10
111.1470919374684
 20
97.05962256269096
 30
0.0
 10
111.1470919374684
 20
96.14041941656123
 30
0.0
 10
111.1470919374684
 20
95.16399458218477
 30
0.0
 10
111.1470919374684
 20
94.18734123942195
 30
0.0
  0
SPLINE
  5
FB
330
1F
100
AcDbEntity
  8
0
  6
Continuous
 62
     7
370
    25
100
AcDbSpline
210
0.0
220
0.0
230
1.0
 70
     8
 71
     3
 72
    10
 73
     6
 74
     0
 42
0.000000001
 43
0.00000001
 40
0.0
 40
0.0
 40
0.0
 40
0.0
 40
0.0280934765544328
 40
0.0280934765544328
 40
0.0561869531088657
 40
0.0561869531088657
 40
0.0561869531088657
 40
0.0561869531088657
 10
98.09093458939239
 20
87.1460071560318
 30
0.0
 10
98.18093792902552
 20
87.13232615023999
 30
0.0
 10
98.27312039830966
 20
87.12174687839371
 30
0.0
 10
98.45939111041568
 20
87.10758540033316
 30
0.0
 10
98.55344701562026
 20
87.1040079060886
 30
0.0
 10
98.64709193746836
 20
87.1040079060886
 30
0.0
  0
LINE
  5
FC
330
1F
100
AcDbEntity
  8
0
  6
Continuous
 62
     7
370
    25
100
AcDbLine
 10
98.6470885044
 20
87.1040079061
 30
0.0
 11
110.6470919375
 21
87.1040079061
 31
0.0
  0
SPLINE
  5
FD
330
1F
100
AcDbEntity
  8
0
  6
Continuous
 62
     7
370
    25
100
AcDbSpline
210
0.0
220
0.0
230
1.0
 70
     8
 71
     3
 72
     8
 73
     4
 74
     0
 42
0.000000001
 43
0.00000001
 40
0.0
 40
0.0
 40
0.0
 40
0.0
 40
1.0
 40
1.0
 40
1.0
 40
1.0
 10
110.9574415606137
 20
87.29531686337683
 30
0.0
 10
110.8664096303346
 20
87.2232506170344
 30
0.0
 10
110.7564544001631
 20
87.16275765946664
 30
0.0
 10
110.6470919374684
 20
87.1040079060886
 30
0.0
  0
LINE
  5
FE
330
1F
100
AcDbEntity
  8
0
  6
Continuous
 62
     7
370
    25
100
AcDbLine
 10
109.6470919375
 20
102.6873412394
 30
0.0
 11
105.5193732607
 21
102.6873412394
 31
0.0
  0
LINE
  5
FF
330
1F
100
AcDbEntity
  8
0
  6
Continuous
 62
     7
370
    25
100
AcDbLine
 10
109.1470919375
 20
102.1873412394
 30
0.0
 11
109.6470919375
 21
102.6873412394
 31
0.0
  0
SPLINE
  5
100
330
1F
100
AcDbEntity
  8
0
  6
Continuous
 62
     7
370
    25
100
AcDbSpline
210
0.0
220
0.0
230
1.0
 70
    24
 71
     3
 72
    10
 73
     6
 74
     0
 42
0.000000001
 43
0.00000001
 40
0.0
 40
0.0
 40
0.0
 40
0.0
 40
0.5
 40
0.5
 40
1.0
 40
1.0
 40
1.0
 40
1.0
 10
105.5193732607374
 20
102.6873412394219
 30
0.0
 10
105.5193732607374
 20
102.6873412394219
 30
0.0
 10
105.5193732607374
 20
102.6334546912269
 30
0.0
 10
105.5193732607374
 20
102.4483345688036
 30
0.0
 10
105.5193732607374
 20
102.3182409333215
 30
0.0
 10
105.5193732607374
 20
102.1873412394219
 30
0.0
  0
LINE
  5
101
330
1F
100
AcDbEntity
  8
0
  6
Continuous
 62
     7
370
    25
100
AcDbLine
 10
111.1470919375
 20
97.0596225627
 30
0.0
 11
111.1470919375
 21
100.6873412394
 31
0.0
  0
SPLINE
  5
102
330
1F
100
AcDbEntity
  8
0
  6
Continuous
 62
     7
370
    25
100
AcDbSpline
210
0.0
220
0.0
230
1.0
 70
    24
 71
     3
 72
    10
 73
     6
 74
     0
 42
0.000000001
 43
0.00000001
 40
0.0
 40
0.0
 40
0.0
 40
0.0
 40
0.5
 40
0.5
 40
1.0
 40
1.0
 40
1.0
 40
1.0
 10
110.6470919374684
 20
97.05962256269096
 30
0.0
 10
110.7779916313679
 20
97.05962256269096
 30
0.0
 10
110.90808526685
 20
97.05962256269096
 30
0.0
 10
111.0932053892733
 20
97.05962256269096
 30
0.0
 10
111.1470919374684
 20
97.05962256269096
 30
0.0
 10
111.1470919374684
 20
97.05962256269096
 30
0.0
  0
LINE
  5
103
330
1F
100
AcDbEntity
  8
0
  6
Continuous
 62
     7
370
    25
100
AcDbLine
 10
110.6470919375
 20
100.6873412394
 30
0.0
 11
111.1470919375
 21
100.6873412394
 31
0.0
  0
SPLINE
  5
104
330
1F
100
AcDbEntity
  8
0
  6
Continuous
 62
     7
370
    25
100
AcDbSpline
210
0.0
220
0.0
230
1.0
 70
    24
 71
     3
 72
    10
 73
     6
 74
     0
 42
0.000000001
 43
0.00000001
 40
0.0
 40
0.0
 40
0.0
 40
0.0
 40
0.5
 40
0.5
 40
1.0
 40
1.0
 40
1.0
 40
1.0
 10
99.77481061419935
 20
102.1873412394219
 30
0.0
 10
99.77481061419935
 20
102.3182409333215
 30
0.0
 10
99.77481061419935
 20
102.4483345688036
 30
0.0
 10
99.77481061419935
 20
102.6334546912269
 30
0.0
 10
99.77481061419935
 20
102.6873412394219
 30
0.0
 10
99.77481061419935
 20
102.6873412394219
 30
0.0
  0
LINE
  5
105
330
1F
100
AcDbEntity
  8
0
  6
Continuous
 62
     7
370
    25
100
AcDbLine
 10
96.1470919375
 20
102.6873412394
 30
0.0
 11
96.1470919375
 21
102.1873412394
 31
0.0
  0
LINE
  5
106
330
1F
100
AcDbEntity
  8
0
  6
Continuous
 62
     7
370
    25
100
AcDbLine
 10
99.7748106142
 20
102.6873412394
 30
0.0
 11
96.1470919375
 21
102.6873412394
 31
0.0
  0
SPLINE
  5
107
330
1F
100
AcDbEntity
  8
0
  6
Continuous
 62
     7
370
    25
100
AcDbSpline
210
0.0
220
0.0
230
1.0
 70
    24
 71
     3
 72
    10
 73
     6
 74
     0
 42
0.000000001
 43
0.00000001
 40
0.0
 40
0.0
 40
0.0
 40
0.0
 40
0.5
 40
0.5
 40
1.0
 40
1.0
 40
1.0
 40
1.0
 10
111.1470919374684
 20
91.31505991615292
 30
0.0
 10
111.1470919374684
 20
91.31505991615292
 30
0.0
 10
111.0932053892733
 20
91.31505991615292
 30
0.0
 10
110.90808526685
 20
91.31505991615292
 30
0.0
 10
110.7779916313679
 20
91.31505991615292
 30
0.0
 10
110.6470919374684
 20
91.31505991615292
 30
0.0
  0
LINE
  5
108
330
1F
100
AcDbEntity
  8
0
  6
Continuous
 62
     7
370
    25
100
AcDbLine
 10
111.1470919375
 20
87.6873412394
 30
0.0
 11
111.1470919375
 21
91.3150599162
 31
0.0
  0
LINE
  5
109
330
1F
100
AcDbEntity
  8
0
  6
Continuous
 62
     7
370
    25
100
AcDbLine
 10
110.6470919375
 20
87.6873412394
 30
0.0
 11
111.1470919375
 21
87.6873412394
 31
0.0
  0
ELLIPSE
  5
10A
330
1F
100
AcDbEntity
  8
0
  6
Continuous
 62
     7
370
    25
100
AcDbEllipse
 10
107.3837510488
 20
89.8929032648
 30
0.0
 11
-0.07353846690021726
 21
0.0
 31
0.0
210
0.0
220
0.0
230
1.0
 40
0.9531667975
 41
5.940161364897799
 42
7.853981633974676
  0
LINE
  5
10B
330
1F
100
AcDbEntity
  8
0
  6
Continuous
 62
     7
370
    25
100
AcDbLine
 10
107.5778376829
 20
90.619300388
 30
0.0
 11
107.3144967925
 21
89.9164785713
 31
0.0
  0
LINE
  5
10C
330
1F
100
AcDbEntity
  8
0
  6
Continuous
 62
     7
370
    25
100
AcDbLine
 10
107.979687083
 20
89.9164785711
 30
0.0
 11
107.7163461956
 21
90.6193003879
 31
0.0
  0
ELLIPSE
  5
10D
330
1F
100
AcDbEntity
  8
0
  6
Continuous
 62
     7
370
    25
100
AcDbEllipse
 10
107.9104328265
 20
89.8929032648
 30
0.0
 11
0.07353846690021726
 21
1.421085471520200E-14
 31
0.0
210
0.0
220
0.0
230
1.0
 40
0.9531667975
 41
4.712388980384518
 42
6.626209245739266
  0
LINE
  5
10E
330
1F
100
AcDbEntity
  8
0
  6
Continuous
 62
     7
370
    25
100
AcDbLine
 10
107.3837510488
 20
89.8228088398
 30
0.0
 11
107.9104328265
 21
89.8228088398
 31
0.0
  0
ELLIPSE
  5
10F
330
1F
100
AcDbEntity
  8
0
  6
Continuous
 62
     7
370
    25
100
AcDbEllipse
 10
107.6470919392
 20
90.5957250816
 30
0.0
 11
0.07353846690023147
 21
0.0
 31
0.0
210
0.0
220
0.0
230
1.0
 40
0.9531667975
 41
0.3430239394901047
 42
2.798568712238601
  0
ARC
  5
110
330
1F
100
AcDbEntity
  8
0
  6
Continuous
 62
     7
370
    25
100
AcDbCircle
 10
96.1470919375
 20
102.1873412394
 30
0.0
 40
0.5
100
AcDbArc
 50
90.0
 51
180.0
  0
LINE
  5
111
330
1F
100
AcDbEntity
  8
0
  6
Continuous
 62
     7
370
    25
100
AcDbLine
 10
96.1470919375
 20
102.1873412394
 30
0.0
 11
95.6470919375
 21
102.1873412394
 31
0.0
  0
LINE
  5
112
330
1F
100
AcDbEntity
  8
0
  6
Continuous
 62
     7
370
    25
100
AcDbLine
 10
109.1470919375
 20
102.1873412394
 30
0.0
 11
109.6470919375
 21
102.1873412394
 31
0.0
  0
ARC
  5
113
330
1F
100
AcDbEntity
  8
0
  6
Continuous
 62
     7
370
    25
100
AcDbCircle
 10
110.6470919375
 20
102.1873412394
 30
0.0
 40
1.0
100
AcDbArc
 50
180.0
 51
270.0
  0
LINE
  5
114
330
1F
100
AcDbEntity
  8
0
  6
Continuous
 62
     7
370
    25
100
AcDbLine
 10
110.6470919375
 20
100.6873412394
 30
0.0
 11
110.6470919375
 21
101.1873412394
 31
0.0
  0
ARC
  5
115
330
1F
100
AcDbEntity
  8
0
  6
Continuous
 62
     7
370
    25
100
AcDbCircle
 10
110.6470919375
 20
87.6873412394
 30
0.0
 40
0.5
100
AcDbArc
 50
270.0
 51
0.0
  0
LINE
  5
116
330
1F
100
AcDbEntity
  8
0
  6
Continuous
 62
     7
370
    25
100
AcDbLine
 10
110.6470919375
 20
87.1873412394
 30
0.0
 11
110.6470919375
 21
87.6873412394
 31
0.0
  0
LINE
  5
117
330
1F
100
AcDbEntity
  8
0
  6
Continuous
 62
     7
370
    25
100
AcDbLine
 10
109.6470919375
 20
102.1873412394
 30
0.0
 11
109.6470919375
 21
102.6873412394
 31
0.0
  0
ARC
  5
118
330
1F
100
AcDbEntity
  8
0
  6
Continuous
 62
     7
370
    25
100
AcDbCircle
 10
110.6470919375
 20
100.6873412394
 30
0.0
 40
0.5
100
AcDbArc
 50
0.0
 51
90.0
  0
LINE
  5
119
330
1F
100
AcDbEntity
  8
0
  6
Continuous
 62
     7
370
    25
100
AcDbLine
 10
98.6470919375
 20
87.6873412394
 30
0.0
 11
98.6470919375
 21
87.1873412394
 31
0.0
  0
ARC
  5
11A
330
1F
100
AcDbEntity
  8
0
  6
Continuous
 62
     7
370
    25
100
AcDbCircle
 10
98.6470919375
 20
90.1873412394
 30
0.0
 40
3.0
100
AcDbArc
 50
180.0
 51
270.0
  0
LINE
  5
11B
330
1F
100
AcDbEntity
  8
0
  6
Continuous
 62
     7
370
    25
100
AcDbLine
 10
96.1470919375
 20
90.1873412394
 30
0.0
 11
95.6470919375
 21
90.1873412394
 31
0.0
  0
LINE
  5
11C
330
1F
100
AcDbEntity
  8
0
  6
Continuous
 62
     7
370
    25
100
AcDbLine
 10
95.6470919375
 20
102.1873412394
 30
0.0
 11
95.6470919375
 21
90.1873412394
 31
0.0
  0
LINE
  5
11D
330
1F
100
AcDbEntity
  8
0
  6
Continuous
 62
     7
370
    25
100
AcDbLine
 10
98.6470919375
 20
87.1873412394
 30
0.0
 11
110.6470919375
 21
87.1873412394
 31
0.0
  0
LWPOLYLINE
  5
11E
330
1F
100
AcDbEntity
  8
0
  6
Continuous
 62
     7
370
    25
100
AcDbPolyline
 90
        9
 70
   128
 43
0.0
 10
98.1703856391
 20
87.2254582058
 10
98.1615062464
 20
87.2254008125
 10
98.1522125646
 20
87.2224458139
 10
98.1425591522
 20
87.2166105572
 10
98.1326026792
 20
87.2079292982
 10
98.1224015948
 20
87.1964529998
 10
98.1120157842
 20
87.1822490335
 10
98.101506217
 20
87.1654007832
 10
98.0909345894
 20
87.146007156
  0
SPLINE
  5
11F
330
1F
100
AcDbEntity
  8
0
  6
Continuous
 62
     7
370
    25
100
AcDbSpline
210
0.0
220
0.0
230
1.0
 70
     8
 71
     3
 72
    14
 73
    10
 74
     0
 42
0.000000001
 43
0.00000001
 40
-0.4399100083495733
 40
-0.4399100083495733
 40
-0.4399100083495733
 40
-0.4399100083495733
 40
-0.2980125372576002
 40
-0.2980125372576002
 40
-0.1727985319285605
 40
-0.1727985319285605
 40
-0.0664609738186771
 40
-0.0664609738186771
 40
0.0
 40
0.0
 40
0.0
 40
0.0
 10
95.6057578540782
 20
89.63118389134596
 30
0.0
 10
95.663382641654
 20
89.23643907925442
 30
0.0
 10
95.80280002897504
 20
88.84781822830405
 30
0.0
 10
96.20570438745621
 20
88.19769244190233
 30
0.0
 10
96.45207407994373
 20
87.92689071054053
 30
0.0
 10
96.98394230500115
 20
87.5250761792851
 30
0.0
 10
97.2542697035419
 20
87.38093635312687
 30
0.0
 10
97.7210433050241
 20
87.21793562470249
 30
0.0
 10
97.90604669519962
 20
87.17299706267994
 30
0.0
 10
98.09093458939239
 20
87.1460071560318
 30
0.0
  0
LWPOLYLINE
  5
120
330
1F
100
AcDbEntity
  8
0
  6
Continuous
 62
     7
370
    25
100
AcDbPolyline
 90
        9
 70
   128
 43
0.0
 10
95.6852089038
 20
89.7106349411
 10
95.6851515106
 20
89.7017555483
 10
95.682196512
 20
89.6924618666
 10
95.6763612553
 20
89.6828084541
 10
95.6676799962
 20
89.6728519811
 10
95.6562036979
 20
89.6626508967
 10
95.6419997315
 20
89.6522650861
 10
95.6251514812
 20
89.641755519
 10
95.6057578541
 20
89.6311838913
  0
LINE
  5
121
330
1F
100
AcDbEntity
  8
0
  6
Continuous
 62
     7
370
    25
100
AcDbLine
 10
95.6470919375
 20
90.1873412394
 30
0.0
 11
95.5637586041
 21
90.1873412394
 31
0.0
  0
LWPOLYLINE
  5
122
330
1F
100
AcDbEntity
  8
0
  6
Continuous
 62
     7
370
    25
100
AcDbPolyline
 90
        9
 70
   128
 43
0.0
 10
98.6470919375
 20
87.1873412394
 10
98.6470919375
 20
87.1860018864
 10
98.6470919375
 20
87.1819910029
 10
98.6470919375
 20
87.1753300767
 10
98.6470919375
 20
87.1660547933
 10
98.6470919375
 20
87.1542148441
 10
98.6470919375
 20
87.1398736607
 10
98.6470919375
 20
87.1231080746
 10
98.6470885044
 20
87.1040079061
  0
LINE
  5
123
330
1F
100
AcDbEntity
  8
0
  6
Continuous
 62
     7
370
    25
100
AcDbLine
 10
95.6470919375
 20
102.1873412394
 30
0.0
 11
95.5637586041
 21
102.1873412394
 31
0.0
  0
LINE
  5
124
330
1F
100
AcDbEntity
  8
0
  6
Continuous
 62
     7
370
    25
100
AcDbLine
 10
110.6470919375
 20
87.1040079061
 30
0.0
 11
110.6470919375
 21
87.1873412394
 31
0.0
  0
LINE
  5
125
330
1F
100
AcDbEntity
  8
0
  6
Continuous
 62
     8
370
    25
100
AcDbLine
 10
92.7720919375
 20
108.9199126269
 30
0.0
 11
112.5220919375
 21
108.9199126269
 31
0.0
  0
LINE
  5
126
330
1F
100
AcDbEntity
  8
0
  6
Continuous
 62
     8
370
    25
100
AcDbLine
 10
117.3796633249
 20
104.0623412394
 30
0.0
 11
117.3796633249
 21
84.3123412394
 31
0.0
  0
LINE
  5
127
330
1F
100
AcDbEntity
  8
0
  6
Continuous
 62
     8
370
    25
100
AcDbLine
 10
94.1470919375
 20
106.6873412394
 30
0.0
 11
111.1470919375
 21
106.6873412394
 31
0.0
  0
LINE
  5
128
330
1F
100
AcDbEntity
  8
0
  6
Continuous
 62
     8
370
    25
100
AcDbLine
 10
115.1470919375
 20
102.6873412394
 30
0.0
 11
115.1470919375
 21
85.6873412394
 31
0.0
  0
SPLINE
  5
129
330
1F
100
AcDbEntity
  8
0
  6
Continuous
 62
     8
370
    25
100
AcDbSpline
210
0.0
220
0.0
230
1.0
 70
    24
 71
     3
 72
    12
 73
     8
 74
     0
 42
0.000000001
 43
0.00000001
 40
-0.5788447217180464
 40
-0.5788447217180464
 40
-0.5788447217180464
 40
-0.5788447217180464
 40
-0.3728576618289314
 40
-0.3728576618289314
 40
-0.0432783660063474
 40
-0.0432783660063474
 40
0.0
 40
0.0
 40
0.0
 40
0.0
 10
111.1470919374684
 20
103.1873412394219
 30
0.0
 10
111.1470919374685
 20
103.1873412394221
 30
0.0
 10
111.0867701812752
 20
103.1234711446292
 30
0.0
 10
110.7764033467139
 20
102.7948474374466
 30
0.0
 10
110.4334682624718
 20
102.4317397011903
 30
0.0
 10
109.8943422464748
 20
101.8609003901346
 30
0.0
 10
109.8294530783246
 20
101.7921942120932
 30
0.0
 10
109.7623298274375
 20
101.7211225346833
 30
0.0
  0
SPLINE
  5
12A
330
1F
100
AcDbEntity
  8
0
  6
Continuous
 62
     8
370
    25
100
AcDbSpline
210
0.0
220
0.0
230
1.0
 70
     8
 71
     3
 72
    12
 73
     8
 74
     0
 42
0.000000001
 43
0.00000001
 40
0.0
 40
0.0
 40
0.0
 40
0.0
 40
0.0430206627346149
 40
0.0430206627346149
 40
0.3824319177041577
 40
0.3824319177041577
 40
0.594563952060122
 40
0.594563952060122
 40
0.594563952060122
 40
0.594563952060122
 10
95.60580904615794
 20
89.63118387809055
 30
0.0
 10
95.5375042374981
 20
89.5869863470857
 30
0.0
 10
95.47137851930414
 20
89.5441988257393
 30
0.0
 10
94.90358990250631
 20
89.17680368581748
 30
0.0
 10
94.54010260070416
 20
88.94160441009787
 30
0.0
 10
94.21108055454388
 20
88.72870630912287
 30
0.0
 10
94.1470919377334
 20
88.68730161645567
 30
0.0
 10
94.1470919377334
 20
88.68730161645567
 30
0.0
  0
SPLINE
  5
12B
330
1F
100
AcDbEntity
  8
0
  6
Continuous
 62
     8
370
    25
100
AcDbSpline
210
0.0
220
0.0
230
1.0
 70
    24
 71
     3
 72
    12
 73
     8
 74
     0
 42
0.000000001
 43
0.00000001
 40
-0.5788447217180465
 40
-0.5788447217180465
 40
-0.5788447217180465
 40
-0.5788447217180465
 40
-0.535566355711699
 40
-0.535566355711699
 40
-0.205987059889115
 40
-0.205987059889115
 40
0.0
 40
0.0
 40
0.0
 40
0.0
 10
110.1808732327298
 20
101.302579129391
 30
0.0
 10
110.2519449101397
 20
101.3697023802782
 30
0.0
 10
110.3206510881811
 20
101.4345915484284
 30
0.0
 10
110.8914903992367
 20
101.9737175644254
 30
0.0
 10
111.254598135493
 20
102.3166526486674
 30
0.0
 10
111.5832218426756
 20
102.6270194832288
 30
0.0
 10
111.6470919374685
 20
102.6873412394221
 30
0.0
 10
111.6470919374684
 20
102.6873412394219
 30
0.0
  0
SPLINE
  5
12C
330
1F
100
AcDbEntity
  8
0
  6
Continuous
 62
     8
370
    25
100
AcDbSpline
210
0.0
220
0.0
230
1.0
 70
     8
 71
     3
 72
    12
 73
     8
 74
     0
 42
0.000000001
 43
0.00000001
 40
0.0
 40
0.0
 40
0.0
 40
0.0
 40
0.2121320343559643
 40
0.2121320343559643
 40
0.5515432893255071
 40
0.5515432893255071
 40
0.5945639520601226
 40
0.5945639520601226
 40
0.5945639520601226
 40
0.5945639520601226
 10
97.14705231450209
 20
85.68734123968699
 30
0.0
 10
97.14705231450209
 20
85.68734123968699
 30
0.0
 10
97.1884570071693
 20
85.75132985649748
 30
0.0
 10
97.40135510814429
 20
86.08035190265772
 30
0.0
 10
97.6365543838639
 20
86.44383920445989
 30
0.0
 10
98.00394952378574
 20
87.01162782125772
 30
0.0
 10
98.04673704513212
 20
87.07775353945169
 30
0.0
 10
98.09093457613696
 20
87.14605834811152
 30
0.0
  0
LINE
  5
12D
330
1F
100
AcDbEntity
  8
0
  6
Continuous
 62
     7
370
     0
100
AcDbLine
 10
111.9949520662
 20
122.1518171207
 30
0.0
 11
112.3894669375
 21
109.5273412394
 31
0.0
  0
LINE
  5
12E
330
1F
100
AcDbEntity
  8
0
  6
Continuous
 62
     7
370
     0
100
AcDbLine
 10
93.2992318088
 20
122.1518171207
 30
0.0
 11
92.9047169375
 21
109.5273412394
 31
0.0
  0
LINE
  5
12F
330
1F
100
AcDbEntity
  8
0
  6
Continuous
 62
     7
370
     0
100
AcDbLine
 10
91.9977169375
 20
109.5273412394
 30
0.0
 11
113.2964669375
 21
109.5273412394
 31
0.0
  0
LINE
  5
130
330
1F
100
AcDbEntity
  8
0
  6
CENTERX2
 62
     7
370
    18
100
AcDbLine
 10
169.0490157261
 20
94.1873412394
 30
0.0
 11
91.2341879972
 21
94.1873412394
 31
0.0
  0
LINE
  5
131
330
1F
100
AcDbEntity
  8
0
  6
CENTERX2
 62
     7
370
    18
100
AcDbLine
 10
102.6470919375
 20
120.4909499665
 30
0.0
 11
102.6470919375
 21
80.6891112141
 31
0.0
  0
LINE
  5
132
330
1F
100
AcDbEntity
  8
0
  6
CENTERX2
 62
     7
370
    18
100
AcDbLine
 10
102.6470919375
 20
120.4909499665
 30
0.0
 11
102.6470919375
 21
125.1873412394
 31
0.0
  0
LINE
  5
133
330
1F
100
AcDbEntity
  8
0
  6
Continuous
 62
     7
370
    25
100
AcDbLine
 10
214.9276362712
 20
109.5269596941
 30
0.0
 11
214.5850115752
 21
120.4909499665
 31
0.0
  0
LINE
  5
134
330
1F
100
AcDbEntity
  8
0
  6
Continuous
 62
     7
370
    25
100
AcDbLine
 10
193.9714871206
 20
120.4909499665
 30
0.0
 11
193.6288624246
 21
109.5269596941
 31
0.0
  0
ARC
  5
135
330
1F
100
AcDbEntity
  8
0
  6
Continuous
 62
     7
370
    25
100
AcDbCircle
 10
213.0282493479
 20
111.1524840143
 30
0.0
 40
2.500000000000022
100
AcDbArc
 50
296.7436839504
 51
319.4425836613
  0
ARC
  5
136
330
1F
100
AcDbEntity
  8
0
  6
Continuous
 62
     7
370
    25
100
AcDbCircle
 10
195.5282493479
 20
111.1524840143
 30
0.0
 40
2.500000000000022
100
AcDbArc
 50
220.5574163387
 51
243.2563160496
  0
LINE
  5
137
330
1F
100
AcDbEntity
  8
0
  6
Continuous
 62
     7
370
    25
100
AcDbLine
 10
214.5850115752
 20
120.4909499665
 30
0.0
 11
213.0282493479
 21
123.1873412394
 31
0.0
  0
LINE
  5
138
330
1F
100
AcDbEntity
  8
0
  6
Continuous
 62
     7
370
    25
100
AcDbLine
 10
195.5282493479
 20
123.1873412394
 30
0.0
 11
193.9714871206
 21
120.4909499665
 31
0.0
  0
ARC
  5
139
330
1F
100
AcDbEntity
  8
0
  6
Continuous
 62
     7
370
    25
100
AcDbCircle
 10
215.2782493479
 20
106.6873412394
 30
0.0
 40
2.5
100
AcDbArc
 50
116.7436839504
 51
180.0
  0
ARC
  5
13A
330
1F
100
AcDbEntity
  8
0
  6
Continuous
 62
     7
370
    25
100
AcDbCircle
 10
193.2782493479
 20
106.6873412394
 30
0.0
 40
2.500000000000028
100
AcDbArc
 50
0.0
 51
63.2563160496
  0
LINE
  5
13B
330
1F
100
AcDbEntity
  8
0
  6
Continuous
 62
     7
370
    25
100
AcDbLine
 10
195.7782493479
 20
106.6873412394
 30
0.0
 11
195.7782493479
 21
103.1362704119
 31
0.0
  0
LINE
  5
13C
330
1F
100
AcDbEntity
  8
0
  6
Continuous
 62
     7
370
    25
100
AcDbLine
 10
212.7782493479
 20
103.1362704119
 30
0.0
 11
212.7782493479
 21
106.6873412394
 31
0.0
  0
CIRCLE
  5
13D
330
1F
100
AcDbEntity
  8
0
  6
Continuous
 62
     7
370
    25
100
AcDbCircle
 10
204.2782493479
 20
94.1873412394
 30
0.0
 40
5.453445510451161
  0
CIRCLE
  5
13E
330
1F
100
AcDbEntity
  8
0
  6
Continuous
 62
     7
370
    25
100
AcDbCircle
 10
204.2782493479
 20
94.1873412394
 30
0.0
 40
6.330236875589591
  0
CIRCLE
  5
13F
330
1F
100
AcDbEntity
  8
0
  6
Continuous
 62
     7
370
    25
100
AcDbCircle
 10
204.2782493479
 20
94.1873412394
 30
0.0
 40
5.199999999999989
  0
CIRCLE
  5
140
330
1F
100
AcDbEntity
  8
0
  6
Continuous
 62
     7
370
    25
100
AcDbCircle
 10
204.2782493479
 20
94.1873412394
 30
0.0
 40
4.999999999999972
  0
CIRCLE
  5
141
330
1F
100
AcDbEntity
  8
0
  6
Continuous
 62
     7
370
    25
100
AcDbCircle
 10
204.2782493479
 20
94.1873412394
 30
0.0
 40
7.0
  0
CIRCLE
  5
142
330
1F
100
AcDbEntity
  8
0
  6
Continuous
 62
     7
370
    25
100
AcDbCircle
 10
204.2782493479
 20
94.1873412394
 30
0.0
 40
7.999999999999972
  0
CIRCLE
  5
143
330
1F
100
AcDbEntity
  8
0
  6
Continuous
 62
     7
370
    25
100
AcDbCircle
 10
204.2782493479
 20
94.1873412394
 30
0.0
 40
11.25
  0
CIRCLE
  5
144
330
1F
100
AcDbEntity
  8
0
  6
Continuous
 62
     7
370
    25
100
AcDbCircle
 10
204.2782493479
 20
94.1873412394
 30
0.0
 40
11.75
  0
CIRCLE
  5
145
330
1F
100
AcDbEntity
  8
0
  6
Continuous
 62
     7
370
    25
100
AcDbCircle
 10
204.2782493479
 20
94.1873412394
 30
0.0
 40
8.349999999999994
  0
CIRCLE
  5
146
330
1F
100
AcDbEntity
  8
0
  6
Continuous
 62
     7
370
    25
100
AcDbCircle
 10
204.2782493479
 20
94.1873412394
 30
0.0
 40
8.25
  0
SPLINE
  5
147
330
1F
100
AcDbEntity
  8
0
  6
Continuous
 62
     7
370
    25
100
AcDbSpline
210
0.0
220
0.0
230
1.0
 70
    24
 71
     3
 72
    15
 73
    11
 74
     0
 42
0.000000001
 43
0.00000001
 40
0.0
 40
0.0
 40
0.0
 40
0.0
 40
0.13230650442644
 40
0.2645755999739293
 40
0.3998036789671088
 40
0.5350073556765887
 40
0.6501969475405014
 40
0.7654045076453758
 40
0.8826909144168963
 40
0.9999999999999999
 40
0.9999999999999999
 40
0.9999999999999999
 40
0.9999999999999999
 10
216.2782493479035
 20
101.1155444696975
 30
0.0
 10
215.7597966186951
 20
101.4148732924681
 30
0.0
 10
214.7230377497106
 20
102.013446304561
 30
0.0
 10
213.1265203044402
 20
102.9351960813538
 30
0.0
 10
211.4999078927603
 20
103.8743211951043
 30
0.0
 10
209.9322271513733
 20
104.7794220931475
 30
0.0
 10
208.4492509574134
 20
105.6356187979321
 30
0.0
 10
207.049697597988
 20
106.4436513067416
 30
0.0
 10
205.6564721817446
 20
107.2480303758515
 30
0.0
 10
204.7376865661265
 20
107.7784914983562
 30
0.0
 10
204.2782493479035
 20
108.043747699973
 30
0.0
  0
SPLINE
  5
148
330
1F
100
AcDbEntity
  8
0
  6
Continuous
 62
     7
370
    25
100
AcDbSpline
210
0.0
220
0.0
230
1.0
 70
    24
 71
     3
 72
    16
 73
    12
 74
     0
 42
0.000000001
 43
0.00000001
 40
0.0
 40
0.0
 40
0.0
 40
0.0
 40
0.126211851210369
 40
0.251202065376351
 40
0.3761607760521393
 40
0.5042162939840996
 40
0.6322727081776326
 40
0.7237405332378762
 40
0.8152173057580782
 40
0.9076044663789502
 40
1.0
 40
1.0
 40
1.0
 40
1.0
 10
216.2782493479035
 20
87.25913800914644
 30
0.0
 10
216.2782493479035
 20
87.8300953197188
 30
0.0
 10
216.2782493479035
 20
88.96648349786572
 30
0.0
 10
216.2782493479035
 20
90.69922696405035
 30
0.0
 10
216.2782493479035
 20
92.45937235702841
 30
0.0
 10
216.2782493479035
 20
94.24698322836207
 30
0.0
 10
216.2782493479035
 20
95.87700546779635
 30
0.0
 10
216.2782493479035
 20
97.32582301335648
 30
0.0
 10
216.2782493479035
 20
98.59808625170497
 30
0.0
 10
216.2782493479035
 20
99.86309293687715
 30
0.0
 10
216.2782493479035
 20
100.6980480140716
 30
0.0
 10
216.2782493479035
 20
101.1155444696975
 30
0.0
  0
SPLINE
  5
149
330
1F
100
AcDbEntity
  8
0
  6
Continuous
 62
     7
370
    25
100
AcDbSpline
210
0.0
220
0.0
230
1.0
 70
    24
 71
     3
 72
    15
 73
    11
 74
     0
 42
0.000000001
 43
0.00000001
 40
0.0
 40
0.0
 40
0.0
 40
0.0
 40
0.1323065044264402
 40
0.2645755999739297
 40
0.3998036789671092
 40
0.5350073556765893
 40
0.6501969475405021
 40
0.7654045076453766
 40
0.882690914416897
 40
1.0
 40
1.0
 40
1.0
 40
1.0
 10
204.2782493479036
 20
80.33093477887093
 30
0.0
 10
204.796702077112
 20
80.63026360164153
 30
0.0
 10
205.8334609460965
 20
81.22883661373447
 30
0.0
 10
207.4299783913669
 20
82.15058639052728
 30
0.0
 10
209.0565908030468
 20
83.08971150427783
 30
0.0
 10
210.6242715444338
 20
83.99481240232102
 30
0.0
 10
212.1072477383937
 20
84.85100910710557
 30
0.0
 10
213.5068010978191
 20
85.65904161591506
 30
0.0
 10
214.9000265140625
 20
86.463420685025
 30
0.0
 10
215.8188121296805
 20
86.99388180752965
 30
0.0
 10
216.2782493479035
 20
87.25913800914644
 30
0.0
  0
SPLINE
  5
14A
330
1F
100
AcDbEntity
  8
0
  6
Continuous
 62
     7
370
    25
100
AcDbSpline
210
0.0
220
0.0
230
1.0
 70
    24
 71
     3
 72
    15
 73
    11
 74
     0
 42
0.000000001
 43
0.00000001
 40
0.0
 40
0.0
 40
0.0
 40
0.0
 40
0.1323065044264402
 40
0.2645755999739297
 40
0.3998036789671094
 40
0.5350073556765895
 40
0.6501969475405022
 40
0.7654045076453766
 40
0.8826909144168968
 40
1.0
 40
1.0
 40
1.0
 40
1.0
 10
192.2782493479035
 20
87.25913800914644
 30
0.0
 10
192.796702077112
 20
86.95980918637584
 30
0.0
 10
193.8334609460965
 20
86.3612361742829
 30
0.0
 10
195.4299783913669
 20
85.4394863974901
 30
0.0
 10
197.0565908030468
 20
84.50036128373954
 30
0.0
 10
198.6242715444338
 20
83.59526038569633
 30
0.0
 10
200.1072477383937
 20
82.7390636809118
 30
0.0
 10
201.5068010978191
 20
81.93103117210231
 30
0.0
 10
202.9000265140625
 20
81.12665210299235
 30
0.0
 10
203.8188121296805
 20
80.59619098048772
 30
0.0
 10
204.2782493479036
 20
80.33093477887093
 30
0.0
  0
SPLINE
  5
14B
330
1F
100
AcDbEntity
  8
0
  6
Continuous
 62
     7
370
    25
100
AcDbSpline
210
0.0
220
0.0
230
1.0
 70
    24
 71
     3
 72
    16
 73
    12
 74
     0
 42
0.000000001
 43
0.00000001
 40
0.0
 40
0.0
 40
0.0
 40
0.0
 40
0.0915356978782496
 40
0.1830633432235328
 40
0.2753996771146607
 40
0.3677267146962474
 40
0.4925705318074073
 40
0.6174129202940688
 40
0.7455832490327828
 40
0.8737882839722001
 40
1.0
 40
1.0
 40
1.0
 40
1.0
 10
192.2782493479035
 20
101.1155444696974
 30
0.0
 10
192.2782493479035
 20
100.7019447411432
 30
0.0
 10
192.2782493479035
 20
99.87478166902471
 30
0.0
 10
192.2782493479035
 20
98.61390643754184
 30
0.0
 10
192.2782493479035
 20
97.3378270224751
 30
0.0
 10
192.2782493479035
 20
95.89599391630392
 30
0.0
 10
192.2782493479035
 20
94.29226516139809
 30
0.0
 10
192.2782493479035
 20
92.51962281874883
 30
0.0
 10
192.2782493479035
 20
90.74375306991064
 30
0.0
 10
192.2782493479035
 20
88.98103372999604
 30
0.0
 10
192.2782493479035
 20
87.83009744227837
 30
0.0
 10
192.2782493479035
 20
87.25913800914644
 30
0.0
  0
SPLINE
  5
14C
330
1F
100
AcDbEntity
  8
0
  6
Continuous
 62
     7
370
    25
100
AcDbSpline
210
0.0
220
0.0
230
1.0
 70
    24
 71
     3
 72
    15
 73
    11
 74
     0
 42
0.000000001
 43
0.00000001
 40
0.0
 40
0.0
 40
0.0
 40
0.0
 40
0.1323065044264403
 40
0.2645755999739297
 40
0.3998036789671093
 40
0.5350073556765893
 40
0.6501969475405021
 40
0.7654045076453766
 40
0.8826909144168967
 40
0.9999999999999999
 40
0.9999999999999999
 40
0.9999999999999999
 40
0.9999999999999999
 10
204.2782493479035
 20
108.043747699973
 30
0.0
 10
203.759796618695
 20
107.7444188772023
 30
0.0
 10
202.7230377497106
 20
107.1458458651094
 30
0.0
 10
201.1265203044402
 20
106.2240960883166
 30
0.0
 10
199.4999078927603
 20
105.2849709745661
 30
0.0
 10
197.9322271513733
 20
104.3798700765229
 30
0.0
 10
196.4492509574134
 20
103.5236733717383
 30
0.0
 10
195.049697597988
 20
102.7156408629288
 30
0.0
 10
193.6564721817446
 20
101.9112617938189
 30
0.0
 10
192.7376865661265
 20
101.3808006713142
 30
0.0
 10
192.2782493479035
 20
101.1155444696974
 30
0.0
  0
LINE
  5
14D
330
1F
100
AcDbEntity
  8
0
  6
Continuous
 62
     7
370
    25
100
AcDbLine
 10
204.2782493479
 20
120.4909499665
 30
0.0
 11
193.9714871206
 21
120.4909499665
 31
0.0
  0
LINE
  5
14E
330
1F
100
AcDbEntity
  8
0
  6
Continuous
 62
     7
370
    25
100
AcDbLine
 10
214.5850115752
 20
120.4909499665
 30
0.0
 11
204.2782493479
 21
120.4909499665
 31
0.0
  0
LINE
  5
14F
330
1F
100
AcDbEntity
  8
0
  6
Continuous
 62
     7
370
    25
100
AcDbLine
 10
214.9276362712
 20
109.5269596941
 30
0.0
 11
193.6288624246
 21
109.5269596941
 31
0.0
  0
LINE
  5
150
330
1F
100
AcDbEntity
  8
0
  6
Continuous
 62
     7
370
    25
100
AcDbLine
 10
195.5282493479
 20
123.1873412394
 30
0.0
 11
213.0282493479
 21
123.1873412394
 31
0.0
  0
LINE
  5
151
330
1F
100
AcDbEntity
  8
0
  6
Continuous
 62
     7
370
    25
100
AcDbLine
 10
208.8608250429
 20
92.1873412394
 30
0.0
 11
199.6956736529
 21
92.1873412394
 31
0.0
  0
LINE
  5
152
330
1F
100
AcDbEntity
  8
0
  6
Continuous
 62
     8
370
    25
100
AcDbLine
 10
204.2782493479
 20
108.9199126269
 30
0.0
 11
214.1532493479
 21
108.9199126269
 31
0.0
  0
LINE
  5
153
330
1F
100
AcDbEntity
  8
0
  6
Continuous
 62
     8
370
    25
100
AcDbLine
 10
194.4032493479
 20
108.9199126269
 30
0.0
 11
204.2782493479
 21
108.9199126269
 31
0.0
  0
LINE
  5
154
330
1F
100
AcDbEntity
  8
0
  6
Continuous
 62
     8
370
    25
100
AcDbLine
 10
206.634822012
 20
106.6873412394
 30
0.0
 11
212.7782493479
 21
106.6873412394
 31
0.0
  0
LINE
  5
155
330
1F
100
AcDbEntity
  8
0
  6
Continuous
 62
     8
370
    25
100
AcDbLine
 10
195.7782493479
 20
106.6873412394
 30
0.0
 11
201.9215807416
 21
106.6873412394
 31
0.0
  0
INSERT
  5
161
330
1F
100
AcDbEntity
  8
0
  6
Continuous
 62
     7
370
    18
100
AcDbBlockReference
  2
SW_CENTERMARKSYMBOL_0
 10
204.2782493479
 20
94.1873412394
 30
0.0
  0
LINE
  5
162
330
1F
100
AcDbEntity
  8
0
  6
Continuous
 62
     7
370
     0
100
AcDbLine
 10
213.6261094766
 20
122.1518171207
 30
0.0
 11
214.0206243479
 21
109.5273412394
 31
0.0
  0
LINE
  5
163
330
1F
100
AcDbEntity
  8
0
  6
Continuous
 62
     7
370
     0
100
AcDbLine
 10
194.9303892192
 20
122.1518171207
 30
0.0
 11
194.5358743479
 21
109.5273412394
 31
0.0
  0
LINE
  5
164
330
1F
100
AcDbEntity
  8
0
  6
Continuous
 62
     7
370
     0
100
AcDbLine
 10
193.6288743479
 20
109.5273412394
 30
0.0
 11
214.9276243479
 21
109.5273412394
 31
0.0
  0
ARC
  5
165
330
1F
100
AcDbEntity
  8
0
  6
Continuous
 62
     7
370
     0
100
AcDbCircle
 10
204.2782493479
 20
94.1873412394
 30
0.0
 40
10.4775
100
AcDbArc
 50
75.0
 51
345.0
  0
LINE
  5
166
330
1F
100
AcDbEntity
  8
0
  6
Continuous
 62
     7
370
    25
100
AcDbLine
 10
136.0490157261
 20
162.6342172297
 30
0.0
 11
136.5490157261
 21
162.6342172297
 31
0.0
  0
LINE
  5
167
330
1F
100
AcDbEntity
  8
0
  6
Continuous
 62
     7
370
    25
100
AcDbLine
 10
136.5490157261
 20
178.6342172297
 30
0.0
 11
136.0490157261
 21
178.6342172297
 31
0.0
  0
LINE
  5
168
330
1F
100
AcDbEntity
  8
0
  6
Continuous
 62
     7
370
    25
100
AcDbLine
 10
142.5490157261
 20
177.6342172297
 30
0.0
 11
136.5490157261
 21
177.6342172297
 31
0.0
  0
LINE
  5
169
330
1F
100
AcDbEntity
  8
0
  6
Continuous
 62
     7
370
    25
100
AcDbLine
 10
136.5490157261
 20
163.6342172297
 30
0.0
 11
142.5490157261
 21
163.6342172297
 31
0.0
  0
LINE
  5
16A
330
1F
100
AcDbEntity
  8
0
  6
Continuous
 62
     7
370
    25
100
AcDbLine
 10
142.5490157261
 20
163.6342172297
 30
0.0
 11
147.0490157261
 21
164.3842172297
 31
0.0
  0
LINE
  5
16B
330
1F
100
AcDbEntity
  8
0
  6
Continuous
 62
     7
370
    25
100
AcDbLine
 10
147.0490157261
 20
176.8842172297
 30
0.0
 11
142.5490157261
 21
177.6342172297
 31
0.0
  0
LINE
  5
16C
330
1F
100
AcDbEntity
  8
0
  6
Continuous
 62
     7
370
    25
100
AcDbLine
 10
160.5490157261
 20
163.6342172297
 30
0.0
 11
166.353629471
 21
164.3039803541
 31
0.0
  0
LINE
  5
16D
330
1F
100
AcDbEntity
  8
0
  6
Continuous
 62
     7
370
    25
100
AcDbLine
 10
166.353629471
 20
176.9644541053
 30
0.0
 11
160.5490157261
 21
177.6342172297
 31
0.0
  0
LINE
  5
16E
330
1F
100
AcDbEntity
  8
0
  6
Continuous
 62
     7
370
    25
100
AcDbLine
 10
147.0490157261
 20
163.6342172297
 30
0.0
 11
151.5490157261
 21
164.3842172297
 31
0.0
  0
LINE
  5
16F
330
1F
100
AcDbEntity
  8
0
  6
Continuous
 62
     7
370
    25
100
AcDbLine
 10
151.5490157261
 20
176.8842172297
 30
0.0
 11
147.0490157261
 21
177.6342172297
 31
0.0
  0
LINE
  5
170
330
1F
100
AcDbEntity
  8
0
  6
Continuous
 62
     7
370
    25
100
AcDbLine
 10
156.0490157261
 20
163.6342172297
 30
0.0
 11
160.5490157261
 21
164.3842172297
 31
0.0
  0
LINE
  5
171
330
1F
100
AcDbEntity
  8
0
  6
Continuous
 62
     7
370
    25
100
AcDbLine
 10
160.5490157261
 20
176.8842172297
 30
0.0
 11
156.0490157261
 21
177.6342172297
 31
0.0
  0
LINE
  5
172
330
1F
100
AcDbEntity
  8
0
  6
Continuous
 62
     7
370
    25
100
AcDbLine
 10
151.5490157261
 20
163.6342172297
 30
0.0
 11
156.0490157261
 21
164.3842172297
 31
0.0
  0
LINE
  5
173
330
1F
100
AcDbEntity
  8
0
  6
Continuous
 62
     7
370
    25
100
AcDbLine
 10
156.0490157261
 20
176.8842172297
 30
0.0
 11
151.5490157261
 21
177.6342172297
 31
0.0
  0
LINE
  5
174
330
1F
100
AcDbEntity
  8
0
  6
Continuous
 62
     7
370
    25
100
AcDbLine
 10
166.353629471
 20
164.3039803541
 30
0.0
 11
167.0490157261
 21
165.1807717193
 31
0.0
  0
LINE
  5
175
330
1F
100
AcDbEntity
  8
0
  6
Continuous
 62
     7
370
    25
100
AcDbLine
 10
167.0490157261
 20
176.0876627402
 30
0.0
 11
166.353629471
 21
176.9644541053
 31
0.0
  0
LINE
  5
176
330
1F
100
AcDbEntity
  8
0
  6
Continuous
 62
     7
370
    25
100
AcDbLine
 10
133.9046781588
 20
158.6342172297
 30
0.0
 11
134.0490157261
 21
158.8842172297
 31
0.0
  0
LINE
  5
177
330
1F
100
AcDbEntity
  8
0
  6
Continuous
 62
     7
370
    25
100
AcDbLine
 10
134.0490157261
 20
182.3842172297
 30
0.0
 11
133.9046781588
 21
182.6342172297
 31
0.0
  0
LINE
  5
178
330
1F
100
AcDbEntity
  8
0
  6
Continuous
 62
     7
370
    25
100
AcDbLine
 10
122.1933532934
 20
182.6342172297
 30
0.0
 11
122.0490157261
 21
182.3842172297
 31
0.0
  0
LINE
  5
179
330
1F
100
AcDbEntity
  8
0
  6
Continuous
 62
     7
370
    25
100
AcDbLine
 10
122.0490157261
 20
158.8842172297
 30
0.0
 11
122.1933532934
 21
158.6342172297
 31
0.0
  0
LINE
  5
17A
330
1F
100
AcDbEntity
  8
0
  6
Continuous
 62
     7
370
    25
100
AcDbLine
 10
134.0490157261
 20
158.8842172297
 30
0.0
 11
135.5490157261
 21
158.8842172297
 31
0.0
  0
LINE
  5
17B
330
1F
100
AcDbEntity
  8
0
  6
Continuous
 62
     7
370
    25
100
AcDbLine
 10
135.5490157261
 20
182.3842172297
 30
0.0
 11
134.0490157261
 21
182.3842172297
 31
0.0
  0
LINE
  5
17C
330
1F
100
AcDbEntity
  8
0
  6
Continuous
 62
     7
370
    25
100
AcDbLine
 10
122.0490157261
 20
182.3842172297
 30
0.0
 11
120.5490157261
 21
182.3842172297
 31
0.0
  0
LINE
  5
17D
330
1F
100
AcDbEntity
  8
0
  6
Continuous
 62
     7
370
    25
100
AcDbLine
 10
120.5490157261
 20
158.8842172297
 30
0.0
 11
122.0490157261
 21
158.8842172297
 31
0.0
  0
LINE
  5
17E
330
1F
100
AcDbEntity
  8
0
  6
Continuous
 62
     7
370
    25
100
AcDbLine
 10
120.5490157261
 20
182.3842172297
 30
0.0
 11
120.0490157261
 21
181.8842172297
 31
0.0
  0
LINE
  5
17F
330
1F
100
AcDbEntity
  8
0
  6
Continuous
 62
     7
370
    25
100
AcDbLine
 10
120.0490157261
 20
159.3842172297
 30
0.0
 11
120.5490157261
 21
158.8842172297
 31
0.0
  0
LINE
  5
180
330
1F
100
AcDbEntity
  8
0
  6
Continuous
 62
     7
370
    25
100
AcDbLine
 10
135.5490157261
 20
158.8842172297
 30
0.0
 11
136.0490157261
 21
159.3842172297
 31
0.0
  0
LINE
  5
181
330
1F
100
AcDbEntity
  8
0
  6
Continuous
 62
     7
370
    25
100
AcDbLine
 10
136.0490157261
 20
181.8842172297
 30
0.0
 11
135.5490157261
 21
182.3842172297
 31
0.0
  0
ARC
  5
182
330
1F
100
AcDbEntity
  8
0
  6
Continuous
 62
     7
370
    25
100
AcDbCircle
 10
119.6122347123
 20
161.8842172297
 30
0.0
 40
2.499999999999986
100
AcDbArc
 50
206.7436839504
 51
223.7093197495
  0
ARC
  5
183
330
1F
100
AcDbEntity
  8
0
  6
Continuous
 62
     7
370
    25
100
AcDbCircle
 10
119.6122347123
 20
179.3842172297
 30
0.0
 40
2.499999999999986
100
AcDbArc
 50
136.2906802505
 51
153.2563160496
  0
LINE
  5
184
330
1F
100
AcDbEntity
  8
0
  6
Continuous
 62
     7
370
    25
100
AcDbLine
 10
120.0490157261
 20
181.1117172297
 30
0.0
 11
117.8050978194
 21
181.1117172297
 31
0.0
  0
LINE
  5
185
330
1F
100
AcDbEntity
  8
0
  6
Continuous
 62
     7
370
    25
100
AcDbLine
 10
117.8050978194
 20
160.1567172297
 30
0.0
 11
120.0490157261
 21
160.1567172297
 31
0.0
  0
ARC
  5
186
330
1F
100
AcDbEntity
  8
0
  6
Continuous
 62
     7
370
    25
100
AcDbCircle
 10
115.1470919375
 20
159.6342172297
 30
0.0
 40
2.500000000000022
100
AcDbArc
 50
26.7436839504
 51
90.0
  0
ARC
  5
187
330
1F
100
AcDbEntity
  8
0
  6
Continuous
 62
     7
370
    25
100
AcDbCircle
 10
115.1470919375
 20
181.6342172297
 30
0.0
 40
2.500000000000022
100
AcDbArc
 50
270.0
 51
333.2563160496
  0
LINE
  5
188
330
1F
100
AcDbEntity
  8
0
  6
Continuous
 62
     7
370
    25
100
AcDbLine
 10
115.1470919375
 20
179.1342172297
 30
0.0
 11
111.1470919375
 21
179.1342172297
 31
0.0
  0
LINE
  5
189
330
1F
100
AcDbEntity
  8
0
  6
Continuous
 62
     7
370
    25
100
AcDbLine
 10
111.1470919375
 20
162.1342172297
 30
0.0
 11
115.1470919375
 21
162.1342172297
 31
0.0
  0
LINE
  5
18A
330
1F
100
AcDbEntity
  8
0
  6
Continuous
 62
     7
370
    25
100
AcDbLine
 10
136.5490157261
 20
178.6342172297
 30
0.0
 11
136.5490157261
 21
162.6342172297
 31
0.0
  0
LINE
  5
18B
330
1F
100
AcDbEntity
  8
0
  6
Continuous
 62
     7
370
    25
100
AcDbLine
 10
142.5490157261
 20
170.6342172297
 30
0.0
 11
142.5490157261
 21
163.6342172297
 31
0.0
  0
LINE
  5
18C
330
1F
100
AcDbEntity
  8
0
  6
Continuous
 62
     7
370
    25
100
AcDbLine
 10
142.5490157261
 20
177.6342172297
 30
0.0
 11
142.5490157261
 21
170.6342172297
 31
0.0
  0
LINE
  5
18D
330
1F
100
AcDbEntity
  8
0
  6
Continuous
 62
     7
370
    25
100
AcDbLine
 10
160.5490157261
 20
170.6342172297
 30
0.0
 11
160.5490157261
 21
163.6342172297
 31
0.0
  0
LINE
  5
18E
330
1F
100
AcDbEntity
  8
0
  6
Continuous
 62
     7
370
    25
100
AcDbLine
 10
160.5490157261
 20
177.6342172297
 30
0.0
 11
160.5490157261
 21
170.6342172297
 31
0.0
  0
LINE
  5
18F
330
1F
100
AcDbEntity
  8
0
  6
Continuous
 62
     7
370
    25
100
AcDbLine
 10
166.353629471
 20
170.6342172297
 30
0.0
 11
166.353629471
 21
176.9644541053
 31
0.0
  0
LINE
  5
190
330
1F
100
AcDbEntity
  8
0
  6
Continuous
 62
     7
370
    25
100
AcDbLine
 10
166.353629471
 20
164.3039803541
 30
0.0
 11
166.353629471
 21
170.6342172297
 31
0.0
  0
LINE
  5
191
330
1F
100
AcDbEntity
  8
0
  6
Continuous
 62
     7
370
    25
100
AcDbLine
 10
147.0490157261
 20
170.6342172297
 30
0.0
 11
147.0490157261
 21
163.6342172297
 31
0.0
  0
LINE
  5
192
330
1F
100
AcDbEntity
  8
0
  6
Continuous
 62
     7
370
    25
100
AcDbLine
 10
147.0490157261
 20
177.6342172297
 30
0.0
 11
147.0490157261
 21
170.6342172297
 31
0.0
  0
LINE
  5
193
330
1F
100
AcDbEntity
  8
0
  6
Continuous
 62
     7
370
    25
100
AcDbLine
 10
156.0490157261
 20
170.6342172297
 30
0.0
 11
156.0490157261
 21
163.6342172297
 31
0.0
  0
LINE
  5
194
330
1F
100
AcDbEntity
  8
0
  6
Continuous
 62
     7
370
    25
100
AcDbLine
 10
156.0490157261
 20
177.6342172297
 30
0.0
 11
156.0490157261
 21
170.6342172297
 31
0.0
  0
LINE
  5
195
330
1F
100
AcDbEntity
  8
0
  6
Continuous
 62
     7
370
    25
100
AcDbLine
 10
151.5490157261
 20
170.6342172297
 30
0.0
 11
151.5490157261
 21
163.6342172297
 31
0.0
  0
LINE
  5
196
330
1F
100
AcDbEntity
  8
0
  6
Continuous
 62
     7
370
    25
100
AcDbLine
 10
151.5490157261
 20
177.6342172297
 30
0.0
 11
151.5490157261
 21
170.6342172297
 31
0.0
  0
LINE
  5
197
330
1F
100
AcDbEntity
  8
0
  6
Continuous
 62
     7
370
    25
100
AcDbLine
 10
167.0490157261
 20
170.6342172297
 30
0.0
 11
167.0490157261
 21
165.1807717193
 31
0.0
  0
LINE
  5
198
330
1F
100
AcDbEntity
  8
0
  6
Continuous
 62
     7
370
    25
100
AcDbLine
 10
167.0490157261
 20
176.0876627402
 30
0.0
 11
167.0490157261
 21
170.6342172297
 31
0.0
  0
LINE
  5
199
330
1F
100
AcDbEntity
  8
0
  6
Continuous
 62
     7
370
    25
100
AcDbLine
 10
128.1829903223
 20
182.6342172297
 30
0.0
 11
128.0490157261
 21
181.7131142709
 31
0.0
  0
LINE
  5
19A
330
1F
100
AcDbEntity
  8
0
  6
Continuous
 62
     7
370
    25
100
AcDbLine
 10
132.8328813891
 20
182.6342172297
 30
0.0
 11
128.1829903223
 21
182.6342172297
 31
0.0
  0
SPLINE
  5
19B
330
1F
100
AcDbEntity
  8
0
  6
Continuous
 62
     7
370
    25
100
AcDbSpline
210
0.0
220
0.0
230
1.0
 70
     8
 71
     3
 72
    15
 73
    11
 74
     0
 42
0.000000001
 43
0.00000001
 40
0.0
 40
0.0
 40
0.0
 40
0.0
 40
0.13230650442644
 40
0.2645755999739292
 40
0.3998036789671087
 40
0.5350073556765887
 40
0.6501969475405013
 40
0.7654045076453758
 40
0.8826909144168963
 40
0.9999999999999999
 40
0.9999999999999999
 40
0.9999999999999999
 40
0.9999999999999999
 10
132.8328813890932
 20
182.634217229731
 30
0.0
 10
132.9960404710109
 20
182.1157645005225
 30
0.0
 10
133.3223125025842
 20
181.079005631538
 30
0.0
 10
133.6733672056041
 20
179.4824881862676
 30
0.0
 10
133.8844439911332
 20
177.8558757745877
 30
0.0
 10
133.9262413014188
 20
176.2881950332007
 30
0.0
 10
133.8177826687181
 20
174.8052188392408
 30
0.0
 10
133.5955567596572
 20
173.4056654798154
 30
0.0
 10
133.2695789863709
 20
172.012440063572
 30
0.0
 10
132.9784566359774
 20
171.093654447954
 30
0.0
 10
132.8328813890932
 20
170.634217229731
 30
0.0
  0
LINE
  5
19C
330
1F
100
AcDbEntity
  8
0
  6
Continuous
 62
     7
370
    25
100
AcDbLine
 10
132.8328813891
 20
170.6342172297
 30
0.0
 11
128.1829903223
 21
170.6342172297
 31
0.0
  0
LINE
  5
19D
330
1F
100
AcDbEntity
  8
0
  6
Continuous
 62
     7
370
    25
100
AcDbLine
 10
128.0490157261
 20
171.5553201886
 30
0.0
 11
128.1829903223
 21
170.6342172297
 31
0.0
  0
LINE
  5
19E
330
1F
100
AcDbEntity
  8
0
  6
Continuous
 62
     7
370
    25
100
AcDbLine
 10
128.0490157261
 20
171.5553201886
 30
0.0
 11
127.9150411299
 21
170.6342172297
 31
0.0
  0
LINE
  5
19F
330
1F
100
AcDbEntity
  8
0
  6
Continuous
 62
     7
370
    25
100
AcDbLine
 10
127.9150411299
 20
170.6342172297
 30
0.0
 11
123.2651500631
 21
170.6342172297
 31
0.0
  0
SPLINE
  5
1A0
330
1F
100
AcDbEntity
  8
0
  6
Continuous
 62
     7
370
    25
100
AcDbSpline
210
0.0
220
0.0
230
1.0
 70
     8
 71
     3
 72
    15
 73
    11
 74
     0
 42
0.000000001
 43
0.00000001
 40
0.0
 40
0.0
 40
0.0
 40
0.0
 40
0.13230650442644
 40
0.2645755999739292
 40
0.3998036789671088
 40
0.5350073556765887
 40
0.6501969475405014
 40
0.7654045076453759
 40
0.8826909144168964
 40
1.0
 40
1.0
 40
1.0
 40
1.0
 10
123.265150063137
 20
182.634217229731
 30
0.0
 10
123.1019909812193
 20
182.1157645005225
 30
0.0
 10
122.7757189496459
 20
181.079005631538
 30
0.0
 10
122.424664246626
 20
179.4824881862676
 30
0.0
 10
122.2135874610969
 20
177.8558757745877
 30
0.0
 10
122.1717901508113
 20
176.2881950332007
 30
0.0
 10
122.2802487835121
 20
174.8052188392408
 30
0.0
 10
122.5024746925729
 20
173.4056654798154
 30
0.0
 10
122.8284524658593
 20
172.012440063572
 30
0.0
 10
123.1195748162527
 20
171.093654447954
 30
0.0
 10
123.265150063137
 20
170.634217229731
 30
0.0
  0
LINE
  5
1A1
330
1F
100
AcDbEntity
  8
0
  6
Continuous
 62
     7
370
    25
100
AcDbLine
 10
127.9150411299
 20
182.6342172297
 30
0.0
 11
123.2651500631
 21
182.6342172297
 31
0.0
  0
LINE
  5
1A2
330
1F
100
AcDbEntity
  8
0
  6
Continuous
 62
     7
370
    25
100
AcDbLine
 10
127.9150411299
 20
182.6342172297
 30
0.0
 11
128.0490157261
 21
181.7131142709
 31
0.0
  0
SPLINE
  5
1A3
330
1F
100
AcDbEntity
  8
0
  6
Continuous
 62
     7
370
    25
100
AcDbSpline
210
0.0
220
0.0
230
1.0
 70
    24
 71
     3
 72
    13
 73
     9
 74
     0
 42
0.000000001
 43
0.00000001
 40
0.0
 40
0.0
 40
0.0
 40
0.0
 40
0.0074755143990678
 40
0.2645374647878302
 40
0.447206727805541
 40
0.630430985053356
 40
0.8150415854918616
 40
1.0
 40
1.0
 40
1.0
 40
1.0
 10
133.902489575812
 20
182.634217229731
 30
0.0
 10
133.9032163698388
 20
182.634217229731
 30
0.0
 10
133.9289355697516
 20
182.634217229731
 30
0.0
 10
133.8471679317697
 20
182.634217229731
 30
0.0
 10
133.6854933247189
 20
182.634217229731
 30
0.0
 10
133.4613296578804
 20
182.634217229731
 30
0.0
 10
133.180601666536
 20
182.634217229731
 30
0.0
 10
132.9488608479838
 20
182.634217229731
 30
0.0
 10
132.8328813890932
 20
182.634217229731
 30
0.0
  0
SPLINE
  5
1A4
330
1F
100
AcDbEntity
  8
0
  6
Continuous
 62
     7
370
    25
100
AcDbSpline
210
0.0
220
0.0
230
1.0
 70
    24
 71
     3
 72
    13
 73
     9
 74
     0
 42
0.000000001
 43
0.00000001
 40
0.0
 40
0.0
 40
0.0
 40
0.0
 40
0.1829117203076588
 40
0.366128243050861
 40
0.5505265607913269
 40
0.7354573091063779
 40
0.9842760393221947
 40
1.0
 40
1.0
 40
1.0
 40
1.0
 10
132.8328813890932
 20
158.634217229731
 30
0.0
 10
132.9476212671596
 20
158.634217229731
 30
0.0
 10
133.1772922247871
 20
158.634217229731
 30
0.0
 10
133.4577689257431
 20
158.634217229731
 30
0.0
 10
133.6836784548553
 20
158.634217229731
 30
0.0
 10
133.8451351847063
 20
158.634217229731
 30
0.0
 10
133.9260147146161
 20
158.634217229731
 30
0.0
 10
133.9017517248748
 20
158.634217229731
 30
0.0
 10
133.9003095746671
 20
158.634217229731
 30
0.0
  0
SPLINE
  5
1A5
330
1F
100
AcDbEntity
  8
0
  6
Continuous
 62
     7
370
    25
100
AcDbSpline
210
0.0
220
0.0
230
1.0
 70
     8
 71
     3
 72
    15
 73
    11
 74
     0
 42
0.000000001
 43
0.00000001
 40
0.0
 40
0.0
 40
0.0
 40
0.0
 40
0.1323065044264403
 40
0.2645755999739298
 40
0.3998036789671091
 40
0.5350073556765892
 40
0.6501969475405021
 40
0.7654045076453767
 40
0.8826909144168967
 40
0.9999999999999999
 40
0.9999999999999999
 40
0.9999999999999999
 40
0.9999999999999999
 10
132.8328813890932
 20
170.634217229731
 30
0.0
 10
132.9960404710109
 20
170.1157645005225
 30
0.0
 10
133.3223125025842
 20
169.079005631538
 30
0.0
 10
133.6733672056041
 20
167.4824881862676
 30
0.0
 10
133.8844439911333
 20
165.8558757745877
 30
0.0
 10
133.9262413014188
 20
164.2881950332007
 30
0.0
 10
133.8177826687181
 20
162.8052188392408
 30
0.0
 10
133.5955567596572
 20
161.4056654798154
 30
0.0
 10
133.2695789863709
 20
160.012440063572
 30
0.0
 10
132.9784566359774
 20
159.093654447954
 30
0.0
 10
132.8328813890932
 20
158.634217229731
 30
0.0
  0
LINE
  5
1A6
330
1F
100
AcDbEntity
  8
0
  6
Continuous
 62
     7
370
    25
100
AcDbLine
 10
134.0490157261
 20
182.3842172297
 30
0.0
 11
134.0490157261
 21
158.8842172297
 31
0.0
  0
SPLINE
  5
1A7
330
1F
100
AcDbEntity
  8
0
  6
Continuous
 62
     7
370
    25
100
AcDbSpline
210
0.0
220
0.0
230
1.0
 70
     8
 71
     3
 72
    15
 73
    11
 74
     0
 42
0.000000001
 43
0.00000001
 40
0.0
 40
0.0
 40
0.0
 40
0.0
 40
0.1323065044264403
 40
0.2645755999739298
 40
0.3998036789671091
 40
0.5350073556765892
 40
0.6501969475405021
 40
0.7654045076453767
 40
0.8826909144168967
 40
0.9999999999999999
 40
0.9999999999999999
 40
0.9999999999999999
 40
0.9999999999999999
 10
123.265150063137
 20
170.634217229731
 30
0.0
 10
123.1019909812193
 20
170.1157645005225
 30
0.0
 10
122.7757189496459
 20
169.079005631538
 30
0.0
 10
122.424664246626
 20
167.4824881862676
 30
0.0
 10
122.2135874610969
 20
165.8558757745877
 30
0.0
 10
122.1717901508113
 20
164.2881950332007
 30
0.0
 10
122.2802487835121
 20
162.8052188392408
 30
0.0
 10
122.5024746925729
 20
161.4056654798154
 30
0.0
 10
122.8284524658593
 20
160.012440063572
 30
0.0
 10
123.1195748162527
 20
159.093654447954
 30
0.0
 10
123.265150063137
 20
158.634217229731
 30
0.0
  0
SPLINE
  5
1A8
330
1F
100
AcDbEntity
  8
0
  6
Continuous
 62
     7
370
    25
100
AcDbSpline
210
0.0
220
0.0
230
1.0
 70
    24
 71
     3
 72
    13
 73
     9
 74
     0
 42
0.000000001
 43
0.00000001
 40
0.0
 40
0.0
 40
0.0
 40
0.0
 40
0.1829117203076588
 40
0.3661282430508611
 40
0.5505265607913269
 40
0.7354573091063777
 40
0.9842760393221948
 40
1.0
 40
1.0
 40
1.0
 40
1.0
 10
123.265150063137
 20
158.634217229731
 30
0.0
 10
123.1504101850705
 20
158.634217229731
 30
0.0
 10
122.9207392274431
 20
158.634217229731
 30
0.0
 10
122.640262526487
 20
158.634217229731
 30
0.0
 10
122.4143529973749
 20
158.634217229731
 30
0.0
 10
122.2528962675239
 20
158.634217229731
 30
0.0
 10
122.1720167376141
 20
158.634217229731
 30
0.0
 10
122.1962797273553
 20
158.634217229731
 30
0.0
 10
122.197721877563
 20
158.634217229731
 30
0.0
  0
SPLINE
  5
1A9
330
1F
100
AcDbEntity
  8
0
  6
Continuous
 62
     7
370
    25
100
AcDbSpline
210
0.0
220
0.0
230
1.0
 70
    24
 71
     3
 72
    13
 73
     9
 74
     0
 42
0.000000001
 43
0.00000001
 40
0.0
 40
0.0
 40
0.0
 40
0.0
 40
0.0074755143990678
 40
0.2645374647878302
 40
0.447206727805541
 40
0.630430985053356
 40
0.8150415854918617
 40
1.0
 40
1.0
 40
1.0
 40
1.0
 10
122.1955418764182
 20
182.634217229731
 30
0.0
 10
122.1948150823913
 20
182.634217229731
 30
0.0
 10
122.1690958824786
 20
182.634217229731
 30
0.0
 10
122.2508635204604
 20
182.634217229731
 30
0.0
 10
122.4125381275112
 20
182.634217229731
 30
0.0
 10
122.6367017943497
 20
182.634217229731
 30
0.0
 10
122.9174297856942
 20
182.634217229731
 30
0.0
 10
123.1491706042464
 20
182.634217229731
 30
0.0
 10
123.265150063137
 20
182.634217229731
 30
0.0
  0
LINE
  5
1AA
330
1F
100
AcDbEntity
  8
0
  6
Continuous
 62
     7
370
    25
100
AcDbLine
 10
122.0490157261
 20
182.3842172297
 30
0.0
 11
122.0490157261
 21
158.8842172297
 31
0.0
  0
LINE
  5
1AB
330
1F
100
AcDbEntity
  8
0
  6
Continuous
 62
     7
370
    25
100
AcDbLine
 10
128.0490157261
 20
171.5553201886
 30
0.0
 11
128.0490157261
 21
169.7131142709
 31
0.0
  0
LINE
  5
1AC
330
1F
100
AcDbEntity
  8
0
  6
Continuous
 62
     7
370
    25
100
AcDbLine
 10
127.9150411299
 20
170.6342172297
 30
0.0
 11
128.0490157261
 21
169.7131142709
 31
0.0
  0
LINE
  5
1AD
330
1F
100
AcDbEntity
  8
0
  6
Continuous
 62
     7
370
    25
100
AcDbLine
 10
128.1829903223
 20
170.6342172297
 30
0.0
 11
128.0490157261
 21
169.7131142709
 31
0.0
  0
LINE
  5
1AE
330
1F
100
AcDbEntity
  8
0
  6
Continuous
 62
     7
370
    25
100
AcDbLine
 10
132.8328813891
 20
158.6342172297
 30
0.0
 11
128.1829903223
 21
158.6342172297
 31
0.0
  0
LINE
  5
1AF
330
1F
100
AcDbEntity
  8
0
  6
Continuous
 62
     7
370
    25
100
AcDbLine
 10
128.0490157261
 20
159.5553201886
 30
0.0
 11
128.1829903223
 21
158.6342172297
 31
0.0
  0
LINE
  5
1B0
330
1F
100
AcDbEntity
  8
0
  6
Continuous
 62
     7
370
    25
100
AcDbLine
 10
128.0490157261
 20
159.5553201886
 30
0.0
 11
127.9150411299
 21
158.6342172297
 31
0.0
  0
LINE
  5
1B1
330
1F
100
AcDbEntity
  8
0
  6
Continuous
 62
     7
370
    25
100
AcDbLine
 10
127.9150411299
 20
158.6342172297
 30
0.0
 11
123.2651500631
 21
158.6342172297
 31
0.0
  0
LINE
  5
1B2
330
1F
100
AcDbEntity
  8
0
  6
Continuous
 62
     7
370
    25
100
AcDbLine
 10
135.5490157261
 20
158.8842172297
 30
0.0
 11
135.5490157261
 21
182.3842172297
 31
0.0
  0
LINE
  5
1B3
330
1F
100
AcDbEntity
  8
0
  6
Continuous
 62
     7
370
    25
100
AcDbLine
 10
120.5490157261
 20
182.3842172297
 30
0.0
 11
120.5490157261
 21
158.8842172297
 31
0.0
  0
LINE
  5
1B4
330
1F
100
AcDbEntity
  8
0
  6
Continuous
 62
     7
370
    25
100
AcDbLine
 10
120.0490157261
 20
159.3842172297
 30
0.0
 11
120.0490157261
 21
181.8842172297
 31
0.0
  0
LINE
  5
1B5
330
1F
100
AcDbEntity
  8
0
  6
Continuous
 62
     7
370
    25
100
AcDbLine
 10
136.0490157261
 20
181.8842172297
 30
0.0
 11
136.0490157261
 21
159.3842172297
 31
0.0
  0
LINE
  5
1B6
330
1F
100
AcDbEntity
  8
0
  6
Continuous
 62
     7
370
    25
100
AcDbLine
 10
128.0490157261
 20
182.6342172297
 30
0.0
 11
128.0490157261
 21
181.7131142709
 31
0.0
  0
LINE
  5
1B7
330
1F
100
AcDbEntity
  8
0
  6
Continuous
 62
     7
370
    25
100
AcDbLine
 10
128.0490157261
 20
182.6342172297
 30
0.0
 11
128.1829903223
 21
182.6342172297
 31
0.0
  0
LINE
  5
1B8
330
1F
100
AcDbEntity
  8
0
  6
Continuous
 62
     7
370
    25
100
AcDbLine
 10
128.0490157261
 20
182.6342172297
 30
0.0
 11
127.9150411299
 21
182.6342172297
 31
0.0
  0
LINE
  5
1B9
330
1F
100
AcDbEntity
  8
0
  6
Continuous
 62
     7
370
    25
100
AcDbLine
 10
128.1829903223
 20
158.6342172297
 30
0.0
 11
128.0490157261
 21
158.6342172297
 31
0.0
  0
LINE
  5
1BA
330
1F
100
AcDbEntity
  8
0
  6
Continuous
 62
     7
370
    25
100
AcDbLine
 10
128.0490157261
 20
159.5553201886
 30
0.0
 11
128.0490157261
 21
158.6342172297
 31
0.0
  0
LINE
  5
1BB
330
1F
100
AcDbEntity
  8
0
  6
Continuous
 62
     7
370
    25
100
AcDbLine
 10
127.9150411299
 20
158.6342172297
 30
0.0
 11
128.0490157261
 21
158.6342172297
 31
0.0
  0
CIRCLE
  5
1BC
330
1F
100
AcDbEntity
  8
0
  6
Continuous
 62
     7
370
    25
100
AcDbCircle
 10
102.6470919375
 20
170.6342172297
 30
0.0
 40
8.75
  0
CIRCLE
  5
1BD
330
1F
100
AcDbEntity
  8
0
  6
Continuous
 62
     7
370
    25
100
AcDbCircle
 10
102.6470919375
 20
170.6342172297
 30
0.0
 40
10.30676222727976
  0
CIRCLE
  5
1BE
330
1F
100
AcDbEntity
  8
0
  6
Continuous
 62
     7
370
    25
100
AcDbCircle
 10
102.6470919375
 20
170.6342172297
 30
0.0
 40
6.999999999999972
  0
CIRCLE
  5
1BF
330
1F
100
AcDbEntity
  8
0
  6
Continuous
 62
     7
370
    25
100
AcDbCircle
 10
102.6470919375
 20
170.6342172297
 30
0.0
 40
6.5
  0
CIRCLE
  5
1C0
330
1F
100
AcDbEntity
  8
0
  6
Continuous
 62
     7
370
    25
100
AcDbCircle
 10
102.6470919375
 20
170.6342172297
 30
0.0
 40
10.64938692329203
  0
LINE
  5
1C1
330
1F
100
AcDbEntity
  8
0
  6
Continuous
 62
     7
370
    25
100
AcDbLine
 10
117.8050978194
 20
160.1567172297
 30
0.0
 11
117.8050978194
 21
181.1117172297
 31
0.0
  0
SPLINE
  5
1C2
330
1F
100
AcDbEntity
  8
0
  6
Continuous
 62
     7
370
    25
100
AcDbSpline
210
0.0
220
0.0
230
1.0
 70
    24
 71
     3
 72
     8
 73
     4
 74
     0
 42
0.000000001
 43
0.00000001
 40
0.0
 40
0.0
 40
0.0
 40
0.0
 40
1.0
 40
1.0
 40
1.0
 40
1.0
 10
111.1470919374684
 20
162.634217229731
 30
0.0
 10
111.1470919374684
 20
162.3041909761162
 30
0.0
 10
111.1470919374684
 20
162.134217229731
 30
0.0
 10
111.1470919374684
 20
162.134217229731
 30
0.0
  0
SPLINE
  5
1C3
330
1F
100
AcDbEntity
  8
0
  6
Continuous
 62
     7
370
    25
100
AcDbSpline
210
0.0
220
0.0
230
1.0
 70
    24
 71
     3
 72
     8
 73
     4
 74
     0
 42
0.000000001
 43
0.00000001
 40
0.0
 40
0.0
 40
0.0
 40
0.0
 40
1.0
 40
1.0
 40
1.0
 40
1.0
 10
111.1470919374684
 20
179.134217229731
 30
0.0
 10
111.1470919374684
 20
179.134217229731
 30
0.0
 10
111.1470919374684
 20
178.9642434833458
 30
0.0
 10
111.1470919374684
 20
178.634217229731
 30
0.0
  0
ARC
  5
1C4
330
1F
100
AcDbEntity
  8
0
  6
Continuous
 62
     7
370
    25
100
AcDbCircle
 10
109.1470919375
 20
162.6342172297
 30
0.0
 40
0.5
100
AcDbArc
 50
270.0
 51
0.0
  0
LINE
  5
1C5
330
1F
100
AcDbEntity
  8
0
  6
Continuous
 62
     7
370
    25
100
AcDbLine
 10
109.0626544102
 20
162.1342172297
 30
0.0
 11
109.1470919375
 21
162.1342172297
 31
0.0
  0
LINE
  5
1C6
330
1F
100
AcDbEntity
  8
0
  6
Continuous
 62
     7
370
    25
100
AcDbLine
 10
96.2315294647
 20
179.1342172297
 30
0.0
 11
96.1470919375
 21
179.1342172297
 31
0.0
  0
LINE
  5
1C7
330
1F
100
AcDbEntity
  8
0
  6
Continuous
 62
     7
370
    25
100
AcDbLine
 10
96.1470919375
 20
162.1342172297
 30
0.0
 11
96.2315294647
 21
162.1342172297
 31
0.0
  0
ARC
  5
1C8
330
1F
100
AcDbEntity
  8
0
  6
Continuous
 62
     7
370
    25
100
AcDbCircle
 10
109.1470919375
 20
178.6342172297
 30
0.0
 40
0.5
100
AcDbArc
 50
0.0
 51
90.0
  0
LINE
  5
1C9
330
1F
100
AcDbEntity
  8
0
  6
Continuous
 62
     7
370
    25
100
AcDbLine
 10
109.1470919375
 20
179.1342172297
 30
0.0
 11
109.0626544102
 21
179.1342172297
 31
0.0
  0
ARC
  5
1CA
330
1F
100
AcDbEntity
  8
0
  6
Continuous
 62
     7
370
    25
100
AcDbCircle
 10
96.1470919375
 20
178.6342172297
 30
0.0
 40
0.5
100
AcDbArc
 50
90.0
 51
177.0025302101
  0
ARC
  5
1CB
330
1F
100
AcDbEntity
  8
0
  6
Continuous
 62
     7
370
    25
100
AcDbCircle
 10
96.1470919375
 20
162.6342172297
 30
0.0
 40
0.5000000000000029
100
AcDbArc
 50
182.9974697899
 51
270.0
  0
LINE
  5
1CC
330
1F
100
AcDbEntity
  8
0
  6
Continuous
 62
     7
370
    25
100
AcDbLine
 10
110.6470919375
 20
179.1342172297
 30
0.0
 11
110.6470919375
 21
178.6342172297
 31
0.0
  0
LINE
  5
1CD
330
1F
100
AcDbEntity
  8
0
  6
Continuous
 62
     7
370
    25
100
AcDbLine
 10
110.6470919375
 20
179.1342172297
 30
0.0
 11
109.1470919375
 21
179.1342172297
 31
0.0
  0
LINE
  5
1CE
330
1F
100
AcDbEntity
  8
0
  6
Continuous
 62
     7
370
    25
100
AcDbLine
 10
110.6470919375
 20
162.1342172297
 30
0.0
 11
110.6470919375
 21
162.6342172297
 31
0.0
  0
LINE
  5
1CF
330
1F
100
AcDbEntity
  8
0
  6
Continuous
 62
     7
370
    25
100
AcDbLine
 10
109.1470919375
 20
162.1342172297
 30
0.0
 11
110.6470919375
 21
162.1342172297
 31
0.0
  0
ARC
  5
1D0
330
1F
100
AcDbEntity
  8
0
  6
Continuous
 62
     7
370
    25
100
AcDbCircle
 10
110.6470919375
 20
178.6342172297
 30
0.0
 40
0.5
100
AcDbArc
 50
0.0
 51
90.0
  0
LINE
  5
1D1
330
1F
100
AcDbEntity
  8
0
  6
Continuous
 62
     7
370
    25
100
AcDbLine
 10
110.6470919375
 20
178.6342172297
 30
0.0
 11
111.1470919375
 21
178.6342172297
 31
0.0
  0
LINE
  5
1D2
330
1F
100
AcDbEntity
  8
0
  6
Continuous
 62
     7
370
    25
100
AcDbLine
 10
111.1470919375
 20
177.0497797025
 30
0.0
 11
111.1470919375
 21
178.6342172297
 31
0.0
  0
LINE
  5
1D3
330
1F
100
AcDbEntity
  8
0
  6
Continuous
 62
     7
370
    25
100
AcDbLine
 10
111.1470919375
 20
162.6342172297
 30
0.0
 11
111.1470919375
 21
164.218654757
 31
0.0
  0
LINE
  5
1D4
330
1F
100
AcDbEntity
  8
0
  6
Continuous
 62
     7
370
    25
100
AcDbLine
 10
110.6470919375
 20
162.6342172297
 30
0.0
 11
111.1470919375
 21
162.6342172297
 31
0.0
  0
ARC
  5
1D5
330
1F
100
AcDbEntity
  8
0
  6
Continuous
 62
     7
370
    25
100
AcDbCircle
 10
110.6470919375
 20
162.6342172297
 30
0.0
 40
0.5
100
AcDbArc
 50
270.0
 51
0.0
  0
SPLINE
  5
1D6
330
1F
100
AcDbEntity
  8
0
  6
Continuous
 62
     7
370
    25
100
AcDbSpline
210
0.0
220
0.0
230
1.0
 70
     8
 71
     3
 72
    52
 73
    48
 74
     0
 42
0.000000001
 43
0.00000001
 40
0.0
 40
0.0
 40
0.0
 40
0.0
 40
0.1249999999999999
 40
0.1249999999999999
 40
0.1874999999999998
 40
0.1874999999999998
 40
0.2499999999999998
 40
0.2499999999999998
 40
0.2812499999999998
 40
0.2812499999999998
 40
0.3124999999999998
 40
0.3124999999999998
 40
0.3281249999999998
 40
0.3281249999999998
 40
0.3437499999999998
 40
0.3437499999999998
 40
0.3749999999999998
 40
0.3749999999999998
 40
0.4062499999999997
 40
0.4062499999999997
 40
0.4374999999999997
 40
0.4374999999999997
 40
0.4687499999999997
 40
0.4687499999999997
 40
0.4999999999999997
 40
0.4999999999999997
 40
0.5624999999999996
 40
0.5624999999999996
 40
0.5937499999999996
 40
0.5937499999999996
 40
0.6249999999999996
 40
0.6249999999999996
 40
0.6562499999999996
 40
0.6562499999999996
 40
0.6718749999999996
 40
0.6718749999999996
 40
0.6874999999999994
 40
0.6874999999999994
 40
0.7187499999999996
 40
0.7187499999999996
 40
0.7499999999999997
 40
0.7499999999999997
 40
0.8124999999999997
 40
0.8124999999999997
 40
0.8749999999999998
 40
0.8749999999999998
 40
1.0
 40
1.0
 40
1.0
 40
1.0
 10
107.2568641661148
 20
175.2167929246868
 30
0.0
 10
106.6887326707529
 20
175.0871682684094
 30
0.0
 10
106.1289227329754
 20
174.9255673497796
 30
0.0
 10
105.3090291824322
 20
174.6161043488679
 30
0.0
 10
105.0387262790524
 20
174.5015851026075
 30
0.0
 10
104.5104441173166
 20
174.2411009082541
 30
0.0
 10
104.2538355684778
 20
174.097553383304
 30
0.0
 10
103.898392607258
 20
173.8413969182937
 30
0.0
 10
103.7837225359687
 20
173.7482899113321
 30
0.0
 10
103.5849731885576
 20
173.5385448230273
 30
0.0
 10
103.4989080080136
 20
173.4190674054895
 30
0.0
 10
103.4408043101778
 20
173.2149507045402
 30
0.0
 10
103.4340575981519
 20
173.1427779300247
 30
0.0
 10
103.4443031836669
 20
172.9994310876189
 30
0.0
 10
103.4608804715236
 20
172.926556811853
 30
0.0
 10
103.5274717667167
 20
172.7143242276171
 30
0.0
 10
103.5924876330962
 20
172.5770362514039
 30
0.0
 10
103.7232175931706
 20
172.297668196147
 30
0.0
 10
103.7903389446483
 20
172.1554368249007
 30
0.0
 10
103.9121512843629
 20
171.8649232957137
 30
0.0
 10
103.967187627806
 20
171.7166916286417
 30
0.0
 10
104.0585169776138
 20
171.4120653888904
 30
0.0
 10
104.0949109133183
 20
171.255699821389
 30
0.0
 10
104.1437738499456
 20
170.9329072776368
 30
0.0
 10
104.1556603673756
 20
170.7681440688959
 30
0.0
 10
104.1510313054354
 20
170.2802726439108
 30
0.0
 10
104.092004560001
 20
169.9527703911906
 30
0.0
 10
103.947548310984
 20
169.4962013251603
 30
0.0
 10
103.8903959914119
 20
169.3484299070533
 30
0.0
 10
103.7657458820598
 20
169.059052454194
 30
0.0
 10
103.6978732484972
 20
168.9175624581167
 30
0.0
 10
103.5681894336919
 20
168.6381414195095
 30
0.0
 10
103.5044976190716
 20
168.4989005715877
 30
0.0
 10
103.4483616517131
 20
168.2866587188416
 30
0.0
 10
103.4367768906737
 20
168.2141594190451
 30
0.0
 10
103.4381987820193
 20
168.0725415956475
 30
0.0
 10
103.4514250335427
 20
168.0028002897682
 30
0.0
 10
103.5257918120335
 20
167.804961698654
 30
0.0
 10
103.6170599726247
 20
167.6909418637127
 30
0.0
 10
103.8192967882381
 20
167.4898141359169
 30
0.0
 10
103.93271912181
 20
167.4004706563091
 30
0.0
 10
104.2895713668314
 20
167.1497405029685
 30
0.0
 10
104.5432947551787
 20
167.0098891744493
 30
0.0
 10
105.0616140084316
 20
166.756952605843
 30
0.0
 10
105.3273366275039
 20
166.6449702206565
 30
0.0
 10
106.1371872496779
 20
166.3406859791522
 30
0.0
 10
106.6946975957032
 20
166.1799052361455
 30
0.0
 10
107.2568641661148
 20
166.0516415347751
 30
0.0
  0
SPLINE
  5
1D7
330
1F
100
AcDbEntity
  8
0
  6
Continuous
 62
     7
370
    25
100
AcDbSpline
210
0.0
220
0.0
230
1.0
 70
    24
 71
     3
 72
    10
 73
     6
 74
     0
 42
0.000000001
 43
0.00000001
 40
-0.2904940295525288
 40
-0.2904940295525288
 40
-0.2904940295525288
 40
-0.2904940295525288
 40
-0.1303072746364131
 40
-0.1303072746364131
 40
0.0010563617272233
 40
0.0010563617272233
 40
0.0010563617272233
 40
0.0010563617272233
 10
111.1470919374684
 20
179.134217229731
 30
0.0
 10
111.0175886217147
 20
179.134217229731
 30
0.0
 10
110.8857976435289
 20
179.134217229731
 30
0.0
 10
110.7073737041037
 20
179.134217229731
 30
0.0
 10
110.6470919374684
 20
179.134217229731
 30
0.0
 10
110.6470919374684
 20
179.134217229731
 30
0.0
  0
SPLINE
  5
1D8
330
1F
100
AcDbEntity
  8
0
  6
Continuous
 62
     7
370
    25
100
AcDbSpline
210
0.0
220
0.0
230
1.0
 70
    24
 71
     3
 72
    10
 73
     6
 74
     0
 42
0.000000001
 43
0.00000001
 40
-0.8711658421011628
 40
-0.8711658421011628
 40
-0.8711658421011628
 40
-0.8711658421011628
 40
-0.739802205737527
 40
-0.739802205737527
 40
-0.579615450786466
 40
-0.579615450786466
 40
-0.579615450786466
 40
-0.579615450786466
 10
110.6470919374684
 20
162.134217229731
 30
0.0
 10
110.6470919374684
 20
162.134217229731
 30
0.0
 10
110.7073737041037
 20
162.134217229731
 30
0.0
 10
110.8857976435502
 20
162.134217229731
 30
0.0
 10
111.0175886216863
 20
162.134217229731
 30
0.0
 10
111.1470919374684
 20
162.134217229731
 30
0.0
  0
SPLINE
  5
1D9
330
1F
100
AcDbEntity
  8
0
  6
Continuous
 62
     7
370
    25
100
AcDbSpline
210
0.0
220
0.0
230
1.0
 70
     8
 71
     3
 72
    14
 73
    10
 74
     0
 42
0.000000001
 43
0.00000001
 40
0.0
 40
0.0
 40
0.0
 40
0.0
 40
0.25
 40
0.25
 40
0.5
 40
0.5
 40
0.75
 40
0.75
 40
1.0
 40
1.0
 40
1.0
 40
1.0
 10
101.6470919374684
 20
167.6658353842174
 30
0.0
 10
101.7142280787962
 20
167.7423383637988
 30
0.0
 10
101.771920247705
 20
167.8245770458152
 30
0.0
 10
101.8483843603168
 20
168.009514821278
 30
0.0
 10
101.8631227746365
 20
168.1096994332764
 30
0.0
 10
101.8446323836178
 20
168.3126455279423
 30
0.0
 10
101.8144496170381
 20
168.4121554303081
 30
0.0
 10
101.7384444530001
 20
168.6112228959441
 30
0.0
 10
101.6931744429818
 20
168.7093133351884
 30
0.0
 10
101.6470919374682
 20
168.8080580497256
 30
0.0
  0
SPLINE
  5
1DA
330
1F
100
AcDbEntity
  8
0
  6
Continuous
 62
     7
370
    25
100
AcDbSpline
210
0.0
220
0.0
230
1.0
 70
     8
 71
     3
 72
     8
 73
     4
 74
     0
 42
0.000000001
 43
0.00000001
 40
0.0
 40
0.0
 40
0.0
 40
0.0
 40
1.0
 40
1.0
 40
1.0
 40
1.0
 10
101.6470919374684
 20
168.8080580497256
 30
0.0
 10
101.6128942433972
 20
168.4273906813881
 30
0.0
 10
101.6129291504133
 20
168.0466214564221
 30
0.0
 10
101.6470919374684
 20
167.6658353842174
 30
0.0
  0
SPLINE
  5
1DB
330
1F
100
AcDbEntity
  8
0
  6
Continuous
 62
     7
370
    25
100
AcDbSpline
210
0.0
220
0.0
230
1.0
 70
     8
 71
     3
 72
    14
 73
    10
 74
     0
 42
0.000000001
 43
0.00000001
 40
0.0
 40
0.0
 40
0.0
 40
0.0
 40
0.25
 40
0.25
 40
0.5
 40
0.5
 40
0.75
 40
0.75
 40
1.0
 40
1.0
 40
1.0
 40
1.0
 10
101.6470919374684
 20
172.4603764097363
 30
0.0
 10
101.6933088276928
 20
172.5594090812706
 30
0.0
 10
101.7385549416417
 20
172.6575427304735
 30
0.0
 10
101.8141212757603
 20
172.8553773979824
 30
0.0
 10
101.8447885524421
 20
172.9569237408752
 30
0.0
 10
101.8630347605375
 20
173.1583504279454
 30
0.0
 10
101.8480485503108
 20
173.2596680125343
 30
0.0
 10
101.7723813742209
 20
173.4428058404672
 30
0.0
 10
101.7135996276198
 20
173.5268122283834
 30
0.0
 10
101.6470919374684
 20
173.6025990752445
 30
0.0
  0
SPLINE
  5
1DC
330
1F
100
AcDbEntity
  8
0
  6
Continuous
 62
     7
370
    25
100
AcDbSpline
210
0.0
220
0.0
230
1.0
 70
     8
 71
     3
 72
     8
 73
     4
 74
     0
 42
0.000000001
 43
0.00000001
 40
0.0
 40
0.0
 40
0.0
 40
0.0
 40
1.0
 40
1.0
 40
1.0
 40
1.0
 10
101.6470919374684
 20
173.6025990752445
 30
0.0
 10
101.6129291504133
 20
173.2218130030399
 30
0.0
 10
101.6128942433972
 20
172.8410437780738
 30
0.0
 10
101.6470919374684
 20
172.4603764097363
 30
0.0
  0
LINE
  5
1DD
330
1F
100
AcDbEntity
  8
0
  6
Continuous
 62
     7
370
    25
100
AcDbLine
 10
101.6470919375
 20
172.4603764097
 30
0.0
 11
101.6470919375
 21
173.6025990752
 31
0.0
  0
LINE
  5
1DE
330
1F
100
AcDbEntity
  8
0
  6
Continuous
 62
     7
370
    25
100
AcDbLine
 10
101.6470919375
 20
167.6658353842
 30
0.0
 11
101.6470919375
 21
168.8080580497
 31
0.0
  0
LINE
  5
1DF
330
1F
100
AcDbEntity
  8
0
  6
Continuous
 62
     8
370
    25
100
AcDbLine
 10
117.3796633249
 20
170.6342172297
 30
0.0
 11
117.3796633249
 21
160.7592172297
 31
0.0
  0
LINE
  5
1E0
330
1F
100
AcDbEntity
  8
0
  6
Continuous
 62
     8
370
    25
100
AcDbLine
 10
117.3796633249
 20
180.5092172297
 30
0.0
 11
117.3796633249
 21
170.6342172297
 31
0.0
  0
LINE
  5
1E1
330
1F
100
AcDbEntity
  8
0
  6
Continuous
 62
     8
370
    25
100
AcDbLine
 10
115.1470919375
 20
170.6342172297
 30
0.0
 11
115.1470919375
 21
162.1342172297
 31
0.0
  0
LINE
  5
1E2
330
1F
100
AcDbEntity
  8
0
  6
Continuous
 62
     8
370
    25
100
AcDbLine
 10
115.1470919375
 20
179.1342172297
 30
0.0
 11
115.1470919375
 21
170.6342172297
 31
0.0
  0
LINE
  5
1E3
330
1F
100
AcDbEntity
  8
0
  6
Continuous
 62
     8
370
    25
100
AcDbLine
 10
96.1470919375
 20
179.1342172297
 30
0.0
 11
96.1470919375
 21
179.0698228299
 31
0.0
  0
LINE
  5
1E4
330
1F
100
AcDbEntity
  8
0
  6
Continuous
 62
     8
370
    25
100
AcDbLine
 10
96.1470919375
 20
162.1986116295
 30
0.0
 11
96.1470919375
 21
162.1342172297
 31
0.0
  0
LINE
  5
1E5
330
1F
100
AcDbEntity
  8
0
  6
Continuous
 62
     8
370
    25
100
AcDbLine
 10
110.6470919375
 20
177.6634022353
 30
0.0
 11
110.6470919375
 21
178.6342172297
 31
0.0
  0
LINE
  5
1E6
330
1F
100
AcDbEntity
  8
0
  6
Continuous
 62
     8
370
    25
100
AcDbLine
 10
109.676276943
 20
178.6342172297
 30
0.0
 11
110.6470919375
 21
178.6342172297
 31
0.0
  0
LINE
  5
1E7
330
1F
100
AcDbEntity
  8
0
  6
Continuous
 62
     8
370
    25
100
AcDbLine
 10
110.6470919375
 20
162.6342172297
 30
0.0
 11
110.6470919375
 21
163.6050322242
 31
0.0
  0
LINE
  5
1E8
330
1F
100
AcDbEntity
  8
0
  6
Continuous
 62
     8
370
    25
100
AcDbLine
 10
110.6470919375
 20
162.6342172297
 30
0.0
 11
109.676276943
 21
162.6342172297
 31
0.0
  0
INSERT
  5
1F4
330
1F
100
AcDbEntity
  8
0
  6
Continuous
 62
     7
370
    18
100
AcDbBlockReference
  2
SW_CENTERMARKSYMBOL_1
 10
102.6470919375
 20
170.6342172297
 30
0.0
  0
ENDSEC
  0
SECTION
  2
OBJECTS
  0
DICTIONARY
  5
C
330
0
100
AcDbDictionary
281
     1
  3
ACAD_GROUP
350
D
  3
ACAD_LAYOUT
350
1A
  3
ACAD_MLINESTYLE
350
17
  3
ACAD_PLOTSETTINGS
350
19
  3
ACAD_PLOTSTYLENAME
350
E
  3
ACAD_SCALELIST
350
47
  0
DICTIONARY
  5
D
102
{ACAD_REACTORS
330
C
102
}
330
C
100
AcDbDictionary
281
     1
  0
DICTIONARY
  5
1A
102
{ACAD_REACTORS
330
C
102
}
330
C
100
AcDbDictionary
281
     1
  3
Layout1
350
1E
  3
Layout2
350
26
  3
Model
350
22
  0
DICTIONARY
  5
17
102
{ACAD_REACTORS
330
C
102
}
330
C
100
AcDbDictionary
281
     1
  3
Standard
350
18
  0
DICTIONARY
  5
19
102
{ACAD_REACTORS
330
C
102
}
330
C
100
AcDbDictionary
281
     1
  0
ACDBDICTIONARYWDFLT
  5
E
102
{ACAD_REACTORS
330
C
102
}
330
C
100
AcDbDictionary
281
     1
  3
Normal
350
F
100
AcDbDictionaryWithDefault
340
F
  0
DICTIONARY
  5
47
102
{ACAD_REACTORS
330
C
102
}
330
C
100
AcDbDictionary
281
     1
  3
A0
350
48
  3
A1
350
49
  3
A2
350
4A
  3
A3
350
4B
  3
A4
350
4C
  3
A5
350
4D
  3
A6
350
4E
  3
A7
350
4F
  3
A8
350
50
  3
A9
350
51
  3
B0
350
52
  3
B1
350
53
  3
B2
350
54
  3
B3
350
55
  3
B4
350
56
  3
B5
350
57
  3
B6
350
58
  3
B7
350
59
  3
B8
350
5A
  3
B9
350
5B
  3
C0
350
5C
  3
C1
350
5D
  3
C2
350
5E
  3
C3
350
5F
  3
C4
350
60
  3
C5
350
61
  3
C6
350
62
  3
C7
350
63
  3
C8
350
64
  3
C9
350
65
  3
D0
350
66
  3
D1
350
67
  3
D2
350
68
  0
LAYOUT
  5
1E
102
{ACAD_REACTORS
330
1A
102
}
330
1A
100
AcDbPlotSettings
  1

  2
none_device
  4

  6

 40
0.0
 41
0.0
 42
0.0
 43
0.0
 44
0.0
 45
0.0
 46
0.0
 47
0.0
 48
0.0
 49
0.0
140
0.0
141
0.0
142
1.0
143
1.0
 70
   688
 72
     1
 73
     0
 74
     5
  7

 75
    16
147
1.0
148
0.0
149
0.0
100
AcDbLayout
  1
Layout1
 70
     1
 71
     1
 10
0.0
 20
0.0
 11
420.0
 21
297.0
 12
0.0
 22
0.0
 32
0.0
 14
1.0000000000E+20
 24
1.0000000000E+20
 34
1.0000000000E+20
 15
-1.0000000000E+20
 25
-1.0000000000E+20
 35
-1.0000000000E+20
146
0.0
 13
0.0
 23
0.0
 33
0.0
 16
1.0
 26
0.0
 36
0.0
 17
0.0
 27
1.0
 37
0.0
 76
     0
330
1B
  0
LAYOUT
  5
26
102
{ACAD_REACTORS
330
1A
102
}
330
1A
100
AcDbPlotSettings
  1

  2
none_device
  4

  6

 40
0.0
 41
0.0
 42
0.0
 43
0.0
 44
0.0
 45
0.0
 46
0.0
 47
0.0
 48
0.0
 49
0.0
140
0.0
141
0.0
142
1.0
143
1.0
 70
   688
 72
     1
 73
     0
 74
     5
  7

 75
    16
147
1.0
148
0.0
149
0.0
100
AcDbLayout
  1
Layout2
 70
     1
 71
     2
 10
0.0
 20
0.0
 11
0.0
 21
0.0
 12
0.0
 22
0.0
 32
0.0
 14
0.0
 24
0.0
 34
0.0
 15
0.0
 25
0.0
 35
0.0
146
0.0
 13
0.0
 23
0.0
 33
0.0
 16
1.0
 26
0.0
 36
0.0
 17
0.0
 27
1.0
 37
0.0
 76
     0
330
23
  0
LAYOUT
  5
22
102
{ACAD_REACTORS
330
1A
102
}
330
1A
100
AcDbPlotSettings
  1

  2
none_device
  4
Letter_(8.50_x_11.00_Inches)
  6

 40
6.35
 41
6.35
 42
6.35000508
 43
6.35000508
 44
215.9
 45
279.4
 46
0.0
 47
0.0
 48
0.0
 49
0.0
140
0.0
141
0.0
142
1.0
143
1.0
 70
  1712
 72
     1
 73
     0
 74
     0
  7

 75
     0
147
1.0
148
0.0
149
0.0
100
AcDbLayout
  1
Model
 70
     1
 71
     0
 10
0.0
 20
0.0
 11
431.8
 21
279.4
 12
0.0
 22
0.0
 32
0.0
 14
0.0
 24
0.0
 34
0.0
 15
431.8
 25
279.4
 35
0.0
146
0.0
 13
0.0
 23
0.0
 33
0.0
 16
1.0
 26
0.0
 36
0.0
 17
0.0
 27
1.0
 37
0.0
 76
     0
330
1F
331
29
  0
MLINESTYLE
  5
18
102
{ACAD_REACTORS
330
17
102
}
330
17
100
AcDbMlineStyle
  2
Standard
 70
     0
  3

 62
   256
 51
90.0
 52
90.0
 71
     2
 49
0.5
 62
   256
  6
BYLAYER
 49
-0.5
 62
   256
  6
BYLAYER
  0
ACDBPLACEHOLDER
  5
F
102
{ACAD_REACTORS
330
E
102
}
330
E
  0
SCALE
  5
48
102
{ACAD_REACTORS
330
47
102
}
330
47
100
AcDbScale
 70
     0
300
1:1
140
1.0
141
1.0
290
     1
  0
SCALE
  5
49
102
{ACAD_REACTORS
330
47
102
}
330
47
100
AcDbScale
 70
     0
300
1:2
140
1.0
141
2.0
290
     0
  0
SCALE
  5
4A
102
{ACAD_REACTORS
330
47
102
}
330
47
100
AcDbScale
 70
     0
300
1:4
140
1.0
141
4.0
290
     0
  0
SCALE
  5
4B
102
{ACAD_REACTORS
330
47
102
}
330
47
100
AcDbScale
 70
     0
300
1:5
140
1.0
141
5.0
290
     0
  0
SCALE
  5
4C
102
{ACAD_REACTORS
330
47
102
}
330
47
100
AcDbScale
 70
     0
300
1:8
140
1.0
141
8.0
290
     0
  0
SCALE
  5
4D
102
{ACAD_REACTORS
330
47
102
}
330
47
100
AcDbScale
 70
     0
300
1:10
140
1.0
141
10.0
290
     0
  0
SCALE
  5
4E
102
{ACAD_REACTORS
330
47
102
}
330
47
100
AcDbScale
 70
     0
300
1:16
140
1.0
141
16.0
290
     0
  0
SCALE
  5
4F
102
{ACAD_REACTORS
330
47
102
}
330
47
100
AcDbScale
 70
     0
300
1:20
140
1.0
141
20.0
290
     0
  0
SCALE
  5
50
102
{ACAD_REACTORS
330
47
102
}
330
47
100
AcDbScale
 70
     0
300
1:30
140
1.0
141
30.0
290
     0
  0
SCALE
  5
51
102
{ACAD_REACTORS
330
47
102
}
330
47
100
AcDbScale
 70
     0
300
1:40
140
1.0
141
40.0
290
     0
  0
SCALE
  5
52
102
{ACAD_REACTORS
330
47
102
}
330
47
100
AcDbScale
 70
     0
300
1:50
140
1.0
141
50.0
290
     0
  0
SCALE
  5
53
102
{ACAD_REACTORS
330
47
102
}
330
47
100
AcDbScale
 70
     0
300
1:100
140
1.0
141
100.0
290
     0
  0
SCALE
  5
54
102
{ACAD_REACTORS
330
47
102
}
330
47
100
AcDbScale
 70
     0
300
2:1
140
2.0
141
1.0
290
     0
  0
SCALE
  5
55
102
{ACAD_REACTORS
330
47
102
}
330
47
100
AcDbScale
 70
     0
300
4:1
140
4.0
141
1.0
290
     0
  0
SCALE
  5
56
102
{ACAD_REACTORS
330
47
102
}
330
47
100
AcDbScale
 70
     0
300
8:1
140
8.0
141
1.0
290
     0
  0
SCALE
  5
57
102
{ACAD_REACTORS
330
47
102
}
330
47
100
AcDbScale
 70
     0
300
10:1
140
10.0
141
1.0
290
     0
  0
SCALE
  5
58
102
{ACAD_REACTORS
330
47
102
}
330
47
100
AcDbScale
 70
     0
300
100:1
140
100.0
141
1.0
290
     0
  0
SCALE
  5
59
102
{ACAD_REACTORS
330
47
102
}
330
47
100
AcDbScale
 70
     0
300
1/128" = 1'-0"
140
0.0078125
141
12.0
290
     0
  0
SCALE
  5
5A
102
{ACAD_REACTORS
330
47
102
}
330
47
100
AcDbScale
 70
     0
300
1/64" = 1'-0"
140
0.015625
141
12.0
290
     0
  0
SCALE
  5
5B
102
{ACAD_REACTORS
330
47
102
}
330
47
100
AcDbScale
 70
     0
300
1/32" = 1'-0"
140
0.03125
141
12.0
290
     0
  0
SCALE
  5
5C
102
{ACAD_REACTORS
330
47
102
}
330
47
100
AcDbScale
 70
     0
300
1/16" = 1'-0"
140
0.0625
141
12.0
290
     0
  0
SCALE
  5
5D
102
{ACAD_REACTORS
330
47
102
}
330
47
100
AcDbScale
 70
     0
300
3/32" = 1'-0"
140
0.09375
141
12.0
290
     0
  0
SCALE
  5
5E
102
{ACAD_REACTORS
330
47
102
}
330
47
100
AcDbScale
 70
     0
300
1/8" = 1'-0"
140
0.125
141
12.0
290
     0
  0
SCALE
  5
5F
102
{ACAD_REACTORS
330
47
102
}
330
47
100
AcDbScale
 70
     0
300
3/16" = 1'-0"
140
0.1875
141
12.0
290
     0
  0
SCALE
  5
60
102
{ACAD_REACTORS
330
47
102
}
330
47
100
AcDbScale
 70
     0
300
1/4" = 1'-0"
140
0.25
141
12.0
290
     0
  0
SCALE
  5
61
102
{ACAD_REACTORS
330
47
102
}
330
47
100
AcDbScale
 70
     0
300
3/8" = 1'-0"
140
0.375
141
12.0
290
     0
  0
SCALE
  5
62
102
{ACAD_REACTORS
330
47
102
}
330
47
100
AcDbScale
 70
     0
300
1/2" = 1'-0"
140
0.5
141
12.0
290
     0
  0
SCALE
  5
63
102
{ACAD_REACTORS
330
47
102
}
330
47
100
AcDbScale
 70
     0
300
3/4" = 1'-0"
140
0.75
141
12.0
290
     0
  0
SCALE
  5
64
102
{ACAD_REACTORS
330
47
102
}
330
47
100
AcDbScale
 70
     0
300
1" = 1'-0"
140
1.0
141
12.0
290
     0
  0
SCALE
  5
65
102
{ACAD_REACTORS
330
47
102
}
330
47
100
AcDbScale
 70
     0
300
1-1/2" = 1'-0"
140
1.5
141
12.0
290
     0
  0
SCALE
  5
66
102
{ACAD_REACTORS
330
47
102
}
330
47
100
AcDbScale
 70
     0
300
3" = 1'-0"
140
3.0
141
12.0
290
     0
  0
SCALE
  5
67
102
{ACAD_REACTORS
330
47
102
}
330
47
100
AcDbScale
 70
     0
300
6" = 1'-0"
140
6.0
141
12.0
290
     0
  0
SCALE
  5
68
102
{ACAD_REACTORS
330
47
102
}
330
47
100
AcDbScale
 70
     0
300
1'-0" = 1'-0"
140
12.0
141
12.0
290
     0
  0
ENDSEC
  0
EOF
