  0
SECTION
  2
HEADER
  9
$ACADVER
  1
AC1015
  9
$ACADMAINTVER
 70
     6
  9
$DWGCODEPAGE
  3
DOS932
  9
$INSBASE
 10
0.0
 20
0.0
 30
0.0
  9
$EXTMIN
 10
0.0
 20
0.0
 30
0.0
  9
$EXTMAX
 10
431.8
 20
279.4
 30
0.0
  9
$LIMMIN
 10
0.0
 20
0.0
  9
$LIMMAX
 10
431.8
 20
279.4
  9
$ORTHOMODE
 70
     0
  9
$REGENMODE
 70
     1
  9
$FILLMODE
 70
     1
  9
$QTEXTMODE
 70
     0
  9
$MIRRTEXT
 70
     1
  9
$LTSCALE
 40
1.0
  9
$ATTMODE
 70
     1
  9
$TEXTSIZE
 40
3.5
  9
$TRACEWID
 40
1.0
  9
$TEXTSTYLE
  7
Standard
  9
$CLAYER
  8
0
  9
$CELTYPE
  6
ByLayer
  9
$CECOLOR
 62
   256
  9
$CELTSCALE
 40
1.0
  9
$DISPSILH
 70
     0
  9
$DIMSCALE
 40
1.0
  9
$DIMASZ
 40
3.302
  9
$DIMEXO
 40
1.0
  9
$DIMDLI
 40
3.75
  9
$DIMRND
 40
0.0
  9
$DIMDLE
 40
0.0
  9
$DIMEXE
 40
1.0
  9
$DIMTP
 40
0.0
  9
$DIMTM
 40
0.0
  9
$DIMTXT
 40
3.5
  9
$DIMCEN
 40
2.5
  9
$DIMTSZ
 40
0.0
  9
$DIMTOL
 70
     0
  9
$DIMLIM
 70
     0
  9
$DIMTIH
 70
     1
  9
$DIMTOH
 70
     1
  9
$DIMSE1
 70
     0
  9
$DIMSE2
 70
     0
  9
$DIMTAD
 70
     1
  9
$DIMZIN
 70
     1
  9
$DIMBLK
  1

  9
$DIMASO
 70
     1
  9
$DIMSHO
 70
     1
  9
$DIMPOST
  1

  9
$DIMAPOST
  1

  9
$DIMALT
 70
     0
  9
$DIMALTD
 70
     3
  9
$DIMALTF
 40
0.0393700787
  9
$DIMLFAC
 40
1.0
  9
$DIMTOFL
 70
     1
  9
$DIMTVP
 40
0.0
  9
$DIMTIX
 70
     0
  9
$DIMSOXD
 70
     0
  9
$DIMSAH
 70
     0
  9
$DIMBLK1
  1

  9
$DIMBLK2
  1

  9
$DIMSTYLE
  2
ISO-25
  9
$DIMCLRD
 70
     0
  9
$DIMCLRE
 70
     0
  9
$DIMCLRT
 70
     0
  9
$DIMTFAC
 40
1.0
  9
$DIMGAP
 40
1.524
  9
$DIMJUST
 70
     0
  9
$DIMSD1
 70
     0
  9
$DIMSD2
 70
     0
  9
$DIMTOLJ
 70
     0
  9
$DIMTZIN
 70
     1
  9
$DIMALTZ
 70
     0
  9
$DIMALTTZ
 70
     0
  9
$DIMUPT
 70
     0
  9
$DIMDEC
 70
     2
  9
$DIMTDEC
 70
     2
  9
$DIMALTU
 70
     2
  9
$DIMALTTD
 70
     3
  9
$DIMTXSTY
  7
Standard
  9
$DIMAUNIT
 70
     0
  9
$DIMADEC
 70
     2
  9
$DIMALTRND
 40
0.0
  9
$DIMAZIN
 70
     0
  9
$DIMDSEP
 70
    44
  9
$DIMATFIT
 70
     3
  9
$DIMFRAC
 70
     0
  9
$DIMLDRBLK
  1

  9
$DIMLUNIT
 70
     2
  9
$DIMLWD
 70
    -2
  9
$DIMLWE
 70
    -2
  9
$DIMTMOVE
 70
     0
  9
$LUNITS
 70
     2
  9
$LUPREC
 70
     2
  9
$SKETCHINC
 40
1.0
  9
$FILLETRAD
 40
10.0
  9
$AUNITS
 70
     0
  9
$AUPREC
 70
     2
  9
$MENU
  1
.
  9
$ELEVATION
 40
0.0
  9
$PELEVATION
 40
0.0
  9
$THICKNESS
 40
0.0
  9
$LIMCHECK
 70
     0
  9
$CHAMFERA
 40
0.0
  9
$CHAMFERB
 40
0.0
  9
$CHAMFERC
 40
0.0
  9
$CHAMFERD
 40
0.0
  9
$SKPOLY
 70
     0
  9
$TDCREATE
 40
2459296.615608449
  9
$TDUCREATE
 40
2459296.240608449
  9
$TDUPDATE
 40
2459296.615609259
  9
$TDUUPDATE
 40
2459296.240609259
  9
$TDINDWG
 40
0.0000000116
  9
$TDUSRTIMER
 40
0.0000000116
  9
$USRTIMER
 70
     1
  9
$ANGBASE
 50
0.0
  9
$ANGDIR
 70
     0
  9
$PDMODE
 70
     0
  9
$PDSIZE
 40
-1.0
  9
$PLINEWID
 40
0.0
  9
$SPLFRAME
 70
     0
  9
$SPLINETYPE
 70
     6
  9
$SPLINESEGS
 70
     8
  9
$HANDSEED
  5
215
  9
$SURFTAB1
 70
     6
  9
$SURFTAB2
 70
     6
  9
$SURFTYPE
 70
     6
  9
$SURFU
 70
     6
  9
$SURFV
 70
     6
  9
$UCSBASE
  2

  9
$UCSNAME
  2

  9
$UCSORG
 10
0.0
 20
0.0
 30
0.0
  9
$UCSXDIR
 10
1.0
 20
0.0
 30
0.0
  9
$UCSYDIR
 10
0.0
 20
1.0
 30
0.0
  9
$UCSORTHOREF
  2

  9
$UCSORTHOVIEW
 70
     0
  9
$UCSORGTOP
 10
0.0
 20
0.0
 30
0.0
  9
$UCSORGBOTTOM
 10
0.0
 20
0.0
 30
0.0
  9
$UCSORGLEFT
 10
0.0
 20
0.0
 30
0.0
  9
$UCSORGRIGHT
 10
0.0
 20
0.0
 30
0.0
  9
$UCSORGFRONT
 10
0.0
 20
0.0
 30
0.0
  9
$UCSORGBACK
 10
0.0
 20
0.0
 30
0.0
  9
$PUCSBASE
  2

  9
$PUCSNAME
  2

  9
$PUCSORG
 10
0.0
 20
0.0
 30
0.0
  9
$PUCSXDIR
 10
1.0
 20
0.0
 30
0.0
  9
$PUCSYDIR
 10
0.0
 20
1.0
 30
0.0
  9
$PUCSORTHOREF
  2

  9
$PUCSORTHOVIEW
 70
     0
  9
$PUCSORGTOP
 10
0.0
 20
0.0
 30
0.0
  9
$PUCSORGBOTTOM
 10
0.0
 20
0.0
 30
0.0
  9
$PUCSORGLEFT
 10
0.0
 20
0.0
 30
0.0
  9
$PUCSORGRIGHT
 10
0.0
 20
0.0
 30
0.0
  9
$PUCSORGFRONT
 10
0.0
 20
0.0
 30
0.0
  9
$PUCSORGBACK
 10
0.0
 20
0.0
 30
0.0
  9
$USERI1
 70
     0
  9
$USERI2
 70
     0
  9
$USERI3
 70
     0
  9
$USERI4
 70
     0
  9
$USERI5
 70
     0
  9
$USERR1
 40
0.0
  9
$USERR2
 40
0.0
  9
$USERR3
 40
0.0
  9
$USERR4
 40
0.0
  9
$USERR5
 40
0.0
  9
$WORLDVIEW
 70
     1
  9
$SHADEDGE
 70
     3
  9
$SHADEDIF
 70
    70
  9
$TILEMODE
 70
     1
  9
$MAXACTVP
 70
    64
  9
$PINSBASE
 10
0.0
 20
0.0
 30
0.0
  9
$PLIMCHECK
 70
     0
  9
$PEXTMIN
 10
1.0000000000E+20
 20
1.0000000000E+20
 30
1.0000000000E+20
  9
$PEXTMAX
 10
-1.0000000000E+20
 20
-1.0000000000E+20
 30
-1.0000000000E+20
  9
$PLIMMIN
 10
0.0
 20
0.0
  9
$PLIMMAX
 10
420.0
 20
297.0
  9
$UNITMODE
 70
     0
  9
$VISRETAIN
 70
     1
  9
$PLINEGEN
 70
     0
  9
$PSLTSCALE
 70
     1
  9
$TREEDEPTH
 70
  3020
  9
$CMLSTYLE
  2
Standard
  9
$CMLJUST
 70
     0
  9
$CMLSCALE
 40
20.0
  9
$PROXYGRAPHICS
 70
     1
  9
$MEASUREMENT
 70
     1
  9
$CELWEIGHT
370
    -1
  9
$ENDCAPS
280
     0
  9
$JOINSTYLE
280
     0
  9
$LWDISPLAY
290
     1
  9
$INSUNITS
 70
     4
  9
$HYPERLINKBASE
  1

  9
$STYLESHEET
  1

  9
$XEDIT
290
     1
  9
$CEPSNTYPE
380
     0
  9
$PSTYLEMODE
290
     1
  9
$FINGERPRINTGUID
  2
{7838C19E-C88A-44BE-871F-8D4E4AF1B369}
  9
$VERSIONGUID
  2
{FAEB1C32-E019-11D5-929B-00C0DF256EC4}
  9
$EXTNAMES
290
     1
  9
$PSVPSCALE
 40
0.0
  9
$OLESTARTUP
290
     0
  0
ENDSEC
  0
SECTION
  2
CLASSES
  0
CLASS
  1
ACDBDICTIONARYWDFLT
  2
AcDbDictionaryWithDefault
  3
ObjectDBX Classes
 90
        0
280
     0
281
     0
  0
CLASS
  1
VISUALSTYLE
  2
AcDbVisualStyle
  3
ObjectDBX Classes
 90
     4095
280
     0
281
     0
  0
CLASS
  1
MATERIAL
  2
AcDbMaterial
  3
ObjectDBX Classes
 90
     1153
280
     0
281
     0
  0
CLASS
  1
SCALE
  2
AcDbScale
  3
ObjectDBX Classes
 90
     1153
280
     0
281
     0
  0
CLASS
  1
TABLESTYLE
  2
AcDbTableStyle
  3
ObjectDBX Classes
 90
     4095
280
     0
281
     0
  0
CLASS
  1
MLEADERSTYLE
  2
AcDbMLeaderStyle
  3
ACDB_MLEADERSTYLE_CLASS
 90
     4095
280
     0
281
     0
  0
CLASS
  1
SUN
  2
AcDbSun
  3
SCENEOE
 90
     1153
280
     0
281
     0
  0
CLASS
  1
ACDBPLACEHOLDER
  2
AcDbPlaceHolder
  3
ObjectDBX Classes
 90
        0
280
     0
281
     0
  0
CLASS
  1
LAYOUT
  2
AcDbLayout
  3
ObjectDBX Classes
 90
        0
280
     0
281
     0
  0
ENDSEC
  0
SECTION
  2
TABLES
  0
TABLE
  2
VPORT
  5
8
330
0
100
AcDbSymbolTable
 70
     1
  0
VPORT
  5
29
330
8
100
AcDbSymbolTableRecord
100
AcDbViewportTableRecord
  2
*Active
 70
     0
 10
0.0
 20
0.0
 11
1.0
 21
1.0
 12
215.9
 22
139.7
 13
0.0
 23
0.0
 14
10.0
 24
10.0
 15
10.0
 25
10.0
 16
0.0
 26
0.0
 36
1.0
 17
0.0
 27
0.0
 37
0.0
 40
279.4
 41
1.5454545455
 42
50.0
 43
0.0
 44
0.0
 50
0.0
 51
0.0
 71
     0
 72
  2000
 73
     1
 74
     3
 75
     0
 76
     0
 77
     0
 78
     0
281
     0
 65
     1
110
0.0
120
0.0
130
0.0
111
1.0
121
0.0
131
0.0
112
0.0
122
1.0
132
0.0
 79
     0
146
0.0
  0
ENDTAB
  0
TABLE
  2
LTYPE
  5
5
330
0
100
AcDbSymbolTable
 70
     6
  0
LTYPE
  5
14
330
5
100
AcDbSymbolTableRecord
100
AcDbLinetypeTableRecord
  2
ByBlock
 70
     0
  3

 72
    65
 73
     0
 40
0.0
  0
LTYPE
  5
15
330
5
100
AcDbSymbolTableRecord
100
AcDbLinetypeTableRecord
  2
ByLayer
 70
     0
  3

 72
    65
 73
     0
 40
0.0
  0
LTYPE
  5
16
330
5
100
AcDbSymbolTableRecord
100
AcDbLinetypeTableRecord
  2
Continuous
 70
     0
  3
Solid line
 72
    65
 73
     0
 40
0.0
  0
LTYPE
  5
6E
330
5
100
AcDbSymbolTableRecord
100
AcDbLinetypeTableRecord
  2
HIDDEN
 70
     0
  3
Hidden __ __ __ __ __ __ __ __ __ __ __ __ __ __
 72
    65
 73
     2
 40
1.905
 49
1.27
 74
     0
 49
-0.635
 74
     0
  0
LTYPE
  5
6F
330
5
100
AcDbSymbolTableRecord
100
AcDbLinetypeTableRecord
  2
PHANTOM
 70
     0
  3
Phantom ______  __  __  ______  __  __  ______
 72
    65
 73
     6
 40
12.7
 49
6.35
 74
     0
 49
-1.27
 74
     0
 49
1.27
 74
     0
 49
-1.27
 74
     0
 49
1.27
 74
     0
 49
-1.27
 74
     0
  0
LTYPE
  5
70
330
5
100
AcDbSymbolTableRecord
100
AcDbLinetypeTableRecord
  2
CENTER
 70
     0
  3
Center ____ _ ____ _ ____ _ ____ _ ____ _ ____
 72
    65
 73
     4
 40
10.16
 49
6.35
 74
     0
 49
-1.27
 74
     0
 49
1.27
 74
     0
 49
-1.27
 74
     0
  0
LTYPE
  5
71
330
5
100
AcDbSymbolTableRecord
100
AcDbLinetypeTableRecord
  2
CENTERX2
 70
     0
  3
Center (2x) ________  __  ________  __  _____
 72
    65
 73
     4
 40
20.32
 49
12.7
 74
     0
 49
-2.54
 74
     0
 49
2.54
 74
     0
 49
-2.54
 74
     0
  0
LTYPE
  5
72
330
5
100
AcDbSymbolTableRecord
100
AcDbLinetypeTableRecord
  2
DOT2
 70
     0
  3
Dot (.5x) ........................................
 72
    65
 73
     2
 40
0.635
 49
0.0
 74
     0
 49
-0.635
 74
     0
  0
ENDTAB
  0
TABLE
  2
LAYER
  5
2
330
0
100
AcDbSymbolTable
 70
     1
  0
LAYER
  5
10
330
2
100
AcDbSymbolTableRecord
100
AcDbLayerTableRecord
  2
0
 70
     0
 62
     7
  6
Continuous
370
    -3
390
F
  0
ENDTAB
  0
TABLE
  2
STYLE
  5
3
330
0
100
AcDbSymbolTable
 70
     2
  0
STYLE
  5
11
330
3
100
AcDbSymbolTableRecord
100
AcDbTextStyleTableRecord
  2
Standard
 70
     0
 40
0.0
 41
1.0
 50
0.0
 71
     0
 42
3.5
  3
txt
  4
bigfont
  0
STYLE
  5
73
330
3
100
AcDbSymbolTableRecord
100
AcDbTextStyleTableRecord
  2
SLDTEXTSTYLE0
 70
     0
 40
0.0
 41
0.7
 50
0.0
 71
     0
 42
3.5
  3
TXT
  4
bigfont
  0
ENDTAB
  0
TABLE
  2
VIEW
  5
6
330
0
100
AcDbSymbolTable
 70
     0
  0
ENDTAB
  0
TABLE
  2
UCS
  5
7
330
0
100
AcDbSymbolTable
 70
     0
  0
ENDTAB
  0
TABLE
  2
APPID
  5
9
330
0
100
AcDbSymbolTable
 70
     1
  0
APPID
  5
12
330
9
100
AcDbSymbolTableRecord
100
AcDbRegAppTableRecord
  2
ACAD
 70
     0
  0
ENDTAB
  0
TABLE
  2
DIMSTYLE
  5
A
330
0
100
AcDbSymbolTable
 70
     1
100
AcDbDimStyleTable
  0
DIMSTYLE
105
27
330
A
100
AcDbSymbolTableRecord
100
AcDbDimStyleTableRecord
  2
ISO-25
 70
     0
 41
2.5
 42
0.625
 43
3.75
 44
1.25
 73
     0
 74
     0
 77
     1
 78
     8
140
2.5
141
2.5
143
0.0393700787
147
0.625
171
     3
172
     1
178
     0
271
     2
272
     2
274
     3
278
    44
283
     0
284
     8
340
11
  0
ENDTAB
  0
TABLE
  2
BLOCK_RECORD
  5
1
330
0
100
AcDbSymbolTable
 70
     3
  0
BLOCK_RECORD
  5
1F
330
1
100
AcDbSymbolTableRecord
100
AcDbBlockTableRecord
  2
*Model_Space
340
22
  0
BLOCK_RECORD
  5
1B
330
1
100
AcDbSymbolTableRecord
100
AcDbBlockTableRecord
  2
*Paper_Space
340
1E
  0
BLOCK_RECORD
  5
23
330
1
100
AcDbSymbolTableRecord
100
AcDbBlockTableRecord
  2
*Paper_Space0
340
26
  0
BLOCK_RECORD
  5
15A
330
1
100
AcDbSymbolTableRecord
100
AcDbBlockTableRecord
  2
SW_CENTERMARKSYMBOL_0
340
0
102
{BLKREFS
331
165
102
}
  0
BLOCK_RECORD
  5
209
330
1
100
AcDbSymbolTableRecord
100
AcDbBlockTableRecord
  2
SW_CENTERMARKSYMBOL_1
340
0
102
{BLKREFS
331
214
102
}
  0
ENDTAB
  0
ENDSEC
  0
SECTION
  2
BLOCKS
  0
BLOCK
  5
20
330
1F
100
AcDbEntity
  8
0
100
AcDbBlockBegin
  2
*Model_Space
 70
     0
 10
0.0
 20
0.0
 30
0.0
  3
*Model_Space
  1

  0
ENDBLK
  5
21
330
1F
100
AcDbEntity
  8
0
100
AcDbBlockEnd
  0
BLOCK
  5
1C
330
1B
100
AcDbEntity
 67
     1
  8
0
100
AcDbBlockBegin
  2
*Paper_Space
 70
     0
 10
0.0
 20
0.0
 30
0.0
  3
*Paper_Space
  1

  0
ENDBLK
  5
1D
330
1B
100
AcDbEntity
 67
     1
  8
0
100
AcDbBlockEnd
  0
BLOCK
  5
24
330
23
100
AcDbEntity
  8
0
100
AcDbBlockBegin
  2
*Paper_Space0
 70
     0
 10
0.0
 20
0.0
 30
0.0
  3
*Paper_Space0
  1

  0
ENDBLK
  5
25
330
23
100
AcDbEntity
  8
0
100
AcDbBlockEnd
  0
BLOCK
  5
15B
330
15A
100
AcDbEntity
  8
0
100
AcDbBlockBegin
  2
SW_CENTERMARKSYMBOL_0
 70
     0
 10
0.0
 20
0.0
 30
0.0
  3
SW_CENTERMARKSYMBOL_0
  1

  0
LINE
  5
15D
330
15A
100
AcDbEntity
  8
0
  6
Continuous
 62
     0
370
    18
100
AcDbLine
 10
0.0
 20
0.0
 30
0.0
 11
0.0
 21
2.5
 31
0.0
  0
LINE
  5
15E
330
15A
100
AcDbEntity
  8
0
  6
Continuous
 62
     0
370
    18
100
AcDbLine
 10
0.0
 20
0.0
 30
0.0
 11
-2.5
 21
0.0
 31
0.0
  0
LINE
  5
15F
330
15A
100
AcDbEntity
  8
0
  6
Continuous
 62
     0
370
    18
100
AcDbLine
 10
0.0
 20
0.0
 30
0.0
 11
0.0
 21
-2.5
 31
0.0
  0
LINE
  5
160
330
15A
100
AcDbEntity
  8
0
  6
Continuous
 62
     0
370
    18
100
AcDbLine
 10
0.0
 20
0.0
 30
0.0
 11
2.5
 21
0.0
 31
0.0
  0
LINE
  5
161
330
15A
100
AcDbEntity
  8
0
  6
Continuous
 62
     0
370
    18
100
AcDbLine
 10
0.0
 20
5.0
 30
0.0
 11
0.0
 21
30.3809372039
 31
0.0
  0
LINE
  5
162
330
15A
100
AcDbEntity
  8
0
  6
Continuous
 62
     0
370
    18
100
AcDbLine
 10
-5.0
 20
0.0
 30
0.0
 11
-14.25
 21
0.0
 31
0.0
  0
LINE
  5
163
330
15A
100
AcDbEntity
  8
0
  6
Continuous
 62
     0
370
    18
100
AcDbLine
 10
0.0
 20
-5.0
 30
0.0
 11
0.0
 21
-14.25
 31
0.0
  0
LINE
  5
164
330
15A
100
AcDbEntity
  8
0
  6
Continuous
 62
     0
370
    18
100
AcDbLine
 10
5.0
 20
0.0
 30
0.0
 11
14.25
 21
0.0
 31
0.0
  0
ENDBLK
  5
15C
330
15A
100
AcDbEntity
  8
0
100
AcDbBlockEnd
  0
BLOCK
  5
20A
330
209
100
AcDbEntity
  8
0
100
AcDbBlockBegin
  2
SW_CENTERMARKSYMBOL_1
 70
     0
 10
0.0
 20
0.0
 30
0.0
  3
SW_CENTERMARKSYMBOL_1
  1

  0
LINE
  5
20C
330
209
100
AcDbEntity
  8
0
  6
Continuous
 62
     0
370
    18
100
AcDbLine
 10
0.0
 20
0.0
 30
0.0
 11
0.0
 21
2.5
 31
0.0
  0
LINE
  5
20D
330
209
100
AcDbEntity
  8
0
  6
Continuous
 62
     0
370
    18
100
AcDbLine
 10
0.0
 20
0.0
 30
0.0
 11
-2.5
 21
0.0
 31
0.0
  0
LINE
  5
20E
330
209
100
AcDbEntity
  8
0
  6
Continuous
 62
     0
370
    18
100
AcDbLine
 10
0.0
 20
0.0
 30
0.0
 11
0.0
 21
-2.5
 31
0.0
  0
LINE
  5
20F
330
209
100
AcDbEntity
  8
0
  6
Continuous
 62
     0
370
    18
100
AcDbLine
 10
0.0
 20
0.0
 30
0.0
 11
2.5
 21
0.0
 31
0.0
  0
LINE
  5
210
330
209
100
AcDbEntity
  8
0
  6
Continuous
 62
     0
370
    18
100
AcDbLine
 10
0.0
 20
5.0
 30
0.0
 11
0.0
 21
11.0700625
 31
0.0
  0
LINE
  5
211
330
209
100
AcDbEntity
  8
0
  6
Continuous
 62
     0
370
    18
100
AcDbLine
 10
-5.0
 20
0.0
 30
0.0
 11
-11.0700625
 21
0.0
 31
0.0
  0
LINE
  5
212
330
209
100
AcDbEntity
  8
0
  6
Continuous
 62
     0
370
    18
100
AcDbLine
 10
0.0
 20
-5.0
 30
0.0
 11
0.0
 21
-11.0700625
 31
0.0
  0
LINE
  5
213
330
209
100
AcDbEntity
  8
0
  6
Continuous
 62
     0
370
    18
100
AcDbLine
 10
5.0
 20
0.0
 30
0.0
 11
67.6445992059
 21
0.0
 31
0.0
  0
ENDBLK
  5
20B
330
209
100
AcDbEntity
  8
0
100
AcDbBlockEnd
  0
ENDSEC
  0
SECTION
  2
ENTITIES
  0
MTEXT
  5
74
330
1F
100
AcDbEntity
  8
0
  6
Continuous
 62
     7
370
     0
100
AcDbMText
 10
172.2573754965
 20
131.473124334
 30
0.0
 40
4.7625
 41
0.0
 71
     1
 72
     1
  1
HL-1314R
  7
SLDTEXTSTYLE0
 73
     1
 44
1.0
  0
LINE
  5
75
330
1F
100
AcDbEntity
  8
0
  6
Continuous
 62
     7
370
    25
100
AcDbLine
 10
129.9438433009
 20
79.5935105593
 30
0.0
 11
130.4438433009
 21
79.5935105593
 31
0.0
  0
LINE
  5
76
330
1F
100
AcDbEntity
  8
0
  6
Continuous
 62
     7
370
    25
100
AcDbLine
 10
130.4438433009
 20
95.5935105593
 30
0.0
 11
129.9438433009
 21
95.5935105593
 31
0.0
  0
LINE
  5
77
330
1F
100
AcDbEntity
  8
0
  6
Continuous
 62
     7
370
    25
100
AcDbLine
 10
136.4438433009
 20
94.5935105593
 30
0.0
 11
130.4438433009
 21
94.5935105593
 31
0.0
  0
LINE
  5
78
330
1F
100
AcDbEntity
  8
0
  6
Continuous
 62
     7
370
    25
100
AcDbLine
 10
130.4438433009
 20
80.5935105593
 30
0.0
 11
136.4438433009
 21
80.5935105593
 31
0.0
  0
LINE
  5
79
330
1F
100
AcDbEntity
  8
0
  6
Continuous
 62
     7
370
    25
100
AcDbLine
 10
136.4438433009
 20
80.5935105593
 30
0.0
 11
140.9438433009
 21
81.3435105593
 31
0.0
  0
LINE
  5
7A
330
1F
100
AcDbEntity
  8
0
  6
Continuous
 62
     7
370
    25
100
AcDbLine
 10
140.9438433009
 20
93.8435105593
 30
0.0
 11
136.4438433009
 21
94.5935105593
 31
0.0
  0
LINE
  5
7B
330
1F
100
AcDbEntity
  8
0
  6
Continuous
 62
     7
370
    25
100
AcDbLine
 10
145.4438433009
 20
80.5935105593
 30
0.0
 11
149.9438433009
 21
81.3435105593
 31
0.0
  0
LINE
  5
7C
330
1F
100
AcDbEntity
  8
0
  6
Continuous
 62
     7
370
    25
100
AcDbLine
 10
149.9438433009
 20
93.8435105593
 30
0.0
 11
145.4438433009
 21
94.5935105593
 31
0.0
  0
LINE
  5
7D
330
1F
100
AcDbEntity
  8
0
  6
Continuous
 62
     7
370
    25
100
AcDbLine
 10
140.9438433009
 20
80.5935105593
 30
0.0
 11
145.4438433009
 21
81.3435105593
 31
0.0
  0
LINE
  5
7E
330
1F
100
AcDbEntity
  8
0
  6
Continuous
 62
     7
370
    25
100
AcDbLine
 10
145.4438433009
 20
93.8435105593
 30
0.0
 11
140.9438433009
 21
94.5935105593
 31
0.0
  0
LINE
  5
7F
330
1F
100
AcDbEntity
  8
0
  6
Continuous
 62
     7
370
    25
100
AcDbLine
 10
149.9438433009
 20
80.5935105593
 30
0.0
 11
154.4438433009
 21
81.3435105593
 31
0.0
  0
LINE
  5
80
330
1F
100
AcDbEntity
  8
0
  6
Continuous
 62
     7
370
    25
100
AcDbLine
 10
154.4438433009
 20
93.8435105593
 30
0.0
 11
149.9438433009
 21
94.5935105593
 31
0.0
  0
LINE
  5
81
330
1F
100
AcDbEntity
  8
0
  6
Continuous
 62
     7
370
    25
100
AcDbLine
 10
154.4438433009
 20
80.5935105593
 30
0.0
 11
160.2484570458
 21
81.2632736837
 31
0.0
  0
LINE
  5
82
330
1F
100
AcDbEntity
  8
0
  6
Continuous
 62
     7
370
    25
100
AcDbLine
 10
160.2484570458
 20
93.9237474349
 30
0.0
 11
154.4438433009
 21
94.5935105593
 31
0.0
  0
LINE
  5
83
330
1F
100
AcDbEntity
  8
0
  6
Continuous
 62
     7
370
    25
100
AcDbLine
 10
160.2484570458
 20
81.2632736837
 30
0.0
 11
160.9438433009
 21
82.1400650489
 31
0.0
  0
LINE
  5
84
330
1F
100
AcDbEntity
  8
0
  6
Continuous
 62
     7
370
    25
100
AcDbLine
 10
160.9438433009
 20
93.0469560698
 30
0.0
 11
160.2484570458
 21
93.9237474349
 31
0.0
  0
LINE
  5
85
330
1F
100
AcDbEntity
  8
0
  6
Continuous
 62
     7
370
    25
100
AcDbLine
 10
126.7277089639
 20
73.7371040988
 30
0.0
 11
127.9438433009
 21
75.8435105593
 31
0.0
  0
LINE
  5
86
330
1F
100
AcDbEntity
  8
0
  6
Continuous
 62
     7
370
    25
100
AcDbLine
 10
127.9438433009
 20
99.3435105593
 30
0.0
 11
126.7277089639
 21
101.4499170199
 31
0.0
  0
LINE
  5
87
330
1F
100
AcDbEntity
  8
0
  6
Continuous
 62
     7
370
    25
100
AcDbLine
 10
117.159977638
 20
101.4499170199
 30
0.0
 11
115.9438433009
 21
99.3435105593
 31
0.0
  0
LINE
  5
88
330
1F
100
AcDbEntity
  8
0
  6
Continuous
 62
     7
370
    25
100
AcDbLine
 10
115.9438433009
 20
75.8435105593
 30
0.0
 11
117.159977638
 21
73.7371040988
 31
0.0
  0
LINE
  5
89
330
1F
100
AcDbEntity
  8
0
  6
Continuous
 62
     7
370
    25
100
AcDbLine
 10
129.4438433009
 20
75.8435105593
 30
0.0
 11
129.9438433009
 21
76.3435105593
 31
0.0
  0
LINE
  5
8A
330
1F
100
AcDbEntity
  8
0
  6
Continuous
 62
     7
370
    25
100
AcDbLine
 10
129.9438433009
 20
98.8435105593
 30
0.0
 11
129.4438433009
 21
99.3435105593
 31
0.0
  0
LINE
  5
8B
330
1F
100
AcDbEntity
  8
0
  6
Continuous
 62
     7
370
    25
100
AcDbLine
 10
114.4438433009
 20
99.3435105593
 30
0.0
 11
113.9438433009
 21
98.8435105593
 31
0.0
  0
LINE
  5
8C
330
1F
100
AcDbEntity
  8
0
  6
Continuous
 62
     7
370
    25
100
AcDbLine
 10
113.9438433009
 20
76.3435105593
 30
0.0
 11
114.4438433009
 21
75.8435105593
 31
0.0
  0
LINE
  5
8D
330
1F
100
AcDbEntity
  8
0
  6
Continuous
 62
     7
370
    25
100
AcDbLine
 10
127.9438433009
 20
75.8435105593
 30
0.0
 11
129.4438433009
 21
75.8435105593
 31
0.0
  0
LINE
  5
8E
330
1F
100
AcDbEntity
  8
0
  6
Continuous
 62
     7
370
    25
100
AcDbLine
 10
129.4438433009
 20
99.3435105593
 30
0.0
 11
127.9438433009
 21
99.3435105593
 31
0.0
  0
LINE
  5
8F
330
1F
100
AcDbEntity
  8
0
  6
Continuous
 62
     7
370
    25
100
AcDbLine
 10
115.9438433009
 20
99.3435105593
 30
0.0
 11
114.4438433009
 21
99.3435105593
 31
0.0
  0
LINE
  5
90
330
1F
100
AcDbEntity
  8
0
  6
Continuous
 62
     7
370
    25
100
AcDbLine
 10
114.4438433009
 20
75.8435105593
 30
0.0
 11
115.9438433009
 21
75.8435105593
 31
0.0
  0
LINE
  5
91
330
1F
100
AcDbEntity
  8
0
  6
Continuous
 62
     7
370
    25
100
AcDbLine
 10
121.9438433009
 20
100.9499170199
 30
0.0
 11
121.8098687047
 21
101.4499170199
 31
0.0
  0
LINE
  5
92
330
1F
100
AcDbEntity
  8
0
  6
Continuous
 62
     7
370
    25
100
AcDbLine
 10
122.0778178972
 20
101.4499170199
 30
0.0
 11
121.9438433009
 21
100.9499170199
 31
0.0
  0
LINE
  5
93
330
1F
100
AcDbEntity
  8
0
  6
Continuous
 62
     7
370
    25
100
AcDbLine
 10
121.9438433009
 20
74.2371040988
 30
0.0
 11
122.0778178972
 21
73.7371040988
 31
0.0
  0
LINE
  5
94
330
1F
100
AcDbEntity
  8
0
  6
Continuous
 62
     7
370
    25
100
AcDbLine
 10
121.8098687047
 20
73.7371040988
 30
0.0
 11
121.9438433009
 21
74.2371040988
 31
0.0
  0
LINE
  5
95
330
1F
100
AcDbEntity
  8
0
  6
Continuous
 62
     7
370
    25
100
AcDbLine
 10
113.9438433009
 20
98.0710105593
 30
0.0
 11
111.6999253942
 21
98.0710105593
 31
0.0
  0
LINE
  5
96
330
1F
100
AcDbEntity
  8
0
  6
Continuous
 62
     7
370
    25
100
AcDbLine
 10
111.6999253942
 20
77.1160105593
 30
0.0
 11
113.9438433009
 21
77.1160105593
 31
0.0
  0
ARC
  5
97
330
1F
100
AcDbEntity
  8
0
  6
Continuous
 62
     7
370
    25
100
AcDbCircle
 10
113.5070622872
 20
78.8435105593
 30
0.0
 40
2.500000000000003
100
AcDbArc
 50
206.7436839504
 51
223.7093197495
  0
ARC
  5
98
330
1F
100
AcDbEntity
  8
0
  6
Continuous
 62
     7
370
    25
100
AcDbCircle
 10
113.5070622872
 20
96.3435105593
 30
0.0
 40
2.500000000000006
100
AcDbArc
 50
136.2906802505
 51
153.2563160496
  0
ARC
  5
99
330
1F
100
AcDbEntity
  8
0
  6
Continuous
 62
     7
370
    25
100
AcDbCircle
 10
109.0419195123
 20
76.5935105593
 30
0.0
 40
2.5
100
AcDbArc
 50
26.7436839504
 51
90.0
  0
ARC
  5
9A
330
1F
100
AcDbEntity
  8
0
  6
Continuous
 62
     7
370
    25
100
AcDbCircle
 10
109.0419195123
 20
98.5935105593
 30
0.0
 40
2.5
100
AcDbArc
 50
270.0
 51
333.2563160496
  0
ARC
  5
9B
330
1F
100
AcDbEntity
  8
0
  6
Continuous
 62
     7
370
    25
100
AcDbCircle
 10
107.5419195123
 20
100.0935105593
 30
0.0
 40
2.500000000000014
100
AcDbArc
 50
166.4034115815
 51
180.0
  0
ARC
  5
9C
330
1F
100
AcDbEntity
  8
0
  6
Continuous
 62
     7
370
    25
100
AcDbCircle
 10
85.5419195123
 20
100.0935105593
 30
0.0
 40
2.500000000000005
100
AcDbArc
 50
0.0
 51
13.5965884185
  0
LINE
  5
9D
330
1F
100
AcDbEntity
  8
0
  6
Continuous
 62
     7
370
    25
100
AcDbLine
 10
105.1119820123
 20
101.5935105593
 30
0.0
 11
104.7392916821
 21
113.5196011256
 31
0.0
  0
LINE
  5
9E
330
1F
100
AcDbEntity
  8
0
  6
Continuous
 62
     7
370
    25
100
AcDbLine
 10
88.3445473425
 20
113.5196011256
 30
0.0
 11
87.9718570123
 21
101.5935105593
 31
0.0
  0
LINE
  5
9F
330
1F
100
AcDbEntity
  8
0
  6
Continuous
 62
     7
370
    25
100
AcDbLine
 10
87.9718570123
 20
101.5935105593
 30
0.0
 11
87.9718570123
 21
100.6812211565
 31
0.0
  0
LINE
  5
A0
330
1F
100
AcDbEntity
  8
0
  6
Continuous
 62
     7
370
    25
100
AcDbLine
 10
105.1119820123
 20
100.6812211565
 30
0.0
 11
105.1119820123
 21
101.5935105593
 31
0.0
  0
LINE
  5
A1
330
1F
100
AcDbEntity
  8
0
  6
Continuous
 62
     7
370
    25
100
AcDbLine
 10
88.0419195123
 20
100.0935105593
 30
0.0
 11
88.0419195123
 21
82.0891098909
 31
0.0
  0
LINE
  5
A2
330
1F
100
AcDbEntity
  8
0
  6
Continuous
 62
     7
370
    25
100
AcDbLine
 10
105.0419195123
 20
96.5935105593
 30
0.0
 11
105.0419195123
 21
100.0935105593
 31
0.0
  0
LINE
  5
A3
330
1F
100
AcDbEntity
  8
0
  6
Continuous
 62
     7
370
    25
100
AcDbLine
 10
109.0419195123
 20
96.0935105593
 30
0.0
 11
105.5419195123
 21
96.0935105593
 31
0.0
  0
LINE
  5
A4
330
1F
100
AcDbEntity
  8
0
  6
Continuous
 62
     7
370
    25
100
AcDbLine
 10
91.0375188439
 20
79.0935105593
 30
0.0
 11
109.0419195123
 21
79.0935105593
 31
0.0
  0
LINE
  5
A5
330
1F
100
AcDbEntity
  8
0
  6
Continuous
 62
     7
370
    25
100
AcDbLine
 10
104.7392916821
 20
113.5196011256
 30
0.0
 11
103.5419195123
 21
115.5935105593
 31
0.0
  0
LINE
  5
A6
330
1F
100
AcDbEntity
  8
0
  6
Continuous
 62
     7
370
    25
100
AcDbLine
 10
89.5419195123
 20
115.5935105593
 30
0.0
 11
88.3445473425
 21
113.5196011256
 31
0.0
  0
SPLINE
  5
A7
330
1F
100
AcDbEntity
  8
0
  6
Continuous
 62
     7
370
    25
100
AcDbSpline
210
0.0
220
0.0
230
1.0
 70
     8
 71
     3
 72
    18
 73
    14
 74
     0
 42
0.000000001
 43
0.00000001
 40
0.0
 40
0.0
 40
0.0
 40
0.0
 40
0.0827064529141086
 40
0.157774629988733
 40
0.2847974390907824
 40
0.3813326480059515
 40
0.4519486919440617
 40
0.542152133493574
 40
0.6634999391290143
 40
0.7359335745171601
 40
0.8161561932238498
 40
0.9041841948346939
 40
1.0
 40
1.0
 40
1.0
 40
1.0
 10
88.04191951255387
 20
82.0934709363494
 30
0.0
 10
88.04683961236368
 20
81.96358530313476
 30
0.0
 10
88.05622542084238
 20
81.71580950089385
 30
0.0
 10
88.14318426509604
 20
81.27600044917979
 30
0.0
 10
88.3025612677579
 20
80.83201234345002
 30
0.0
 10
88.53473200851354
 20
80.43090432916345
 30
0.0
 10
88.78079186218997
 20
80.10973739156874
 30
0.0
 10
89.09342624713759
 20
79.79412404025737
 30
0.0
 10
89.45771781695757
 20
79.53236575736335
 30
0.0
 10
89.84130464700829
 20
79.33616048813947
 30
0.0
 10
90.1969230774296
 20
79.20665604264808
 30
0.0
 10
90.60261771313546
 20
79.11272999149526
 30
0.0
 10
90.89138172193312
 20
79.10009544086166
 30
0.0
 10
91.04187988932256
 20
79.09351055958072
 30
0.0
  0
SPLINE
  5
A8
330
1F
100
AcDbEntity
  8
0
  6
Continuous
 62
     7
370
    25
100
AcDbSpline
210
0.0
220
0.0
230
1.0
 70
     8
 71
     3
 72
    11
 73
     7
 74
     0
 42
0.000000001
 43
0.00000001
 40
0.0
 40
0.0
 40
0.0
 40
0.0
 40
0.2500481156911711
 40
0.5000000000000012
 40
0.7499518843088333
 40
1.0
 40
1.0
 40
1.0
 40
1.0
 10
105.5467528434657
 20
96.09351055931567
 30
0.0
 10
105.4803517099789
 20
96.100602983575
 30
0.0
 10
105.3475749975784
 20
96.11478510256383
 30
0.0
 10
105.1799766889934
 20
96.23156773602021
 30
0.0
 10
105.063194055537
 20
96.39916604460522
 30
0.0
 10
105.0490119365482
 20
96.53194275700571
 30
0.0
 10
105.0419195122888
 20
96.59834389049252
 30
0.0
  0
LINE
  5
A9
330
1F
100
AcDbEntity
  8
0
  6
Continuous
 62
     7
370
    25
100
AcDbLine
 10
130.4438433009
 20
95.5935105593
 30
0.0
 11
130.4438433009
 21
79.5935105593
 31
0.0
  0
LINE
  5
AA
330
1F
100
AcDbEntity
  8
0
  6
Continuous
 62
     7
370
    25
100
AcDbLine
 10
136.4438433009
 20
94.5935105593
 30
0.0
 11
136.4438433009
 21
80.5935105593
 31
0.0
  0
LINE
  5
AB
330
1F
100
AcDbEntity
  8
0
  6
Continuous
 62
     7
370
    25
100
AcDbLine
 10
145.4438433009
 20
94.5935105593
 30
0.0
 11
145.4438433009
 21
80.5935105593
 31
0.0
  0
LINE
  5
AC
330
1F
100
AcDbEntity
  8
0
  6
Continuous
 62
     7
370
    25
100
AcDbLine
 10
140.9438433009
 20
94.5935105593
 30
0.0
 11
140.9438433009
 21
80.5935105593
 31
0.0
  0
LINE
  5
AD
330
1F
100
AcDbEntity
  8
0
  6
Continuous
 62
     7
370
    25
100
AcDbLine
 10
149.9438433009
 20
94.5935105593
 30
0.0
 11
149.9438433009
 21
80.5935105593
 31
0.0
  0
LINE
  5
AE
330
1F
100
AcDbEntity
  8
0
  6
Continuous
 62
     7
370
    25
100
AcDbLine
 10
154.4438433009
 20
94.5935105593
 30
0.0
 11
154.4438433009
 21
80.5935105593
 31
0.0
  0
LINE
  5
AF
330
1F
100
AcDbEntity
  8
0
  6
Continuous
 62
     7
370
    25
100
AcDbLine
 10
160.2484570458
 20
81.2632736837
 30
0.0
 11
160.2484570458
 21
93.9237474349
 31
0.0
  0
LINE
  5
B0
330
1F
100
AcDbEntity
  8
0
  6
Continuous
 62
     7
370
    25
100
AcDbLine
 10
160.9438433009
 20
93.0469560698
 30
0.0
 11
160.9438433009
 21
82.1400650489
 31
0.0
  0
LINE
  5
B1
330
1F
100
AcDbEntity
  8
0
  6
Continuous
 62
     7
370
    25
100
AcDbLine
 10
121.9438433009
 20
95.0535128308
 30
0.0
 11
121.8098687047
 21
94.5217137896
 31
0.0
  0
LINE
  5
B2
330
1F
100
AcDbEntity
  8
0
  6
Continuous
 62
     7
370
    25
100
AcDbLine
 10
121.9438433009
 20
95.0535128308
 30
0.0
 11
121.9438433009
 21
93.4581157071
 31
0.0
  0
LINE
  5
B3
330
1F
100
AcDbEntity
  8
0
  6
Continuous
 62
     7
370
    25
100
AcDbLine
 10
121.8098687047
 20
94.5217137896
 30
0.0
 11
121.9438433009
 21
93.4581157071
 31
0.0
  0
LINE
  5
B4
330
1F
100
AcDbEntity
  8
0
  6
Continuous
 62
     7
370
    25
100
AcDbLine
 10
122.0778178972
 20
101.4499170199
 30
0.0
 11
121.9438433009
 21
100.9181179786
 31
0.0
  0
LINE
  5
B5
330
1F
100
AcDbEntity
  8
0
  6
Continuous
 62
     7
370
    25
100
AcDbLine
 10
126.7277089639
 20
101.4499170199
 30
0.0
 11
122.0778178972
 21
101.4499170199
 31
0.0
  0
SPLINE
  5
B6
330
1F
100
AcDbEntity
  8
0
  6
Continuous
 62
     7
370
    25
100
AcDbSpline
210
0.0
220
0.0
230
1.0
 70
     8
 71
     3
 72
    15
 73
    11
 74
     0
 42
0.000000001
 43
0.00000001
 40
0.0
 40
0.0
 40
0.0
 40
0.0
 40
0.1323065044264403
 40
0.2645755999739297
 40
0.3998036789671094
 40
0.5350073556765895
 40
0.6501969475405022
 40
0.7654045076453766
 40
0.8826909144168968
 40
1.0
 40
1.0
 40
1.0
 40
1.0
 10
126.7277089639136
 20
101.4499170198667
 30
0.0
 10
126.8908680458313
 20
101.1505881970961
 30
0.0
 10
127.2171400774047
 20
100.5520151850031
 30
0.0
 10
127.5681947804245
 20
99.63026540821036
 30
0.0
 10
127.7792715659537
 20
98.6911402944598
 30
0.0
 10
127.8210688762393
 20
97.7860393964166
 30
0.0
 10
127.7126102435385
 20
96.92984269163205
 30
0.0
 10
127.4903843344776
 20
96.12181018282256
 30
0.0
 10
127.1644065611914
 20
95.31743111371262
 30
0.0
 10
126.8732842107979
 20
94.78696999120797
 30
0.0
 10
126.7277089639136
 20
94.52171378959117
 30
0.0
  0
LINE
  5
B7
330
1F
100
AcDbEntity
  8
0
  6
Continuous
 62
     7
370
    25
100
AcDbLine
 10
126.7277089639
 20
94.5217137896
 30
0.0
 11
122.0778178972
 21
94.5217137896
 31
0.0
  0
LINE
  5
B8
330
1F
100
AcDbEntity
  8
0
  6
Continuous
 62
     7
370
    25
100
AcDbLine
 10
121.9438433009
 20
95.0535128308
 30
0.0
 11
122.0778178972
 21
94.5217137896
 31
0.0
  0
LINE
  5
B9
330
1F
100
AcDbEntity
  8
0
  6
Continuous
 62
     7
370
    25
100
AcDbLine
 10
121.8098687047
 20
94.5217137896
 30
0.0
 11
117.159977638
 21
94.5217137896
 31
0.0
  0
SPLINE
  5
BA
330
1F
100
AcDbEntity
  8
0
  6
Continuous
 62
     7
370
    25
100
AcDbSpline
210
0.0
220
0.0
230
1.0
 70
     8
 71
     3
 72
    15
 73
    11
 74
     0
 42
0.000000001
 43
0.00000001
 40
0.0
 40
0.0
 40
0.0
 40
0.0
 40
0.1323065044264403
 40
0.2645755999739297
 40
0.3998036789671094
 40
0.5350073556765894
 40
0.6501969475405022
 40
0.7654045076453767
 40
0.8826909144168968
 40
1.0
 40
1.0
 40
1.0
 40
1.0
 10
117.1599776379574
 20
101.4499170198667
 30
0.0
 10
116.9968185560397
 20
101.1505881970961
 30
0.0
 10
116.6705465244664
 20
100.5520151850031
 30
0.0
 10
116.3194918214465
 20
99.63026540821036
 30
0.0
 10
116.1084150359174
 20
98.6911402944598
 30
0.0
 10
116.0666177256318
 20
97.7860393964166
 30
0.0
 10
116.1750763583325
 20
96.92984269163205
 30
0.0
 10
116.3973022673934
 20
96.12181018282256
 30
0.0
 10
116.7232800406797
 20
95.31743111371262
 30
0.0
 10
117.0144023910731
 20
94.78696999120797
 30
0.0
 10
117.1599776379574
 20
94.52171378959117
 30
0.0
  0
LINE
  5
BB
330
1F
100
AcDbEntity
  8
0
  6
Continuous
 62
     7
370
    25
100
AcDbLine
 10
121.8098687047
 20
101.4499170199
 30
0.0
 11
117.159977638
 21
101.4499170199
 31
0.0
  0
LINE
  5
BC
330
1F
100
AcDbEntity
  8
0
  6
Continuous
 62
     7
370
    25
100
AcDbLine
 10
121.8098687047
 20
101.4499170199
 30
0.0
 11
121.9438433009
 21
100.9181179786
 31
0.0
  0
LINE
  5
BD
330
1F
100
AcDbEntity
  8
0
  6
Continuous
 62
     7
370
    25
100
AcDbLine
 10
122.0778178972
 20
94.5217137896
 30
0.0
 11
121.9438433009
 21
93.4581157071
 31
0.0
  0
SPLINE
  5
BE
330
1F
100
AcDbEntity
  8
0
  6
Continuous
 62
     7
370
    25
100
AcDbSpline
210
0.0
220
0.0
230
1.0
 70
     8
 71
     3
 72
    16
 73
    12
 74
     0
 42
0.000000001
 43
0.00000001
 40
0.0
 40
0.0
 40
0.0
 40
0.0
 40
0.0915356978782496
 40
0.183063343223533
 40
0.2753996771146607
 40
0.3677267146962474
 40
0.4925705318074073
 40
0.6174129202940688
 40
0.7455832490327828
 40
0.8737882839722001
 40
1.0
 40
1.0
 40
1.0
 40
1.0
 10
126.7277089639136
 20
94.52171378959117
 30
0.0
 10
126.8425043125856
 20
94.10811406103694
 30
0.0
 10
127.0720849112102
 20
93.28095098891845
 30
0.0
 10
127.3533192727436
 20
92.02007575743556
 30
0.0
 10
127.5766422301316
 20
90.74399634236882
 30
0.0
 10
127.7480028799129
 20
89.30216323619764
 30
0.0
 10
127.8229494135688
 20
87.69843448129181
 30
0.0
 10
127.7583578253347
 20
85.92579213864256
 30
0.0
 10
127.5408674692673
 20
84.14992238980437
 30
0.0
 10
127.198576968694
 20
82.38720304988976
 30
0.0
 10
126.8838430002749
 20
81.23626676217211
 30
0.0
 10
126.7277089639136
 20
80.66530732904016
 30
0.0
  0
LINE
  5
BF
330
1F
100
AcDbEntity
  8
0
  6
Continuous
 62
     7
370
    25
100
AcDbLine
 10
126.7277089639
 20
80.665307329
 30
0.0
 11
122.0778178972
 21
80.665307329
 31
0.0
  0
LINE
  5
C0
330
1F
100
AcDbEntity
  8
0
  6
Continuous
 62
     7
370
    25
100
AcDbLine
 10
121.9438433009
 20
81.7289054115
 30
0.0
 11
122.0778178972
 21
80.665307329
 31
0.0
  0
LINE
  5
C1
330
1F
100
AcDbEntity
  8
0
  6
Continuous
 62
     7
370
    25
100
AcDbLine
 10
121.9438433009
 20
81.7289054115
 30
0.0
 11
121.8098687047
 21
80.665307329
 31
0.0
  0
LINE
  5
C2
330
1F
100
AcDbEntity
  8
0
  6
Continuous
 62
     7
370
    25
100
AcDbLine
 10
121.8098687047
 20
80.665307329
 30
0.0
 11
117.159977638
 21
80.665307329
 31
0.0
  0
SPLINE
  5
C3
330
1F
100
AcDbEntity
  8
0
  6
Continuous
 62
     7
370
    25
100
AcDbSpline
210
0.0
220
0.0
230
1.0
 70
     8
 71
     3
 72
    16
 73
    12
 74
     0
 42
0.000000001
 43
0.00000001
 40
0.0
 40
0.0
 40
0.0
 40
0.0
 40
0.0915356978782496
 40
0.1830633432235329
 40
0.2753996771146608
 40
0.3677267146962475
 40
0.4925705318074075
 40
0.6174129202940689
 40
0.7455832490327831
 40
0.8737882839722002
 40
1.0
 40
1.0
 40
1.0
 40
1.0
 10
117.1599776379574
 20
94.52171378959117
 30
0.0
 10
117.0451822892854
 20
94.10811406103694
 30
0.0
 10
116.8156016906608
 20
93.28095098891845
 30
0.0
 10
116.5343673291275
 20
92.02007575743556
 30
0.0
 10
116.3110443717394
 20
90.74399634236882
 30
0.0
 10
116.1396837219581
 20
89.30216323619764
 30
0.0
 10
116.0647371883023
 20
87.69843448129181
 30
0.0
 10
116.1293287765364
 20
85.92579213864256
 30
0.0
 10
116.3468191326037
 20
84.14992238980437
 30
0.0
 10
116.689109633177
 20
82.38720304988976
 30
0.0
 10
117.0038436015962
 20
81.23626676217211
 30
0.0
 10
117.1599776379574
 20
80.66530732904016
 30
0.0
  0
SPLINE
  5
C4
330
1F
100
AcDbEntity
  8
0
  6
Continuous
 62
     7
370
    25
100
AcDbSpline
210
0.0
220
0.0
230
1.0
 70
     8
 71
     3
 72
    15
 73
    11
 74
     0
 42
0.000000001
 43
0.00000001
 40
0.0
 40
0.0
 40
0.0
 40
0.0
 40
0.1323065044264404
 40
0.2645755999739298
 40
0.3998036789671094
 40
0.5350073556765895
 40
0.6501969475405022
 40
0.7654045076453765
 40
0.8826909144168967
 40
1.0
 40
1.0
 40
1.0
 40
1.0
 10
126.7277089639136
 20
80.66530732904016
 30
0.0
 10
126.8908680458313
 20
80.36597850626956
 30
0.0
 10
127.2171400774047
 20
79.76740549417661
 30
0.0
 10
127.5681947804245
 20
78.84565571738382
 30
0.0
 10
127.7792715659537
 20
77.90653060363327
 30
0.0
 10
127.8210688762393
 20
77.00142970559007
 30
0.0
 10
127.7126102435385
 20
76.14523300080553
 30
0.0
 10
127.4903843344777
 20
75.33720049199601
 30
0.0
 10
127.1644065611913
 20
74.53282142288609
 30
0.0
 10
126.8732842107979
 20
74.00236030038143
 30
0.0
 10
126.7277089639136
 20
73.73710409876466
 30
0.0
  0
LINE
  5
C5
330
1F
100
AcDbEntity
  8
0
  6
Continuous
 62
     7
370
    25
100
AcDbLine
 10
127.9438433009
 20
99.3435105593
 30
0.0
 11
127.9438433009
 21
75.8435105593
 31
0.0
  0
SPLINE
  5
C6
330
1F
100
AcDbEntity
  8
0
  6
Continuous
 62
     7
370
    25
100
AcDbSpline
210
0.0
220
0.0
230
1.0
 70
     8
 71
     3
 72
    15
 73
    11
 74
     0
 42
0.000000001
 43
0.00000001
 40
0.0
 40
0.0
 40
0.0
 40
0.0
 40
0.1323065044264403
 40
0.2645755999739298
 40
0.3998036789671094
 40
0.5350073556765895
 40
0.6501969475405022
 40
0.7654045076453765
 40
0.8826909144168967
 40
1.0
 40
1.0
 40
1.0
 40
1.0
 10
117.1599776379574
 20
80.66530732904016
 30
0.0
 10
116.9968185560397
 20
80.36597850626956
 30
0.0
 10
116.6705465244664
 20
79.76740549417661
 30
0.0
 10
116.3194918214465
 20
78.84565571738383
 30
0.0
 10
116.1084150359174
 20
77.90653060363327
 30
0.0
 10
116.0666177256318
 20
77.00142970559007
 30
0.0
 10
116.1750763583325
 20
76.14523300080553
 30
0.0
 10
116.3973022673934
 20
75.33720049199601
 30
0.0
 10
116.7232800406797
 20
74.53282142288609
 30
0.0
 10
117.0144023910731
 20
74.00236030038143
 30
0.0
 10
117.1599776379574
 20
73.73710409876466
 30
0.0
  0
LINE
  5
C7
330
1F
100
AcDbEntity
  8
0
  6
Continuous
 62
     7
370
    25
100
AcDbLine
 10
115.9438433009
 20
99.3435105593
 30
0.0
 11
115.9438433009
 21
75.8435105593
 31
0.0
  0
LINE
  5
C8
330
1F
100
AcDbEntity
  8
0
  6
Continuous
 62
     7
370
    25
100
AcDbLine
 10
121.9438433009
 20
81.7289054115
 30
0.0
 11
121.9438433009
 21
80.1335082878
 31
0.0
  0
LINE
  5
C9
330
1F
100
AcDbEntity
  8
0
  6
Continuous
 62
     7
370
    25
100
AcDbLine
 10
121.8098687047
 20
80.665307329
 30
0.0
 11
121.9438433009
 21
80.1335082878
 31
0.0
  0
LINE
  5
CA
330
1F
100
AcDbEntity
  8
0
  6
Continuous
 62
     7
370
    25
100
AcDbLine
 10
122.0778178972
 20
80.665307329
 30
0.0
 11
121.9438433009
 21
80.1335082878
 31
0.0
  0
LINE
  5
CB
330
1F
100
AcDbEntity
  8
0
  6
Continuous
 62
     7
370
    25
100
AcDbLine
 10
126.7277089639
 20
73.7371040988
 30
0.0
 11
122.0778178972
 21
73.7371040988
 31
0.0
  0
LINE
  5
CC
330
1F
100
AcDbEntity
  8
0
  6
Continuous
 62
     7
370
    25
100
AcDbLine
 10
121.9438433009
 20
74.26890314
 30
0.0
 11
122.0778178972
 21
73.7371040988
 31
0.0
  0
LINE
  5
CD
330
1F
100
AcDbEntity
  8
0
  6
Continuous
 62
     7
370
    25
100
AcDbLine
 10
121.9438433009
 20
74.26890314
 30
0.0
 11
121.8098687047
 21
73.7371040988
 31
0.0
  0
LINE
  5
CE
330
1F
100
AcDbEntity
  8
0
  6
Continuous
 62
     7
370
    25
100
AcDbLine
 10
121.8098687047
 20
73.7371040988
 30
0.0
 11
117.159977638
 21
73.7371040988
 31
0.0
  0
LINE
  5
CF
330
1F
100
AcDbEntity
  8
0
  6
Continuous
 62
     7
370
    25
100
AcDbLine
 10
129.9438433009
 20
98.8435105593
 30
0.0
 11
129.9438433009
 21
76.3435105593
 31
0.0
  0
LINE
  5
D0
330
1F
100
AcDbEntity
  8
0
  6
Continuous
 62
     7
370
    25
100
AcDbLine
 10
129.4438433009
 20
75.8435105593
 30
0.0
 11
129.4438433009
 21
99.3435105593
 31
0.0
  0
LINE
  5
D1
330
1F
100
AcDbEntity
  8
0
  6
Continuous
 62
     7
370
    25
100
AcDbLine
 10
114.4438433009
 20
87.5935105593
 30
0.0
 11
114.4438433009
 21
75.8435105593
 31
0.0
  0
LINE
  5
D2
330
1F
100
AcDbEntity
  8
0
  6
Continuous
 62
     7
370
    25
100
AcDbLine
 10
114.4438433009
 20
99.3435105593
 30
0.0
 11
114.4438433009
 21
87.5935105593
 31
0.0
  0
LINE
  5
D3
330
1F
100
AcDbEntity
  8
0
  6
Continuous
 62
     7
370
    25
100
AcDbLine
 10
113.9438433009
 20
87.5935105593
 30
0.0
 11
113.9438433009
 21
98.8435105593
 31
0.0
  0
LINE
  5
D4
330
1F
100
AcDbEntity
  8
0
  6
Continuous
 62
     7
370
    25
100
AcDbLine
 10
113.9438433009
 20
76.3435105593
 30
0.0
 11
113.9438433009
 21
87.5935105593
 31
0.0
  0
LINE
  5
D5
330
1F
100
AcDbEntity
  8
0
  6
Continuous
 62
     7
370
    25
100
AcDbLine
 10
121.9438433009
 20
100.9499170199
 30
0.0
 11
121.9438433009
 21
100.9181179786
 31
0.0
  0
LINE
  5
D6
330
1F
100
AcDbEntity
  8
0
  6
Continuous
 62
     7
370
    25
100
AcDbLine
 10
121.9438433009
 20
74.26890314
 30
0.0
 11
121.9438433009
 21
74.2371040988
 31
0.0
  0
LINE
  5
D7
330
1F
100
AcDbEntity
  8
0
  6
Continuous
 62
     7
370
    25
100
AcDbLine
 10
111.6999253942
 20
77.1160105593
 30
0.0
 11
111.6999253942
 21
98.0710105593
 31
0.0
  0
LINE
  5
D8
330
1F
100
AcDbEntity
  8
0
  6
Continuous
 62
     7
370
    25
100
AcDbLine
 10
87.9718570123
 20
100.6812211565
 30
0.0
 11
105.1119820123
 21
100.6812211565
 31
0.0
  0
LINE
  5
D9
330
1F
100
AcDbEntity
  8
0
  6
Continuous
 62
     7
370
    25
100
AcDbLine
 10
104.7392916821
 20
113.5196011256
 30
0.0
 11
88.3445473425
 21
113.5196011256
 31
0.0
  0
LINE
  5
DA
330
1F
100
AcDbEntity
  8
0
  6
Continuous
 62
     7
370
    25
100
AcDbLine
 10
87.9718570123
 20
101.5935105593
 30
0.0
 11
105.1119820123
 21
101.5935105593
 31
0.0
  0
SPLINE
  5
DB
330
1F
100
AcDbEntity
  8
0
  6
Continuous
 62
     7
370
    25
100
AcDbSpline
210
0.0
220
0.0
230
1.0
 70
    24
 71
     3
 72
     8
 73
     4
 74
     0
 42
0.000000001
 43
0.00000001
 40
0.0
 40
0.0
 40
0.0
 40
0.0
 40
1.0
 40
1.0
 40
1.0
 40
1.0
 10
96.54191951228883
 20
96.09351055931567
 30
0.0
 10
97.51857285505166
 20
96.09351055931567
 30
0.0
 10
98.49499768942812
 20
96.09351055931567
 30
0.0
 10
99.41420083555784
 20
96.09351055931567
 30
0.0
  0
SPLINE
  5
DC
330
1F
100
AcDbEntity
  8
0
  6
Continuous
 62
     7
370
    25
100
AcDbSpline
210
0.0
220
0.0
230
1.0
 70
    24
 71
     3
 72
     8
 73
     4
 74
     0
 42
0.000000001
 43
0.00000001
 40
0.0
 40
0.0
 40
0.0
 40
0.0
 40
1.0
 40
1.0
 40
1.0
 40
1.0
 10
93.66963818901979
 20
96.09351055931567
 30
0.0
 10
94.58884133514952
 20
96.09351055931567
 30
0.0
 10
95.56526616952598
 20
96.09351055931567
 30
0.0
 10
96.54191951228883
 20
96.09351055931567
 30
0.0
  0
SPLINE
  5
DD
330
1F
100
AcDbEntity
  8
0
  6
Continuous
 62
     7
370
    25
100
AcDbSpline
210
0.0
220
0.0
230
1.0
 70
     8
 71
     3
 72
     8
 73
     4
 74
     0
 42
0.000000001
 43
0.00000001
 40
0.0
 40
0.0
 40
0.0
 40
0.0
 40
1.0
 40
1.0
 40
1.0
 40
1.0
 10
89.64989513624371
 20
95.903860182461
 30
0.0
 10
89.57782888990128
 20
95.81282825218192
 30
0.0
 10
89.51733593233509
 20
95.70287302200764
 30
0.0
 10
89.4585861789555
 20
95.59351055931567
 30
0.0
  0
LINE
  5
DE
330
1F
100
AcDbEntity
  8
0
  6
Continuous
 62
     7
370
    25
100
AcDbLine
 10
89.458586179
 20
95.5935105593
 30
0.0
 11
89.458586179
 21
83.5935105593
 31
0.0
  0
SPLINE
  5
DF
330
1F
100
AcDbEntity
  8
0
  6
Continuous
 62
     7
370
    25
100
AcDbSpline
210
0.0
220
0.0
230
1.0
 70
     8
 71
     3
 72
    10
 73
     6
 74
     0
 42
0.000000001
 43
0.00000001
 40
0.0
 40
0.0
 40
0.0
 40
0.0
 40
0.0280934765544326
 40
0.0280934765544326
 40
0.0561869531088653
 40
0.0561869531088653
 40
0.0561869531088653
 40
0.0561869531088653
 10
89.4585861789555
 20
83.59351055931567
 30
0.0
 10
89.4585861789555
 20
83.49986563746755
 30
0.0
 10
89.46216367320007
 20
83.405809732263
 30
0.0
 10
89.47632515126058
 20
83.21953902015697
 30
0.0
 10
89.48690442310689
 20
83.12735655087283
 30
0.0
 10
89.50058542889867
 20
83.0373532112397
 30
0.0
  0
ELLIPSE
  5
E0
330
1F
100
AcDbEntity
  8
0
  6
Continuous
 62
     7
370
    25
100
AcDbEllipse
 10
101.5419195123
 20
86.0546596672
 30
0.0
 11
0.5653269642954513
 21
1.222133505507372E-12
 31
0.0
210
0.0
220
0.0
230
1.0
 40
0.9531667975
 41
0.4357918987532571
 42
2.705800754832199
  0
LINE
  5
E1
330
1F
100
AcDbEntity
  8
0
  6
Continuous
 62
     7
370
    25
100
AcDbLine
 10
99.9373345309
 20
83.22867245
 30
0.0
 11
101.0294302427
 21
86.282123942
 31
0.0
  0
ELLIPSE
  5
E2
330
1F
100
AcDbEntity
  8
0
  6
Continuous
 62
     7
370
    25
100
AcDbEllipse
 10
99.3804952657
 20
83.4096135974
 30
0.0
 11
-0.5883077352006721
 21
1.421085471520200E-14
 31
0.0
210
0.0
220
0.0
230
1.0
 40
0.9531667975
 41
1.047197551197032
 42
2.813039483038229
  0
LINE
  5
E3
330
1F
100
AcDbEntity
  8
0
  6
Continuous
 62
     7
370
    25
100
AcDbLine
 10
99.0416116377
 20
82.9486004598
 30
0.0
 11
99.0863413981
 21
82.9239851758
 31
0.0
  0
LINE
  5
E4
330
1F
100
AcDbEntity
  8
0
  6
Continuous
 62
     7
370
    25
100
AcDbLine
 10
99.732121766
 20
81.6322578045
 30
0.0
 11
99.0416116377
 21
82.9486004598
 31
0.0
  0
ELLIPSE
  5
E5
330
1F
100
AcDbEntity
  8
0
  6
Continuous
 62
     7
370
    25
100
AcDbEllipse
 10
99.7978965703
 20
81.6636049843
 30
0.0
 11
0.07353846690021726
 21
1.421085471520200E-14
 31
0.0
210
0.0
220
0.0
230
1.0
 40
0.9531667975
 41
3.605240262590352
 42
5.462183310214957
  0
ELLIPSE
  5
E6
330
1F
100
AcDbEntity
  8
0
  6
Continuous
 62
     7
370
    25
100
AcDbEllipse
 10
101.5419195123
 20
79.8784646452
 30
0.0
 11
2.485600181227426
 21
-1.705302565824240E-13
 31
0.0
210
0.0
220
0.0
230
1.0
 40
0.9531667975
 41
0.8210019969645123
 42
2.320590656625385
  0
ELLIPSE
  5
E7
330
1F
100
AcDbEntity
  8
0
  6
Continuous
 62
     7
370
    25
100
AcDbEllipse
 10
103.2859424542
 20
81.6636049843
 30
0.0
 11
0.07353846690020305
 21
4.263256414560601E-14
 31
0.0
210
0.0
220
0.0
230
1.0
 40
0.9531667975
 41
3.962594650553569
 42
5.819537698178102
  0
LINE
  5
E8
330
1F
100
AcDbEntity
  8
0
  6
Continuous
 62
     7
370
    25
100
AcDbLine
 10
104.0422273869
 20
82.9486004598
 30
0.0
 11
103.3517172586
 21
81.6322578045
 31
0.0
  0
LINE
  5
E9
330
1F
100
AcDbEntity
  8
0
  6
Continuous
 62
     7
370
    25
100
AcDbLine
 10
104.0061089651
 20
82.9279602145
 30
0.0
 11
104.0422273869
 21
82.9486004598
 31
0.0
  0
ELLIPSE
  5
EA
330
1F
100
AcDbEntity
  8
0
  6
Continuous
 62
     7
370
    25
100
AcDbEllipse
 10
103.7035983165
 20
83.4089018655
 30
0.0
 11
-0.5883077352015817
 21
-1.563194018672220E-13
 31
0.0
210
0.0
220
0.0
230
1.0
 40
0.9531667975
 41
0.3285531705512088
 42
2.110876526947619
  0
LINE
  5
EB
330
1F
100
AcDbEntity
  8
0
  6
Continuous
 62
     7
370
    25
100
AcDbLine
 10
102.0544087818
 20
86.282123942
 30
0.0
 11
103.1467590513
 21
83.2279607181
 31
0.0
  0
SPLINE
  5
EC
330
1F
100
AcDbEntity
  8
0
  6
Continuous
 62
     7
370
    25
100
AcDbSpline
210
0.0
220
0.0
230
1.0
 70
     8
 71
     3
 72
    10
 73
     6
 74
     0
 42
0.000000001
 43
0.00000001
 40
-0.2904940295525288
 40
-0.2904940295525288
 40
-0.2904940295525288
 40
-0.2904940295525288
 40
-0.1303072746110114
 40
-0.1303072746110114
 40
0.001056361752625
 40
0.001056361752625
 40
0.001056361752625
 40
0.001056361752625
 10
105.0419195122888
 20
87.59351055931567
 30
0.0
 10
104.9124161965145
 20
87.07549729621857
 30
0.0
 10
104.7806252183649
 20
86.55157149257448
 30
0.0
 10
104.6022012789241
 20
85.59316902897929
 30
0.0
 10
104.5419195122888
 20
85.15910802392544
 30
0.0
 10
104.5419195122888
 20
84.72122923604667
 30
0.0
  0
LINE
  5
ED
330
1F
100
AcDbEntity
  8
0
  6
Continuous
 62
     7
370
    25
100
AcDbLine
 10
104.5419195123
 20
84.721229236
 30
0.0
 11
104.5419195123
 21
81.0935105593
 31
0.0
  0
LINE
  5
EE
330
1F
100
AcDbEntity
  8
0
  6
Continuous
 62
     7
370
    25
100
AcDbLine
 10
104.5419195123
 20
81.0935105593
 30
0.0
 11
92.5419195123
 21
81.0935105593
 31
0.0
  0
ARC
  5
EF
330
1F
100
AcDbEntity
  8
0
  6
Continuous
 62
     7
370
    25
100
AcDbCircle
 10
92.5419195123
 20
83.5935105593
 30
0.0
 40
2.500000000000014
100
AcDbArc
 50
180.0
 51
270.0
  0
LINE
  5
F0
330
1F
100
AcDbEntity
  8
0
  6
Continuous
 62
     7
370
    25
100
AcDbLine
 10
90.0419195123
 20
83.5935105593
 30
0.0
 11
90.0419195123
 21
95.5935105593
 31
0.0
  0
LINE
  5
F1
330
1F
100
AcDbEntity
  8
0
  6
Continuous
 62
     7
370
    25
100
AcDbLine
 10
90.0419195123
 20
95.5935105593
 30
0.0
 11
93.669638189
 21
95.5935105593
 31
0.0
  0
SPLINE
  5
F2
330
1F
100
AcDbEntity
  8
0
  6
Continuous
 62
     7
370
    25
100
AcDbSpline
210
0.0
220
0.0
230
1.0
 70
     8
 71
     3
 72
    10
 73
     6
 74
     0
 42
0.000000001
 43
0.00000001
 40
-0.8711658249657241
 40
-0.8711658249657241
 40
-0.8711658249657241
 40
-0.8711658249657241
 40
-0.7398021886020881
 40
-0.7398021886020881
 40
-0.5796154507864705
 40
-0.5796154507864705
 40
-0.5796154507864705
 40
-0.5796154507864705
 10
93.66963818901979
 20
95.59351055931567
 30
0.0
 10
94.1075169768986
 20
95.59351055931567
 30
0.0
 10
94.54157798195298
 20
95.65379232595107
 30
0.0
 10
95.49998038925058
 20
95.83221625491102
 30
0.0
 10
96.02390630455815
 20
95.96400725738293
 30
0.0
 10
96.54191951228883
 20
96.09351055931567
 30
0.0
  0
SPLINE
  5
F3
330
1F
100
AcDbEntity
  8
0
  6
Continuous
 62
     7
370
    25
100
AcDbSpline
210
0.0
220
0.0
230
1.0
 70
     8
 71
     3
 72
    10
 73
     6
 74
     0
 42
0.000000001
 43
0.00000001
 40
-0.2904940295525327
 40
-0.2904940295525327
 40
-0.2904940295525327
 40
-0.2904940295525327
 40
-0.130307291676468
 40
-0.130307291676468
 40
0.0010563446871674
 40
0.0010563446871674
 40
0.0010563446871674
 40
0.0010563446871674
 10
96.54191951228883
 20
96.09351055931567
 30
0.0
 10
97.05993272021499
 20
95.96400725733412
 30
0.0
 10
97.58385863512838
 20
95.83221625494802
 30
0.0
 10
98.54226104262467
 20
95.65379232595107
 30
0.0
 10
98.97632204767906
 20
95.59351055931567
 30
0.0
 10
99.41420083555784
 20
95.59351055931567
 30
0.0
  0
LINE
  5
F4
330
1F
100
AcDbEntity
  8
0
  6
Continuous
 62
     7
370
    25
100
AcDbLine
 10
99.4142008356
 20
95.5935105593
 30
0.0
 11
103.0419195123
 21
95.5935105593
 31
0.0
  0
ARC
  5
F5
330
1F
100
AcDbEntity
  8
0
  6
Continuous
 62
     7
370
    25
100
AcDbCircle
 10
104.5419195123
 20
95.5935105593
 30
0.0
 40
1.5
100
AcDbArc
 50
180.0
 51
270.0
  0
LINE
  5
F6
330
1F
100
AcDbEntity
  8
0
  6
Continuous
 62
     7
370
    25
100
AcDbLine
 10
104.5419195123
 20
94.0935105593
 30
0.0
 11
104.5419195123
 21
90.4657918826
 31
0.0
  0
SPLINE
  5
F7
330
1F
100
AcDbEntity
  8
0
  6
Continuous
 62
     7
370
    25
100
AcDbSpline
210
0.0
220
0.0
230
1.0
 70
     8
 71
     3
 72
    10
 73
     6
 74
     0
 42
0.000000001
 43
0.00000001
 40
-0.8711658421011628
 40
-0.8711658421011628
 40
-0.8711658421011628
 40
-0.8711658421011628
 40
-0.739802205737527
 40
-0.739802205737527
 40
-0.579615450786466
 40
-0.579615450786466
 40
-0.579615450786466
 40
-0.579615450786466
 10
104.5419195122888
 20
90.4657918825847
 30
0.0
 10
104.5419195122888
 20
90.0279130947059
 30
0.0
 10
104.6022012789241
 20
89.59385208965205
 30
0.0
 10
104.7806252183707
 20
88.63544962602552
 30
0.0
 10
104.9124161965068
 20
88.11152382244362
 30
0.0
 10
105.0419195122888
 20
87.59351055931567
 30
0.0
  0
SPLINE
  5
F8
330
1F
100
AcDbEntity
  8
0
  6
Continuous
 62
     7
370
    25
100
AcDbSpline
210
0.0
220
0.0
230
1.0
 70
    24
 71
     3
 72
     8
 73
     4
 74
     0
 42
0.000000001
 43
0.00000001
 40
0.0
 40
0.0
 40
0.0
 40
0.0
 40
1.0
 40
1.0
 40
1.0
 40
1.0
 10
105.0419195122888
 20
87.59351055931567
 30
0.0
 10
105.0419195122888
 20
86.61685721655284
 30
0.0
 10
105.0419195122888
 20
85.64043238217637
 30
0.0
 10
105.0419195122888
 20
84.72122923604667
 30
0.0
  0
SPLINE
  5
F9
330
1F
100
AcDbEntity
  8
0
  6
Continuous
 62
     7
370
    25
100
AcDbSpline
210
0.0
220
0.0
230
1.0
 70
    24
 71
     3
 72
     8
 73
     4
 74
     0
 42
0.000000001
 43
0.00000001
 40
0.0
 40
0.0
 40
0.0
 40
0.0
 40
1.0
 40
1.0
 40
1.0
 40
1.0
 10
105.0419195122888
 20
90.4657918825847
 30
0.0
 10
105.0419195122888
 20
89.54658873645496
 30
0.0
 10
105.0419195122888
 20
88.5701639020785
 30
0.0
 10
105.0419195122888
 20
87.59351055931567
 30
0.0
  0
SPLINE
  5
FA
330
1F
100
AcDbEntity
  8
0
  6
Continuous
 62
     7
370
    25
100
AcDbSpline
210
0.0
220
0.0
230
1.0
 70
     8
 71
     3
 72
    10
 73
     6
 74
     0
 42
0.000000001
 43
0.00000001
 40
0.0
 40
0.0
 40
0.0
 40
0.0
 40
0.0280934765544328
 40
0.0280934765544328
 40
0.0561869531088657
 40
0.0561869531088657
 40
0.0561869531088657
 40
0.0561869531088657
 10
91.98576216421284
 20
80.55217647592552
 30
0.0
 10
92.075765503846
 20
80.53849547013373
 30
0.0
 10
92.16794797313011
 20
80.52791619828743
 30
0.0
 10
92.35421868523615
 20
80.51375472022691
 30
0.0
 10
92.44827459044072
 20
80.51017722598233
 30
0.0
 10
92.54191951228883
 20
80.51017722598233
 30
0.0
  0
LINE
  5
FB
330
1F
100
AcDbEntity
  8
0
  6
Continuous
 62
     7
370
    25
100
AcDbLine
 10
92.5419160792
 20
80.510177226
 30
0.0
 11
104.5419195123
 21
80.510177226
 31
0.0
  0
SPLINE
  5
FC
330
1F
100
AcDbEntity
  8
0
  6
Continuous
 62
     7
370
    25
100
AcDbSpline
210
0.0
220
0.0
230
1.0
 70
     8
 71
     3
 72
     8
 73
     4
 74
     0
 42
0.000000001
 43
0.00000001
 40
0.0
 40
0.0
 40
0.0
 40
0.0
 40
1.0
 40
1.0
 40
1.0
 40
1.0
 10
104.8522691354341
 20
80.70148618327056
 30
0.0
 10
104.7612372051551
 20
80.62941993692813
 30
0.0
 10
104.6512819749835
 20
80.56892697936037
 30
0.0
 10
104.5419195122888
 20
80.51017722598233
 30
0.0
  0
SPLINE
  5
FD
330
1F
100
AcDbEntity
  8
0
  6
Continuous
 62
     7
370
    25
100
AcDbSpline
210
0.0
220
0.0
230
1.0
 70
    24
 71
     3
 72
    10
 73
     6
 74
     0
 42
0.000000001
 43
0.00000001
 40
0.0
 40
0.0
 40
0.0
 40
0.0
 40
0.5
 40
0.5
 40
1.0
 40
1.0
 40
1.0
 40
1.0
 10
93.66963818901979
 20
95.59351055931567
 30
0.0
 10
93.66963818901979
 20
95.72441025321525
 30
0.0
 10
93.66963818901979
 20
95.85450388869732
 30
0.0
 10
93.66963818901979
 20
96.03962401112058
 30
0.0
 10
93.66963818901979
 20
96.09351055931567
 30
0.0
 10
93.66963818901979
 20
96.09351055931567
 30
0.0
  0
LINE
  5
FE
330
1F
100
AcDbEntity
  8
0
  6
Continuous
 62
     7
370
    25
100
AcDbLine
 10
90.0419195123
 20
96.0935105593
 30
0.0
 11
90.0419195123
 21
95.5935105593
 31
0.0
  0
LINE
  5
FF
330
1F
100
AcDbEntity
  8
0
  6
Continuous
 62
     7
370
    25
100
AcDbLine
 10
93.669638189
 20
96.0935105593
 30
0.0
 11
90.0419195123
 21
96.0935105593
 31
0.0
  0
LINE
  5
100
330
1F
100
AcDbEntity
  8
0
  6
Continuous
 62
     7
370
    25
100
AcDbLine
 10
103.5419195123
 20
96.0935105593
 30
0.0
 11
99.4142008356
 21
96.0935105593
 31
0.0
  0
LINE
  5
101
330
1F
100
AcDbEntity
  8
0
  6
Continuous
 62
     7
370
    25
100
AcDbLine
 10
103.0419195123
 20
95.5935105593
 30
0.0
 11
103.5419195123
 21
96.0935105593
 31
0.0
  0
SPLINE
  5
102
330
1F
100
AcDbEntity
  8
0
  6
Continuous
 62
     7
370
    25
100
AcDbSpline
210
0.0
220
0.0
230
1.0
 70
    24
 71
     3
 72
    10
 73
     6
 74
     0
 42
0.000000001
 43
0.00000001
 40
0.0
 40
0.0
 40
0.0
 40
0.0
 40
0.5
 40
0.5
 40
1.0
 40
1.0
 40
1.0
 40
1.0
 10
99.41420083555785
 20
96.09351055931567
 30
0.0
 10
99.41420083555785
 20
96.09351055931567
 30
0.0
 10
99.41420083555785
 20
96.03962401112058
 30
0.0
 10
99.41420083555785
 20
95.85450388869732
 30
0.0
 10
99.41420083555785
 20
95.72441025321525
 30
0.0
 10
99.41420083555785
 20
95.59351055931567
 30
0.0
  0
LINE
  5
103
330
1F
100
AcDbEntity
  8
0
  6
Continuous
 62
     7
370
    25
100
AcDbLine
 10
105.0419195123
 20
90.4657918826
 30
0.0
 11
105.0419195123
 21
94.0935105593
 31
0.0
  0
SPLINE
  5
104
330
1F
100
AcDbEntity
  8
0
  6
Continuous
 62
     7
370
    25
100
AcDbSpline
210
0.0
220
0.0
230
1.0
 70
    24
 71
     3
 72
    10
 73
     6
 74
     0
 42
0.000000001
 43
0.00000001
 40
0.0
 40
0.0
 40
0.0
 40
0.0
 40
0.5
 40
0.5
 40
1.0
 40
1.0
 40
1.0
 40
1.0
 10
104.5419195122888
 20
90.4657918825847
 30
0.0
 10
104.6728192061884
 20
90.4657918825847
 30
0.0
 10
104.8029128416705
 20
90.4657918825847
 30
0.0
 10
104.9880329640937
 20
90.4657918825847
 30
0.0
 10
105.0419195122888
 20
90.4657918825847
 30
0.0
 10
105.0419195122888
 20
90.4657918825847
 30
0.0
  0
LINE
  5
105
330
1F
100
AcDbEntity
  8
0
  6
Continuous
 62
     7
370
    25
100
AcDbLine
 10
104.5419195123
 20
94.0935105593
 30
0.0
 11
105.0419195123
 21
94.0935105593
 31
0.0
  0
SPLINE
  5
106
330
1F
100
AcDbEntity
  8
0
  6
Continuous
 62
     7
370
    25
100
AcDbSpline
210
0.0
220
0.0
230
1.0
 70
    24
 71
     3
 72
    10
 73
     6
 74
     0
 42
0.000000001
 43
0.00000001
 40
0.0
 40
0.0
 40
0.0
 40
0.0
 40
0.5
 40
0.5
 40
1.0
 40
1.0
 40
1.0
 40
1.0
 10
105.0419195122888
 20
84.72122923604667
 30
0.0
 10
105.0419195122888
 20
84.72122923604667
 30
0.0
 10
104.9880329640937
 20
84.72122923604667
 30
0.0
 10
104.8029128416705
 20
84.72122923604667
 30
0.0
 10
104.6728192061884
 20
84.72122923604667
 30
0.0
 10
104.5419195122888
 20
84.72122923604667
 30
0.0
  0
LINE
  5
107
330
1F
100
AcDbEntity
  8
0
  6
Continuous
 62
     7
370
    25
100
AcDbLine
 10
105.0419195123
 20
81.0935105593
 30
0.0
 11
105.0419195123
 21
84.721229236
 31
0.0
  0
LINE
  5
108
330
1F
100
AcDbEntity
  8
0
  6
Continuous
 62
     7
370
    25
100
AcDbLine
 10
104.5419195123
 20
81.0935105593
 30
0.0
 11
105.0419195123
 21
81.0935105593
 31
0.0
  0
ELLIPSE
  5
109
330
1F
100
AcDbEntity
  8
0
  6
Continuous
 62
     7
370
    25
100
AcDbEllipse
 10
101.2785786236
 20
83.2990725847
 30
0.0
 11
-0.07353846690021726
 21
1.421085471520200E-14
 31
0.0
210
0.0
220
0.0
230
1.0
 40
0.9531667975
 41
5.940161364898064
 42
7.853981633974668
  0
LINE
  5
10A
330
1F
100
AcDbEntity
  8
0
  6
Continuous
 62
     7
370
    25
100
AcDbLine
 10
101.4726652577
 20
84.0254697079
 30
0.0
 11
101.2093243673
 21
83.3226478912
 31
0.0
  0
ELLIPSE
  5
10B
330
1F
100
AcDbEntity
  8
0
  6
Continuous
 62
     7
370
    25
100
AcDbEllipse
 10
101.541919514
 20
84.0018944015
 30
0.0
 11
0.07353846690021726
 21
0.0
 31
0.0
210
0.0
220
0.0
230
1.0
 40
0.9531667975
 41
0.3430239394901702
 42
2.798568712238536
  0
LINE
  5
10C
330
1F
100
AcDbEntity
  8
0
  6
Continuous
 62
     7
370
    25
100
AcDbLine
 10
101.8745146578
 20
83.322647891
 30
0.0
 11
101.6111737705
 21
84.0254697078
 31
0.0
  0
ELLIPSE
  5
10D
330
1F
100
AcDbEntity
  8
0
  6
Continuous
 62
     7
370
    25
100
AcDbEllipse
 10
101.8052604014
 20
83.2990725847
 30
0.0
 11
0.07353846690023147
 21
2.842170943040401E-14
 31
0.0
210
0.0
220
0.0
230
1.0
 40
0.9531667975
 41
4.712388980384334
 42
6.626209245739126
  0
LINE
  5
10E
330
1F
100
AcDbEntity
  8
0
  6
Continuous
 62
     7
370
    25
100
AcDbLine
 10
101.2785786236
 20
83.2289781597
 30
0.0
 11
101.8052604014
 21
83.2289781597
 31
0.0
  0
LINE
  5
10F
330
1F
100
AcDbEntity
  8
0
  6
Continuous
 62
     7
370
    25
100
AcDbLine
 10
92.5419195123
 20
81.0935105593
 30
0.0
 11
92.5419195123
 21
80.5935105593
 31
0.0
  0
ARC
  5
110
330
1F
100
AcDbEntity
  8
0
  6
Continuous
 62
     7
370
    25
100
AcDbCircle
 10
92.5419195123
 20
83.5935105593
 30
0.0
 40
3.000000000000014
100
AcDbArc
 50
180.0
 51
270.0
  0
LINE
  5
111
330
1F
100
AcDbEntity
  8
0
  6
Continuous
 62
     7
370
    25
100
AcDbLine
 10
90.0419195123
 20
83.5935105593
 30
0.0
 11
89.5419195123
 21
83.5935105593
 31
0.0
  0
LINE
  5
112
330
1F
100
AcDbEntity
  8
0
  6
Continuous
 62
     7
370
    25
100
AcDbLine
 10
104.5419195123
 20
80.5935105593
 30
0.0
 11
104.5419195123
 21
81.0935105593
 31
0.0
  0
LINE
  5
113
330
1F
100
AcDbEntity
  8
0
  6
Continuous
 62
     7
370
    25
100
AcDbLine
 10
92.5419195123
 20
80.5935105593
 30
0.0
 11
104.5419195123
 21
80.5935105593
 31
0.0
  0
ARC
  5
114
330
1F
100
AcDbEntity
  8
0
  6
Continuous
 62
     7
370
    25
100
AcDbCircle
 10
104.5419195123
 20
81.0935105593
 30
0.0
 40
0.5
100
AcDbArc
 50
270.0
 51
0.0
  0
LINE
  5
115
330
1F
100
AcDbEntity
  8
0
  6
Continuous
 62
     7
370
    25
100
AcDbLine
 10
103.0419195123
 20
95.5935105593
 30
0.0
 11
103.5419195123
 21
95.5935105593
 31
0.0
  0
ARC
  5
116
330
1F
100
AcDbEntity
  8
0
  6
Continuous
 62
     7
370
    25
100
AcDbCircle
 10
104.5419195123
 20
95.5935105593
 30
0.0
 40
1.0
100
AcDbArc
 50
180.0
 51
270.0
  0
LINE
  5
117
330
1F
100
AcDbEntity
  8
0
  6
Continuous
 62
     7
370
    25
100
AcDbLine
 10
104.5419195123
 20
94.0935105593
 30
0.0
 11
104.5419195123
 21
94.5935105593
 31
0.0
  0
ARC
  5
118
330
1F
100
AcDbEntity
  8
0
  6
Continuous
 62
     7
370
    25
100
AcDbCircle
 10
90.0419195123
 20
95.5935105593
 30
0.0
 40
0.5
100
AcDbArc
 50
90.0
 51
180.0
  0
LINE
  5
119
330
1F
100
AcDbEntity
  8
0
  6
Continuous
 62
     7
370
    25
100
AcDbLine
 10
90.0419195123
 20
95.5935105593
 30
0.0
 11
89.5419195123
 21
95.5935105593
 31
0.0
  0
ARC
  5
11A
330
1F
100
AcDbEntity
  8
0
  6
Continuous
 62
     7
370
    25
100
AcDbCircle
 10
104.5419195123
 20
94.0935105593
 30
0.0
 40
0.5
100
AcDbArc
 50
0.0
 51
90.0
  0
LINE
  5
11B
330
1F
100
AcDbEntity
  8
0
  6
Continuous
 62
     7
370
    25
100
AcDbLine
 10
103.5419195123
 20
95.5935105593
 30
0.0
 11
103.5419195123
 21
96.0935105593
 31
0.0
  0
LINE
  5
11C
330
1F
100
AcDbEntity
  8
0
  6
Continuous
 62
     7
370
    25
100
AcDbLine
 10
89.5419195123
 20
95.5935105593
 30
0.0
 11
89.5419195123
 21
83.5935105593
 31
0.0
  0
LINE
  5
11D
330
1F
100
AcDbEntity
  8
0
  6
Continuous
 62
     7
370
    25
100
AcDbLine
 10
96.5419195123
 20
115.5935105593
 30
0.0
 11
103.5419195123
 21
115.5935105593
 31
0.0
  0
LINE
  5
11E
330
1F
100
AcDbEntity
  8
0
  6
Continuous
 62
     7
370
    25
100
AcDbLine
 10
89.5419195123
 20
115.5935105593
 30
0.0
 11
96.5419195123
 21
115.5935105593
 31
0.0
  0
LWPOLYLINE
  5
11F
330
1F
100
AcDbEntity
  8
0
  6
Continuous
 62
     7
370
    25
100
AcDbPolyline
 90
        9
 70
   128
 43
0.0
 10
92.0652132139
 20
80.6316275257
 10
92.0563338212
 20
80.6315701324
 10
92.0470401394
 20
80.6286151338
 10
92.037386727
 20
80.6227798771
 10
92.027430254
 20
80.6140986181
 10
92.0172291696
 20
80.6026223197
 10
92.006843359
 20
80.5884183534
 10
91.9963337918
 20
80.5715701031
 10
91.9857621642
 20
80.5521764759
  0
SPLINE
  5
120
330
1F
100
AcDbEntity
  8
0
  6
Continuous
 62
     7
370
    25
100
AcDbSpline
210
0.0
220
0.0
230
1.0
 70
     8
 71
     3
 72
    14
 73
    10
 74
     0
 42
0.000000001
 43
0.00000001
 40
-0.4399100083495733
 40
-0.4399100083495733
 40
-0.4399100083495733
 40
-0.4399100083495733
 40
-0.2980125372576002
 40
-0.2980125372576002
 40
-0.1727985319285605
 40
-0.1727985319285605
 40
-0.0664609738186771
 40
-0.0664609738186771
 40
0.0
 40
0.0
 40
0.0
 40
0.0
 10
89.50058542889867
 20
83.0373532112397
 30
0.0
 10
89.55821021647446
 20
82.64260839914814
 30
0.0
 10
89.69762760379548
 20
82.25398754819778
 30
0.0
 10
90.10053196227669
 20
81.60386176179605
 30
0.0
 10
90.3469016547642
 20
81.33306003043427
 30
0.0
 10
90.8787698798216
 20
80.93124549917883
 30
0.0
 10
91.14909727836235
 20
80.7871056730206
 30
0.0
 10
91.61587087984456
 20
80.62410494459623
 30
0.0
 10
91.80087427002006
 20
80.57916638257367
 30
0.0
 10
91.98576216421284
 20
80.55217647592552
 30
0.0
  0
LWPOLYLINE
  5
121
330
1F
100
AcDbEntity
  8
0
  6
Continuous
 62
     7
370
    25
100
AcDbPolyline
 90
        9
 70
   128
 43
0.0
 10
89.5800364786
 20
83.116804261
 10
89.5799790854
 20
83.1079248682
 10
89.5770240868
 20
83.0986311865
 10
89.5711888301
 20
83.088977774
 10
89.562507571
 20
83.079021301
 10
89.5510312727
 20
83.0688202166
 10
89.5368273064
 20
83.058434406
 10
89.519979056
 20
83.0479248389
 10
89.5005854289
 20
83.0373532112
  0
LINE
  5
122
330
1F
100
AcDbEntity
  8
0
  6
Continuous
 62
     7
370
    25
100
AcDbLine
 10
89.5419195123
 20
83.5935105593
 30
0.0
 11
89.458586179
 21
83.5935105593
 31
0.0
  0
LWPOLYLINE
  5
123
330
1F
100
AcDbEntity
  8
0
  6
Continuous
 62
     7
370
    25
100
AcDbPolyline
 90
        9
 70
   128
 43
0.0
 10
92.5419195123
 20
80.5935105593
 10
92.5419195123
 20
80.5921712063
 10
92.5419195123
 20
80.5881603228
 10
92.5419195123
 20
80.5814993966
 10
92.5419195123
 20
80.5722241132
 10
92.5419195123
 20
80.560384164
 10
92.5419195123
 20
80.5460429806
 10
92.5419195123
 20
80.5292773945
 10
92.5419160792
 20
80.510177226
  0
LINE
  5
124
330
1F
100
AcDbEntity
  8
0
  6
Continuous
 62
     7
370
    25
100
AcDbLine
 10
89.5419195123
 20
95.5935105593
 30
0.0
 11
89.458586179
 21
95.5935105593
 31
0.0
  0
LINE
  5
125
330
1F
100
AcDbEntity
  8
0
  6
Continuous
 62
     7
370
    25
100
AcDbLine
 10
104.5419195123
 20
80.510177226
 30
0.0
 11
104.5419195123
 21
80.5935105593
 31
0.0
  0
LINE
  5
126
330
1F
100
AcDbEntity
  8
0
  6
Continuous
 62
     7
370
    25
100
AcDbLine
 10
89.572652756
 20
83.1756854379
 30
0.0
 11
89.5800364786
 21
83.116804261
 31
0.0
  0
LINE
  5
127
330
1F
100
AcDbEntity
  8
0
  6
Continuous
 62
     8
370
    25
100
AcDbLine
 10
111.2744908997
 20
97.4685105593
 30
0.0
 11
111.2744908997
 21
77.7185105593
 31
0.0
  0
LINE
  5
128
330
1F
100
AcDbEntity
  8
0
  6
Continuous
 62
     8
370
    25
100
AcDbLine
 10
109.0419195123
 20
96.0935105593
 30
0.0
 11
109.0419195123
 21
79.0935105593
 31
0.0
  0
LINE
  5
129
330
1F
100
AcDbEntity
  8
0
  6
Continuous
 62
     8
370
    25
100
AcDbLine
 10
88.0419195123
 20
100.0935105593
 30
0.0
 11
105.0419195123
 21
100.0935105593
 31
0.0
  0
SPLINE
  5
12A
330
1F
100
AcDbEntity
  8
0
  6
Continuous
 62
     8
370
    25
100
AcDbSpline
210
0.0
220
0.0
230
1.0
 70
    24
 71
     3
 72
    12
 73
     8
 74
     0
 42
0.000000001
 43
0.00000001
 40
-0.5788447217180464
 40
-0.5788447217180464
 40
-0.5788447217180464
 40
-0.5788447217180464
 40
-0.3728576618289314
 40
-0.3728576618289314
 40
-0.0432783660063474
 40
-0.0432783660063474
 40
0.0
 40
0.0
 40
0.0
 40
0.0
 10
105.0419195122888
 20
96.59351055931567
 30
0.0
 10
105.041919512289
 20
96.59351055931586
 30
0.0
 10
104.9815977560957
 20
96.52964046452293
 30
0.0
 10
104.6712309215343
 20
96.20101675734031
 30
0.0
 10
104.3282958372922
 20
95.83790902108399
 30
0.0
 10
103.7891698212953
 20
95.2670697100284
 30
0.0
 10
103.7242806531451
 20
95.19836353198697
 30
0.0
 10
103.6571574022579
 20
95.12729185457708
 30
0.0
  0
SPLINE
  5
12B
330
1F
100
AcDbEntity
  8
0
  6
Continuous
 62
     8
370
    25
100
AcDbSpline
210
0.0
220
0.0
230
1.0
 70
     8
 71
     3
 72
    12
 73
     8
 74
     0
 42
0.000000001
 43
0.00000001
 40
0.0
 40
0.0
 40
0.0
 40
0.0
 40
0.0430206627346149
 40
0.0430206627346149
 40
0.3824319177041577
 40
0.3824319177041577
 40
0.594563952060122
 40
0.594563952060122
 40
0.594563952060122
 40
0.594563952060122
 10
89.5006366209784
 20
83.03735319798427
 30
0.0
 10
89.43233181231857
 20
82.99315566697943
 30
0.0
 10
89.3662060941246
 20
82.95036814563304
 30
0.0
 10
88.79841747732678
 20
82.5829730057112
 30
0.0
 10
88.43493017552461
 20
82.34777372999159
 30
0.0
 10
88.10590812936437
 20
82.1348756290166
 30
0.0
 10
88.04191951255387
 20
82.0934709363494
 30
0.0
 10
88.04191951255387
 20
82.0934709363494
 30
0.0
  0
SPLINE
  5
12C
330
1F
100
AcDbEntity
  8
0
  6
Continuous
 62
     8
370
    25
100
AcDbSpline
210
0.0
220
0.0
230
1.0
 70
    24
 71
     3
 72
    12
 73
     8
 74
     0
 42
0.000000001
 43
0.00000001
 40
-0.5788447217180465
 40
-0.5788447217180465
 40
-0.5788447217180465
 40
-0.5788447217180465
 40
-0.535566355711699
 40
-0.535566355711699
 40
-0.205987059889115
 40
-0.205987059889115
 40
0.0
 40
0.0
 40
0.0
 40
0.0
 10
104.0757008075502
 20
94.70874844928477
 30
0.0
 10
104.1467724849601
 20
94.7758717001719
 30
0.0
 10
104.2154786630015
 20
94.84076086832214
 30
0.0
 10
104.7863179740572
 20
95.37988688431909
 30
0.0
 10
105.1494257103135
 20
95.72282196856118
 30
0.0
 10
105.4780494174961
 20
96.03318880312253
 30
0.0
 10
105.541919512289
 20
96.09351055931585
 30
0.0
 10
105.5419195122888
 20
96.09351055931567
 30
0.0
  0
SPLINE
  5
12D
330
1F
100
AcDbEntity
  8
0
  6
Continuous
 62
     8
370
    25
100
AcDbSpline
210
0.0
220
0.0
230
1.0
 70
     8
 71
     3
 72
    12
 73
     8
 74
     0
 42
0.000000001
 43
0.00000001
 40
0.0
 40
0.0
 40
0.0
 40
0.0
 40
0.2121320343559643
 40
0.2121320343559643
 40
0.5515432893255071
 40
0.5515432893255071
 40
0.5945639520601226
 40
0.5945639520601226
 40
0.5945639520601226
 40
0.5945639520601226
 10
91.04187988932256
 20
79.09351055958072
 30
0.0
 10
91.04187988932256
 20
79.09351055958072
 30
0.0
 10
91.08328458198974
 20
79.1574991763912
 30
0.0
 10
91.29618268296474
 20
79.48652122255147
 30
0.0
 10
91.53138195868435
 20
79.85000852435363
 30
0.0
 10
91.89877709860619
 20
80.41779714115145
 30
0.0
 10
91.94156461995257
 20
80.48392285934541
 30
0.0
 10
91.98576215095743
 20
80.55222766800526
 30
0.0
  0
LINE
  5
12E
330
1F
100
AcDbEntity
  8
0
  6
Continuous
 62
     7
370
     0
100
AcDbLine
 10
104.0441008759
 20
114.7237069229
 30
0.0
 11
104.4544195123
 21
101.5935105593
 31
0.0
  0
LINE
  5
12F
330
1F
100
AcDbEntity
  8
0
  6
Continuous
 62
     7
370
     0
100
AcDbLine
 10
89.0397381487
 20
114.7237069229
 30
0.0
 11
88.6294195123
 21
101.5935105593
 31
0.0
  0
LINE
  5
130
330
1F
100
AcDbEntity
  8
0
  6
Continuous
 62
     7
370
     0
100
AcDbLine
 10
87.9718570123
 20
101.5935105593
 30
0.0
 11
105.1119820123
 21
101.5935105593
 31
0.0
  0
LINE
  5
131
330
1F
100
AcDbEntity
  8
0
  6
CENTERX2
 62
     7
370
    18
100
AcDbLine
 10
96.5419195123
 20
113.5196011256
 30
0.0
 11
96.5419195123
 21
75.3718271549
 31
0.0
  0
LINE
  5
132
330
1F
100
AcDbEntity
  8
0
  6
CENTERX2
 62
     7
370
    18
100
AcDbLine
 10
96.5419195123
 20
113.5196011256
 30
0.0
 11
96.5419195123
 21
117.5935105593
 31
0.0
  0
LINE
  5
133
330
1F
100
AcDbEntity
  8
0
  6
CENTERX2
 62
     7
370
    18
100
AcDbLine
 10
162.9438433009
 20
87.5935105593
 30
0.0
 11
85.0185472668
 21
87.5935105593
 31
0.0
  0
LINE
  5
134
330
1F
100
AcDbEntity
  8
0
  6
Continuous
 62
     7
370
    25
100
AcDbLine
 10
197.3960660593
 20
101.5935105593
 30
0.0
 11
197.3960660593
 21
100.6812211565
 31
0.0
  0
LINE
  5
135
330
1F
100
AcDbEntity
  8
0
  6
Continuous
 62
     7
370
    25
100
AcDbLine
 10
214.5361910593
 20
100.6812211565
 30
0.0
 11
214.5361910593
 21
101.5935105593
 31
0.0
  0
LINE
  5
136
330
1F
100
AcDbEntity
  8
0
  6
Continuous
 62
     7
370
    25
100
AcDbLine
 10
214.5361910593
 20
101.5935105593
 30
0.0
 11
214.1635007291
 21
113.5196011256
 31
0.0
  0
LINE
  5
137
330
1F
100
AcDbEntity
  8
0
  6
Continuous
 62
     7
370
    25
100
AcDbLine
 10
197.7687563895
 20
113.5196011256
 30
0.0
 11
197.3960660593
 21
101.5935105593
 31
0.0
  0
ARC
  5
138
330
1F
100
AcDbEntity
  8
0
  6
Continuous
 62
     7
370
    25
100
AcDbCircle
 10
216.9661285593
 20
100.0935105593
 30
0.0
 40
2.500000000000028
100
AcDbArc
 50
166.4034115815
 51
180.0
  0
ARC
  5
139
330
1F
100
AcDbEntity
  8
0
  6
Continuous
 62
     7
370
    25
100
AcDbCircle
 10
194.9661285593
 20
100.0935105593
 30
0.0
 40
2.5
100
AcDbArc
 50
0.0
 51
13.5965884185
  0
LINE
  5
13A
330
1F
100
AcDbEntity
  8
0
  6
Continuous
 62
     7
370
    25
100
AcDbLine
 10
197.4661285593
 20
100.0935105593
 30
0.0
 11
197.4661285593
 21
96.5424397318
 31
0.0
  0
LINE
  5
13B
330
1F
100
AcDbEntity
  8
0
  6
Continuous
 62
     7
370
    25
100
AcDbLine
 10
214.4661285593
 20
96.5424397318
 30
0.0
 11
214.4661285593
 21
100.0935105593
 31
0.0
  0
LINE
  5
13C
330
1F
100
AcDbEntity
  8
0
  6
Continuous
 62
     7
370
    25
100
AcDbLine
 10
214.1635007291
 20
113.5196011256
 30
0.0
 11
212.9661285593
 21
115.5935105593
 31
0.0
  0
LINE
  5
13D
330
1F
100
AcDbEntity
  8
0
  6
Continuous
 62
     7
370
    25
100
AcDbLine
 10
198.9661285593
 20
115.5935105593
 30
0.0
 11
197.7687563895
 21
113.5196011256
 31
0.0
  0
CIRCLE
  5
13E
330
1F
100
AcDbEntity
  8
0
  6
Continuous
 62
     7
370
    25
100
AcDbCircle
 10
205.9661285593
 20
87.5935105593
 30
0.0
 40
5.453445510451161
  0
CIRCLE
  5
13F
330
1F
100
AcDbEntity
  8
0
  6
Continuous
 62
     7
370
    25
100
AcDbCircle
 10
205.9661285593
 20
87.5935105593
 30
0.0
 40
6.330236875589591
  0
CIRCLE
  5
140
330
1F
100
AcDbEntity
  8
0
  6
Continuous
 62
     7
370
    25
100
AcDbCircle
 10
205.9661285593
 20
87.5935105593
 30
0.0
 40
5.199999999999989
  0
CIRCLE
  5
141
330
1F
100
AcDbEntity
  8
0
  6
Continuous
 62
     7
370
    25
100
AcDbCircle
 10
205.9661285593
 20
87.5935105593
 30
0.0
 40
4.999999999999972
  0
CIRCLE
  5
142
330
1F
100
AcDbEntity
  8
0
  6
Continuous
 62
     7
370
    25
100
AcDbCircle
 10
205.9661285593
 20
87.5935105593
 30
0.0
 40
7.0
  0
CIRCLE
  5
143
330
1F
100
AcDbEntity
  8
0
  6
Continuous
 62
     7
370
    25
100
AcDbCircle
 10
205.9661285593
 20
87.5935105593
 30
0.0
 40
7.999999999999972
  0
CIRCLE
  5
144
330
1F
100
AcDbEntity
  8
0
  6
Continuous
 62
     7
370
    25
100
AcDbCircle
 10
205.9661285593
 20
87.5935105593
 30
0.0
 40
11.25
  0
CIRCLE
  5
145
330
1F
100
AcDbEntity
  8
0
  6
Continuous
 62
     7
370
    25
100
AcDbCircle
 10
205.9661285593
 20
87.5935105593
 30
0.0
 40
11.75
  0
CIRCLE
  5
146
330
1F
100
AcDbEntity
  8
0
  6
Continuous
 62
     7
370
    25
100
AcDbCircle
 10
205.9661285593
 20
87.5935105593
 30
0.0
 40
8.349999999999966
  0
CIRCLE
  5
147
330
1F
100
AcDbEntity
  8
0
  6
Continuous
 62
     7
370
    25
100
AcDbCircle
 10
205.9661285593
 20
87.5935105593
 30
0.0
 40
8.249999999999972
  0
SPLINE
  5
148
330
1F
100
AcDbEntity
  8
0
  6
Continuous
 62
     7
370
    25
100
AcDbSpline
210
0.0
220
0.0
230
1.0
 70
    24
 71
     3
 72
    15
 73
    11
 74
     0
 42
0.000000001
 43
0.00000001
 40
0.0
 40
0.0
 40
0.0
 40
0.0
 40
0.1323065044264401
 40
0.2645755999739293
 40
0.3998036789671087
 40
0.5350073556765887
 40
0.6501969475405015
 40
0.7654045076453759
 40
0.8826909144168964
 40
1.0
 40
1.0
 40
1.0
 40
1.0
 10
217.9661285593142
 20
94.52171378959117
 30
0.0
 10
217.4476758301057
 20
94.82104261236178
 30
0.0
 10
216.4109169611212
 20
95.41961562445472
 30
0.0
 10
214.8143995158509
 20
96.34136540124751
 30
0.0
 10
213.187787104171
 20
97.28049051499806
 30
0.0
 10
211.6201063627839
 20
98.18559141304127
 30
0.0
 10
210.137130168824
 20
99.04178811782583
 30
0.0
 10
208.7375768093986
 20
99.84982062663532
 30
0.0
 10
207.3443513931553
 20
100.6541996957453
 30
0.0
 10
206.4255657775372
 20
101.1846608182499
 30
0.0
 10
205.9661285593142
 20
101.4499170198667
 30
0.0
  0
SPLINE
  5
149
330
1F
100
AcDbEntity
  8
0
  6
Continuous
 62
     7
370
    25
100
AcDbSpline
210
0.0
220
0.0
230
1.0
 70
    24
 71
     3
 72
    16
 73
    12
 74
     0
 42
0.000000001
 43
0.00000001
 40
0.0
 40
0.0
 40
0.0
 40
0.0
 40
0.126211851210369
 40
0.251202065376351
 40
0.3761607760521392
 40
0.5042162939840995
 40
0.6322727081776326
 40
0.7237405332378762
 40
0.815217305758078
 40
0.9076044663789501
 40
1.0
 40
1.0
 40
1.0
 40
1.0
 10
217.9661285593142
 20
80.66530732904016
 30
0.0
 10
217.9661285593142
 20
81.23626463961251
 30
0.0
 10
217.9661285593142
 20
82.37265281775944
 30
0.0
 10
217.9661285593142
 20
84.10539628394407
 30
0.0
 10
217.9661285593142
 20
85.86554167692215
 30
0.0
 10
217.9661285593142
 20
87.65315254825582
 30
0.0
 10
217.9661285593142
 20
89.28317478769009
 30
0.0
 10
217.9661285593142
 20
90.73199233325022
 30
0.0
 10
217.9661285593142
 20
92.0042555715987
 30
0.0
 10
217.9661285593142
 20
93.26926225677087
 30
0.0
 10
217.9661285593142
 20
94.10421733396538
 30
0.0
 10
217.9661285593142
 20
94.52171378959117
 30
0.0
  0
SPLINE
  5
14A
330
1F
100
AcDbEntity
  8
0
  6
Continuous
 62
     7
370
    25
100
AcDbSpline
210
0.0
220
0.0
230
1.0
 70
    24
 71
     3
 72
    15
 73
    11
 74
     0
 42
0.000000001
 43
0.00000001
 40
0.0
 40
0.0
 40
0.0
 40
0.0
 40
0.1323065044264403
 40
0.2645755999739297
 40
0.3998036789671093
 40
0.5350073556765894
 40
0.6501969475405021
 40
0.7654045076453765
 40
0.8826909144168968
 40
1.0
 40
1.0
 40
1.0
 40
1.0
 10
205.9661285593142
 20
73.73710409876466
 30
0.0
 10
206.4845812885227
 20
74.03643292153525
 30
0.0
 10
207.5213401575072
 20
74.63500593362821
 30
0.0
 10
209.1178576027776
 20
75.55675571042099
 30
0.0
 10
210.7444700144574
 20
76.49588082417155
 30
0.0
 10
212.3121507558445
 20
77.40098172221474
 30
0.0
 10
213.7951269498043
 20
78.25717842699927
 30
0.0
 10
215.1946803092297
 20
79.06521093580879
 30
0.0
 10
216.5879057254731
 20
79.86959000491872
 30
0.0
 10
217.5066913410912
 20
80.40005112742338
 30
0.0
 10
217.9661285593142
 20
80.66530732904016
 30
0.0
  0
SPLINE
  5
14B
330
1F
100
AcDbEntity
  8
0
  6
Continuous
 62
     7
370
    25
100
AcDbSpline
210
0.0
220
0.0
230
1.0
 70
    24
 71
     3
 72
    15
 73
    11
 74
     0
 42
0.000000001
 43
0.00000001
 40
0.0
 40
0.0
 40
0.0
 40
0.0
 40
0.1323065044264404
 40
0.2645755999739298
 40
0.3998036789671094
 40
0.5350073556765895
 40
0.6501969475405022
 40
0.7654045076453767
 40
0.8826909144168968
 40
1.0
 40
1.0
 40
1.0
 40
1.0
 10
193.9661285593142
 20
80.66530732904016
 30
0.0
 10
194.4845812885227
 20
80.36597850626956
 30
0.0
 10
195.5213401575072
 20
79.76740549417661
 30
0.0
 10
197.1178576027775
 20
78.84565571738382
 30
0.0
 10
198.7444700144574
 20
77.90653060363327
 30
0.0
 10
200.3121507558445
 20
77.00142970559007
 30
0.0
 10
201.7951269498043
 20
76.14523300080552
 30
0.0
 10
203.1946803092297
 20
75.33720049199601
 30
0.0
 10
204.5879057254731
 20
74.53282142288609
 30
0.0
 10
205.5066913410912
 20
74.00236030038143
 30
0.0
 10
205.9661285593142
 20
73.73710409876466
 30
0.0
  0
SPLINE
  5
14C
330
1F
100
AcDbEntity
  8
0
  6
Continuous
 62
     7
370
    25
100
AcDbSpline
210
0.0
220
0.0
230
1.0
 70
    24
 71
     3
 72
    16
 73
    12
 74
     0
 42
0.000000001
 43
0.00000001
 40
0.0
 40
0.0
 40
0.0
 40
0.0
 40
0.0915356978782496
 40
0.183063343223533
 40
0.2753996771146608
 40
0.3677267146962474
 40
0.4925705318074074
 40
0.6174129202940688
 40
0.7455832490327828
 40
0.8737882839722001
 40
1.0
 40
1.0
 40
1.0
 40
1.0
 10
193.9661285593142
 20
94.52171378959117
 30
0.0
 10
193.9661285593142
 20
94.10811406103694
 30
0.0
 10
193.9661285593142
 20
93.28095098891845
 30
0.0
 10
193.9661285593142
 20
92.02007575743556
 30
0.0
 10
193.9661285593142
 20
90.74399634236882
 30
0.0
 10
193.9661285593142
 20
89.30216323619764
 30
0.0
 10
193.9661285593142
 20
87.69843448129181
 30
0.0
 10
193.9661285593142
 20
85.92579213864256
 30
0.0
 10
193.9661285593142
 20
84.14992238980437
 30
0.0
 10
193.9661285593142
 20
82.38720304988976
 30
0.0
 10
193.9661285593142
 20
81.23626676217211
 30
0.0
 10
193.9661285593142
 20
80.66530732904016
 30
0.0
  0
SPLINE
  5
14D
330
1F
100
AcDbEntity
  8
0
  6
Continuous
 62
     7
370
    25
100
AcDbSpline
210
0.0
220
0.0
230
1.0
 70
    24
 71
     3
 72
    15
 73
    11
 74
     0
 42
0.000000001
 43
0.00000001
 40
0.0
 40
0.0
 40
0.0
 40
0.0
 40
0.1323065044264402
 40
0.2645755999739295
 40
0.3998036789671093
 40
0.5350073556765894
 40
0.6501969475405021
 40
0.7654045076453766
 40
0.8826909144168968
 40
0.9999999999999999
 40
0.9999999999999999
 40
0.9999999999999999
 40
0.9999999999999999
 10
205.9661285593142
 20
101.4499170198667
 30
0.0
 10
205.4476758301057
 20
101.1505881970961
 30
0.0
 10
204.4109169611212
 20
100.5520151850031
 30
0.0
 10
202.8143995158508
 20
99.63026540821036
 30
0.0
 10
201.187787104171
 20
98.6911402944598
 30
0.0
 10
199.6201063627839
 20
97.7860393964166
 30
0.0
 10
198.137130168824
 20
96.92984269163205
 30
0.0
 10
196.7375768093986
 20
96.12181018282256
 30
0.0
 10
195.3443513931553
 20
95.31743111371262
 30
0.0
 10
194.4255657775372
 20
94.78696999120797
 30
0.0
 10
193.9661285593142
 20
94.52171378959117
 30
0.0
  0
LINE
  5
14E
330
1F
100
AcDbEntity
  8
0
  6
Continuous
 62
     7
370
    25
100
AcDbLine
 10
197.3960660593
 20
100.6812211565
 30
0.0
 11
204.6315010412
 21
100.6812211565
 31
0.0
  0
LINE
  5
14F
330
1F
100
AcDbEntity
  8
0
  6
Continuous
 62
     7
370
    25
100
AcDbLine
 10
207.3006055851
 20
100.6812211565
 30
0.0
 11
214.5361910593
 21
100.6812211565
 31
0.0
  0
LINE
  5
150
330
1F
100
AcDbEntity
  8
0
  6
Continuous
 62
     7
370
    25
100
AcDbLine
 10
197.3960660593
 20
101.5935105593
 30
0.0
 11
214.5361910593
 21
101.5935105593
 31
0.0
  0
LINE
  5
151
330
1F
100
AcDbEntity
  8
0
  6
Continuous
 62
     7
370
    25
100
AcDbLine
 10
205.9661285593
 20
113.5196011256
 30
0.0
 11
197.7687563895
 21
113.5196011256
 31
0.0
  0
LINE
  5
152
330
1F
100
AcDbEntity
  8
0
  6
Continuous
 62
     7
370
    25
100
AcDbLine
 10
214.1635007291
 20
113.5196011256
 30
0.0
 11
205.9661285593
 21
113.5196011256
 31
0.0
  0
LINE
  5
153
330
1F
100
AcDbEntity
  8
0
  6
Continuous
 62
     7
370
    25
100
AcDbLine
 10
198.9661285593
 20
115.5935105593
 30
0.0
 11
212.9661285593
 21
115.5935105593
 31
0.0
  0
LINE
  5
154
330
1F
100
AcDbEntity
  8
0
  6
Continuous
 62
     7
370
    25
100
AcDbLine
 10
210.8651080449
 20
86.5935105593
 30
0.0
 11
201.0671490737
 21
86.5935105593
 31
0.0
  0
SPLINE
  5
155
330
1F
100
AcDbEntity
  8
0
  6
Continuous
 62
     7
370
    25
100
AcDbSpline
210
0.0
220
0.0
230
1.0
 70
     8
 71
     3
 72
    10
 73
     6
 74
     0
 42
0.000000001
 43
0.00000001
 40
0.0
 40
0.0
 40
0.0
 40
0.0
 40
0.5
 40
0.5
 40
1.0
 40
1.0
 40
1.0
 40
1.0
 10
201.0671490737478
 20
88.59351055931566
 30
0.0
 10
201.076306499346
 20
88.26505773470645
 30
0.0
 10
201.0817876867902
 20
87.93414627592009
 30
0.0
 10
201.0819289572528
 20
87.26651787273144
 30
0.0
 10
201.0764724437525
 20
86.92791537430442
 30
0.0
 10
201.0671490737478
 20
86.59351055931567
 30
0.0
  0
SPLINE
  5
156
330
1F
100
AcDbEntity
  8
0
  6
Continuous
 62
     7
370
    25
100
AcDbSpline
210
0.0
220
0.0
230
1.0
 70
     8
 71
     3
 72
    10
 73
     6
 74
     0
 42
0.000000001
 43
0.00000001
 40
0.0
 40
0.0
 40
0.0
 40
0.0
 40
0.5
 40
0.5
 40
1.0
 40
1.0
 40
1.0
 40
1.0
 10
210.8651080448805
 20
86.59351055931566
 30
0.0
 10
210.855862077702
 20
86.92513913805766
 30
0.0
 10
210.8504252788412
 20
87.25756119261669
 30
0.0
 10
210.8503710839795
 20
87.92421851905138
 30
0.0
 10
210.8557665277366
 20
88.25845485406236
 30
0.0
 10
210.8651080448805
 20
88.59351055931566
 30
0.0
  0
SPLINE
  5
157
330
1F
100
AcDbEntity
  8
0
  6
Continuous
 62
     7
370
    25
100
AcDbSpline
210
0.0
220
0.0
230
1.0
 70
     8
 71
     3
 72
    24
 73
    20
 74
     0
 42
0.000000001
 43
0.00000001
 40
0.0
 40
0.0
 40
0.0
 40
0.0
 40
0.1249999999999999
 40
0.1249999999999999
 40
0.25
 40
0.25
 40
0.375
 40
0.375
 40
0.4375
 40
0.4375
 40
0.5
 40
0.5
 40
0.625
 40
0.625
 40
0.7500000000000001
 40
0.7500000000000001
 40
0.875
 40
0.875
 40
1.0
 40
1.0
 40
1.0
 40
1.0
 10
201.0671490737478
 20
86.59351055931567
 30
0.0
 10
201.4313357881245
 20
86.40210757928638
 30
0.0
 10
201.8018388407318
 20
86.21800450771323
 30
0.0
 10
202.5630440224658
 20
85.87314280941862
 30
0.0
 10
202.9535927231586
 20
85.71220686262956
 30
0.0
 10
203.7686227811145
 20
85.42955156537538
 30
0.0
 10
204.1922169474531
 20
85.30875700521123
 30
0.0
 10
204.8452418353314
 20
85.18203880158026
 30
0.0
 10
205.0665348059018
 20
85.14870683384315
 30
0.0
 10
205.5178263868359
 20
85.10347593790274
 30
0.0
 10
205.7459310514158
 20
85.09199724652561
 30
0.0
 10
206.4217220209313
 20
85.09251097884083
 30
0.0
 10
206.8681060630037
 20
85.13936352168926
 30
0.0
 10
207.7478994728621
 20
85.31047994518799
 30
0.0
 10
208.1655923099472
 20
85.43027756704237
 30
0.0
 10
208.9744932845269
 20
85.71071346505323
 30
0.0
 10
209.3663311725188
 20
85.87188346039919
 30
0.0
 10
210.1301273360663
 20
86.21782659156625
 30
0.0
 10
210.5010184384245
 20
86.40215861559452
 30
0.0
 10
210.8651080448805
 20
86.59351055931567
 30
0.0
  0
LINE
  5
158
330
1F
100
AcDbEntity
  8
0
  6
Continuous
 62
     8
370
    25
100
AcDbLine
 10
208.3222590434
 20
100.0935105593
 30
0.0
 11
214.4661285593
 21
100.0935105593
 31
0.0
  0
LINE
  5
159
330
1F
100
AcDbEntity
  8
0
  6
Continuous
 62
     8
370
    25
100
AcDbLine
 10
197.4661285593
 20
100.0935105593
 30
0.0
 11
203.6108378179
 21
100.0935105593
 31
0.0
  0
INSERT
  5
165
330
1F
100
AcDbEntity
  8
0
  6
Continuous
 62
     7
370
    18
100
AcDbBlockReference
  2
SW_CENTERMARKSYMBOL_0
 10
205.9661285593
 20
87.5935105593
 30
0.0
  0
LINE
  5
166
330
1F
100
AcDbEntity
  8
0
  6
Continuous
 62
     7
370
     0
100
AcDbLine
 10
213.468309923
 20
114.7237069229
 30
0.0
 11
213.8786285593
 21
101.5935105593
 31
0.0
  0
LINE
  5
167
330
1F
100
AcDbEntity
  8
0
  6
Continuous
 62
     7
370
     0
100
AcDbLine
 10
198.4639471957
 20
114.7237069229
 30
0.0
 11
198.0536285593
 21
101.5935105593
 31
0.0
  0
LINE
  5
168
330
1F
100
AcDbEntity
  8
0
  6
Continuous
 62
     7
370
     0
100
AcDbLine
 10
197.3960660593
 20
101.5935105593
 30
0.0
 11
214.5361910593
 21
101.5935105593
 31
0.0
  0
ARC
  5
169
330
1F
100
AcDbEntity
  8
0
  6
Continuous
 62
     7
370
     0
100
AcDbCircle
 10
205.9661285593
 20
87.5935105593
 30
0.0
 40
10.4775
100
AcDbArc
 50
75.0
 51
345.0
  0
LINE
  5
16A
330
1F
100
AcDbEntity
  8
0
  6
Continuous
 62
     7
370
    25
100
AcDbLine
 10
129.9438433009
 20
144.2904057907
 30
0.0
 11
130.4438433009
 21
144.2904057907
 31
0.0
  0
LINE
  5
16B
330
1F
100
AcDbEntity
  8
0
  6
Continuous
 62
     7
370
    25
100
AcDbLine
 10
130.4438433009
 20
160.2904057907
 30
0.0
 11
129.9438433009
 21
160.2904057907
 31
0.0
  0
LINE
  5
16C
330
1F
100
AcDbEntity
  8
0
  6
Continuous
 62
     7
370
    25
100
AcDbLine
 10
136.4438433009
 20
145.2904057907
 30
0.0
 11
140.9438433009
 21
146.0404057907
 31
0.0
  0
LINE
  5
16D
330
1F
100
AcDbEntity
  8
0
  6
Continuous
 62
     7
370
    25
100
AcDbLine
 10
140.9438433009
 20
158.5404057907
 30
0.0
 11
136.4438433009
 21
159.2904057907
 31
0.0
  0
LINE
  5
16E
330
1F
100
AcDbEntity
  8
0
  6
Continuous
 62
     7
370
    25
100
AcDbLine
 10
136.4438433009
 20
159.2904057907
 30
0.0
 11
130.4438433009
 21
159.2904057907
 31
0.0
  0
LINE
  5
16F
330
1F
100
AcDbEntity
  8
0
  6
Continuous
 62
     7
370
    25
100
AcDbLine
 10
130.4438433009
 20
145.2904057907
 30
0.0
 11
136.4438433009
 21
145.2904057907
 31
0.0
  0
LINE
  5
170
330
1F
100
AcDbEntity
  8
0
  6
Continuous
 62
     7
370
    25
100
AcDbLine
 10
149.9438433009
 20
145.2904057907
 30
0.0
 11
154.4438433009
 21
146.0404057907
 31
0.0
  0
LINE
  5
171
330
1F
100
AcDbEntity
  8
0
  6
Continuous
 62
     7
370
    25
100
AcDbLine
 10
154.4438433009
 20
158.5404057907
 30
0.0
 11
149.9438433009
 21
159.2904057907
 31
0.0
  0
LINE
  5
172
330
1F
100
AcDbEntity
  8
0
  6
Continuous
 62
     7
370
    25
100
AcDbLine
 10
154.4438433009
 20
145.2904057907
 30
0.0
 11
160.2484570458
 21
145.9601689151
 31
0.0
  0
LINE
  5
173
330
1F
100
AcDbEntity
  8
0
  6
Continuous
 62
     7
370
    25
100
AcDbLine
 10
160.2484570458
 20
158.6206426663
 30
0.0
 11
154.4438433009
 21
159.2904057907
 31
0.0
  0
LINE
  5
174
330
1F
100
AcDbEntity
  8
0
  6
Continuous
 62
     7
370
    25
100
AcDbLine
 10
140.9438433009
 20
145.2904057907
 30
0.0
 11
145.4438433009
 21
146.0404057907
 31
0.0
  0
LINE
  5
175
330
1F
100
AcDbEntity
  8
0
  6
Continuous
 62
     7
370
    25
100
AcDbLine
 10
145.4438433009
 20
158.5404057907
 30
0.0
 11
140.9438433009
 21
159.2904057907
 31
0.0
  0
LINE
  5
176
330
1F
100
AcDbEntity
  8
0
  6
Continuous
 62
     7
370
    25
100
AcDbLine
 10
145.4438433009
 20
145.2904057907
 30
0.0
 11
149.9438433009
 21
146.0404057907
 31
0.0
  0
LINE
  5
177
330
1F
100
AcDbEntity
  8
0
  6
Continuous
 62
     7
370
    25
100
AcDbLine
 10
149.9438433009
 20
158.5404057907
 30
0.0
 11
145.4438433009
 21
159.2904057907
 31
0.0
  0
LINE
  5
178
330
1F
100
AcDbEntity
  8
0
  6
Continuous
 62
     7
370
    25
100
AcDbLine
 10
160.2484570458
 20
145.9601689151
 30
0.0
 11
160.9438433009
 21
146.8369602802
 31
0.0
  0
LINE
  5
179
330
1F
100
AcDbEntity
  8
0
  6
Continuous
 62
     7
370
    25
100
AcDbLine
 10
160.9438433009
 20
157.7438513011
 30
0.0
 11
160.2484570458
 21
158.6206426663
 31
0.0
  0
LINE
  5
17A
330
1F
100
AcDbEntity
  8
0
  6
Continuous
 62
     7
370
    25
100
AcDbLine
 10
127.7995057336
 20
140.2904057907
 30
0.0
 11
127.9438433009
 21
140.5404057907
 31
0.0
  0
LINE
  5
17B
330
1F
100
AcDbEntity
  8
0
  6
Continuous
 62
     7
370
    25
100
AcDbLine
 10
127.9438433009
 20
164.0404057907
 30
0.0
 11
127.7995057336
 21
164.2904057907
 31
0.0
  0
LINE
  5
17C
330
1F
100
AcDbEntity
  8
0
  6
Continuous
 62
     7
370
    25
100
AcDbLine
 10
116.0881808682
 20
164.2904057907
 30
0.0
 11
115.9438433009
 21
164.0404057907
 31
0.0
  0
LINE
  5
17D
330
1F
100
AcDbEntity
  8
0
  6
Continuous
 62
     7
370
    25
100
AcDbLine
 10
115.9438433009
 20
140.5404057907
 30
0.0
 11
116.0881808682
 21
140.2904057907
 31
0.0
  0
LINE
  5
17E
330
1F
100
AcDbEntity
  8
0
  6
Continuous
 62
     7
370
    25
100
AcDbLine
 10
115.9438433009
 20
164.0404057907
 30
0.0
 11
114.4438433009
 21
164.0404057907
 31
0.0
  0
LINE
  5
17F
330
1F
100
AcDbEntity
  8
0
  6
Continuous
 62
     7
370
    25
100
AcDbLine
 10
114.4438433009
 20
140.5404057907
 30
0.0
 11
115.9438433009
 21
140.5404057907
 31
0.0
  0
LINE
  5
180
330
1F
100
AcDbEntity
  8
0
  6
Continuous
 62
     7
370
    25
100
AcDbLine
 10
129.4438433009
 20
140.5404057907
 30
0.0
 11
129.9438433009
 21
141.0404057907
 31
0.0
  0
LINE
  5
181
330
1F
100
AcDbEntity
  8
0
  6
Continuous
 62
     7
370
    25
100
AcDbLine
 10
129.9438433009
 20
163.5404057907
 30
0.0
 11
129.4438433009
 21
164.0404057907
 31
0.0
  0
LINE
  5
182
330
1F
100
AcDbEntity
  8
0
  6
Continuous
 62
     7
370
    25
100
AcDbLine
 10
127.9438433009
 20
140.5404057907
 30
0.0
 11
129.4438433009
 21
140.5404057907
 31
0.0
  0
LINE
  5
183
330
1F
100
AcDbEntity
  8
0
  6
Continuous
 62
     7
370
    25
100
AcDbLine
 10
129.4438433009
 20
164.0404057907
 30
0.0
 11
127.9438433009
 21
164.0404057907
 31
0.0
  0
LINE
  5
184
330
1F
100
AcDbEntity
  8
0
  6
Continuous
 62
     7
370
    25
100
AcDbLine
 10
114.4438433009
 20
164.0404057907
 30
0.0
 11
113.9438433009
 21
163.5404057907
 31
0.0
  0
LINE
  5
185
330
1F
100
AcDbEntity
  8
0
  6
Continuous
 62
     7
370
    25
100
AcDbLine
 10
113.9438433009
 20
141.0404057907
 30
0.0
 11
114.4438433009
 21
140.5404057907
 31
0.0
  0
ARC
  5
186
330
1F
100
AcDbEntity
  8
0
  6
Continuous
 62
     7
370
    25
100
AcDbCircle
 10
113.5070622872
 20
143.5404057907
 30
0.0
 40
2.499999999999996
100
AcDbArc
 50
206.7436839504
 51
223.7093197495
  0
ARC
  5
187
330
1F
100
AcDbEntity
  8
0
  6
Continuous
 62
     7
370
    25
100
AcDbCircle
 10
113.5070622872
 20
161.0404057907
 30
0.0
 40
2.499999999999996
100
AcDbArc
 50
136.2906802505
 51
153.2563160496
  0
LINE
  5
188
330
1F
100
AcDbEntity
  8
0
  6
Continuous
 62
     7
370
    25
100
AcDbLine
 10
113.9438433009
 20
162.7679057907
 30
0.0
 11
111.6999253942
 21
162.7679057907
 31
0.0
  0
LINE
  5
189
330
1F
100
AcDbEntity
  8
0
  6
Continuous
 62
     7
370
    25
100
AcDbLine
 10
111.6999253942
 20
141.8129057907
 30
0.0
 11
113.9438433009
 21
141.8129057907
 31
0.0
  0
ARC
  5
18A
330
1F
100
AcDbEntity
  8
0
  6
Continuous
 62
     7
370
    25
100
AcDbCircle
 10
109.0419195123
 20
141.2904057907
 30
0.0
 40
2.500000000000009
100
AcDbArc
 50
26.7436839504
 51
90.0
  0
ARC
  5
18B
330
1F
100
AcDbEntity
  8
0
  6
Continuous
 62
     7
370
    25
100
AcDbCircle
 10
109.0419195123
 20
163.2904057907
 30
0.0
 40
2.500000000000009
100
AcDbArc
 50
270.0
 51
333.2563160496
  0
LINE
  5
18C
330
1F
100
AcDbEntity
  8
0
  6
Continuous
 62
     7
370
    25
100
AcDbLine
 10
109.0419195123
 20
160.7904057907
 30
0.0
 11
105.0419195123
 21
160.7904057907
 31
0.0
  0
LINE
  5
18D
330
1F
100
AcDbEntity
  8
0
  6
Continuous
 62
     7
370
    25
100
AcDbLine
 10
105.0419195123
 20
143.7904057907
 30
0.0
 11
109.0419195123
 21
143.7904057907
 31
0.0
  0
LINE
  5
18E
330
1F
100
AcDbEntity
  8
0
  6
Continuous
 62
     7
370
    25
100
AcDbLine
 10
130.4438433009
 20
160.2904057907
 30
0.0
 11
130.4438433009
 21
144.2904057907
 31
0.0
  0
LINE
  5
18F
330
1F
100
AcDbEntity
  8
0
  6
Continuous
 62
     7
370
    25
100
AcDbLine
 10
136.4438433009
 20
152.2904057907
 30
0.0
 11
136.4438433009
 21
145.2904057907
 31
0.0
  0
LINE
  5
190
330
1F
100
AcDbEntity
  8
0
  6
Continuous
 62
     7
370
    25
100
AcDbLine
 10
136.4438433009
 20
159.2904057907
 30
0.0
 11
136.4438433009
 21
152.2904057907
 31
0.0
  0
LINE
  5
191
330
1F
100
AcDbEntity
  8
0
  6
Continuous
 62
     7
370
    25
100
AcDbLine
 10
149.9438433009
 20
152.2904057907
 30
0.0
 11
149.9438433009
 21
145.2904057907
 31
0.0
  0
LINE
  5
192
330
1F
100
AcDbEntity
  8
0
  6
Continuous
 62
     7
370
    25
100
AcDbLine
 10
149.9438433009
 20
159.2904057907
 30
0.0
 11
149.9438433009
 21
152.2904057907
 31
0.0
  0
LINE
  5
193
330
1F
100
AcDbEntity
  8
0
  6
Continuous
 62
     7
370
    25
100
AcDbLine
 10
160.2484570458
 20
152.2904057907
 30
0.0
 11
160.2484570458
 21
158.6206426663
 31
0.0
  0
LINE
  5
194
330
1F
100
AcDbEntity
  8
0
  6
Continuous
 62
     7
370
    25
100
AcDbLine
 10
160.2484570458
 20
145.9601689151
 30
0.0
 11
160.2484570458
 21
152.2904057907
 31
0.0
  0
LINE
  5
195
330
1F
100
AcDbEntity
  8
0
  6
Continuous
 62
     7
370
    25
100
AcDbLine
 10
154.4438433009
 20
152.2904057907
 30
0.0
 11
154.4438433009
 21
145.2904057907
 31
0.0
  0
LINE
  5
196
330
1F
100
AcDbEntity
  8
0
  6
Continuous
 62
     7
370
    25
100
AcDbLine
 10
154.4438433009
 20
159.2904057907
 30
0.0
 11
154.4438433009
 21
152.2904057907
 31
0.0
  0
LINE
  5
197
330
1F
100
AcDbEntity
  8
0
  6
Continuous
 62
     7
370
    25
100
AcDbLine
 10
140.9438433009
 20
152.2904057907
 30
0.0
 11
140.9438433009
 21
145.2904057907
 31
0.0
  0
LINE
  5
198
330
1F
100
AcDbEntity
  8
0
  6
Continuous
 62
     7
370
    25
100
AcDbLine
 10
140.9438433009
 20
159.2904057907
 30
0.0
 11
140.9438433009
 21
152.2904057907
 31
0.0
  0
LINE
  5
199
330
1F
100
AcDbEntity
  8
0
  6
Continuous
 62
     7
370
    25
100
AcDbLine
 10
145.4438433009
 20
152.2904057907
 30
0.0
 11
145.4438433009
 21
145.2904057907
 31
0.0
  0
LINE
  5
19A
330
1F
100
AcDbEntity
  8
0
  6
Continuous
 62
     7
370
    25
100
AcDbLine
 10
145.4438433009
 20
159.2904057907
 30
0.0
 11
145.4438433009
 21
152.2904057907
 31
0.0
  0
LINE
  5
19B
330
1F
100
AcDbEntity
  8
0
  6
Continuous
 62
     7
370
    25
100
AcDbLine
 10
160.9438433009
 20
152.2904057907
 30
0.0
 11
160.9438433009
 21
146.8369602802
 31
0.0
  0
LINE
  5
19C
330
1F
100
AcDbEntity
  8
0
  6
Continuous
 62
     7
370
    25
100
AcDbLine
 10
160.9438433009
 20
157.7438513011
 30
0.0
 11
160.9438433009
 21
152.2904057907
 31
0.0
  0
LINE
  5
19D
330
1F
100
AcDbEntity
  8
0
  6
Continuous
 62
     7
370
    25
100
AcDbLine
 10
122.0778178972
 20
164.2904057907
 30
0.0
 11
121.9438433009
 21
163.3693028318
 31
0.0
  0
LINE
  5
19E
330
1F
100
AcDbEntity
  8
0
  6
Continuous
 62
     7
370
    25
100
AcDbLine
 10
126.7277089639
 20
164.2904057907
 30
0.0
 11
122.0778178972
 21
164.2904057907
 31
0.0
  0
SPLINE
  5
19F
330
1F
100
AcDbEntity
  8
0
  6
Continuous
 62
     7
370
    25
100
AcDbSpline
210
0.0
220
0.0
230
1.0
 70
     8
 71
     3
 72
    15
 73
    11
 74
     0
 42
0.000000001
 43
0.00000001
 40
0.0
 40
0.0
 40
0.0
 40
0.0
 40
0.1323065044264401
 40
0.2645755999739293
 40
0.3998036789671088
 40
0.5350073556765889
 40
0.6501969475405015
 40
0.765404507645376
 40
0.8826909144168964
 40
1.0
 40
1.0
 40
1.0
 40
1.0
 10
126.7277089639136
 20
164.2904057906769
 30
0.0
 10
126.8908680458314
 20
163.7719530614684
 30
0.0
 10
127.2171400774047
 20
162.7351941924839
 30
0.0
 10
127.5681947804245
 20
161.1386767472135
 30
0.0
 10
127.7792715659537
 20
159.5120643355336
 30
0.0
 10
127.8210688762393
 20
157.9443835941466
 30
0.0
 10
127.7126102435385
 20
156.4614074001867
 30
0.0
 10
127.4903843344777
 20
155.0618540407613
 30
0.0
 10
127.1644065611914
 20
153.6686286245179
 30
0.0
 10
126.8732842107979
 20
152.7498430088999
 30
0.0
 10
126.7277089639136
 20
152.2904057906769
 30
0.0
  0
LINE
  5
1A0
330
1F
100
AcDbEntity
  8
0
  6
Continuous
 62
     7
370
    25
100
AcDbLine
 10
126.7277089639
 20
152.2904057907
 30
0.0
 11
122.0778178972
 21
152.2904057907
 31
0.0
  0
LINE
  5
1A1
330
1F
100
AcDbEntity
  8
0
  6
Continuous
 62
     7
370
    25
100
AcDbLine
 10
121.9438433009
 20
153.2115087495
 30
0.0
 11
122.0778178972
 21
152.2904057907
 31
0.0
  0
LINE
  5
1A2
330
1F
100
AcDbEntity
  8
0
  6
Continuous
 62
     7
370
    25
100
AcDbLine
 10
121.9438433009
 20
153.2115087495
 30
0.0
 11
121.8098687047
 21
152.2904057907
 31
0.0
  0
LINE
  5
1A3
330
1F
100
AcDbEntity
  8
0
  6
Continuous
 62
     7
370
    25
100
AcDbLine
 10
121.8098687047
 20
152.2904057907
 30
0.0
 11
117.159977638
 21
152.2904057907
 31
0.0
  0
SPLINE
  5
1A4
330
1F
100
AcDbEntity
  8
0
  6
Continuous
 62
     7
370
    25
100
AcDbSpline
210
0.0
220
0.0
230
1.0
 70
     8
 71
     3
 72
    15
 73
    11
 74
     0
 42
0.000000001
 43
0.00000001
 40
0.0
 40
0.0
 40
0.0
 40
0.0
 40
0.1323065044264401
 40
0.2645755999739294
 40
0.3998036789671086
 40
0.5350073556765886
 40
0.6501969475405014
 40
0.7654045076453762
 40
0.8826909144168965
 40
1.0
 40
1.0
 40
1.0
 40
1.0
 10
117.1599776379574
 20
164.2904057906769
 30
0.0
 10
116.9968185560397
 20
163.7719530614684
 30
0.0
 10
116.6705465244664
 20
162.7351941924839
 30
0.0
 10
116.3194918214465
 20
161.1386767472135
 30
0.0
 10
116.1084150359173
 20
159.5120643355336
 30
0.0
 10
116.0666177256318
 20
157.9443835941466
 30
0.0
 10
116.1750763583325
 20
156.4614074001867
 30
0.0
 10
116.3973022673934
 20
155.0618540407613
 30
0.0
 10
116.7232800406797
 20
153.6686286245179
 30
0.0
 10
117.0144023910731
 20
152.7498430088999
 30
0.0
 10
117.1599776379574
 20
152.2904057906769
 30
0.0
  0
LINE
  5
1A5
330
1F
100
AcDbEntity
  8
0
  6
Continuous
 62
     7
370
    25
100
AcDbLine
 10
121.8098687047
 20
164.2904057907
 30
0.0
 11
117.159977638
 21
164.2904057907
 31
0.0
  0
LINE
  5
1A6
330
1F
100
AcDbEntity
  8
0
  6
Continuous
 62
     7
370
    25
100
AcDbLine
 10
121.8098687047
 20
164.2904057907
 30
0.0
 11
121.9438433009
 21
163.3693028318
 31
0.0
  0
SPLINE
  5
1A7
330
1F
100
AcDbEntity
  8
0
  6
Continuous
 62
     7
370
    25
100
AcDbSpline
210
0.0
220
0.0
230
1.0
 70
    24
 71
     3
 72
    13
 73
     9
 74
     0
 42
0.000000001
 43
0.00000001
 40
0.0
 40
0.0
 40
0.0
 40
0.0
 40
0.0074765928838622
 40
0.2645382639471175
 40
0.4472073284749926
 40
0.63043138662991
 40
0.8150417864691077
 40
1.0
 40
1.0
 40
1.0
 40
1.0
 10
127.7973168423011
 20
164.2904057906769
 30
0.0
 10
127.7980437447432
 20
164.2904057906769
 30
0.0
 10
127.8237631483657
 20
164.2904057906769
 30
0.0
 10
127.7419955685401
 20
164.2904057906769
 30
0.0
 10
127.5803208853372
 20
164.2904057906769
 30
0.0
 10
127.3561572365248
 20
164.2904057906769
 30
0.0
 10
127.0754292403953
 20
164.2904057906769
 30
0.0
 10
126.8436884224836
 20
164.2904057906769
 30
0.0
 10
126.7277089639136
 20
164.2904057906769
 30
0.0
  0
SPLINE
  5
1A8
330
1F
100
AcDbEntity
  8
0
  6
Continuous
 62
     7
370
    25
100
AcDbSpline
210
0.0
220
0.0
230
1.0
 70
    24
 71
     3
 72
    13
 73
     9
 74
     0
 42
0.000000001
 43
0.00000001
 40
0.0
 40
0.0
 40
0.0
 40
0.0
 40
0.1829115378190405
 40
0.3661278777695268
 40
0.5505260115382156
 40
0.7354565753502899
 40
0.9842750573229313
 40
1.0
 40
1.0
 40
1.0
 40
1.0
 10
126.7277089639136
 20
140.2904057906769
 30
0.0
 10
126.8424488417048
 20
140.2904057906769
 30
0.0
 10
127.0721197987811
 20
140.2904057906769
 30
0.0
 10
127.3525965038844
 20
140.2904057906769
 30
0.0
 10
127.5785060171185
 20
140.2904057906769
 30
0.0
 10
127.7399628134148
 20
140.2904057906769
 30
0.0
 10
127.8208423031165
 20
140.2904057906769
 30
0.0
 10
127.7965791377933
 20
140.2904057906769
 30
0.0
 10
127.7951368910832
 20
140.2904057906769
 30
0.0
  0
SPLINE
  5
1A9
330
1F
100
AcDbEntity
  8
0
  6
Continuous
 62
     7
370
    25
100
AcDbSpline
210
0.0
220
0.0
230
1.0
 70
     8
 71
     3
 72
    15
 73
    11
 74
     0
 42
0.000000001
 43
0.00000001
 40
0.0
 40
0.0
 40
0.0
 40
0.0
 40
0.1323065044264402
 40
0.2645755999739295
 40
0.3998036789671092
 40
0.5350073556765894
 40
0.6501969475405021
 40
0.7654045076453766
 40
0.8826909144168968
 40
0.9999999999999999
 40
0.9999999999999999
 40
0.9999999999999999
 40
0.9999999999999999
 10
126.7277089639136
 20
152.2904057906769
 30
0.0
 10
126.8908680458313
 20
151.7719530614684
 30
0.0
 10
127.2171400774047
 20
150.7351941924839
 30
0.0
 10
127.5681947804245
 20
149.1386767472135
 30
0.0
 10
127.7792715659537
 20
147.5120643355336
 30
0.0
 10
127.8210688762393
 20
145.9443835941466
 30
0.0
 10
127.7126102435385
 20
144.4614074001867
 30
0.0
 10
127.4903843344776
 20
143.0618540407613
 30
0.0
 10
127.1644065611914
 20
141.668628624518
 30
0.0
 10
126.8732842107979
 20
140.7498430088999
 30
0.0
 10
126.7277089639136
 20
140.2904057906769
 30
0.0
  0
LINE
  5
1AA
330
1F
100
AcDbEntity
  8
0
  6
Continuous
 62
     7
370
    25
100
AcDbLine
 10
127.9438433009
 20
164.0404057907
 30
0.0
 11
127.9438433009
 21
140.5404057907
 31
0.0
  0
SPLINE
  5
1AB
330
1F
100
AcDbEntity
  8
0
  6
Continuous
 62
     7
370
    25
100
AcDbSpline
210
0.0
220
0.0
230
1.0
 70
     8
 71
     3
 72
    15
 73
    11
 74
     0
 42
0.000000001
 43
0.00000001
 40
0.0
 40
0.0
 40
0.0
 40
0.0
 40
0.1323065044264403
 40
0.2645755999739298
 40
0.3998036789671093
 40
0.5350073556765893
 40
0.6501969475405022
 40
0.7654045076453768
 40
0.882690914416897
 40
1.0
 40
1.0
 40
1.0
 40
1.0
 10
117.1599776379574
 20
152.2904057906769
 30
0.0
 10
116.9968185560397
 20
151.7719530614684
 30
0.0
 10
116.6705465244664
 20
150.7351941924839
 30
0.0
 10
116.3194918214465
 20
149.1386767472135
 30
0.0
 10
116.1084150359173
 20
147.5120643355336
 30
0.0
 10
116.0666177256318
 20
145.9443835941466
 30
0.0
 10
116.1750763583325
 20
144.4614074001867
 30
0.0
 10
116.3973022673934
 20
143.0618540407613
 30
0.0
 10
116.7232800406797
 20
141.668628624518
 30
0.0
 10
117.0144023910731
 20
140.7498430088999
 30
0.0
 10
117.1599776379574
 20
140.2904057906769
 30
0.0
  0
SPLINE
  5
1AC
330
1F
100
AcDbEntity
  8
0
  6
Continuous
 62
     7
370
    25
100
AcDbSpline
210
0.0
220
0.0
230
1.0
 70
    24
 71
     3
 72
    13
 73
     9
 74
     0
 42
0.000000001
 43
0.00000001
 40
0.0
 40
0.0
 40
0.0
 40
0.0
 40
0.1829115378190403
 40
0.3661278777695268
 40
0.5505260115382156
 40
0.7354565753502897
 40
0.9842750573229313
 40
1.0
 40
1.0
 40
1.0
 40
1.0
 10
117.1599776379574
 20
140.2904057906769
 30
0.0
 10
117.0452377601663
 20
140.2904057906769
 30
0.0
 10
116.8155668030899
 20
140.2904057906769
 30
0.0
 10
116.5350900979867
 20
140.2904057906769
 30
0.0
 10
116.3091805847526
 20
140.2904057906769
 30
0.0
 10
116.1477237884563
 20
140.2904057906769
 30
0.0
 10
116.0668442987545
 20
140.2904057906769
 30
0.0
 10
116.0911074640777
 20
140.2904057906769
 30
0.0
 10
116.0925497107878
 20
140.2904057906769
 30
0.0
  0
SPLINE
  5
1AD
330
1F
100
AcDbEntity
  8
0
  6
Continuous
 62
     7
370
    25
100
AcDbSpline
210
0.0
220
0.0
230
1.0
 70
    24
 71
     3
 72
    13
 73
     9
 74
     0
 42
0.000000001
 43
0.00000001
 40
0.0
 40
0.0
 40
0.0
 40
0.0
 40
0.0074765928838622
 40
0.2645382639471175
 40
0.4472073284749925
 40
0.6304313866299099
 40
0.8150417864691076
 40
0.9999999999999999
 40
0.9999999999999999
 40
0.9999999999999999
 40
0.9999999999999999
 10
116.09036975957
 20
164.2904057906769
 30
0.0
 10
116.0896428571278
 20
164.2904057906769
 30
0.0
 10
116.0639234535053
 20
164.2904057906769
 30
0.0
 10
116.145691033331
 20
164.2904057906769
 30
0.0
 10
116.3073657165338
 20
164.2904057906769
 30
0.0
 10
116.5315293653463
 20
164.2904057906769
 30
0.0
 10
116.8122573614757
 20
164.2904057906769
 30
0.0
 10
117.0439981793874
 20
164.2904057906769
 30
0.0
 10
117.1599776379574
 20
164.2904057906769
 30
0.0
  0
LINE
  5
1AE
330
1F
100
AcDbEntity
  8
0
  6
Continuous
 62
     7
370
    25
100
AcDbLine
 10
115.9438433009
 20
164.0404057907
 30
0.0
 11
115.9438433009
 21
140.5404057907
 31
0.0
  0
LINE
  5
1AF
330
1F
100
AcDbEntity
  8
0
  6
Continuous
 62
     7
370
    25
100
AcDbLine
 10
122.0778178972
 20
152.2904057907
 30
0.0
 11
121.9438433009
 21
151.3693028318
 31
0.0
  0
LINE
  5
1B0
330
1F
100
AcDbEntity
  8
0
  6
Continuous
 62
     7
370
    25
100
AcDbLine
 10
121.9438433009
 20
153.2115087495
 30
0.0
 11
121.9438433009
 21
151.3693028318
 31
0.0
  0
LINE
  5
1B1
330
1F
100
AcDbEntity
  8
0
  6
Continuous
 62
     7
370
    25
100
AcDbLine
 10
121.8098687047
 20
152.2904057907
 30
0.0
 11
121.9438433009
 21
151.3693028318
 31
0.0
  0
LINE
  5
1B2
330
1F
100
AcDbEntity
  8
0
  6
Continuous
 62
     7
370
    25
100
AcDbLine
 10
126.7277089639
 20
140.2904057907
 30
0.0
 11
122.0778178972
 21
140.2904057907
 31
0.0
  0
LINE
  5
1B3
330
1F
100
AcDbEntity
  8
0
  6
Continuous
 62
     7
370
    25
100
AcDbLine
 10
121.9438433009
 20
141.2115087495
 30
0.0
 11
122.0778178972
 21
140.2904057907
 31
0.0
  0
LINE
  5
1B4
330
1F
100
AcDbEntity
  8
0
  6
Continuous
 62
     7
370
    25
100
AcDbLine
 10
121.9438433009
 20
141.2115087495
 30
0.0
 11
121.8098687047
 21
140.2904057907
 31
0.0
  0
LINE
  5
1B5
330
1F
100
AcDbEntity
  8
0
  6
Continuous
 62
     7
370
    25
100
AcDbLine
 10
121.8098687047
 20
140.2904057907
 30
0.0
 11
117.159977638
 21
140.2904057907
 31
0.0
  0
LINE
  5
1B6
330
1F
100
AcDbEntity
  8
0
  6
Continuous
 62
     7
370
    25
100
AcDbLine
 10
114.4438433009
 20
164.0404057907
 30
0.0
 11
114.4438433009
 21
140.5404057907
 31
0.0
  0
LINE
  5
1B7
330
1F
100
AcDbEntity
  8
0
  6
Continuous
 62
     7
370
    25
100
AcDbLine
 10
129.9438433009
 20
163.5404057907
 30
0.0
 11
129.9438433009
 21
141.0404057907
 31
0.0
  0
LINE
  5
1B8
330
1F
100
AcDbEntity
  8
0
  6
Continuous
 62
     7
370
    25
100
AcDbLine
 10
129.4438433009
 20
140.5404057907
 30
0.0
 11
129.4438433009
 21
164.0404057907
 31
0.0
  0
LINE
  5
1B9
330
1F
100
AcDbEntity
  8
0
  6
Continuous
 62
     7
370
    25
100
AcDbLine
 10
113.9438433009
 20
141.0404057907
 30
0.0
 11
113.9438433009
 21
163.5404057907
 31
0.0
  0
LINE
  5
1BA
330
1F
100
AcDbEntity
  8
0
  6
Continuous
 62
     7
370
    25
100
AcDbLine
 10
121.9438433009
 20
164.2904057907
 30
0.0
 11
121.9438433009
 21
163.3693028318
 31
0.0
  0
LINE
  5
1BB
330
1F
100
AcDbEntity
  8
0
  6
Continuous
 62
     7
370
    25
100
AcDbLine
 10
121.9438433009
 20
164.2904057907
 30
0.0
 11
122.0778178972
 21
164.2904057907
 31
0.0
  0
LINE
  5
1BC
330
1F
100
AcDbEntity
  8
0
  6
Continuous
 62
     7
370
    25
100
AcDbLine
 10
121.9438433009
 20
164.2904057907
 30
0.0
 11
121.8098687047
 21
164.2904057907
 31
0.0
  0
LINE
  5
1BD
330
1F
100
AcDbEntity
  8
0
  6
Continuous
 62
     7
370
    25
100
AcDbLine
 10
122.0778178972
 20
140.2904057907
 30
0.0
 11
121.9438433009
 21
140.2904057907
 31
0.0
  0
LINE
  5
1BE
330
1F
100
AcDbEntity
  8
0
  6
Continuous
 62
     7
370
    25
100
AcDbLine
 10
121.9438433009
 20
141.2115087495
 30
0.0
 11
121.9438433009
 21
140.2904057907
 31
0.0
  0
LINE
  5
1BF
330
1F
100
AcDbEntity
  8
0
  6
Continuous
 62
     7
370
    25
100
AcDbLine
 10
121.8098687047
 20
140.2904057907
 30
0.0
 11
121.9438433009
 21
140.2904057907
 31
0.0
  0
CIRCLE
  5
1C0
330
1F
100
AcDbEntity
  8
0
  6
Continuous
 62
     7
370
    25
100
AcDbCircle
 10
96.5419195123
 20
152.2904057907
 30
0.0
 40
7.000000000000028
  0
CIRCLE
  5
1C1
330
1F
100
AcDbEntity
  8
0
  6
Continuous
 62
     7
370
    25
100
AcDbCircle
 10
96.5419195123
 20
152.2904057907
 30
0.0
 40
8.197372169802065
  0
CIRCLE
  5
1C2
330
1F
100
AcDbEntity
  8
0
  6
Continuous
 62
     7
370
    25
100
AcDbCircle
 10
96.5419195123
 20
152.2904057907
 30
0.0
 40
5.500000000000028
  0
CIRCLE
  5
1C3
330
1F
100
AcDbEntity
  8
0
  6
Continuous
 62
     7
370
    25
100
AcDbCircle
 10
96.5419195123
 20
152.2904057907
 30
0.0
 40
5.000000000000028
  0
CIRCLE
  5
1C4
330
1F
100
AcDbEntity
  8
0
  6
Continuous
 62
     7
370
    25
100
AcDbCircle
 10
96.5419195123
 20
152.2904057907
 30
0.0
 40
8.570062500000006
  0
LINE
  5
1C5
330
1F
100
AcDbEntity
  8
0
  6
Continuous
 62
     7
370
    25
100
AcDbLine
 10
111.6999253942
 20
141.8129057907
 30
0.0
 11
111.6999253942
 21
162.7679057907
 31
0.0
  0
SPLINE
  5
1C6
330
1F
100
AcDbEntity
  8
0
  6
Continuous
 62
     7
370
    25
100
AcDbSpline
210
0.0
220
0.0
230
1.0
 70
     8
 71
     3
 72
    19
 73
    15
 74
     0
 42
0.000000001
 43
0.00000001
 40
-0.5788447217180465
 40
-0.5788447217180465
 40
-0.5788447217180465
 40
-0.5788447217180465
 40
-0.535566355711699
 40
-0.535566355711699
 40
-0.205987059889115
 40
-0.205987059889115
 40
0.0
 40
0.0
 40
0.0
 40
0.205987059889115
 40
0.205987059889115
 40
0.535566355711699
 40
0.535566355711699
 40
0.5788447217180465
 40
0.5788447217180465
 40
0.5788447217180465
 40
0.5788447217180465
 10
104.0757008075502
 20
147.6404810920164
 30
0.0
 10
104.1467724849601
 20
147.7430907764156
 30
0.0
 10
104.2154786630015
 20
147.847163829837
 30
0.0
 10
104.7863179740572
 20
148.7556722624867
 30
0.0
 10
105.1494257103135
 20
149.6378045388117
 30
0.0
 10
105.4780494174957
 20
151.1231632617038
 30
0.0
 10
105.5419195122888
 20
151.7067757876577
 30
0.0
 10
105.5419195122888
 20
152.2904057906769
 30
0.0
 10
105.5419195122888
 20
152.874035793696
 30
0.0
 10
105.4780494174957
 20
153.4576483196499
 30
0.0
 10
105.1494257103135
 20
154.9430070425421
 30
0.0
 10
104.7863179740572
 20
155.8251393188671
 30
0.0
 10
104.2154786630015
 20
156.7336477515168
 30
0.0
 10
104.1467724849601
 20
156.8377208049382
 30
0.0
 10
104.0757008075502
 20
156.9403304893373
 30
0.0
  0
SPLINE
  5
1C7
330
1F
100
AcDbEntity
  8
0
  6
Continuous
 62
     7
370
    25
100
AcDbSpline
210
0.0
220
0.0
230
1.0
 70
     8
 71
     3
 72
    10
 73
     6
 74
     0
 42
0.000000001
 43
0.00000001
 40
0.0
 40
0.0
 40
0.0
 40
0.0
 40
0.3559017013548443
 40
0.7118076417980567
 40
1.0
 40
1.0
 40
1.0
 40
1.0
 10
104.0758352231593
 20
147.6405143374574
 30
0.0
 10
104.0362172363661
 20
147.6668324450964
 30
0.0
 10
103.9569807908962
 20
147.7194689738452
 30
0.0
 10
103.84043322062
 20
147.7438671953705
 30
0.0
 10
103.7814654299821
 20
147.7253480784568
 30
0.0
 10
103.7550811549768
 20
147.7170619705965
 30
0.0
  0
SPLINE
  5
1C8
330
1F
100
AcDbEntity
  8
0
  6
Continuous
 62
     7
370
    25
100
AcDbSpline
210
0.0
220
0.0
230
1.0
 70
     8
 71
     3
 72
    10
 73
     6
 74
     0
 42
0.000000001
 43
0.00000001
 40
0.0
 40
0.0
 40
0.0
 40
0.0
 40
0.2329441180184284
 40
0.6082245966549806
 40
0.9999999999999999
 40
0.9999999999999999
 40
0.9999999999999999
 40
0.9999999999999999
 10
103.7696898579456
 20
156.8609019249001
 30
0.0
 10
103.7898130090688
 20
156.8543397280751
 30
0.0
 10
103.8423552049372
 20
156.8372056207578
 30
0.0
 10
103.9532598149822
 20
156.859798358004
 30
0.0
 10
104.0343951700758
 20
156.9130823387685
 30
0.0
 10
104.0758352231593
 20
156.9402972438963
 30
0.0
  0
SPLINE
  5
1C9
330
1F
100
AcDbEntity
  8
0
  6
Continuous
 62
     7
370
    25
100
AcDbSpline
210
0.0
220
0.0
230
1.0
 70
    24
 71
     3
 72
     8
 73
     4
 74
     0
 42
0.000000001
 43
0.00000001
 40
0.0
 40
0.0
 40
0.0
 40
0.0
 40
1.0
 40
1.0
 40
1.0
 40
1.0
 10
105.0419195122888
 20
144.2904057906769
 30
0.0
 10
105.0419195122888
 20
143.9603795370621
 30
0.0
 10
105.0419195122888
 20
143.7904057906769
 30
0.0
 10
105.0419195122888
 20
143.7904057906769
 30
0.0
  0
SPLINE
  5
1CA
330
1F
100
AcDbEntity
  8
0
  6
Continuous
 62
     7
370
    25
100
AcDbSpline
210
0.0
220
0.0
230
1.0
 70
     8
 71
     3
 72
    14
 73
    10
 74
     0
 42
0.000000001
 43
0.00000001
 40
0.0
 40
0.0
 40
0.0
 40
0.0
 40
0.25
 40
0.25
 40
0.5
 40
0.5
 40
0.75
 40
0.75
 40
1.0
 40
1.0
 40
1.0
 40
1.0
 10
105.0419195122888
 20
146.8131802156252
 30
0.0
 10
105.0419195122888
 20
146.8805412064248
 30
0.0
 10
105.0325316622668
 20
146.947539658382
 30
0.0
 10
104.9958720155515
 20
147.0807489971108
 30
0.0
 10
104.9681694702886
 20
147.1477952963447
 30
0.0
 10
104.8917832092104
 20
147.2739349728693
 30
0.0
 10
104.8425800645227
 20
147.3346925734068
 30
0.0
 10
104.7139132913277
 20
147.4323044389743
 30
0.0
 10
104.6309882911171
 20
147.4685804101804
 30
0.0
 10
104.5419195122888
 20
147.4685804101804
 30
0.0
  0
SPLINE
  5
1CB
330
1F
100
AcDbEntity
  8
0
  6
Continuous
 62
     7
370
    25
100
AcDbSpline
210
0.0
220
0.0
230
1.0
 70
     8
 71
     3
 72
    10
 73
     6
 74
     0
 42
0.000000001
 43
0.00000001
 40
0.0
 40
0.0
 40
0.0
 40
0.0
 40
0.5
 40
0.5
 40
1.0
 40
1.0
 40
1.0
 40
1.0
 10
104.075763749648
 20
147.6404010777213
 30
0.0
 10
104.1389259307871
 20
147.5894761406612
 30
0.0
 10
104.2100300162671
 20
147.5465132061934
 30
0.0
 10
104.3682708258355
 20
147.4856192310375
 30
0.0
 10
104.4538237968645
 20
147.4685804101803
 30
0.0
 10
104.5419195122888
 20
147.4685804101803
 30
0.0
  0
SPLINE
  5
1CC
330
1F
100
AcDbEntity
  8
0
  6
Continuous
 62
     7
370
    25
100
AcDbSpline
210
0.0
220
0.0
230
1.0
 70
     8
 71
     3
 72
     8
 73
     4
 74
     0
 42
0.000000001
 43
0.00000001
 40
0.0
 40
0.0
 40
0.0
 40
0.0
 40
1.0
 40
1.0
 40
1.0
 40
1.0
 10
104.5419195122888
 20
157.1122311711733
 30
0.0
 10
104.3656646045867
 20
157.1122311711733
 30
0.0
 10
104.2022065165175
 20
157.0423558422579
 30
0.0
 10
104.0757637496478
 20
156.9404105036327
 30
0.0
  0
SPLINE
  5
1CD
330
1F
100
AcDbEntity
  8
0
  6
Continuous
 62
     7
370
    25
100
AcDbSpline
210
0.0
220
0.0
230
1.0
 70
     8
 71
     3
 72
    14
 73
    10
 74
     0
 42
0.000000001
 43
0.00000001
 40
0.0
 40
0.0
 40
0.0
 40
0.0
 40
0.25
 40
0.25
 40
0.5
 40
0.5
 40
0.75
 40
0.75
 40
1.0
 40
1.0
 40
1.0
 40
1.0
 10
104.5419195122888
 20
157.1122311711733
 30
0.0
 10
104.6310193405418
 20
157.1122311711733
 30
0.0
 10
104.7139341576005
 20
157.1485233448551
 30
0.0
 10
104.8425562714562
 20
157.2461005850946
 30
0.0
 10
104.8917232664901
 20
157.3068407377673
 30
0.0
 10
104.9678939097278
 20
157.4324984032637
 30
0.0
 10
104.9955777315801
 20
157.4991656644899
 30
0.0
 10
105.0325488162369
 20
157.6331631307429
 30
0.0
 10
105.0419195122888
 20
157.700334294888
 30
0.0
 10
105.0419195122888
 20
157.7676313657286
 30
0.0
  0
SPLINE
  5
1CE
330
1F
100
AcDbEntity
  8
0
  6
Continuous
 62
     7
370
    25
100
AcDbSpline
210
0.0
220
0.0
230
1.0
 70
    24
 71
     3
 72
     8
 73
     4
 74
     0
 42
0.000000001
 43
0.00000001
 40
0.0
 40
0.0
 40
0.0
 40
0.0
 40
1.0
 40
1.0
 40
1.0
 40
1.0
 10
105.0419195122888
 20
160.7904057906769
 30
0.0
 10
105.0419195122888
 20
160.7904057906769
 30
0.0
 10
105.0419195122888
 20
160.6204320442917
 30
0.0
 10
105.0419195122888
 20
160.2904057906769
 30
0.0
  0
LINE
  5
1CF
330
1F
100
AcDbEntity
  8
0
  6
Continuous
 62
     7
370
    25
100
AcDbLine
 10
103.5419195123
 20
147.3461190621
 30
0.0
 11
103.5419195123
 21
144.2904057907
 31
0.0
  0
ARC
  5
1D0
330
1F
100
AcDbEntity
  8
0
  6
Continuous
 62
     7
370
    25
100
AcDbCircle
 10
103.0419195123
 20
144.2904057907
 30
0.0
 40
0.5
100
AcDbArc
 50
270.0
 51
0.0
  0
LINE
  5
1D1
330
1F
100
AcDbEntity
  8
0
  6
Continuous
 62
     7
370
    25
100
AcDbLine
 10
99.4142008356
 20
143.7904057907
 30
0.0
 11
103.0419195123
 21
143.7904057907
 31
0.0
  0
SPLINE
  5
1D2
330
1F
100
AcDbEntity
  8
0
  6
Continuous
 62
     7
370
    25
100
AcDbSpline
210
0.0
220
0.0
230
1.0
 70
    24
 71
     3
 72
    10
 73
     6
 74
     0
 42
0.000000001
 43
0.00000001
 40
0.0
 40
0.0
 40
0.0
 40
0.0
 40
0.5
 40
0.5
 40
1.0
 40
1.0
 40
1.0
 40
1.0
 10
99.41420083555785
 20
144.2904057906769
 30
0.0
 10
99.41420083555785
 20
144.1595060967773
 30
0.0
 10
99.41420083555785
 20
144.0294124612952
 30
0.0
 10
99.41420083555785
 20
143.844292338872
 30
0.0
 10
99.41420083555785
 20
143.7904057906769
 30
0.0
 10
99.41420083555785
 20
143.7904057906769
 30
0.0
  0
SPLINE
  5
1D3
330
1F
100
AcDbEntity
  8
0
  6
Continuous
 62
     7
370
    25
100
AcDbSpline
210
0.0
220
0.0
230
1.0
 70
    24
 71
     3
 72
    10
 73
     6
 74
     0
 42
0.000000001
 43
0.00000001
 40
0.0
 40
0.0
 40
0.0
 40
0.0
 40
0.5
 40
0.5
 40
1.0
 40
1.0
 40
1.0
 40
1.0
 10
93.66963818901979
 20
160.2904057906769
 30
0.0
 10
93.66963818901979
 20
160.4213054845764
 30
0.0
 10
93.66963818901979
 20
160.5513991200585
 30
0.0
 10
93.66963818901979
 20
160.7365192424818
 30
0.0
 10
93.66963818901979
 20
160.7904057906769
 30
0.0
 10
93.66963818901979
 20
160.7904057906769
 30
0.0
  0
LINE
  5
1D4
330
1F
100
AcDbEntity
  8
0
  6
Continuous
 62
     7
370
    25
100
AcDbLine
 10
90.0419195123
 20
160.7904057907
 30
0.0
 11
90.0419195123
 21
160.2904057907
 31
0.0
  0
LINE
  5
1D5
330
1F
100
AcDbEntity
  8
0
  6
Continuous
 62
     7
370
    25
100
AcDbLine
 10
93.669638189
 20
160.7904057907
 30
0.0
 11
90.0419195123
 21
160.7904057907
 31
0.0
  0
SPLINE
  5
1D6
330
1F
100
AcDbEntity
  8
0
  6
Continuous
 62
     7
370
    25
100
AcDbSpline
210
0.0
220
0.0
230
1.0
 70
    24
 71
     3
 72
    10
 73
     6
 74
     0
 42
0.000000001
 43
0.00000001
 40
0.0
 40
0.0
 40
0.0
 40
0.0
 40
0.5
 40
0.5
 40
1.0
 40
1.0
 40
1.0
 40
1.0
 10
93.66963818901979
 20
143.7904057906769
 30
0.0
 10
93.66963818901979
 20
143.7904057906769
 30
0.0
 10
93.66963818901979
 20
143.844292338872
 30
0.0
 10
93.66963818901979
 20
144.0294124612952
 30
0.0
 10
93.66963818901979
 20
144.1595060967773
 30
0.0
 10
93.66963818901979
 20
144.2904057906769
 30
0.0
  0
LINE
  5
1D7
330
1F
100
AcDbEntity
  8
0
  6
Continuous
 62
     7
370
    25
100
AcDbLine
 10
90.0419195123
 20
144.2904057907
 30
0.0
 11
90.0419195123
 21
143.7904057907
 31
0.0
  0
LINE
  5
1D8
330
1F
100
AcDbEntity
  8
0
  6
Continuous
 62
     7
370
    25
100
AcDbLine
 10
90.0419195123
 20
143.7904057907
 30
0.0
 11
93.669638189
 21
143.7904057907
 31
0.0
  0
ARC
  5
1D9
330
1F
100
AcDbEntity
  8
0
  6
Continuous
 62
     7
370
    25
100
AcDbCircle
 10
103.0419195123
 20
160.2904057907
 30
0.0
 40
0.5
100
AcDbArc
 50
0.0
 51
90.0
  0
SPLINE
  5
1DA
330
1F
100
AcDbEntity
  8
0
  6
Continuous
 62
     7
370
    25
100
AcDbSpline
210
0.0
220
0.0
230
1.0
 70
    24
 71
     3
 72
    10
 73
     6
 74
     0
 42
0.000000001
 43
0.00000001
 40
0.0
 40
0.0
 40
0.0
 40
0.0
 40
0.5
 40
0.5
 40
1.0
 40
1.0
 40
1.0
 40
1.0
 10
99.41420083555785
 20
160.7904057906769
 30
0.0
 10
99.41420083555785
 20
160.7904057906769
 30
0.0
 10
99.41420083555785
 20
160.7365192424818
 30
0.0
 10
99.41420083555785
 20
160.5513991200585
 30
0.0
 10
99.41420083555785
 20
160.4213054845764
 30
0.0
 10
99.41420083555785
 20
160.2904057906769
 30
0.0
  0
LINE
  5
1DB
330
1F
100
AcDbEntity
  8
0
  6
Continuous
 62
     7
370
    25
100
AcDbLine
 10
103.0419195123
 20
160.7904057907
 30
0.0
 11
99.4142008356
 21
160.7904057907
 31
0.0
  0
LINE
  5
1DC
330
1F
100
AcDbEntity
  8
0
  6
Continuous
 62
     7
370
    25
100
AcDbLine
 10
103.5419195123
 20
160.2904057907
 30
0.0
 11
103.5419195123
 21
157.2346925192
 31
0.0
  0
SPLINE
  5
1DD
330
1F
100
AcDbEntity
  8
0
  6
Continuous
 62
     7
370
    25
100
AcDbSpline
210
0.0
220
0.0
230
1.0
 70
    24
 71
     3
 72
    10
 73
     6
 74
     0
 42
0.000000001
 43
0.00000001
 40
0.0
 40
0.0
 40
0.0
 40
0.0
 40
0.3241933151527883
 40
0.6625717936791334
 40
1.0
 40
1.0
 40
1.0
 40
1.0
 10
97.54132839497822
 20
143.7904057906769
 30
0.0
 10
97.7405570262653
 20
143.7904057906769
 30
0.0
 10
98.1477315897565
 20
143.7904057906769
 30
0.0
 10
98.77369503969797
 20
143.7904057906769
 30
0.0
 10
99.20089913846967
 20
143.7904057906769
 30
0.0
 10
99.41420083555784
 20
143.7904057906769
 30
0.0
  0
SPLINE
  5
1DE
330
1F
100
AcDbEntity
  8
0
  6
Continuous
 62
     7
370
    25
100
AcDbSpline
210
0.0
220
0.0
230
1.0
 70
    24
 71
     3
 72
    10
 73
     6
 74
     0
 42
0.000000001
 43
0.00000001
 40
0.0
 40
0.0
 40
0.0
 40
0.0
 40
0.410309409162697
 40
0.8225284314884498
 40
1.0
 40
1.0
 40
1.0
 40
1.0
 10
93.66963818901979
 20
143.7904057906769
 30
0.0
 10
93.94103949782881
 20
143.7904057906769
 30
0.0
 10
94.48510523908033
 20
143.7904057906769
 30
0.0
 10
95.13724851383921
 20
143.7904057906769
 30
0.0
 10
95.51641301106498
 20
143.7904057906769
 30
0.0
 10
95.63052525754156
 20
143.7904057906769
 30
0.0
  0
SPLINE
  5
1DF
330
1F
100
AcDbEntity
  8
0
  6
Continuous
 62
     7
370
    25
100
AcDbSpline
210
0.0
220
0.0
230
1.0
 70
    24
 71
     3
 72
    10
 73
     6
 74
     0
 42
0.000000001
 43
0.00000001
 40
0.0
 40
0.0
 40
0.0
 40
0.0
 40
0.3009088398917963
 40
0.6509459265508901
 40
1.0
 40
1.0
 40
1.0
 40
1.0
 10
95.48091970929504
 20
160.7904057906769
 30
0.0
 10
95.30213121829705
 20
160.7904057906769
 30
0.0
 10
94.91536411643597
 20
160.7904057906769
 30
0.0
 10
94.3101160607722
 20
160.7904057906769
 30
0.0
 10
93.88293058680178
 20
160.7904057906769
 30
0.0
 10
93.66963818901979
 20
160.7904057906769
 30
0.0
  0
SPLINE
  5
1E0
330
1F
100
AcDbEntity
  8
0
  6
Continuous
 62
     7
370
    25
100
AcDbSpline
210
0.0
220
0.0
230
1.0
 70
    24
 71
     3
 72
    10
 73
     6
 74
     0
 42
0.000000001
 43
0.00000001
 40
0.0
 40
0.0
 40
0.0
 40
0.0
 40
0.3970810790595605
 40
0.796010205551764
 40
1.0
 40
1.0
 40
1.0
 40
1.0
 10
99.41420083555784
 20
160.7904057906769
 30
0.0
 10
99.14278679838525
 20
160.7904057906769
 30
0.0
 10
98.5986955411763
 20
160.7904057906769
 30
0.0
 10
97.92498753424523
 20
160.7904057906769
 30
0.0
 10
97.5244703294752
 20
160.7904057906769
 30
0.0
 10
97.38896052967229
 20
160.7904057906769
 30
0.0
  0
LINE
  5
1E1
330
1F
100
AcDbEntity
  8
0
  6
Continuous
 62
     7
370
    25
100
AcDbLine
 10
90.0419195123
 20
160.2904057907
 30
0.0
 11
89.5419195123
 21
160.2904057907
 31
0.0
  0
ARC
  5
1E2
330
1F
100
AcDbEntity
  8
0
  6
Continuous
 62
     7
370
    25
100
AcDbCircle
 10
90.0419195123
 20
160.2904057907
 30
0.0
 40
0.5
100
AcDbArc
 50
90.0
 51
180.0
  0
LINE
  5
1E3
330
1F
100
AcDbEntity
  8
0
  6
Continuous
 62
     7
370
    25
100
AcDbLine
 10
89.5419195123
 20
157.2653429762
 30
0.0
 11
89.5419195123
 21
160.2904057907
 31
0.0
  0
LINE
  5
1E4
330
1F
100
AcDbEntity
  8
0
  6
Continuous
 62
     7
370
    25
100
AcDbLine
 10
89.5419195123
 20
144.2904057907
 30
0.0
 11
90.0419195123
 21
144.2904057907
 31
0.0
  0
LINE
  5
1E5
330
1F
100
AcDbEntity
  8
0
  6
Continuous
 62
     7
370
    25
100
AcDbLine
 10
89.5419195123
 20
144.2904057907
 30
0.0
 11
89.5419195123
 21
147.3154686051
 31
0.0
  0
ARC
  5
1E6
330
1F
100
AcDbEntity
  8
0
  6
Continuous
 62
     7
370
    25
100
AcDbCircle
 10
90.0419195123
 20
144.2904057907
 30
0.0
 40
0.5
100
AcDbArc
 50
180.0
 51
270.0
  0
LINE
  5
1E7
330
1F
100
AcDbEntity
  8
0
  6
Continuous
 62
     7
370
    25
100
AcDbLine
 10
89.5408872514
 20
157.2332307457
 30
0.0
 11
89.5419195123
 21
157.2653429762
 31
0.0
  0
LINE
  5
1E8
330
1F
100
AcDbEntity
  8
0
  6
Continuous
 62
     7
370
    25
100
AcDbLine
 10
89.5419195123
 20
147.3154686051
 30
0.0
 11
89.5408872514
 21
147.3475808357
 31
0.0
  0
LINE
  5
1E9
330
1F
100
AcDbEntity
  8
0
  6
Continuous
 62
     7
370
    25
100
AcDbLine
 10
104.5419195123
 20
157.1122311712
 30
0.0
 11
104.5419195123
 21
160.2904057907
 31
0.0
  0
LINE
  5
1EA
330
1F
100
AcDbEntity
  8
0
  6
Continuous
 62
     7
370
    25
100
AcDbLine
 10
103.5419195123
 20
160.2904057907
 30
0.0
 11
104.5419195123
 21
160.2904057907
 31
0.0
  0
LINE
  5
1EB
330
1F
100
AcDbEntity
  8
0
  6
Continuous
 62
     7
370
    25
100
AcDbLine
 10
104.5419195123
 20
144.2904057907
 30
0.0
 11
104.5419195123
 21
147.4685804102
 31
0.0
  0
LINE
  5
1EC
330
1F
100
AcDbEntity
  8
0
  6
Continuous
 62
     7
370
    25
100
AcDbLine
 10
104.5419195123
 20
144.2904057907
 30
0.0
 11
103.5419195123
 21
144.2904057907
 31
0.0
  0
LINE
  5
1ED
330
1F
100
AcDbEntity
  8
0
  6
Continuous
 62
     7
370
    25
100
AcDbLine
 10
104.5419195123
 20
160.7904057907
 30
0.0
 11
104.5419195123
 21
160.2904057907
 31
0.0
  0
LINE
  5
1EE
330
1F
100
AcDbEntity
  8
0
  6
Continuous
 62
     7
370
    25
100
AcDbLine
 10
104.5419195123
 20
160.7904057907
 30
0.0
 11
103.0419195123
 21
160.7904057907
 31
0.0
  0
LINE
  5
1EF
330
1F
100
AcDbEntity
  8
0
  6
Continuous
 62
     7
370
    25
100
AcDbLine
 10
104.5419195123
 20
143.7904057907
 30
0.0
 11
104.5419195123
 21
144.2904057907
 31
0.0
  0
LINE
  5
1F0
330
1F
100
AcDbEntity
  8
0
  6
Continuous
 62
     7
370
    25
100
AcDbLine
 10
103.0419195123
 20
143.7904057907
 30
0.0
 11
104.5419195123
 21
143.7904057907
 31
0.0
  0
ARC
  5
1F1
330
1F
100
AcDbEntity
  8
0
  6
Continuous
 62
     7
370
    25
100
AcDbCircle
 10
104.5419195123
 20
160.2904057907
 30
0.0
 40
0.5
100
AcDbArc
 50
0.0
 51
90.0
  0
LINE
  5
1F2
330
1F
100
AcDbEntity
  8
0
  6
Continuous
 62
     7
370
    25
100
AcDbLine
 10
104.5419195123
 20
160.2904057907
 30
0.0
 11
105.0419195123
 21
160.2904057907
 31
0.0
  0
LINE
  5
1F3
330
1F
100
AcDbEntity
  8
0
  6
Continuous
 62
     7
370
    25
100
AcDbLine
 10
105.0419195123
 20
157.7676313657
 30
0.0
 11
105.0419195123
 21
160.2904057907
 31
0.0
  0
LINE
  5
1F4
330
1F
100
AcDbEntity
  8
0
  6
Continuous
 62
     7
370
    25
100
AcDbLine
 10
105.0419195123
 20
144.2904057907
 30
0.0
 11
105.0419195123
 21
146.8131802156
 31
0.0
  0
LINE
  5
1F5
330
1F
100
AcDbEntity
  8
0
  6
Continuous
 62
     7
370
    25
100
AcDbLine
 10
104.5419195123
 20
144.2904057907
 30
0.0
 11
105.0419195123
 21
144.2904057907
 31
0.0
  0
ARC
  5
1F6
330
1F
100
AcDbEntity
  8
0
  6
Continuous
 62
     7
370
    25
100
AcDbCircle
 10
104.5419195123
 20
144.2904057907
 30
0.0
 40
0.5
100
AcDbArc
 50
270.0
 51
0.0
  0
SPLINE
  5
1F7
330
1F
100
AcDbEntity
  8
0
  6
Continuous
 62
     7
370
    25
100
AcDbSpline
210
0.0
220
0.0
230
1.0
 70
     8
 71
     3
 72
    10
 73
     6
 74
     0
 42
0.000000001
 43
0.00000001
 40
0.0
 40
0.0
 40
0.0
 40
0.0
 40
0.5
 40
0.5
 40
1.0
 40
1.0
 40
1.0
 40
1.0
 10
97.54191951228886
 20
147.3914263051105
 30
0.0
 10
97.21346668767961
 20
147.4005837307086
 30
0.0
 10
96.88255522889325
 20
147.4060649181529
 30
0.0
 10
96.21492682570461
 20
147.4062061886155
 30
0.0
 10
95.87632432727757
 20
147.4007496751152
 30
0.0
 10
95.54191951228883
 20
147.3914263051105
 30
0.0
  0
LINE
  5
1F8
330
1F
100
AcDbEntity
  8
0
  6
Continuous
 62
     7
370
    25
100
AcDbLine
 10
95.5419195123
 20
147.3914263051
 30
0.0
 11
95.5419195123
 21
157.1893852762
 31
0.0
  0
SPLINE
  5
1F9
330
1F
100
AcDbEntity
  8
0
  6
Continuous
 62
     7
370
    25
100
AcDbSpline
210
0.0
220
0.0
230
1.0
 70
     8
 71
     3
 72
    10
 73
     6
 74
     0
 42
0.000000001
 43
0.00000001
 40
0.0
 40
0.0
 40
0.0
 40
0.0
 40
0.5
 40
0.5
 40
1.0
 40
1.0
 40
1.0
 40
1.0
 10
95.54191951228883
 20
157.1893852762432
 30
0.0
 10
95.87354809103083
 20
157.1801393090647
 30
0.0
 10
96.20597014558986
 20
157.1747025102039
 30
0.0
 10
96.87262747202455
 20
157.1746483153422
 30
0.0
 10
97.20686380703555
 20
157.1800437590992
 30
0.0
 10
97.54191951228886
 20
157.1893852762432
 30
0.0
  0
SPLINE
  5
1FA
330
1F
100
AcDbEntity
  8
0
  6
Continuous
 62
     7
370
    25
100
AcDbSpline
210
0.0
220
0.0
230
1.0
 70
    24
 71
     3
 72
    10
 73
     6
 74
     0
 42
0.000000001
 43
0.00000001
 40
-0.2904940295525288
 40
-0.2904940295525288
 40
-0.2904940295525288
 40
-0.2904940295525288
 40
-0.1303072746364131
 40
-0.1303072746364131
 40
0.0010563617272233
 40
0.0010563617272233
 40
0.0010563617272233
 40
0.0010563617272233
 10
105.0419195122888
 20
160.7904057906769
 30
0.0
 10
104.9124161965352
 20
160.7904057906769
 30
0.0
 10
104.7806252183493
 20
160.7904057906769
 30
0.0
 10
104.6022012789241
 20
160.7904057906769
 30
0.0
 10
104.5419195122888
 20
160.7904057906769
 30
0.0
 10
104.5419195122888
 20
160.7904057906769
 30
0.0
  0
SPLINE
  5
1FB
330
1F
100
AcDbEntity
  8
0
  6
Continuous
 62
     7
370
    25
100
AcDbSpline
210
0.0
220
0.0
230
1.0
 70
    24
 71
     3
 72
    10
 73
     6
 74
     0
 42
0.000000001
 43
0.00000001
 40
-0.8711658421011628
 40
-0.8711658421011628
 40
-0.8711658421011628
 40
-0.8711658421011628
 40
-0.739802205737527
 40
-0.739802205737527
 40
-0.579615450786466
 40
-0.579615450786466
 40
-0.579615450786466
 40
-0.579615450786466
 10
104.5419195122888
 20
143.7904057906769
 30
0.0
 10
104.5419195122888
 20
143.7904057906769
 30
0.0
 10
104.6022012789241
 20
143.7904057906769
 30
0.0
 10
104.7806252183707
 20
143.7904057906769
 30
0.0
 10
104.9124161965068
 20
143.7904057906769
 30
0.0
 10
105.0419195122888
 20
143.7904057906769
 30
0.0
  0
SPLINE
  5
1FC
330
1F
100
AcDbEntity
  8
0
  6
Continuous
 62
     7
370
    25
100
AcDbSpline
210
0.0
220
0.0
230
1.0
 70
     8
 71
     3
 72
    24
 73
    20
 74
     0
 42
0.000000001
 43
0.00000001
 40
0.0
 40
0.0
 40
0.0
 40
0.0
 40
0.1249999999999999
 40
0.1249999999999999
 40
0.25
 40
0.25
 40
0.375
 40
0.375
 40
0.4375
 40
0.4375
 40
0.5
 40
0.5
 40
0.625
 40
0.625
 40
0.7500000000000001
 40
0.7500000000000001
 40
0.875
 40
0.875
 40
1.0
 40
1.0
 40
1.0
 40
1.0
 10
95.54191951228883
 20
147.3914263051105
 30
0.0
 10
95.35051653225952
 20
147.7556130194871
 30
0.0
 10
95.1664134606864
 20
148.1261160720945
 30
0.0
 10
94.82155176239178
 20
148.8873212538285
 30
0.0
 10
94.66061581560272
 20
149.2778699545213
 30
0.0
 10
94.37796051834854
 20
150.0929000124772
 30
0.0
 10
94.2571659581844
 20
150.5164941788159
 30
0.0
 10
94.13044775455343
 20
151.1695190666941
 30
0.0
 10
94.09711578681632
 20
151.3908120372644
 30
0.0
 10
94.0518848908759
 20
151.8421036181986
 30
0.0
 10
94.04040619949878
 20
152.0702082827785
 30
0.0
 10
94.040919931814
 20
152.745999252294
 30
0.0
 10
94.0877724746624
 20
153.1923832943664
 30
0.0
 10
94.25888889816115
 20
154.0721767042248
 30
0.0
 10
94.37868652001553
 20
154.4898695413099
 30
0.0
 10
94.65912241802637
 20
155.2987705158896
 30
0.0
 10
94.82029241337234
 20
155.6906084038815
 30
0.0
 10
95.1662355445394
 20
156.4544045674289
 30
0.0
 10
95.35056756856767
 20
156.8252956697872
 30
0.0
 10
95.54191951228883
 20
157.1893852762432
 30
0.0
  0
LINE
  5
1FD
330
1F
100
AcDbEntity
  8
0
  6
Continuous
 62
     8
370
    25
100
AcDbLine
 10
111.2744908997
 20
152.2904057907
 30
0.0
 11
111.2744908997
 21
142.4154057907
 31
0.0
  0
LINE
  5
1FE
330
1F
100
AcDbEntity
  8
0
  6
Continuous
 62
     8
370
    25
100
AcDbLine
 10
111.2744908997
 20
162.1654057907
 30
0.0
 11
111.2744908997
 21
152.2904057907
 31
0.0
  0
LINE
  5
1FF
330
1F
100
AcDbEntity
  8
0
  6
Continuous
 62
     8
370
    25
100
AcDbLine
 10
109.0419195123
 20
152.2904057907
 30
0.0
 11
109.0419195123
 21
143.7904057907
 31
0.0
  0
LINE
  5
200
330
1F
100
AcDbEntity
  8
0
  6
Continuous
 62
     8
370
    25
100
AcDbLine
 10
109.0419195123
 20
160.7904057907
 30
0.0
 11
109.0419195123
 21
152.2904057907
 31
0.0
  0
LINE
  5
201
330
1F
100
AcDbEntity
  8
0
  6
Continuous
 62
     8
370
    25
100
AcDbLine
 10
103.5419195123
 20
144.2904057907
 30
0.0
 11
99.6153493966
 21
144.2904057907
 31
0.0
  0
LINE
  5
202
330
1F
100
AcDbEntity
  8
0
  6
Continuous
 62
     8
370
    25
100
AcDbLine
 10
90.0419195123
 20
160.2904057907
 30
0.0
 11
93.468489628
 21
160.2904057907
 31
0.0
  0
LINE
  5
203
330
1F
100
AcDbEntity
  8
0
  6
Continuous
 62
     8
370
    25
100
AcDbLine
 10
90.0419195123
 20
160.2904057907
 30
0.0
 11
90.0419195123
 21
157.8757411659
 31
0.0
  0
LINE
  5
204
330
1F
100
AcDbEntity
  8
0
  6
Continuous
 62
     8
370
    25
100
AcDbLine
 10
93.468489628
 20
144.2904057907
 30
0.0
 11
90.0419195123
 21
144.2904057907
 31
0.0
  0
LINE
  5
205
330
1F
100
AcDbEntity
  8
0
  6
Continuous
 62
     8
370
    25
100
AcDbLine
 10
90.0419195123
 20
146.7050704154
 30
0.0
 11
90.0419195123
 21
144.2904057907
 31
0.0
  0
LINE
  5
206
330
1F
100
AcDbEntity
  8
0
  6
Continuous
 62
     8
370
    25
100
AcDbLine
 10
99.6153493966
 20
160.2904057907
 30
0.0
 11
103.5419195123
 21
160.2904057907
 31
0.0
  0
LINE
  5
207
330
1F
100
AcDbEntity
  8
0
  6
Continuous
 62
     8
370
    25
100
AcDbLine
 10
89.5636696419
 20
157.2653429762
 30
0.0
 11
89.5419195123
 21
157.2653429762
 31
0.0
  0
LINE
  5
208
330
1F
100
AcDbEntity
  8
0
  6
Continuous
 62
     8
370
    25
100
AcDbLine
 10
89.5419195123
 20
147.3154686051
 30
0.0
 11
89.5636696419
 21
147.3154686051
 31
0.0
  0
INSERT
  5
214
330
1F
100
AcDbEntity
  8
0
  6
Continuous
 62
     7
370
    18
100
AcDbBlockReference
  2
SW_CENTERMARKSYMBOL_1
 10
96.5419195123
 20
152.2904057907
 30
0.0
  0
ENDSEC
  0
SECTION
  2
OBJECTS
  0
DICTIONARY
  5
C
330
0
100
AcDbDictionary
281
     1
  3
ACAD_GROUP
350
D
  3
ACAD_LAYOUT
350
1A
  3
ACAD_MLINESTYLE
350
17
  3
ACAD_PLOTSETTINGS
350
19
  3
ACAD_PLOTSTYLENAME
350
E
  3
ACAD_SCALELIST
350
47
  0
DICTIONARY
  5
D
102
{ACAD_REACTORS
330
C
102
}
330
C
100
AcDbDictionary
281
     1
  0
DICTIONARY
  5
1A
102
{ACAD_REACTORS
330
C
102
}
330
C
100
AcDbDictionary
281
     1
  3
Layout1
350
1E
  3
Layout2
350
26
  3
Model
350
22
  0
DICTIONARY
  5
17
102
{ACAD_REACTORS
330
C
102
}
330
C
100
AcDbDictionary
281
     1
  3
Standard
350
18
  0
DICTIONARY
  5
19
102
{ACAD_REACTORS
330
C
102
}
330
C
100
AcDbDictionary
281
     1
  0
ACDBDICTIONARYWDFLT
  5
E
102
{ACAD_REACTORS
330
C
102
}
330
C
100
AcDbDictionary
281
     1
  3
Normal
350
F
100
AcDbDictionaryWithDefault
340
F
  0
DICTIONARY
  5
47
102
{ACAD_REACTORS
330
C
102
}
330
C
100
AcDbDictionary
281
     1
  3
A0
350
48
  3
A1
350
49
  3
A2
350
4A
  3
A3
350
4B
  3
A4
350
4C
  3
A5
350
4D
  3
A6
350
4E
  3
A7
350
4F
  3
A8
350
50
  3
A9
350
51
  3
B0
350
52
  3
B1
350
53
  3
B2
350
54
  3
B3
350
55
  3
B4
350
56
  3
B5
350
57
  3
B6
350
58
  3
B7
350
59
  3
B8
350
5A
  3
B9
350
5B
  3
C0
350
5C
  3
C1
350
5D
  3
C2
350
5E
  3
C3
350
5F
  3
C4
350
60
  3
C5
350
61
  3
C6
350
62
  3
C7
350
63
  3
C8
350
64
  3
C9
350
65
  3
D0
350
66
  3
D1
350
67
  3
D2
350
68
  0
LAYOUT
  5
1E
102
{ACAD_REACTORS
330
1A
102
}
330
1A
100
AcDbPlotSettings
  1

  2
none_device
  4

  6

 40
0.0
 41
0.0
 42
0.0
 43
0.0
 44
0.0
 45
0.0
 46
0.0
 47
0.0
 48
0.0
 49
0.0
140
0.0
141
0.0
142
1.0
143
1.0
 70
   688
 72
     1
 73
     0
 74
     5
  7

 75
    16
147
1.0
148
0.0
149
0.0
100
AcDbLayout
  1
Layout1
 70
     1
 71
     1
 10
0.0
 20
0.0
 11
420.0
 21
297.0
 12
0.0
 22
0.0
 32
0.0
 14
1.0000000000E+20
 24
1.0000000000E+20
 34
1.0000000000E+20
 15
-1.0000000000E+20
 25
-1.0000000000E+20
 35
-1.0000000000E+20
146
0.0
 13
0.0
 23
0.0
 33
0.0
 16
1.0
 26
0.0
 36
0.0
 17
0.0
 27
1.0
 37
0.0
 76
     0
330
1B
  0
LAYOUT
  5
26
102
{ACAD_REACTORS
330
1A
102
}
330
1A
100
AcDbPlotSettings
  1

  2
none_device
  4

  6

 40
0.0
 41
0.0
 42
0.0
 43
0.0
 44
0.0
 45
0.0
 46
0.0
 47
0.0
 48
0.0
 49
0.0
140
0.0
141
0.0
142
1.0
143
1.0
 70
   688
 72
     1
 73
     0
 74
     5
  7

 75
    16
147
1.0
148
0.0
149
0.0
100
AcDbLayout
  1
Layout2
 70
     1
 71
     2
 10
0.0
 20
0.0
 11
0.0
 21
0.0
 12
0.0
 22
0.0
 32
0.0
 14
0.0
 24
0.0
 34
0.0
 15
0.0
 25
0.0
 35
0.0
146
0.0
 13
0.0
 23
0.0
 33
0.0
 16
1.0
 26
0.0
 36
0.0
 17
0.0
 27
1.0
 37
0.0
 76
     0
330
23
  0
LAYOUT
  5
22
102
{ACAD_REACTORS
330
1A
102
}
330
1A
100
AcDbPlotSettings
  1

  2
none_device
  4
Letter_(8.50_x_11.00_Inches)
  6

 40
6.35
 41
6.35
 42
6.35000508
 43
6.35000508
 44
215.9
 45
279.4
 46
0.0
 47
0.0
 48
0.0
 49
0.0
140
0.0
141
0.0
142
1.0
143
1.0
 70
  1712
 72
     1
 73
     0
 74
     0
  7

 75
     0
147
1.0
148
0.0
149
0.0
100
AcDbLayout
  1
Model
 70
     1
 71
     0
 10
0.0
 20
0.0
 11
431.8
 21
279.4
 12
0.0
 22
0.0
 32
0.0
 14
0.0
 24
0.0
 34
0.0
 15
431.8
 25
279.4
 35
0.0
146
0.0
 13
0.0
 23
0.0
 33
0.0
 16
1.0
 26
0.0
 36
0.0
 17
0.0
 27
1.0
 37
0.0
 76
     0
330
1F
331
29
  0
MLINESTYLE
  5
18
102
{ACAD_REACTORS
330
17
102
}
330
17
100
AcDbMlineStyle
  2
Standard
 70
     0
  3

 62
   256
 51
90.0
 52
90.0
 71
     2
 49
0.5
 62
   256
  6
BYLAYER
 49
-0.5
 62
   256
  6
BYLAYER
  0
ACDBPLACEHOLDER
  5
F
102
{ACAD_REACTORS
330
E
102
}
330
E
  0
SCALE
  5
48
102
{ACAD_REACTORS
330
47
102
}
330
47
100
AcDbScale
 70
     0
300
1:1
140
1.0
141
1.0
290
     1
  0
SCALE
  5
49
102
{ACAD_REACTORS
330
47
102
}
330
47
100
AcDbScale
 70
     0
300
1:2
140
1.0
141
2.0
290
     0
  0
SCALE
  5
4A
102
{ACAD_REACTORS
330
47
102
}
330
47
100
AcDbScale
 70
     0
300
1:4
140
1.0
141
4.0
290
     0
  0
SCALE
  5
4B
102
{ACAD_REACTORS
330
47
102
}
330
47
100
AcDbScale
 70
     0
300
1:5
140
1.0
141
5.0
290
     0
  0
SCALE
  5
4C
102
{ACAD_REACTORS
330
47
102
}
330
47
100
AcDbScale
 70
     0
300
1:8
140
1.0
141
8.0
290
     0
  0
SCALE
  5
4D
102
{ACAD_REACTORS
330
47
102
}
330
47
100
AcDbScale
 70
     0
300
1:10
140
1.0
141
10.0
290
     0
  0
SCALE
  5
4E
102
{ACAD_REACTORS
330
47
102
}
330
47
100
AcDbScale
 70
     0
300
1:16
140
1.0
141
16.0
290
     0
  0
SCALE
  5
4F
102
{ACAD_REACTORS
330
47
102
}
330
47
100
AcDbScale
 70
     0
300
1:20
140
1.0
141
20.0
290
     0
  0
SCALE
  5
50
102
{ACAD_REACTORS
330
47
102
}
330
47
100
AcDbScale
 70
     0
300
1:30
140
1.0
141
30.0
290
     0
  0
SCALE
  5
51
102
{ACAD_REACTORS
330
47
102
}
330
47
100
AcDbScale
 70
     0
300
1:40
140
1.0
141
40.0
290
     0
  0
SCALE
  5
52
102
{ACAD_REACTORS
330
47
102
}
330
47
100
AcDbScale
 70
     0
300
1:50
140
1.0
141
50.0
290
     0
  0
SCALE
  5
53
102
{ACAD_REACTORS
330
47
102
}
330
47
100
AcDbScale
 70
     0
300
1:100
140
1.0
141
100.0
290
     0
  0
SCALE
  5
54
102
{ACAD_REACTORS
330
47
102
}
330
47
100
AcDbScale
 70
     0
300
2:1
140
2.0
141
1.0
290
     0
  0
SCALE
  5
55
102
{ACAD_REACTORS
330
47
102
}
330
47
100
AcDbScale
 70
     0
300
4:1
140
4.0
141
1.0
290
     0
  0
SCALE
  5
56
102
{ACAD_REACTORS
330
47
102
}
330
47
100
AcDbScale
 70
     0
300
8:1
140
8.0
141
1.0
290
     0
  0
SCALE
  5
57
102
{ACAD_REACTORS
330
47
102
}
330
47
100
AcDbScale
 70
     0
300
10:1
140
10.0
141
1.0
290
     0
  0
SCALE
  5
58
102
{ACAD_REACTORS
330
47
102
}
330
47
100
AcDbScale
 70
     0
300
100:1
140
100.0
141
1.0
290
     0
  0
SCALE
  5
59
102
{ACAD_REACTORS
330
47
102
}
330
47
100
AcDbScale
 70
     0
300
1/128" = 1'-0"
140
0.0078125
141
12.0
290
     0
  0
SCALE
  5
5A
102
{ACAD_REACTORS
330
47
102
}
330
47
100
AcDbScale
 70
     0
300
1/64" = 1'-0"
140
0.015625
141
12.0
290
     0
  0
SCALE
  5
5B
102
{ACAD_REACTORS
330
47
102
}
330
47
100
AcDbScale
 70
     0
300
1/32" = 1'-0"
140
0.03125
141
12.0
290
     0
  0
SCALE
  5
5C
102
{ACAD_REACTORS
330
47
102
}
330
47
100
AcDbScale
 70
     0
300
1/16" = 1'-0"
140
0.0625
141
12.0
290
     0
  0
SCALE
  5
5D
102
{ACAD_REACTORS
330
47
102
}
330
47
100
AcDbScale
 70
     0
300
3/32" = 1'-0"
140
0.09375
141
12.0
290
     0
  0
SCALE
  5
5E
102
{ACAD_REACTORS
330
47
102
}
330
47
100
AcDbScale
 70
     0
300
1/8" = 1'-0"
140
0.125
141
12.0
290
     0
  0
SCALE
  5
5F
102
{ACAD_REACTORS
330
47
102
}
330
47
100
AcDbScale
 70
     0
300
3/16" = 1'-0"
140
0.1875
141
12.0
290
     0
  0
SCALE
  5
60
102
{ACAD_REACTORS
330
47
102
}
330
47
100
AcDbScale
 70
     0
300
1/4" = 1'-0"
140
0.25
141
12.0
290
     0
  0
SCALE
  5
61
102
{ACAD_REACTORS
330
47
102
}
330
47
100
AcDbScale
 70
     0
300
3/8" = 1'-0"
140
0.375
141
12.0
290
     0
  0
SCALE
  5
62
102
{ACAD_REACTORS
330
47
102
}
330
47
100
AcDbScale
 70
     0
300
1/2" = 1'-0"
140
0.5
141
12.0
290
     0
  0
SCALE
  5
63
102
{ACAD_REACTORS
330
47
102
}
330
47
100
AcDbScale
 70
     0
300
3/4" = 1'-0"
140
0.75
141
12.0
290
     0
  0
SCALE
  5
64
102
{ACAD_REACTORS
330
47
102
}
330
47
100
AcDbScale
 70
     0
300
1" = 1'-0"
140
1.0
141
12.0
290
     0
  0
SCALE
  5
65
102
{ACAD_REACTORS
330
47
102
}
330
47
100
AcDbScale
 70
     0
300
1-1/2" = 1'-0"
140
1.5
141
12.0
290
     0
  0
SCALE
  5
66
102
{ACAD_REACTORS
330
47
102
}
330
47
100
AcDbScale
 70
     0
300
3" = 1'-0"
140
3.0
141
12.0
290
     0
  0
SCALE
  5
67
102
{ACAD_REACTORS
330
47
102
}
330
47
100
AcDbScale
 70
     0
300
6" = 1'-0"
140
6.0
141
12.0
290
     0
  0
SCALE
  5
68
102
{ACAD_REACTORS
330
47
102
}
330
47
100
AcDbScale
 70
     0
300
1'-0" = 1'-0"
140
12.0
141
12.0
290
     0
  0
ENDSEC
  0
EOF
