  0
SECTION
  2
HEADER
  9
$ACADVER
  1
AC1015
  9
$ACADMAINTVER
 70
     6
  9
$DWGCODEPAGE
  3
DOS932
  9
$INSBASE
 10
0.0
 20
0.0
 30
0.0
  9
$EXTMIN
 10
0.0
 20
0.0
 30
0.0
  9
$EXTMAX
 10
431.8
 20
279.4
 30
0.0
  9
$LIMMIN
 10
0.0
 20
0.0
  9
$LIMMAX
 10
431.8
 20
279.4
  9
$ORTHOMODE
 70
     0
  9
$REGENMODE
 70
     1
  9
$FILLMODE
 70
     1
  9
$QTEXTMODE
 70
     0
  9
$MIRRTEXT
 70
     1
  9
$LTSCALE
 40
1.0
  9
$ATTMODE
 70
     1
  9
$TEXTSIZE
 40
3.5
  9
$TRACEWID
 40
1.0
  9
$TEXTSTYLE
  7
Standard
  9
$CLAYER
  8
0
  9
$CELTYPE
  6
ByLayer
  9
$CECOLOR
 62
   256
  9
$CELTSCALE
 40
1.0
  9
$DISPSILH
 70
     0
  9
$DIMSCALE
 40
1.0
  9
$DIMASZ
 40
3.302
  9
$DIMEXO
 40
1.0
  9
$DIMDLI
 40
3.75
  9
$DIMRND
 40
0.0
  9
$DIMDLE
 40
0.0
  9
$DIMEXE
 40
1.0
  9
$DIMTP
 40
0.0
  9
$DIMTM
 40
0.0
  9
$DIMTXT
 40
3.5
  9
$DIMCEN
 40
2.5
  9
$DIMTSZ
 40
0.0
  9
$DIMTOL
 70
     0
  9
$DIMLIM
 70
     0
  9
$DIMTIH
 70
     1
  9
$DIMTOH
 70
     1
  9
$DIMSE1
 70
     0
  9
$DIMSE2
 70
     0
  9
$DIMTAD
 70
     1
  9
$DIMZIN
 70
     1
  9
$DIMBLK
  1

  9
$DIMASO
 70
     1
  9
$DIMSHO
 70
     1
  9
$DIMPOST
  1

  9
$DIMAPOST
  1

  9
$DIMALT
 70
     0
  9
$DIMALTD
 70
     3
  9
$DIMALTF
 40
0.0393700787
  9
$DIMLFAC
 40
1.0
  9
$DIMTOFL
 70
     1
  9
$DIMTVP
 40
0.0
  9
$DIMTIX
 70
     0
  9
$DIMSOXD
 70
     0
  9
$DIMSAH
 70
     0
  9
$DIMBLK1
  1

  9
$DIMBLK2
  1

  9
$DIMSTYLE
  2
ISO-25
  9
$DIMCLRD
 70
     0
  9
$DIMCLRE
 70
     0
  9
$DIMCLRT
 70
     0
  9
$DIMTFAC
 40
1.0
  9
$DIMGAP
 40
1.524
  9
$DIMJUST
 70
     0
  9
$DIMSD1
 70
     0
  9
$DIMSD2
 70
     0
  9
$DIMTOLJ
 70
     0
  9
$DIMTZIN
 70
     1
  9
$DIMALTZ
 70
     0
  9
$DIMALTTZ
 70
     0
  9
$DIMUPT
 70
     0
  9
$DIMDEC
 70
     2
  9
$DIMTDEC
 70
     2
  9
$DIMALTU
 70
     2
  9
$DIMALTTD
 70
     3
  9
$DIMTXSTY
  7
Standard
  9
$DIMAUNIT
 70
     0
  9
$DIMADEC
 70
     2
  9
$DIMALTRND
 40
0.0
  9
$DIMAZIN
 70
     0
  9
$DIMDSEP
 70
    44
  9
$DIMATFIT
 70
     3
  9
$DIMFRAC
 70
     0
  9
$DIMLDRBLK
  1

  9
$DIMLUNIT
 70
     2
  9
$DIMLWD
 70
    -2
  9
$DIMLWE
 70
    -2
  9
$DIMTMOVE
 70
     0
  9
$LUNITS
 70
     2
  9
$LUPREC
 70
     2
  9
$SKETCHINC
 40
1.0
  9
$FILLETRAD
 40
10.0
  9
$AUNITS
 70
     0
  9
$AUPREC
 70
     2
  9
$MENU
  1
.
  9
$ELEVATION
 40
0.0
  9
$PELEVATION
 40
0.0
  9
$THICKNESS
 40
0.0
  9
$LIMCHECK
 70
     0
  9
$CHAMFERA
 40
0.0
  9
$CHAMFERB
 40
0.0
  9
$CHAMFERC
 40
0.0
  9
$CHAMFERD
 40
0.0
  9
$SKPOLY
 70
     0
  9
$TDCREATE
 40
2459296.611025741
  9
$TDUCREATE
 40
2459296.236025741
  9
$TDUPDATE
 40
2459296.61102669
  9
$TDUUPDATE
 40
2459296.23602669
  9
$TDINDWG
 40
0.0000000116
  9
$TDUSRTIMER
 40
0.0000000116
  9
$USRTIMER
 70
     1
  9
$ANGBASE
 50
0.0
  9
$ANGDIR
 70
     0
  9
$PDMODE
 70
     0
  9
$PDSIZE
 40
-1.0
  9
$PLINEWID
 40
0.0
  9
$SPLFRAME
 70
     0
  9
$SPLINETYPE
 70
     6
  9
$SPLINESEGS
 70
     8
  9
$HANDSEED
  5
297
  9
$SURFTAB1
 70
     6
  9
$SURFTAB2
 70
     6
  9
$SURFTYPE
 70
     6
  9
$SURFU
 70
     6
  9
$SURFV
 70
     6
  9
$UCSBASE
  2

  9
$UCSNAME
  2

  9
$UCSORG
 10
0.0
 20
0.0
 30
0.0
  9
$UCSXDIR
 10
1.0
 20
0.0
 30
0.0
  9
$UCSYDIR
 10
0.0
 20
1.0
 30
0.0
  9
$UCSORTHOREF
  2

  9
$UCSORTHOVIEW
 70
     0
  9
$UCSORGTOP
 10
0.0
 20
0.0
 30
0.0
  9
$UCSORGBOTTOM
 10
0.0
 20
0.0
 30
0.0
  9
$UCSORGLEFT
 10
0.0
 20
0.0
 30
0.0
  9
$UCSORGRIGHT
 10
0.0
 20
0.0
 30
0.0
  9
$UCSORGFRONT
 10
0.0
 20
0.0
 30
0.0
  9
$UCSORGBACK
 10
0.0
 20
0.0
 30
0.0
  9
$PUCSBASE
  2

  9
$PUCSNAME
  2

  9
$PUCSORG
 10
0.0
 20
0.0
 30
0.0
  9
$PUCSXDIR
 10
1.0
 20
0.0
 30
0.0
  9
$PUCSYDIR
 10
0.0
 20
1.0
 30
0.0
  9
$PUCSORTHOREF
  2

  9
$PUCSORTHOVIEW
 70
     0
  9
$PUCSORGTOP
 10
0.0
 20
0.0
 30
0.0
  9
$PUCSORGBOTTOM
 10
0.0
 20
0.0
 30
0.0
  9
$PUCSORGLEFT
 10
0.0
 20
0.0
 30
0.0
  9
$PUCSORGRIGHT
 10
0.0
 20
0.0
 30
0.0
  9
$PUCSORGFRONT
 10
0.0
 20
0.0
 30
0.0
  9
$PUCSORGBACK
 10
0.0
 20
0.0
 30
0.0
  9
$USERI1
 70
     0
  9
$USERI2
 70
     0
  9
$USERI3
 70
     0
  9
$USERI4
 70
     0
  9
$USERI5
 70
     0
  9
$USERR1
 40
0.0
  9
$USERR2
 40
0.0
  9
$USERR3
 40
0.0
  9
$USERR4
 40
0.0
  9
$USERR5
 40
0.0
  9
$WORLDVIEW
 70
     1
  9
$SHADEDGE
 70
     3
  9
$SHADEDIF
 70
    70
  9
$TILEMODE
 70
     1
  9
$MAXACTVP
 70
    64
  9
$PINSBASE
 10
0.0
 20
0.0
 30
0.0
  9
$PLIMCHECK
 70
     0
  9
$PEXTMIN
 10
1.0000000000E+20
 20
1.0000000000E+20
 30
1.0000000000E+20
  9
$PEXTMAX
 10
-1.0000000000E+20
 20
-1.0000000000E+20
 30
-1.0000000000E+20
  9
$PLIMMIN
 10
0.0
 20
0.0
  9
$PLIMMAX
 10
420.0
 20
297.0
  9
$UNITMODE
 70
     0
  9
$VISRETAIN
 70
     1
  9
$PLINEGEN
 70
     0
  9
$PSLTSCALE
 70
     1
  9
$TREEDEPTH
 70
  3020
  9
$CMLSTYLE
  2
Standard
  9
$CMLJUST
 70
     0
  9
$CMLSCALE
 40
20.0
  9
$PROXYGRAPHICS
 70
     1
  9
$MEASUREMENT
 70
     1
  9
$CELWEIGHT
370
    -1
  9
$ENDCAPS
280
     0
  9
$JOINSTYLE
280
     0
  9
$LWDISPLAY
290
     1
  9
$INSUNITS
 70
     4
  9
$HYPERLINKBASE
  1

  9
$STYLESHEET
  1

  9
$XEDIT
290
     1
  9
$CEPSNTYPE
380
     0
  9
$PSTYLEMODE
290
     1
  9
$FINGERPRINTGUID
  2
{D94621AE-D66B-4CCA-AA4A-1BAF6F9914EB}
  9
$VERSIONGUID
  2
{FAEB1C32-E019-11D5-929B-00C0DF256EC4}
  9
$EXTNAMES
290
     1
  9
$PSVPSCALE
 40
0.0
  9
$OLESTARTUP
290
     0
  0
ENDSEC
  0
SECTION
  2
CLASSES
  0
CLASS
  1
ACDBDICTIONARYWDFLT
  2
AcDbDictionaryWithDefault
  3
ObjectDBX Classes
 90
        0
280
     0
281
     0
  0
CLASS
  1
VISUALSTYLE
  2
AcDbVisualStyle
  3
ObjectDBX Classes
 90
     4095
280
     0
281
     0
  0
CLASS
  1
MATERIAL
  2
AcDbMaterial
  3
ObjectDBX Classes
 90
     1153
280
     0
281
     0
  0
CLASS
  1
SCALE
  2
AcDbScale
  3
ObjectDBX Classes
 90
     1153
280
     0
281
     0
  0
CLASS
  1
TABLESTYLE
  2
AcDbTableStyle
  3
ObjectDBX Classes
 90
     4095
280
     0
281
     0
  0
CLASS
  1
MLEADERSTYLE
  2
AcDbMLeaderStyle
  3
ACDB_MLEADERSTYLE_CLASS
 90
     4095
280
     0
281
     0
  0
CLASS
  1
SUN
  2
AcDbSun
  3
SCENEOE
 90
     1153
280
     0
281
     0
  0
CLASS
  1
ACDBPLACEHOLDER
  2
AcDbPlaceHolder
  3
ObjectDBX Classes
 90
        0
280
     0
281
     0
  0
CLASS
  1
LAYOUT
  2
AcDbLayout
  3
ObjectDBX Classes
 90
        0
280
     0
281
     0
  0
ENDSEC
  0
SECTION
  2
TABLES
  0
TABLE
  2
VPORT
  5
8
330
0
100
AcDbSymbolTable
 70
     1
  0
VPORT
  5
29
330
8
100
AcDbSymbolTableRecord
100
AcDbViewportTableRecord
  2
*Active
 70
     0
 10
0.0
 20
0.0
 11
1.0
 21
1.0
 12
215.9
 22
139.7
 13
0.0
 23
0.0
 14
10.0
 24
10.0
 15
10.0
 25
10.0
 16
0.0
 26
0.0
 36
1.0
 17
0.0
 27
0.0
 37
0.0
 40
279.4
 41
1.5454545455
 42
50.0
 43
0.0
 44
0.0
 50
0.0
 51
0.0
 71
     0
 72
  2000
 73
     1
 74
     3
 75
     0
 76
     0
 77
     0
 78
     0
281
     0
 65
     1
110
0.0
120
0.0
130
0.0
111
1.0
121
0.0
131
0.0
112
0.0
122
1.0
132
0.0
 79
     0
146
0.0
  0
ENDTAB
  0
TABLE
  2
LTYPE
  5
5
330
0
100
AcDbSymbolTable
 70
     6
  0
LTYPE
  5
14
330
5
100
AcDbSymbolTableRecord
100
AcDbLinetypeTableRecord
  2
ByBlock
 70
     0
  3

 72
    65
 73
     0
 40
0.0
  0
LTYPE
  5
15
330
5
100
AcDbSymbolTableRecord
100
AcDbLinetypeTableRecord
  2
ByLayer
 70
     0
  3

 72
    65
 73
     0
 40
0.0
  0
LTYPE
  5
16
330
5
100
AcDbSymbolTableRecord
100
AcDbLinetypeTableRecord
  2
Continuous
 70
     0
  3
Solid line
 72
    65
 73
     0
 40
0.0
  0
LTYPE
  5
6E
330
5
100
AcDbSymbolTableRecord
100
AcDbLinetypeTableRecord
  2
HIDDEN
 70
     0
  3
Hidden __ __ __ __ __ __ __ __ __ __ __ __ __ __
 72
    65
 73
     2
 40
1.905
 49
1.27
 74
     0
 49
-0.635
 74
     0
  0
LTYPE
  5
6F
330
5
100
AcDbSymbolTableRecord
100
AcDbLinetypeTableRecord
  2
PHANTOM
 70
     0
  3
Phantom ______  __  __  ______  __  __  ______
 72
    65
 73
     6
 40
12.7
 49
6.35
 74
     0
 49
-1.27
 74
     0
 49
1.27
 74
     0
 49
-1.27
 74
     0
 49
1.27
 74
     0
 49
-1.27
 74
     0
  0
LTYPE
  5
70
330
5
100
AcDbSymbolTableRecord
100
AcDbLinetypeTableRecord
  2
CENTER
 70
     0
  3
Center ____ _ ____ _ ____ _ ____ _ ____ _ ____
 72
    65
 73
     4
 40
10.16
 49
6.35
 74
     0
 49
-1.27
 74
     0
 49
1.27
 74
     0
 49
-1.27
 74
     0
  0
LTYPE
  5
71
330
5
100
AcDbSymbolTableRecord
100
AcDbLinetypeTableRecord
  2
CENTERX2
 70
     0
  3
Center (2x) ________  __  ________  __  _____
 72
    65
 73
     4
 40
20.32
 49
12.7
 74
     0
 49
-2.54
 74
     0
 49
2.54
 74
     0
 49
-2.54
 74
     0
  0
LTYPE
  5
72
330
5
100
AcDbSymbolTableRecord
100
AcDbLinetypeTableRecord
  2
DOT2
 70
     0
  3
Dot (.5x) ........................................
 72
    65
 73
     2
 40
0.635
 49
0.0
 74
     0
 49
-0.635
 74
     0
  0
ENDTAB
  0
TABLE
  2
LAYER
  5
2
330
0
100
AcDbSymbolTable
 70
     1
  0
LAYER
  5
10
330
2
100
AcDbSymbolTableRecord
100
AcDbLayerTableRecord
  2
0
 70
     0
 62
     7
  6
Continuous
370
    -3
390
F
  0
ENDTAB
  0
TABLE
  2
STYLE
  5
3
330
0
100
AcDbSymbolTable
 70
     2
  0
STYLE
  5
11
330
3
100
AcDbSymbolTableRecord
100
AcDbTextStyleTableRecord
  2
Standard
 70
     0
 40
0.0
 41
1.0
 50
0.0
 71
     0
 42
3.5
  3
txt
  4
bigfont
  0
STYLE
  5
73
330
3
100
AcDbSymbolTableRecord
100
AcDbTextStyleTableRecord
  2
SLDTEXTSTYLE0
 70
     0
 40
0.0
 41
0.7
 50
0.0
 71
     0
 42
3.5
  3
TXT
  4
bigfont
  0
ENDTAB
  0
TABLE
  2
VIEW
  5
6
330
0
100
AcDbSymbolTable
 70
     0
  0
ENDTAB
  0
TABLE
  2
UCS
  5
7
330
0
100
AcDbSymbolTable
 70
     0
  0
ENDTAB
  0
TABLE
  2
APPID
  5
9
330
0
100
AcDbSymbolTable
 70
     1
  0
APPID
  5
12
330
9
100
AcDbSymbolTableRecord
100
AcDbRegAppTableRecord
  2
ACAD
 70
     0
  0
ENDTAB
  0
TABLE
  2
DIMSTYLE
  5
A
330
0
100
AcDbSymbolTable
 70
     1
100
AcDbDimStyleTable
  0
DIMSTYLE
105
27
330
A
100
AcDbSymbolTableRecord
100
AcDbDimStyleTableRecord
  2
ISO-25
 70
     0
 41
2.5
 42
0.625
 43
3.75
 44
1.25
 73
     0
 74
     0
 77
     1
 78
     8
140
2.5
141
2.5
143
0.0393700787
147
0.625
171
     3
172
     1
178
     0
271
     2
272
     2
274
     3
278
    44
283
     0
284
     8
340
11
  0
ENDTAB
  0
TABLE
  2
BLOCK_RECORD
  5
1
330
0
100
AcDbSymbolTable
 70
     3
  0
BLOCK_RECORD
  5
1F
330
1
100
AcDbSymbolTableRecord
100
AcDbBlockTableRecord
  2
*Model_Space
340
22
  0
BLOCK_RECORD
  5
1B
330
1
100
AcDbSymbolTableRecord
100
AcDbBlockTableRecord
  2
*Paper_Space
340
1E
  0
BLOCK_RECORD
  5
23
330
1
100
AcDbSymbolTableRecord
100
AcDbBlockTableRecord
  2
*Paper_Space0
340
26
  0
BLOCK_RECORD
  5
1C9
330
1
100
AcDbSymbolTableRecord
100
AcDbBlockTableRecord
  2
SW_CENTERMARKSYMBOL_0
340
0
102
{BLKREFS
331
1D4
102
}
  0
BLOCK_RECORD
  5
28B
330
1
100
AcDbSymbolTableRecord
100
AcDbBlockTableRecord
  2
SW_CENTERMARKSYMBOL_1
340
0
102
{BLKREFS
331
296
102
}
  0
ENDTAB
  0
ENDSEC
  0
SECTION
  2
BLOCKS
  0
BLOCK
  5
20
330
1F
100
AcDbEntity
  8
0
100
AcDbBlockBegin
  2
*Model_Space
 70
     0
 10
0.0
 20
0.0
 30
0.0
  3
*Model_Space
  1

  0
ENDBLK
  5
21
330
1F
100
AcDbEntity
  8
0
100
AcDbBlockEnd
  0
BLOCK
  5
1C
330
1B
100
AcDbEntity
 67
     1
  8
0
100
AcDbBlockBegin
  2
*Paper_Space
 70
     0
 10
0.0
 20
0.0
 30
0.0
  3
*Paper_Space
  1

  0
ENDBLK
  5
1D
330
1B
100
AcDbEntity
 67
     1
  8
0
100
AcDbBlockEnd
  0
BLOCK
  5
24
330
23
100
AcDbEntity
  8
0
100
AcDbBlockBegin
  2
*Paper_Space0
 70
     0
 10
0.0
 20
0.0
 30
0.0
  3
*Paper_Space0
  1

  0
ENDBLK
  5
25
330
23
100
AcDbEntity
  8
0
100
AcDbBlockEnd
  0
BLOCK
  5
1CA
330
1C9
100
AcDbEntity
  8
0
100
AcDbBlockBegin
  2
SW_CENTERMARKSYMBOL_0
 70
     0
 10
0.0
 20
0.0
 30
0.0
  3
SW_CENTERMARKSYMBOL_0
  1

  0
LINE
  5
1CC
330
1C9
100
AcDbEntity
  8
0
  6
Continuous
 62
     0
370
    18
100
AcDbLine
 10
0.0
 20
0.0
 30
0.0
 11
0.0
 21
2.5
 31
0.0
  0
LINE
  5
1CD
330
1C9
100
AcDbEntity
  8
0
  6
Continuous
 62
     0
370
    18
100
AcDbLine
 10
0.0
 20
0.0
 30
0.0
 11
-2.5
 21
0.0
 31
0.0
  0
LINE
  5
1CE
330
1C9
100
AcDbEntity
  8
0
  6
Continuous
 62
     0
370
    18
100
AcDbLine
 10
0.0
 20
0.0
 30
0.0
 11
0.0
 21
-2.5
 31
0.0
  0
LINE
  5
1CF
330
1C9
100
AcDbEntity
  8
0
  6
Continuous
 62
     0
370
    18
100
AcDbLine
 10
0.0
 20
0.0
 30
0.0
 11
2.5
 21
0.0
 31
0.0
  0
LINE
  5
1D0
330
1C9
100
AcDbEntity
  8
0
  6
Continuous
 62
     0
370
    18
100
AcDbLine
 10
0.0
 20
5.0
 30
0.0
 11
0.0
 21
24.2025035921
 31
0.0
  0
LINE
  5
1D1
330
1C9
100
AcDbEntity
  8
0
  6
Continuous
 62
     0
370
    18
100
AcDbLine
 10
-5.0
 20
0.0
 30
0.0
 11
-10.35
 21
0.0
 31
0.0
  0
LINE
  5
1D2
330
1C9
100
AcDbEntity
  8
0
  6
Continuous
 62
     0
370
    18
100
AcDbLine
 10
0.0
 20
-5.0
 30
0.0
 11
0.0
 21
-10.35
 31
0.0
  0
LINE
  5
1D3
330
1C9
100
AcDbEntity
  8
0
  6
Continuous
 62
     0
370
    18
100
AcDbLine
 10
5.0
 20
0.0
 30
0.0
 11
10.35
 21
0.0
 31
0.0
  0
ENDBLK
  5
1CB
330
1C9
100
AcDbEntity
  8
0
100
AcDbBlockEnd
  0
BLOCK
  5
28C
330
28B
100
AcDbEntity
  8
0
100
AcDbBlockBegin
  2
SW_CENTERMARKSYMBOL_1
 70
     0
 10
0.0
 20
0.0
 30
0.0
  3
SW_CENTERMARKSYMBOL_1
  1

  0
LINE
  5
28E
330
28B
100
AcDbEntity
  8
0
  6
Continuous
 62
     0
370
    18
100
AcDbLine
 10
0.0
 20
0.0
 30
0.0
 11
0.0
 21
2.5
 31
0.0
  0
LINE
  5
28F
330
28B
100
AcDbEntity
  8
0
  6
Continuous
 62
     0
370
    18
100
AcDbLine
 10
0.0
 20
0.0
 30
0.0
 11
-2.5
 21
0.0
 31
0.0
  0
LINE
  5
290
330
28B
100
AcDbEntity
  8
0
  6
Continuous
 62
     0
370
    18
100
AcDbLine
 10
0.0
 20
0.0
 30
0.0
 11
0.0
 21
-2.5
 31
0.0
  0
LINE
  5
291
330
28B
100
AcDbEntity
  8
0
  6
Continuous
 62
     0
370
    18
100
AcDbLine
 10
0.0
 20
0.0
 30
0.0
 11
2.5
 21
0.0
 31
0.0
  0
LINE
  5
292
330
28B
100
AcDbEntity
  8
0
  6
Continuous
 62
     0
370
    18
100
AcDbLine
 10
0.0
 20
5.0
 30
0.0
 11
0.0
 21
9.2659920059
 31
0.0
  0
LINE
  5
293
330
28B
100
AcDbEntity
  8
0
  6
Continuous
 62
     0
370
    18
100
AcDbLine
 10
-5.0
 20
0.0
 30
0.0
 11
-9.2659920059
 21
0.0
 31
0.0
  0
LINE
  5
294
330
28B
100
AcDbEntity
  8
0
  6
Continuous
 62
     0
370
    18
100
AcDbLine
 10
0.0
 20
-5.0
 30
0.0
 11
0.0
 21
-9.2659920059
 31
0.0
  0
LINE
  5
295
330
28B
100
AcDbEntity
  8
0
  6
Continuous
 62
     0
370
    18
100
AcDbLine
 10
5.0
 20
0.0
 30
0.0
 11
52.6344097485
 21
0.0
 31
0.0
  0
ENDBLK
  5
28D
330
28B
100
AcDbEntity
  8
0
100
AcDbBlockEnd
  0
ENDSEC
  0
SECTION
  2
ENTITIES
  0
MTEXT
  5
74
330
1F
100
AcDbEntity
  8
0
  6
Continuous
 62
     7
370
     0
100
AcDbMText
 10
171.6648257374
 20
125.947781363
 30
0.0
 40
4.2333333333
 41
0.0
 71
     1
 72
     1
  1
HL-1209R
  7
SLDTEXTSTYLE0
 73
     1
 44
1.0
  0
LINE
  5
75
330
1F
100
AcDbEntity
  8
0
  6
Continuous
 62
     7
370
    25
100
AcDbLine
 10
150.4880243075
 20
81.0176653414
 30
0.0
 11
154.4880249632
 21
81.6676651686
 31
0.0
  0
LINE
  5
76
330
1F
100
AcDbEntity
  8
0
  6
Continuous
 62
     7
370
    25
100
AcDbLine
 10
154.4880249632
 20
89.3676651269
 30
0.0
 11
150.4880243075
 21
90.017664954
 31
0.0
  0
LINE
  5
77
330
1F
100
AcDbEntity
  8
0
  6
Continuous
 62
     7
370
    25
100
AcDbLine
 10
142.4880229962
 20
81.0176653414
 30
0.0
 11
146.4880236519
 21
81.6676651686
 31
0.0
  0
LINE
  5
78
330
1F
100
AcDbEntity
  8
0
  6
Continuous
 62
     7
370
    25
100
AcDbLine
 10
146.4880236519
 20
89.3676651269
 30
0.0
 11
142.4880229962
 21
90.017664954
 31
0.0
  0
LINE
  5
79
330
1F
100
AcDbEntity
  8
0
  6
Continuous
 62
     7
370
    25
100
AcDbLine
 10
138.4880242032
 20
81.0176653414
 30
0.0
 11
142.4880229962
 21
81.6676651686
 31
0.0
  0
LINE
  5
7A
330
1F
100
AcDbEntity
  8
0
  6
Continuous
 62
     7
370
    25
100
AcDbLine
 10
142.4880229962
 20
89.3676651269
 30
0.0
 11
138.4880242032
 21
90.017664954
 31
0.0
  0
LINE
  5
7B
330
1F
100
AcDbEntity
  8
0
  6
Continuous
 62
     7
370
    25
100
AcDbLine
 10
146.4880236519
 20
81.0176653414
 30
0.0
 11
150.4880243075
 21
81.6676651686
 31
0.0
  0
LINE
  5
7C
330
1F
100
AcDbEntity
  8
0
  6
Continuous
 62
     7
370
    25
100
AcDbLine
 10
150.4880243075
 20
89.3676651269
 30
0.0
 11
146.4880236519
 21
90.017664954
 31
0.0
  0
LINE
  5
7D
330
1F
100
AcDbEntity
  8
0
  6
Continuous
 62
     7
370
    25
100
AcDbLine
 10
134.068408711
 20
90.017664954
 30
0.0
 11
133.9880243969
 21
89.717664998
 31
0.0
  0
LINE
  5
7E
330
1F
100
AcDbEntity
  8
0
  6
Continuous
 62
     7
370
    25
100
AcDbLine
 10
133.9880243969
 20
81.3176652975
 30
0.0
 11
134.068408711
 21
81.0176653414
 31
0.0
  0
LINE
  5
7F
330
1F
100
AcDbEntity
  8
0
  6
Continuous
 62
     7
370
    25
100
AcDbLine
 10
134.068408711
 20
81.0176653414
 30
0.0
 11
138.4880242032
 21
81.0176653414
 31
0.0
  0
LINE
  5
80
330
1F
100
AcDbEntity
  8
0
  6
Continuous
 62
     7
370
    25
100
AcDbLine
 10
138.4880242032
 20
90.017664954
 30
0.0
 11
134.068408711
 21
90.017664954
 31
0.0
  0
LINE
  5
81
330
1F
100
AcDbEntity
  8
0
  6
Continuous
 62
     7
370
    25
100
AcDbLine
 10
154.4880249632
 20
81.0176653414
 30
0.0
 11
159.2819147837
 21
81.5842158719
 31
0.0
  0
LINE
  5
82
330
1F
100
AcDbEntity
  8
0
  6
Continuous
 62
     7
370
    25
100
AcDbLine
 10
159.2819147837
 20
89.4511144235
 30
0.0
 11
154.4880249632
 21
90.017664954
 31
0.0
  0
ARC
  5
83
330
1F
100
AcDbEntity
  8
0
  6
Continuous
 62
     7
370
    25
100
AcDbCircle
 10
159.1880245161
 20
82.3786870975
 30
0.0
 40
0.7999999999999993
100
AcDbArc
 50
276.7400560979
 51
0.0
  0
ARC
  5
84
330
1F
100
AcDbEntity
  8
0
  6
Continuous
 62
     7
370
    25
100
AcDbCircle
 10
159.1880245161
 20
88.6566431979
 30
0.0
 40
0.7999999999999853
100
AcDbArc
 50
0.0
 51
83.2599439021
  0
LINE
  5
85
330
1F
100
AcDbEntity
  8
0
  6
Continuous
 62
     7
370
    25
100
AcDbLine
 10
123.7891583798
 20
94.7552693635
 30
0.0
 11
122.9880244565
 21
93.3676648512
 31
0.0
  0
LINE
  5
86
330
1F
100
AcDbEntity
  8
0
  6
Continuous
 62
     7
370
    25
100
AcDbLine
 10
122.9880244565
 20
77.6676654442
 30
0.0
 11
123.7891583798
 21
76.280060932
 31
0.0
  0
LINE
  5
87
330
1F
100
AcDbEntity
  8
0
  6
Continuous
 62
     7
370
    25
100
AcDbLine
 10
131.1868910772
 20
76.280060932
 30
0.0
 11
131.9880240691
 21
77.6676654442
 31
0.0
  0
LINE
  5
88
330
1F
100
AcDbEntity
  8
0
  6
Continuous
 62
     7
370
    25
100
AcDbLine
 10
131.9880240691
 20
93.3676648512
 30
0.0
 11
131.1868910772
 21
94.7552693635
 31
0.0
  0
ARC
  5
89
330
1F
100
AcDbEntity
  8
0
  6
Continuous
 62
     7
370
    25
100
AcDbCircle
 10
121.2880245161
 20
77.9676651477
 30
0.0
 40
0.3000000000000114
100
AcDbArc
 50
180.0
 51
270.0
  0
ARC
  5
8A
330
1F
100
AcDbEntity
  8
0
  6
Continuous
 62
     7
370
    25
100
AcDbCircle
 10
121.2880245161
 20
93.0676651477
 30
0.0
 40
0.2999999999999972
100
AcDbArc
 50
90.0
 51
180.0
  0
LINE
  5
8B
330
1F
100
AcDbEntity
  8
0
  6
Continuous
 62
     7
370
    25
100
AcDbLine
 10
131.9880240691
 20
77.6676654442
 30
0.0
 11
133.6880249065
 21
77.6676654442
 31
0.0
  0
LINE
  5
8C
330
1F
100
AcDbEntity
  8
0
  6
Continuous
 62
     7
370
    25
100
AcDbLine
 10
133.6880249065
 20
93.3676648512
 30
0.0
 11
131.9880240691
 21
93.3676648512
 31
0.0
  0
LINE
  5
8D
330
1F
100
AcDbEntity
  8
0
  6
Continuous
 62
     7
370
    25
100
AcDbLine
 10
122.9880244565
 20
93.3676648512
 30
0.0
 11
121.2880245504
 21
93.3676648512
 31
0.0
  0
LINE
  5
8E
330
1F
100
AcDbEntity
  8
0
  6
Continuous
 62
     7
370
    25
100
AcDbLine
 10
121.2880245504
 20
77.6676654442
 30
0.0
 11
122.9880244565
 21
77.6676654442
 31
0.0
  0
ARC
  5
8F
330
1F
100
AcDbEntity
  8
0
  6
Continuous
 62
     7
370
    25
100
AcDbCircle
 10
133.6880245161
 20
93.0676651477
 30
0.0
 40
0.3000000000000114
100
AcDbArc
 50
0.0
 51
90.0
  0
ARC
  5
90
330
1F
100
AcDbEntity
  8
0
  6
Continuous
 62
     7
370
    25
100
AcDbCircle
 10
133.6880245161
 20
77.9676651477
 30
0.0
 40
0.3000000000000114
100
AcDbArc
 50
270.0
 51
0.0
  0
LINE
  5
91
330
1F
100
AcDbEntity
  8
0
  6
Continuous
 62
     7
370
    25
100
AcDbLine
 10
127.4344340992
 20
76.280060932
 30
0.0
 11
127.4880242628
 21
76.4800605922
 31
0.0
  0
LINE
  5
92
330
1F
100
AcDbEntity
  8
0
  6
Continuous
 62
     7
370
    25
100
AcDbLine
 10
127.4880242628
 20
76.4800605922
 30
0.0
 11
127.5416144264
 21
76.280060932
 31
0.0
  0
LINE
  5
93
330
1F
100
AcDbEntity
  8
0
  6
Continuous
 62
     7
370
    25
100
AcDbLine
 10
127.5416144264
 20
94.7552693635
 30
0.0
 11
127.4880242628
 21
94.5552697032
 31
0.0
  0
LINE
  5
94
330
1F
100
AcDbEntity
  8
0
  6
Continuous
 62
     7
370
    25
100
AcDbLine
 10
127.4880242628
 20
94.5552697032
 30
0.0
 11
127.4344340992
 21
94.7552693635
 31
0.0
  0
ARC
  5
95
330
1F
100
AcDbEntity
  8
0
  6
Continuous
 62
     7
370
    25
100
AcDbCircle
 10
102.9837395978
 20
96.0176651477
 30
0.0
 40
0.5
100
AcDbArc
 50
268.1671385201
 51
270.0
  0
ARC
  5
96
330
1F
100
AcDbEntity
  8
0
  6
Continuous
 62
     7
370
    25
100
AcDbCircle
 10
116.4837395978
 20
96.0176651477
 30
0.0
 40
0.5
100
AcDbArc
 50
270.0
 51
271.8328614799
  0
LINE
  5
97
330
1F
100
AcDbEntity
  8
0
  6
Continuous
 62
     7
370
    25
100
AcDbLine
 10
116.4997315128
 20
95.5179210379
 30
0.0
 11
116.1900322978
 21
105.4283061623
 31
0.0
  0
LINE
  5
98
330
1F
100
AcDbEntity
  8
0
  6
Continuous
 62
     7
370
    25
100
AcDbLine
 10
103.2774468978
 20
105.4283061623
 30
0.0
 11
102.9677476828
 21
95.5179210379
 31
0.0
  0
LINE
  5
99
330
1F
100
AcDbEntity
  8
0
  6
Continuous
 62
     7
370
    25
100
AcDbLine
 10
120.9880241287
 20
92.0961650647
 30
0.0
 11
119.7337393743
 21
92.0961650647
 31
0.0
  0
LINE
  5
9A
330
1F
100
AcDbEntity
  8
0
  6
Continuous
 62
     7
370
    25
100
AcDbLine
 10
119.7337393743
 20
78.9391652308
 30
0.0
 11
120.9880241287
 21
78.9391652308
 31
0.0
  0
ARC
  5
9B
330
1F
100
AcDbEntity
  8
0
  6
Continuous
 62
     7
370
    25
100
AcDbCircle
 10
103.2337395978
 20
95.0176651477
 30
0.0
 40
0.5
100
AcDbArc
 50
0.0
 51
90.0
  0
ARC
  5
9C
330
1F
100
AcDbEntity
  8
0
  6
Continuous
 62
     7
370
    25
100
AcDbCircle
 10
116.2337395978
 20
95.0176651477
 30
0.0
 40
0.5
100
AcDbArc
 50
90.0
 51
180.0
  0
ARC
  5
9D
330
1F
100
AcDbEntity
  8
0
  6
Continuous
 62
     7
370
    25
100
AcDbCircle
 10
119.2337395978
 20
92.0176651477
 30
0.0
 40
0.5
100
AcDbArc
 50
270.0
 51
0.0
  0
ARC
  5
9E
330
1F
100
AcDbEntity
  8
0
  6
Continuous
 62
     7
370
    25
100
AcDbCircle
 10
119.2337395978
 20
79.0176651477
 30
0.0
 40
0.5
100
AcDbArc
 50
0.0
 51
90.0
  0
LINE
  5
9F
330
1F
100
AcDbEntity
  8
0
  6
Continuous
 62
     7
370
    25
100
AcDbLine
 10
116.1900322978
 20
105.4283061623
 30
0.0
 11
114.983739527
 21
107.5176650285
 31
0.0
  0
LINE
  5
A0
330
1F
100
AcDbEntity
  8
0
  6
Continuous
 62
     7
370
    25
100
AcDbLine
 10
104.4837396686
 20
107.5176650285
 30
0.0
 11
103.2774468978
 21
105.4283061623
 31
0.0
  0
LINE
  5
A1
330
1F
100
AcDbEntity
  8
0
  6
Continuous
 62
     7
370
    25
100
AcDbLine
 10
115.73373965
 20
91.5176651999
 30
0.0
 11
115.73373965
 21
95.0176648422
 31
0.0
  0
LINE
  5
A2
330
1F
100
AcDbEntity
  8
0
  6
Continuous
 62
     7
370
    25
100
AcDbLine
 10
103.7337395457
 20
95.0176648422
 30
0.0
 11
103.7337395457
 21
81.5176649577
 31
0.0
  0
LINE
  5
A3
330
1F
100
AcDbEntity
  8
0
  6
Continuous
 62
     7
370
    25
100
AcDbLine
 10
105.7337394078
 20
79.5176650956
 30
0.0
 11
119.2337392923
 21
79.5176650956
 31
0.0
  0
LINE
  5
A4
330
1F
100
AcDbEntity
  8
0
  6
Continuous
 62
     7
370
    25
100
AcDbLine
 10
119.2337392923
 20
91.5176651999
 30
0.0
 11
115.73373965
 21
91.5176651999
 31
0.0
  0
ARC
  5
A5
330
1F
100
AcDbEntity
  8
0
  6
Continuous
 62
     7
370
    25
100
AcDbCircle
 10
105.7337395978
 20
81.5176651477
 30
0.0
 40
2.000000000000009
100
AcDbArc
 50
179.699720089
 51
270.34007936
  0
LINE
  5
A6
330
1F
100
AcDbEntity
  8
0
  6
Continuous
 62
     7
370
    25
100
AcDbLine
 10
150.4880243075
 20
85.5176651477
 30
0.0
 11
150.4880243075
 21
90.017664954
 31
0.0
  0
LINE
  5
A7
330
1F
100
AcDbEntity
  8
0
  6
Continuous
 62
     7
370
    25
100
AcDbLine
 10
150.4880243075
 20
81.0176653414
 30
0.0
 11
150.4880243075
 21
85.5176651477
 31
0.0
  0
LINE
  5
A8
330
1F
100
AcDbEntity
  8
0
  6
Continuous
 62
     7
370
    25
100
AcDbLine
 10
142.4880229962
 20
85.5176651477
 30
0.0
 11
142.4880229962
 21
90.017664954
 31
0.0
  0
LINE
  5
A9
330
1F
100
AcDbEntity
  8
0
  6
Continuous
 62
     7
370
    25
100
AcDbLine
 10
142.4880229962
 20
81.0176653414
 30
0.0
 11
142.4880229962
 21
85.5176651477
 31
0.0
  0
LINE
  5
AA
330
1F
100
AcDbEntity
  8
0
  6
Continuous
 62
     7
370
    25
100
AcDbLine
 10
138.4880242032
 20
85.5176651477
 30
0.0
 11
138.4880242032
 21
90.017664954
 31
0.0
  0
LINE
  5
AB
330
1F
100
AcDbEntity
  8
0
  6
Continuous
 62
     7
370
    25
100
AcDbLine
 10
138.4880242032
 20
81.0176653414
 30
0.0
 11
138.4880242032
 21
85.5176651477
 31
0.0
  0
LINE
  5
AC
330
1F
100
AcDbEntity
  8
0
  6
Continuous
 62
     7
370
    25
100
AcDbLine
 10
146.4880236519
 20
85.5176651477
 30
0.0
 11
146.4880236519
 21
90.017664954
 31
0.0
  0
LINE
  5
AD
330
1F
100
AcDbEntity
  8
0
  6
Continuous
 62
     7
370
    25
100
AcDbLine
 10
146.4880236519
 20
81.0176653414
 30
0.0
 11
146.4880236519
 21
85.5176651477
 31
0.0
  0
LINE
  5
AE
330
1F
100
AcDbEntity
  8
0
  6
Continuous
 62
     7
370
    25
100
AcDbLine
 10
134.068408711
 20
85.5176651477
 30
0.0
 11
134.068408711
 21
90.017664954
 31
0.0
  0
LINE
  5
AF
330
1F
100
AcDbEntity
  8
0
  6
Continuous
 62
     7
370
    25
100
AcDbLine
 10
134.068408711
 20
81.0176653414
 30
0.0
 11
134.068408711
 21
85.5176651477
 31
0.0
  0
LINE
  5
B0
330
1F
100
AcDbEntity
  8
0
  6
Continuous
 62
     7
370
    25
100
AcDbLine
 10
154.4880249632
 20
85.5176651477
 30
0.0
 11
154.4880249632
 21
90.017664954
 31
0.0
  0
LINE
  5
B1
330
1F
100
AcDbEntity
  8
0
  6
Continuous
 62
     7
370
    25
100
AcDbLine
 10
154.4880249632
 20
81.0176653414
 30
0.0
 11
154.4880249632
 21
85.5176651477
 31
0.0
  0
LINE
  5
B2
330
1F
100
AcDbEntity
  8
0
  6
Continuous
 62
     7
370
    25
100
AcDbLine
 10
159.9880249334
 20
85.5176651477
 30
0.0
 11
159.9880249334
 21
82.3786871135
 31
0.0
  0
LINE
  5
B3
330
1F
100
AcDbEntity
  8
0
  6
Continuous
 62
     7
370
    25
100
AcDbLine
 10
159.9880249334
 20
88.656643182
 30
0.0
 11
159.9880249334
 21
85.5176651477
 31
0.0
  0
LINE
  5
B4
330
1F
100
AcDbEntity
  8
0
  6
Continuous
 62
     7
370
    25
100
AcDbLine
 10
127.4344340992
 20
90.1364672556
 30
0.0
 11
127.4880242628
 21
90.3435901365
 31
0.0
  0
LINE
  5
B5
330
1F
100
AcDbEntity
  8
0
  6
Continuous
 62
     7
370
    25
100
AcDbLine
 10
127.4880242628
 20
89.722221028
 30
0.0
 11
127.4880242628
 21
90.3435901365
 31
0.0
  0
LINE
  5
B6
330
1F
100
AcDbEntity
  8
0
  6
Continuous
 62
     7
370
    25
100
AcDbLine
 10
127.4880242628
 20
89.722221028
 30
0.0
 11
127.4344340992
 21
90.1364672556
 31
0.0
  0
SPLINE
  5
B7
330
1F
100
AcDbEntity
  8
0
  6
Continuous
 62
     7
370
    25
100
AcDbSpline
210
0.0
220
0.0
230
1.0
 70
     8
 71
     3
 72
    16
 73
    12
 74
     0
 42
0.000000001
 43
0.00000001
 40
0.0
 40
0.0
 40
0.0
 40
0.0
 40
0.1051935678786939
 40
0.2312918811301986
 40
0.3573572470174911
 40
0.4865103199035579
 40
0.6156604419553359
 40
0.7112032405771035
 40
0.8067564184316626
 40
0.903373160866079
 40
1.0
 40
1.0
 40
1.0
 40
1.0
 10
123.7891583797595
 20
80.89886303984174
 30
0.0
 10
123.7017158508056
 20
81.2158908297544
 30
0.0
 10
123.5094536486541
 20
81.91294822003141
 30
0.0
 10
123.2833412667401
 20
83.00786609865848
 30
0.0
 10
123.1208603606769
 20
84.1897293255254
 30
0.0
 10
123.0583296402389
 20
85.39109907909854
 30
0.0
 10
123.0959011775507
 20
86.4979251194076
 30
0.0
 10
123.204814816114
 20
87.4936157325813
 30
0.0
 10
123.3540230576128
 20
88.38086810618181
 30
0.0
 10
123.5473046976416
 20
89.26313866136661
 30
0.0
 10
123.7085376776563
 20
89.84534758431755
 30
0.0
 10
123.7891583797595
 20
90.1364672555829
 30
0.0
  0
SPLINE
  5
B8
330
1F
100
AcDbEntity
  8
0
  6
Continuous
 62
     7
370
    25
100
AcDbSpline
210
0.0
220
0.0
230
1.0
 70
     8
 71
     3
 72
    15
 73
    11
 74
     0
 42
0.000000001
 43
0.00000001
 40
0.0
 40
0.0
 40
0.0
 40
0.0
 40
0.1323049485469467
 40
0.2645724911618902
 40
0.3997989213359782
 40
0.535000923670623
 40
0.650192064928775
 40
0.7654011640741514
 40
0.8826892485822961
 40
1.0
 40
1.0
 40
1.0
 40
1.0
 10
123.7891583797595
 20
76.28006093197116
 30
0.0
 10
123.6803868541898
 20
76.47961104431623
 30
0.0
 10
123.4628745554927
 20
76.87865485117761
 30
0.0
 10
123.2288397093803
 20
77.49314750783105
 30
0.0
 10
123.0881203479112
 20
78.11922302135108
 30
0.0
 10
123.0602498656119
 20
78.72262132000118
 30
0.0
 10
123.1325527810912
 20
79.29342071288582
 30
0.0
 10
123.2807020330373
 20
79.83211745278737
 30
0.0
 10
123.4980220682414
 20
80.36837739079206
 30
0.0
 10
123.6921066917763
 20
80.7220231004241
 30
0.0
 10
123.7891583797595
 20
80.89886303984174
 30
0.0
  0
SPLINE
  5
B9
330
1F
100
AcDbEntity
  8
0
  6
Continuous
 62
     7
370
    25
100
AcDbSpline
210
0.0
220
0.0
230
1.0
 70
     8
 71
     3
 72
    15
 73
    11
 74
     0
 42
0.000000001
 43
0.00000001
 40
0.0
 40
0.0
 40
0.0
 40
0.0
 40
0.1323050038970291
 40
0.2645725327670714
 40
0.3997989416533288
 40
0.5350009870694649
 40
0.6501921317206805
 40
0.7654011923842015
 40
0.882689240090312
 40
1.0
 40
1.0
 40
1.0
 40
1.0
 10
123.7891583797595
 20
90.1364672555829
 30
0.0
 10
123.680386864467
 20
90.33601759362924
 30
0.0
 10
123.4628746431135
 20
90.73506174763972
 30
0.0
 10
123.2288397030512
 20
91.34955357977772
 30
0.0
 10
123.0881203258393
 20
91.9756296835933
 30
0.0
 10
123.060249869203
 20
92.57902721583554
 30
0.0
 10
123.1325527569651
 20
93.14982789850461
 30
0.0
 10
123.2807020292981
 20
93.68852295548119
 30
0.0
 10
123.4980221270041
 20
94.22478334315988
 30
0.0
 10
123.6921066988741
 20
94.57842927751975
 30
0.0
 10
123.7891583797595
 20
94.75526936345348
 30
0.0
  0
LINE
  5
BA
330
1F
100
AcDbEntity
  8
0
  6
Continuous
 62
     7
370
    25
100
AcDbLine
 10
122.9880244565
 20
85.5176651477
 30
0.0
 11
122.9880244565
 21
93.3676648512
 31
0.0
  0
LINE
  5
BB
330
1F
100
AcDbEntity
  8
0
  6
Continuous
 62
     7
370
    25
100
AcDbLine
 10
122.9880244565
 20
77.6676654442
 30
0.0
 11
122.9880244565
 21
85.5176651477
 31
0.0
  0
SPLINE
  5
BC
330
1F
100
AcDbEntity
  8
0
  6
Continuous
 62
     7
370
    25
100
AcDbSpline
210
0.0
220
0.0
230
1.0
 70
     8
 71
     3
 72
    15
 73
    11
 74
     0
 42
0.000000001
 43
0.00000001
 40
0.0
 40
0.0
 40
0.0
 40
0.0
 40
0.1323049836088744
 40
0.2645725542962953
 40
0.3997989460670495
 40
0.5350009961647513
 40
0.6501921448046264
 40
0.7654012094574273
 40
0.8826892612248055
 40
1.0
 40
1.0
 40
1.0
 40
1.0
 10
131.1868910771867
 20
90.1364672555829
 30
0.0
 10
131.2956619444774
 20
90.33601762634467
 30
0.0
 10
131.5131729210645
 20
90.73506193943943
 30
0.0
 10
131.7472120386323
 20
91.34955338107362
 30
0.0
 10
131.8879273271502
 20
91.9756297741949
 30
0.0
 10
131.9157988572027
 20
92.57902720380648
 30
0.0
 10
131.8434957037436
 20
93.14982789955928
 30
0.0
 10
131.6953465705576
 20
93.68852296261518
 30
0.0
 10
131.4780261787516
 20
94.22478327429381
 30
0.0
 10
131.2839423673697
 20
94.57842926722212
 30
0.0
 10
131.1868910771867
 20
94.75526936345348
 30
0.0
  0
SPLINE
  5
BD
330
1F
100
AcDbEntity
  8
0
  6
Continuous
 62
     7
370
    25
100
AcDbSpline
210
0.0
220
0.0
230
1.0
 70
     8
 71
     3
 72
    15
 73
    11
 74
     0
 42
0.000000001
 43
0.00000001
 40
0.0
 40
0.0
 40
0.0
 40
0.0
 40
0.1323049282587815
 40
0.2645725126911017
 40
0.3997989257496923
 40
0.5350009327659031
 40
0.650192078012716
 40
0.7654011811473749
 40
0.8826892697167901
 40
1.0
 40
1.0
 40
1.0
 40
1.0
 10
131.1868910771867
 20
76.28006093197116
 30
0.0
 10
131.2956619547548
 20
76.47961107703169
 30
0.0
 10
131.5131730086856
 20
76.87865504297734
 30
0.0
 10
131.7472120323034
 20
77.49314730912691
 30
0.0
 10
131.8879273050788
 20
78.11922311195268
 30
0.0
 10
131.9157988607937
 20
78.72262130797213
 30
0.0
 10
131.8434956796175
 20
79.29342071394048
 30
0.0
 10
131.6953465668184
 20
79.83211745992135
 30
0.0
 10
131.4780262375143
 20
80.36837732192605
 30
0.0
 10
131.2839423744676
 20
80.72202309012647
 30
0.0
 10
131.1868910771867
 20
80.89886303984174
 30
0.0
  0
SPLINE
  5
BE
330
1F
100
AcDbEntity
  8
0
  6
Continuous
 62
     7
370
    25
100
AcDbSpline
210
0.0
220
0.0
230
1.0
 70
     8
 71
     3
 72
    16
 73
    12
 74
     0
 42
0.000000001
 43
0.00000001
 40
0.0
 40
0.0
 40
0.0
 40
0.0
 40
0.1051935697998784
 40
0.2312919055104034
 40
0.3573572604453449
 40
0.4865103305331645
 40
0.6156604549436534
 40
0.7112032446126787
 40
0.8067564405381822
 40
0.9033731847371418
 40
1.0
 40
1.0
 40
1.0
 40
1.0
 10
131.1868910771867
 20
80.89886303984174
 30
0.0
 10
131.2743335122103
 20
81.21589084831075
 30
0.0
 10
131.4665955245893
 20
81.91294834013351
 30
0.0
 10
131.6927096903985
 20
83.00786588869339
 30
0.0
 10
131.855188950213
 20
84.18972939309879
 30
0.0
 10
131.9177188340205
 20
85.39109911624273
 30
0.0
 10
131.8801468113361
 20
86.49792501676507
 30
0.0
 10
131.7712352535836
 20
87.49361590149762
 30
0.0
 10
131.622025121731
 20
88.38086800757455
 30
0.0
 10
131.4287437184304
 20
89.26313853745201
 30
0.0
 10
131.2675114251905
 20
89.84534756875483
 30
0.0
 10
131.1868910771867
 20
90.1364672555829
 30
0.0
  0
LINE
  5
BF
330
1F
100
AcDbEntity
  8
0
  6
Continuous
 62
     7
370
    25
100
AcDbLine
 10
131.9880240691
 20
85.5176651477
 30
0.0
 11
131.9880240691
 21
93.3676648512
 31
0.0
  0
LINE
  5
C0
330
1F
100
AcDbEntity
  8
0
  6
Continuous
 62
     7
370
    25
100
AcDbLine
 10
131.9880240691
 20
77.6676654442
 30
0.0
 11
131.9880240691
 21
85.5176651477
 31
0.0
  0
LINE
  5
C1
330
1F
100
AcDbEntity
  8
0
  6
Continuous
 62
     7
370
    25
100
AcDbLine
 10
127.5416144264
 20
80.8988630398
 30
0.0
 11
127.4880242628
 21
80.6917401589
 31
0.0
  0
LINE
  5
C2
330
1F
100
AcDbEntity
  8
0
  6
Continuous
 62
     7
370
    25
100
AcDbLine
 10
127.4880242628
 20
80.6917401589
 30
0.0
 11
127.4880242628
 21
81.3131092674
 31
0.0
  0
LINE
  5
C3
330
1F
100
AcDbEntity
  8
0
  6
Continuous
 62
     7
370
    25
100
AcDbLine
 10
127.4880242628
 20
81.3131092674
 30
0.0
 11
127.5416144264
 21
80.8988630398
 31
0.0
  0
LINE
  5
C4
330
1F
100
AcDbEntity
  8
0
  6
Continuous
 62
     7
370
    25
100
AcDbLine
 10
127.4880242628
 20
90.3435901365
 30
0.0
 11
127.5416144264
 21
90.1364672556
 31
0.0
  0
LINE
  5
C5
330
1F
100
AcDbEntity
  8
0
  6
Continuous
 62
     7
370
    25
100
AcDbLine
 10
127.5416144264
 20
90.1364672556
 30
0.0
 11
127.4880242628
 21
89.722221028
 31
0.0
  0
LINE
  5
C6
330
1F
100
AcDbEntity
  8
0
  6
Continuous
 62
     7
370
    25
100
AcDbLine
 10
127.4880242628
 20
80.6917401589
 30
0.0
 11
127.4344340992
 21
80.8988630398
 31
0.0
  0
LINE
  5
C7
330
1F
100
AcDbEntity
  8
0
  6
Continuous
 62
     7
370
    25
100
AcDbLine
 10
127.4344340992
 20
80.8988630398
 30
0.0
 11
127.4880242628
 21
81.3131092674
 31
0.0
  0
LINE
  5
C8
330
1F
100
AcDbEntity
  8
0
  6
Continuous
 62
     7
370
    25
100
AcDbLine
 10
123.7891583798
 20
76.280060932
 30
0.0
 11
127.4344340992
 21
76.280060932
 31
0.0
  0
LINE
  5
C9
330
1F
100
AcDbEntity
  8
0
  6
Continuous
 62
     7
370
    25
100
AcDbLine
 10
123.7891583798
 20
80.8988630398
 30
0.0
 11
127.4344340992
 21
80.8988630398
 31
0.0
  0
LINE
  5
CA
330
1F
100
AcDbEntity
  8
0
  6
Continuous
 62
     7
370
    25
100
AcDbLine
 10
127.5416144264
 20
80.8988630398
 30
0.0
 11
131.1868910772
 21
80.8988630398
 31
0.0
  0
LINE
  5
CB
330
1F
100
AcDbEntity
  8
0
  6
Continuous
 62
     7
370
    25
100
AcDbLine
 10
127.5416144264
 20
76.280060932
 30
0.0
 11
131.1868910772
 21
76.280060932
 31
0.0
  0
LINE
  5
CC
330
1F
100
AcDbEntity
  8
0
  6
Continuous
 62
     7
370
    25
100
AcDbLine
 10
127.4880242628
 20
76.4871842786
 30
0.0
 11
127.5416144264
 21
76.280060932
 31
0.0
  0
LINE
  5
CD
330
1F
100
AcDbEntity
  8
0
  6
Continuous
 62
     7
370
    25
100
AcDbLine
 10
127.4344340992
 20
76.280060932
 30
0.0
 11
127.4880242628
 21
76.4871842786
 31
0.0
  0
LINE
  5
CE
330
1F
100
AcDbEntity
  8
0
  6
Continuous
 62
     7
370
    25
100
AcDbLine
 10
123.7891583798
 20
90.1364672556
 30
0.0
 11
127.4344340992
 21
90.1364672556
 31
0.0
  0
LINE
  5
CF
330
1F
100
AcDbEntity
  8
0
  6
Continuous
 62
     7
370
    25
100
AcDbLine
 10
127.5416144264
 20
90.1364672556
 30
0.0
 11
131.1868910772
 21
90.1364672556
 31
0.0
  0
LINE
  5
D0
330
1F
100
AcDbEntity
  8
0
  6
Continuous
 62
     7
370
    25
100
AcDbLine
 10
123.7891583798
 20
94.7552693635
 30
0.0
 11
127.4344340992
 21
94.7552693635
 31
0.0
  0
LINE
  5
D1
330
1F
100
AcDbEntity
  8
0
  6
Continuous
 62
     7
370
    25
100
AcDbLine
 10
127.4880242628
 20
94.5481460168
 30
0.0
 11
127.4344340992
 21
94.7552693635
 31
0.0
  0
LINE
  5
D2
330
1F
100
AcDbEntity
  8
0
  6
Continuous
 62
     7
370
    25
100
AcDbLine
 10
127.5416144264
 20
94.7552693635
 30
0.0
 11
127.4880242628
 21
94.5481460168
 31
0.0
  0
LINE
  5
D3
330
1F
100
AcDbEntity
  8
0
  6
Continuous
 62
     7
370
    25
100
AcDbLine
 10
127.5416144264
 20
94.7552693635
 30
0.0
 11
131.1868910772
 21
94.7552693635
 31
0.0
  0
LINE
  5
D4
330
1F
100
AcDbEntity
  8
0
  6
Continuous
 62
     7
370
    25
100
AcDbLine
 10
120.9880241287
 20
85.5176651477
 30
0.0
 11
120.9880241287
 21
93.0676653608
 31
0.0
  0
LINE
  5
D5
330
1F
100
AcDbEntity
  8
0
  6
Continuous
 62
     7
370
    25
100
AcDbLine
 10
120.9880241287
 20
77.9676649346
 30
0.0
 11
120.9880241287
 21
85.5176651477
 31
0.0
  0
LINE
  5
D6
330
1F
100
AcDbEntity
  8
0
  6
Continuous
 62
     7
370
    25
100
AcDbLine
 10
133.9880243969
 20
93.0676653608
 30
0.0
 11
133.9880243969
 21
77.9676649346
 31
0.0
  0
LINE
  5
D7
330
1F
100
AcDbEntity
  8
0
  6
Continuous
 62
     7
370
    25
100
AcDbLine
 10
127.4880242628
 20
76.4800605922
 30
0.0
 11
127.4880242628
 21
76.4871842786
 31
0.0
  0
LINE
  5
D8
330
1F
100
AcDbEntity
  8
0
  6
Continuous
 62
     7
370
    25
100
AcDbLine
 10
127.4880242628
 20
94.5481460168
 30
0.0
 11
127.4880242628
 21
94.5552697032
 31
0.0
  0
LINE
  5
D9
330
1F
100
AcDbEntity
  8
0
  6
Continuous
 62
     7
370
    25
100
AcDbLine
 10
116.4997315128
 20
95.5179210379
 30
0.0
 11
102.9677476828
 21
95.5179210379
 31
0.0
  0
LINE
  5
DA
330
1F
100
AcDbEntity
  8
0
  6
Continuous
 62
     7
370
    25
100
AcDbLine
 10
116.4837397729
 20
95.5176649242
 30
0.0
 11
102.9837394227
 21
95.5176649242
 31
0.0
  0
LINE
  5
DB
330
1F
100
AcDbEntity
  8
0
  6
Continuous
 62
     7
370
    25
100
AcDbLine
 10
116.1900322978
 20
105.4283061623
 30
0.0
 11
103.2774468978
 21
105.4283061623
 31
0.0
  0
LINE
  5
DC
330
1F
100
AcDbEntity
  8
0
  6
Continuous
 62
     7
370
    25
100
AcDbLine
 10
119.7337393743
 20
92.0961650647
 30
0.0
 11
119.7337393743
 21
78.9391652308
 31
0.0
  0
LINE
  5
DD
330
1F
100
AcDbEntity
  8
0
  6
Continuous
 62
     7
370
    25
100
AcDbLine
 10
104.4837396686
 20
107.5176650285
 30
0.0
 11
114.983739527
 21
107.5176650285
 31
0.0
  0
SPLINE
  5
DE
330
1F
100
AcDbEntity
  8
0
  6
Continuous
 62
     7
370
    25
100
AcDbSpline
210
0.0
220
0.0
230
1.0
 70
    24
 71
     3
 72
    14
 73
    10
 74
     0
 42
0.000000001
 43
0.00000001
 40
0.0
 40
0.0
 40
0.0
 40
0.0
 40
0.25
 40
0.25
 40
0.5
 40
0.5
 40
0.75
 40
0.75
 40
1.0
 40
1.0
 40
1.0
 40
1.0
 10
109.7337395978233
 20
92.26766514771231
 30
0.0
 10
109.9322769124123
 20
92.26766514771231
 30
0.0
 10
110.1308156432457
 20
92.26766514771231
 30
0.0
 10
110.5269844795192
 20
92.26766514771231
 30
0.0
 10
110.7246174248405
 20
92.26766514771231
 30
0.0
 10
111.1179838537307
 20
92.26766514771231
 30
0.0
 10
111.313720194387
 20
92.26766514771231
 30
0.0
 10
111.7021321072788
 20
92.26766514771231
 30
0.0
 10
111.8948105483577
 20
92.26766514771231
 30
0.0
 10
112.0852497508952
 20
92.26766514771231
 30
0.0
  0
SPLINE
  5
DF
330
1F
100
AcDbEntity
  8
0
  6
Continuous
 62
     7
370
    25
100
AcDbSpline
210
0.0
220
0.0
230
1.0
 70
    24
 71
     3
 72
    14
 73
    10
 74
     0
 42
0.000000001
 43
0.00000001
 40
0.0
 40
0.0
 40
0.0
 40
0.0
 40
0.25
 40
0.25
 40
0.5
 40
0.5
 40
0.75
 40
0.75
 40
1.0
 40
1.0
 40
1.0
 40
1.0
 10
109.7337395978233
 20
92.26766514771231
 30
0.0
 10
109.5352022832343
 20
92.26766514771231
 30
0.0
 10
109.3366635524009
 20
92.26766514771231
 30
0.0
 10
108.9404947161274
 20
92.26766514771231
 30
0.0
 10
108.7428617708061
 20
92.26766514771231
 30
0.0
 10
108.3494953419159
 20
92.26766514771231
 30
0.0
 10
108.1537590012596
 20
92.26766514771231
 30
0.0
 10
107.7653470883678
 20
92.26766514771231
 30
0.0
 10
107.5726686472889
 20
92.26766514771231
 30
0.0
 10
107.3822294447515
 20
92.26766514771231
 30
0.0
  0
LINE
  5
E0
330
1F
100
AcDbEntity
  8
0
  6
Continuous
 62
     7
370
    25
100
AcDbLine
 10
105.1737398003
 20
92.2676653228
 30
0.0
 11
107.3822294922
 21
92.2676653228
 31
0.0
  0
SPLINE
  5
E1
330
1F
100
AcDbEntity
  8
0
  6
Continuous
 62
     7
370
    25
100
AcDbSpline
210
0.0
220
0.0
230
1.0
 70
     8
 71
     3
 72
    14
 73
    10
 74
     0
 42
0.000000001
 43
0.00000001
 40
0.0
 40
0.0
 40
0.0
 40
0.0
 40
0.25
 40
0.25
 40
0.5
 40
0.5
 40
0.75
 40
0.75
 40
1.0
 40
1.0
 40
1.0
 40
1.0
 10
105.1737395978233
 20
92.26766514771231
 30
0.0
 10
105.1175863574925
 20
92.26766514771231
 30
0.0
 10
105.0638327651739
 20
92.2577118411598
 30
0.0
 10
104.9607093567644
 20
92.21934022534381
 30
0.0
 10
104.9115313807568
 20
92.19080129337064
 30
0.0
 10
104.822366868431
 20
92.11361374609054
 30
0.0
 10
104.7811182041592
 20
92.0641850609026
 30
0.0
 10
104.7167308511572
 20
91.93667657372553
 30
0.0
 10
104.6937395978233
 20
91.8550603636714
 30
0.0
 10
104.6937395978233
 20
91.76766514771231
 30
0.0
  0
LINE
  5
E2
330
1F
100
AcDbEntity
  8
0
  6
Continuous
 62
     7
370
    25
100
AcDbLine
 10
104.693739405
 20
82.5176651216
 30
0.0
 11
104.693739405
 21
91.7676652408
 31
0.0
  0
SPLINE
  5
E3
330
1F
100
AcDbEntity
  8
0
  6
Continuous
 62
     7
370
    25
100
AcDbSpline
210
0.0
220
0.0
230
1.0
 70
     8
 71
     3
 72
     8
 73
     4
 74
     0
 42
0.000000001
 43
0.00000001
 40
0.0
 40
0.0
 40
0.0
 40
0.0
 40
1.0
 40
1.0
 40
1.0
 40
1.0
 10
104.7190084153786
 20
82.1745110260825
 30
0.0
 10
104.7023604209535
 20
82.28688699002807
 30
0.0
 10
104.6937395978233
 20
82.40119856049012
 30
0.0
 10
104.6937395978233
 20
82.51766514771232
 30
0.0
  0
LINE
  5
E4
330
1F
100
AcDbEntity
  8
0
  6
Continuous
 62
     7
370
    25
100
AcDbLine
 10
115.1034731512
 20
90.8873987011
 30
0.0
 11
115.73373965
 21
91.5176651999
 31
0.0
  0
SPLINE
  5
E5
330
1F
100
AcDbEntity
  8
0
  6
Continuous
 62
     7
370
    25
100
AcDbSpline
210
0.0
220
0.0
230
1.0
 70
     8
 71
     3
 72
    12
 73
     8
 74
     0
 42
0.000000001
 43
0.00000001
 40
0.0
 40
0.0
 40
0.0
 40
0.0
 40
0.2499999999999999
 40
0.2499999999999999
 40
0.4999999999999998
 40
0.4999999999999998
 40
1.0
 40
1.0
 40
1.0
 40
1.0
 10
114.7737395978233
 20
91.51766514771232
 30
0.0
 10
114.7737395978233
 20
91.43484619949785
 30
0.0
 10
114.7873892046677
 20
91.35440589067417
 30
0.0
 10
114.831910629931
 20
91.21311836910904
 30
0.0
 10
114.8618377612837
 20
91.152958649384
 30
0.0
 10
114.9600058615499
 20
90.99948529633203
 30
0.0
 10
115.0334491663126
 20
90.93444706512206
 30
0.0
 10
115.1034733606849
 20
90.88739891057365
 30
0.0
  0
LINE
  5
E6
330
1F
100
AcDbEntity
  8
0
  6
Continuous
 62
     7
370
    25
100
AcDbLine
 10
114.7737397906
 20
91.7676652408
 30
0.0
 11
114.7737397906
 21
91.5176651999
 31
0.0
  0
SPLINE
  5
E7
330
1F
100
AcDbEntity
  8
0
  6
Continuous
 62
     7
370
    25
100
AcDbSpline
210
0.0
220
0.0
230
1.0
 70
     8
 71
     3
 72
    14
 73
    10
 74
     0
 42
0.000000001
 43
0.00000001
 40
0.0
 40
0.0
 40
0.0
 40
0.0
 40
0.25
 40
0.25
 40
0.5
 40
0.5
 40
0.75
 40
0.75
 40
1.0
 40
1.0
 40
1.0
 40
1.0
 10
114.7737395978233
 20
91.76766514771231
 30
0.0
 10
114.7737395978233
 20
91.8549831767187
 30
0.0
 10
114.7507867990369
 20
91.93661128454029
 30
0.0
 10
114.6862911998752
 20
92.06431240267374
 30
0.0
 10
114.6450587130689
 20
92.11370319549931
 30
0.0
 10
114.5555968730998
 20
92.19106186305734
 30
0.0
 10
114.5061220357397
 20
92.21963067262921
 30
0.0
 10
114.4035497778075
 20
92.25769804159633
 30
0.0
 10
114.3499400165262
 20
92.26766514771231
 30
0.0
 10
114.2937395978233
 20
92.26766514771231
 30
0.0
  0
LINE
  5
E8
330
1F
100
AcDbEntity
  8
0
  6
Continuous
 62
     7
370
    25
100
AcDbLine
 10
112.0852497035
 20
92.2676653228
 30
0.0
 11
114.2937393953
 21
92.2676653228
 31
0.0
  0
SPLINE
  5
E9
330
1F
100
AcDbEntity
  8
0
  6
Continuous
 62
     7
370
    25
100
AcDbSpline
210
0.0
220
0.0
230
1.0
 70
     8
 71
     3
 72
     8
 73
     4
 74
     0
 42
0.000000001
 43
0.00000001
 40
0.0
 40
0.0
 40
0.0
 40
0.0
 40
1.0
 40
1.0
 40
1.0
 40
1.0
 10
106.7337395978233
 20
80.47766514771232
 30
0.0
 10
106.6172730106011
 20
80.47766514771232
 30
0.0
 10
106.5029614401391
 20
80.4862859708425
 30
0.0
 10
106.3905854761935
 20
80.50293396526759
 30
0.0
  0
LINE
  5
EA
330
1F
100
AcDbEntity
  8
0
  6
Continuous
 62
     7
370
    25
100
AcDbLine
 10
115.983739691
 20
80.4776649549
 30
0.0
 11
106.7337395717
 21
80.4776649549
 31
0.0
  0
SPLINE
  5
EB
330
1F
100
AcDbEntity
  8
0
  6
Continuous
 62
     7
370
    25
100
AcDbSpline
210
0.0
220
0.0
230
1.0
 70
     8
 71
     3
 72
    14
 73
    10
 74
     0
 42
0.000000001
 43
0.00000001
 40
0.0
 40
0.0
 40
0.0
 40
0.0
 40
0.25
 40
0.25
 40
0.5
 40
0.5
 40
0.75
 40
0.75
 40
1.0
 40
1.0
 40
1.0
 40
1.0
 10
115.9837395978233
 20
80.47766514771232
 30
0.0
 10
116.0710576268297
 20
80.47766514771232
 30
0.0
 10
116.1526857346513
 20
80.50061794649876
 30
0.0
 10
116.2803868527847
 20
80.56511354566045
 30
0.0
 10
116.3297776456103
 20
80.60634603246673
 30
0.0
 10
116.4071363131683
 20
80.6958078724358
 30
0.0
 10
116.4357051227402
 20
80.74528270979597
 30
0.0
 10
116.4737724917073
 20
80.84785496772815
 30
0.0
 10
116.4837395978233
 20
80.90146472900945
 30
0.0
 10
116.4837395978233
 20
80.95766514771232
 30
0.0
  0
LINE
  5
EC
330
1F
100
AcDbEntity
  8
0
  6
Continuous
 62
     7
370
    25
100
AcDbLine
 10
116.4837397729
 20
83.1661550421
 30
0.0
 11
116.4837397729
 21
80.9576653502
 31
0.0
  0
SPLINE
  5
ED
330
1F
100
AcDbEntity
  8
0
  6
Continuous
 62
     7
370
    25
100
AcDbSpline
210
0.0
220
0.0
230
1.0
 70
    24
 71
     3
 72
    14
 73
    10
 74
     0
 42
0.000000001
 43
0.00000001
 40
0.0
 40
0.0
 40
0.0
 40
0.0
 40
0.25
 40
0.25
 40
0.5
 40
0.5
 40
0.75
 40
0.75
 40
1.0
 40
1.0
 40
1.0
 40
1.0
 10
116.4837395978233
 20
85.51766514771232
 30
0.0
 10
116.4837395978233
 20
85.31912783312329
 30
0.0
 10
116.4837395978233
 20
85.12058910228994
 30
0.0
 10
116.4837395978233
 20
84.7244202660164
 30
0.0
 10
116.4837395978233
 20
84.52678732069509
 30
0.0
 10
116.4837395978233
 20
84.1334208918049
 30
0.0
 10
116.4837395978233
 20
83.9376845511486
 30
0.0
 10
116.4837395978233
 20
83.54927263825681
 30
0.0
 10
116.4837395978233
 20
83.35659419717797
 30
0.0
 10
116.4837395978233
 20
83.16615499464046
 30
0.0
  0
SPLINE
  5
EE
330
1F
100
AcDbEntity
  8
0
  6
Continuous
 62
     7
370
    25
100
AcDbSpline
210
0.0
220
0.0
230
1.0
 70
    24
 71
     3
 72
    14
 73
    10
 74
     0
 42
0.000000001
 43
0.00000001
 40
0.0
 40
0.0
 40
0.0
 40
0.0
 40
0.25
 40
0.25
 40
0.5
 40
0.5
 40
0.75
 40
0.75
 40
1.0
 40
1.0
 40
1.0
 40
1.0
 10
116.4837395978233
 20
85.51766514771232
 30
0.0
 10
116.4837395978233
 20
85.71620246230134
 30
0.0
 10
116.4837395978233
 20
85.91474119313469
 30
0.0
 10
116.4837395978233
 20
86.31091002940825
 30
0.0
 10
116.4837395978233
 20
86.50854297472954
 30
0.0
 10
116.4837395978233
 20
86.90190940361973
 30
0.0
 10
116.4837395978233
 20
87.09764574427602
 30
0.0
 10
116.4837395978233
 20
87.48605765716782
 30
0.0
 10
116.4837395978233
 20
87.67873609824667
 30
0.0
 10
116.4837395978233
 20
87.86917530078416
 30
0.0
  0
LINE
  5
EF
330
1F
100
AcDbEntity
  8
0
  6
Continuous
 62
     7
370
    25
100
AcDbLine
 10
116.4837397729
 20
90.0776649452
 30
0.0
 11
116.4837397729
 21
87.8691752534
 31
0.0
  0
SPLINE
  5
F0
330
1F
100
AcDbEntity
  8
0
  6
Continuous
 62
     7
370
    25
100
AcDbSpline
210
0.0
220
0.0
230
1.0
 70
     8
 71
     3
 72
    14
 73
    10
 74
     0
 42
0.000000001
 43
0.00000001
 40
0.0
 40
0.0
 40
0.0
 40
0.0
 40
0.25
 40
0.25
 40
0.5
 40
0.5
 40
0.75
 40
0.75
 40
1.0
 40
1.0
 40
1.0
 40
1.0
 10
116.4837395978233
 20
90.07766514771231
 30
0.0
 10
116.4837395978233
 20
90.13381838804314
 30
0.0
 10
116.4737862912708
 20
90.18757198036168
 30
0.0
 10
116.4354146754548
 20
90.29069538877118
 30
0.0
 10
116.4068757434816
 20
90.33987336477882
 30
0.0
 10
116.3296881962015
 20
90.42903787710459
 30
0.0
 10
116.2802595110136
 20
90.47028654137647
 30
0.0
 10
116.1527510238365
 20
90.53467389437847
 30
0.0
 10
116.0711348137824
 20
90.55766514771233
 30
0.0
 10
115.9837395978233
 20
90.55766514771233
 30
0.0
  0
LINE
  5
F1
330
1F
100
AcDbEntity
  8
0
  6
Continuous
 62
     7
370
    25
100
AcDbLine
 10
115.73373965
 20
90.5576653405
 30
0.0
 11
115.983739691
 21
90.5576653405
 31
0.0
  0
SPLINE
  5
F2
330
1F
100
AcDbEntity
  8
0
  6
Continuous
 62
     7
370
    25
100
AcDbSpline
210
0.0
220
0.0
230
1.0
 70
     8
 71
     3
 72
    12
 73
     8
 74
     0
 42
0.000000001
 43
0.00000001
 40
0.0
 40
0.0
 40
0.0
 40
0.0
 40
0.5000000000000009
 40
0.5000000000000009
 40
0.7500000000000004
 40
0.7500000000000004
 40
1.0
 40
1.0
 40
1.0
 40
1.0
 10
115.103473360685
 20
90.88739891057399
 30
0.0
 10
115.1505215152334
 20
90.81737471620163
 30
0.0
 10
115.215559746443
 20
90.74393141143894
 30
0.0
 10
115.369033099495
 20
90.64576331117274
 30
0.0
 10
115.42919281922
 20
90.61583617982001
 30
0.0
 10
115.5704803407852
 20
90.57131475455675
 30
0.0
 10
115.6509206496088
 20
90.55766514771233
 30
0.0
 10
115.7337395978233
 20
90.55766514771233
 30
0.0
  0
SPLINE
  5
F3
330
1F
100
AcDbEntity
  8
0
  6
Continuous
 62
     7
370
    25
100
AcDbSpline
210
0.0
220
0.0
230
1.0
 70
     8
 71
     3
 72
    12
 73
     8
 74
     0
 42
0.000000001
 43
0.00000001
 40
0.0
 40
0.0
 40
0.0
 40
0.0
 40
0.25
 40
0.25
 40
0.5
 40
0.5
 40
1.0
 40
1.0
 40
1.0
 40
1.0
 10
116.1605162931192
 20
83.08243149474147
 30
0.0
 10
116.174730438548
 20
83.08422694194152
 30
0.0
 10
116.1864139678065
 20
83.08625420174832
 30
0.0
 10
116.2054736419743
 20
83.0893058321586
 30
0.0
 10
116.2128497868837
 20
83.09033020276209
 30
0.0
 10
116.2296479170761
 20
83.08969920914252
 30
0.0
 10
116.2337395978233
 20
83.0843397394894
 30
0.0
 10
116.2337395978233
 20
83.06817540492914
 30
0.0
  0
LINE
  5
F4
330
1F
100
AcDbEntity
  8
0
  6
Continuous
 62
     7
370
    25
100
AcDbLine
 10
116.2337397319
 20
83.0681754834
 30
0.0
 11
116.2337397319
 21
80.7676653004
 31
0.0
  0
LINE
  5
F5
330
1F
100
AcDbEntity
  8
0
  6
Continuous
 62
     7
370
    25
100
AcDbLine
 10
116.2337397319
 20
80.7676653004
 30
0.0
 11
115.983739691
 21
80.7676653004
 31
0.0
  0
LINE
  5
F6
330
1F
100
AcDbEntity
  8
0
  6
Continuous
 62
     7
370
    25
100
AcDbLine
 10
115.983739691
 20
80.7676653004
 30
0.0
 11
115.983739691
 21
83.0681754834
 31
0.0
  0
SPLINE
  5
F7
330
1F
100
AcDbEntity
  8
0
  6
Continuous
 62
     7
370
    25
100
AcDbSpline
210
0.0
220
0.0
230
1.0
 70
     8
 71
     3
 72
    10
 73
     6
 74
     0
 42
0.000000001
 43
0.00000001
 40
0.0
 40
0.0
 40
0.0
 40
0.0
 40
0.5
 40
0.5
 40
1.0
 40
1.0
 40
1.0
 40
1.0
 10
116.1605162931192
 20
83.08243149474147
 30
0.0
 10
116.1320880022614
 20
83.07884060034138
 30
0.0
 10
116.0991540738246
 20
83.0752765778883
 30
0.0
 10
116.0362401169927
 20
83.06994398018216
 30
0.0
 10
116.0062600885976
 20
83.06817540492914
 30
0.0
 10
115.9837395978233
 20
83.06817540492914
 30
0.0
  0
LINE
  5
F8
330
1F
100
AcDbEntity
  8
0
  6
Continuous
 62
     7
370
    25
100
AcDbLine
 10
104.9837397506
 20
92.0176652818
 30
0.0
 11
107.2842499335
 21
92.0176652818
 31
0.0
  0
SPLINE
  5
F9
330
1F
100
AcDbEntity
  8
0
  6
Continuous
 62
     7
370
    25
100
AcDbSpline
210
0.0
220
0.0
230
1.0
 70
     8
 71
     3
 72
    12
 73
     8
 74
     0
 42
0.000000001
 43
0.00000001
 40
0.0
 40
0.0
 40
0.0
 40
0.0
 40
0.25
 40
0.25
 40
0.5
 40
0.5
 40
1.0
 40
1.0
 40
1.0
 40
1.0
 10
107.2985059448525
 20
91.94444184300816
 30
0.0
 10
107.3003013920525
 20
91.95865598843704
 30
0.0
 10
107.3023286518593
 20
91.97033951769548
 30
0.0
 10
107.3053802822696
 20
91.98939919186333
 30
0.0
 10
107.3064046528731
 20
91.99677533677276
 30
0.0
 10
107.3057736592535
 20
92.01357346696514
 30
0.0
 10
107.3004141896004
 20
92.01766514771231
 30
0.0
 10
107.2842498550401
 20
92.01766514771231
 30
0.0
  0
SPLINE
  5
FA
330
1F
100
AcDbEntity
  8
0
  6
Continuous
 62
     7
370
    25
100
AcDbSpline
210
0.0
220
0.0
230
1.0
 70
     8
 71
     3
 72
    10
 73
     6
 74
     0
 42
0.000000001
 43
0.00000001
 40
0.0
 40
0.0
 40
0.0
 40
0.0
 40
0.5
 40
0.5
 40
1.0
 40
1.0
 40
1.0
 40
1.0
 10
107.2985059448525
 20
91.94444184300816
 30
0.0
 10
107.2949150504524
 20
91.91601355215043
 30
0.0
 10
107.2913510279993
 20
91.88307962371361
 30
0.0
 10
107.2860184302932
 20
91.8201656668817
 30
0.0
 10
107.2842498550401
 20
91.79018563848662
 30
0.0
 10
107.2842498550401
 20
91.76766514771231
 30
0.0
  0
LINE
  5
FB
330
1F
100
AcDbEntity
  8
0
  6
Continuous
 62
     7
370
    25
100
AcDbLine
 10
107.2842499335
 20
91.7676652408
 30
0.0
 11
104.9837397506
 21
91.7676652408
 31
0.0
  0
LINE
  5
FC
330
1F
100
AcDbEntity
  8
0
  6
Continuous
 62
     7
370
    25
100
AcDbLine
 10
104.9837397506
 20
91.7676652408
 30
0.0
 11
104.9837397506
 21
92.0176652818
 31
0.0
  0
LINE
  5
FD
330
1F
100
AcDbEntity
  8
0
  6
Continuous
 62
     7
370
    25
100
AcDbLine
 10
114.4837394451
 20
91.7676652408
 30
0.0
 11
112.1832292621
 21
91.7676652408
 31
0.0
  0
LINE
  5
FE
330
1F
100
AcDbEntity
  8
0
  6
Continuous
 62
     7
370
    25
100
AcDbLine
 10
114.4837394451
 20
91.5176651999
 30
0.0
 11
114.4837394451
 21
91.7676652408
 31
0.0
  0
ARC
  5
FF
330
1F
100
AcDbEntity
  8
0
  6
Continuous
 62
     7
370
    25
100
AcDbCircle
 10
115.7337395978
 20
91.5176651477
 30
0.0
 40
1.25
100
AcDbArc
 50
180.0
 51
270.0
  0
LINE
  5
100
330
1F
100
AcDbEntity
  8
0
  6
Continuous
 62
     7
370
    25
100
AcDbLine
 10
115.983739691
 20
90.267664995
 30
0.0
 11
115.73373965
 21
90.267664995
 31
0.0
  0
LINE
  5
101
330
1F
100
AcDbEntity
  8
0
  6
Continuous
 62
     7
370
    25
100
AcDbLine
 10
115.983739691
 20
87.967154812
 30
0.0
 11
115.983739691
 21
90.267664995
 31
0.0
  0
LINE
  5
102
330
1F
100
AcDbEntity
  8
0
  6
Continuous
 62
     7
370
    25
100
AcDbLine
 10
115.983739691
 20
87.967154812
 30
0.0
 11
115.983739691
 21
85.5176651477
 31
0.0
  0
LINE
  5
103
330
1F
100
AcDbEntity
  8
0
  6
Continuous
 62
     7
370
    25
100
AcDbLine
 10
115.983739691
 20
85.5176651477
 30
0.0
 11
115.983739691
 21
83.0681754834
 31
0.0
  0
LINE
  5
104
330
1F
100
AcDbEntity
  8
0
  6
Continuous
 62
     7
370
    25
100
AcDbLine
 10
106.7337395717
 20
80.7676653004
 30
0.0
 11
115.983739691
 21
80.7676653004
 31
0.0
  0
ARC
  5
105
330
1F
100
AcDbEntity
  8
0
  6
Continuous
 62
     7
370
    25
100
AcDbCircle
 10
106.7337395978
 20
82.5176651477
 30
0.0
 40
1.75
100
AcDbArc
 50
180.0
 51
270.0
  0
LINE
  5
106
330
1F
100
AcDbEntity
  8
0
  6
Continuous
 62
     7
370
    25
100
AcDbLine
 10
104.9837397506
 20
91.7676652408
 30
0.0
 11
104.9837397506
 21
82.5176651216
 31
0.0
  0
LINE
  5
107
330
1F
100
AcDbEntity
  8
0
  6
Continuous
 62
     7
370
    25
100
AcDbLine
 10
107.2842499335
 20
91.7676652408
 30
0.0
 11
109.7337395978
 21
91.7676652408
 31
0.0
  0
LINE
  5
108
330
1F
100
AcDbEntity
  8
0
  6
Continuous
 62
     7
370
    25
100
AcDbLine
 10
109.7337395978
 20
91.7676652408
 30
0.0
 11
112.1832292621
 21
91.7676652408
 31
0.0
  0
SPLINE
  5
109
330
1F
100
AcDbEntity
  8
0
  6
Continuous
 62
     7
370
    25
100
AcDbSpline
210
0.0
220
0.0
230
1.0
 70
     8
 71
     3
 72
    14
 73
    10
 74
     0
 42
0.000000001
 43
0.00000001
 40
0.0
 40
0.0
 40
0.0
 40
0.0
 40
0.25
 40
0.25
 40
0.5
 40
0.5
 40
0.75
 40
0.75
 40
1.0
 40
1.0
 40
1.0
 40
1.0
 10
112.4406025951856
 20
85.79831245165589
 30
0.0
 10
112.4974285846966
 20
85.92168932930319
 30
0.0
 10
112.5900277023793
 20
86.024977545443
 30
0.0
 10
112.8198018173858
 20
86.16807736870905
 30
0.0
 10
112.9533265883449
 20
86.20576243124805
 30
0.0
 10
113.2247868178801
 20
86.20552330634779
 30
0.0
 10
113.3581614617185
 20
86.1673588478111
 30
0.0
 10
113.585589028629
 20
86.02573798465643
 30
0.0
 10
113.6793903333937
 20
85.92169962696525
 30
0.0
 10
113.7362210658908
 20
85.79831245165644
 30
0.0
  0
LINE
  5
10A
330
1F
100
AcDbEntity
  8
0
  6
Continuous
 62
     7
370
    25
100
AcDbLine
 10
111.5488082497
 20
83.3048946317
 30
0.0
 11
112.4406025839
 21
85.7983124535
 31
0.0
  0
SPLINE
  5
10B
330
1F
100
AcDbEntity
  8
0
  6
Continuous
 62
     7
370
    25
100
AcDbSpline
210
0.0
220
0.0
230
1.0
 70
     8
 71
     3
 72
    10
 73
     6
 74
     0
 42
0.000000001
 43
0.00000001
 40
0.0
 40
0.0
 40
0.0
 40
0.0
 40
0.5
 40
0.5
 40
1.0
 40
1.0
 40
1.0
 40
1.0
 10
111.2130499383542
 20
83.192078118766
 30
0.0
 10
111.27213381814
 20
83.15956360346676
 30
0.0
 10
111.3433451879852
 20
83.15345874662084
 30
0.0
 10
111.4703658467472
 20
83.19365915764656
 30
0.0
 10
111.526055094293
 20
83.2412779346335
 30
0.0
 10
111.548808219966
 20
83.3048946715005
 30
0.0
  0
LINE
  5
10C
330
1F
100
AcDbEntity
  8
0
  6
Continuous
 62
     7
370
    25
100
AcDbLine
 10
110.4488488264
 20
83.6126264277
 30
0.0
 11
111.2130499306
 21
83.1920781731
 31
0.0
  0
LINE
  5
10D
330
1F
100
AcDbEntity
  8
0
  6
Continuous
 62
     7
370
    25
100
AcDbLine
 10
111.3960193099
 20
81.8070035986
 30
0.0
 11
110.4488488264
 21
83.6126264277
 31
0.0
  0
SPLINE
  5
10E
330
1F
100
AcDbEntity
  8
0
  6
Continuous
 62
     7
370
    25
100
AcDbSpline
210
0.0
220
0.0
230
1.0
 70
     8
 71
     3
 72
    10
 73
     6
 74
     0
 42
0.000000001
 43
0.00000001
 40
0.0
 40
0.0
 40
0.0
 40
0.0
 40
0.5000000000000006
 40
0.5000000000000006
 40
1.0
 40
1.0
 40
1.0
 40
1.0
 10
111.8775603155769
 20
81.71994971191425
 30
0.0
 10
111.8067340682501
 20
81.65708428445606
 30
0.0
 10
111.7078601208952
 20
81.63005595112877
 30
0.0
 10
111.5237386981835
 20
81.6630066794268
 30
0.0
 10
111.4400143841574
 20
81.7231342994295
 30
0.0
 10
111.3960193209484
 20
81.80700356644225
 30
0.0
  0
SPLINE
  5
10F
330
1F
100
AcDbEntity
  8
0
  6
Continuous
 62
     7
370
    25
100
AcDbSpline
210
0.0
220
0.0
230
1.0
 70
     8
 71
     3
 72
    14
 73
    10
 74
     0
 42
0.000000001
 43
0.00000001
 40
0.0
 40
0.0
 40
0.0
 40
0.0
 40
0.2500000000000001
 40
0.2500000000000001
 40
0.3750000000000003
 40
0.3750000000000003
 40
0.5000000000000004
 40
0.5000000000000004
 40
1.0
 40
1.0
 40
1.0
 40
1.0
 10
114.2992633455002
 20
81.7199497119139
 30
0.0
 10
114.1329631237942
 20
81.86755790687674
 30
0.0
 10
113.9427923890043
 20
81.9802756056305
 30
0.0
 10
113.6317155272169
 20
82.09592219019393
 30
0.0
 10
113.5258170276905
 20
82.12469215140322
 30
0.0
 10
113.3097781903542
 20
82.16343038624498
 30
0.0
 10
113.1985308537193
 20
82.17333715988781
 30
0.0
 10
112.6475604650873
 20
82.17331504088936
 30
0.0
 10
112.2101234365923
 20
82.01513297445392
 30
0.0
 10
111.8775603155769
 20
81.71994971191425
 30
0.0
  0
SPLINE
  5
110
330
1F
100
AcDbEntity
  8
0
  6
Continuous
 62
     7
370
    25
100
AcDbSpline
210
0.0
220
0.0
230
1.0
 70
     8
 71
     3
 72
    10
 73
     6
 74
     0
 42
0.000000001
 43
0.00000001
 40
0.0
 40
0.0
 40
0.0
 40
0.0
 40
0.5
 40
0.5
 40
1.0
 40
1.0
 40
1.0
 40
1.0
 10
114.7808043401284
 20
81.80700356644225
 30
0.0
 10
114.7368123300778
 20
81.72314011976769
 30
0.0
 10
114.6535583115739
 20
81.66322902694849
 30
0.0
 10
114.4693784286302
 20
81.62999322634131
 30
0.0
 10
114.3700812766588
 20
81.65709166589282
 30
0.0
 10
114.2992633455002
 20
81.71994971191396
 30
0.0
  0
LINE
  5
111
330
1F
100
AcDbEntity
  8
0
  6
Continuous
 62
     7
370
    25
100
AcDbLine
 10
115.739534339
 20
83.6346629168
 30
0.0
 11
114.780804338
 21
81.8070035986
 31
0.0
  0
LINE
  5
112
330
1F
100
AcDbEntity
  8
0
  6
Continuous
 62
     7
370
    25
100
AcDbLine
 10
114.9672648964
 20
83.193341745
 30
0.0
 11
115.739534339
 21
83.6346629168
 31
0.0
  0
SPLINE
  5
113
330
1F
100
AcDbEntity
  8
0
  6
Continuous
 62
     7
370
    25
100
AcDbSpline
210
0.0
220
0.0
230
1.0
 70
     8
 71
     3
 72
    10
 73
     6
 74
     0
 42
0.000000001
 43
0.00000001
 40
0.0
 40
0.0
 40
0.0
 40
0.0
 40
0.5
 40
0.5
 40
1.0
 40
1.0
 40
1.0
 40
1.0
 10
114.6282223455519
 20
83.30431617579687
 30
0.0
 10
114.6511384669658
 20
83.24024371002076
 30
0.0
 10
114.7072661177797
 20
83.19240213880131
 30
0.0
 10
114.8363477605484
 20
83.15253834692409
 30
0.0
 10
114.9082989252527
 20
83.1596448264514
 30
0.0
 10
114.967265086463
 20
83.19334164845233
 30
0.0
  0
LINE
  5
114
330
1F
100
AcDbEntity
  8
0
  6
Continuous
 62
     7
370
    25
100
AcDbLine
 10
113.7362212968
 20
85.7983124535
 30
0.0
 11
114.628222501
 21
83.3043162803
 31
0.0
  0
LINE
  5
115
330
1F
100
AcDbEntity
  8
0
  6
Continuous
 62
     7
370
    25
100
AcDbLine
 10
116.2337397319
 20
90.267664995
 30
0.0
 11
116.2337397319
 21
87.967154812
 31
0.0
  0
SPLINE
  5
116
330
1F
100
AcDbEntity
  8
0
  6
Continuous
 62
     7
370
    25
100
AcDbSpline
210
0.0
220
0.0
230
1.0
 70
     8
 71
     3
 72
    12
 73
     8
 74
     0
 42
0.000000001
 43
0.00000001
 40
0.0
 40
0.0
 40
0.0
 40
0.0
 40
0.25
 40
0.25
 40
0.5
 40
0.5
 40
1.0
 40
1.0
 40
1.0
 40
1.0
 10
116.1605162931192
 20
87.95289880068316
 30
0.0
 10
116.174730438548
 20
87.95110335348312
 30
0.0
 10
116.1864139678065
 20
87.94907609367633
 30
0.0
 10
116.2054736419743
 20
87.94602446326604
 30
0.0
 10
116.2128497868837
 20
87.94500009266254
 30
0.0
 10
116.2296479170761
 20
87.94563108628212
 30
0.0
 10
116.2337395978233
 20
87.95099055593525
 30
0.0
 10
116.2337395978233
 20
87.96715489049551
 30
0.0
  0
SPLINE
  5
117
330
1F
100
AcDbEntity
  8
0
  6
Continuous
 62
     7
370
    25
100
AcDbSpline
210
0.0
220
0.0
230
1.0
 70
     8
 71
     3
 72
    10
 73
     6
 74
     0
 42
0.000000001
 43
0.00000001
 40
0.0
 40
0.0
 40
0.0
 40
0.0
 40
0.5
 40
0.5
 40
1.0
 40
1.0
 40
1.0
 40
1.0
 10
116.1605162931192
 20
87.95289880068316
 30
0.0
 10
116.1320880022614
 20
87.95648969508325
 30
0.0
 10
116.0991540738246
 20
87.96005371753634
 30
0.0
 10
116.0362401169927
 20
87.96538631524247
 30
0.0
 10
116.0062600885976
 20
87.96715489049551
 30
0.0
 10
115.9837395978233
 20
87.96715489049551
 30
0.0
  0
LINE
  5
118
330
1F
100
AcDbEntity
  8
0
  6
Continuous
 62
     7
370
    25
100
AcDbLine
 10
116.2337397319
 20
90.267664995
 30
0.0
 11
115.983739691
 21
90.267664995
 31
0.0
  0
SPLINE
  5
119
330
1F
100
AcDbEntity
  8
0
  6
Continuous
 62
     7
370
    25
100
AcDbSpline
210
0.0
220
0.0
230
1.0
 70
     8
 71
     3
 72
    10
 73
     6
 74
     0
 42
0.000000001
 43
0.00000001
 40
0.0
 40
0.0
 40
0.0
 40
0.0
 40
0.5
 40
0.5
 40
1.0
 40
1.0
 40
1.0
 40
1.0
 10
112.1689732507942
 20
91.94444184300816
 30
0.0
 10
112.1725641451942
 20
91.91601355215043
 30
0.0
 10
112.1761281676473
 20
91.88307962371361
 30
0.0
 10
112.1814607653535
 20
91.8201656668817
 30
0.0
 10
112.1832293406065
 20
91.79018563848662
 30
0.0
 10
112.1832293406065
 20
91.76766514771231
 30
0.0
  0
SPLINE
  5
11A
330
1F
100
AcDbEntity
  8
0
  6
Continuous
 62
     7
370
    25
100
AcDbSpline
210
0.0
220
0.0
230
1.0
 70
     8
 71
     3
 72
    12
 73
     8
 74
     0
 42
0.000000001
 43
0.00000001
 40
0.0
 40
0.0
 40
0.0
 40
0.0
 40
0.25
 40
0.25
 40
0.5
 40
0.5
 40
1.0
 40
1.0
 40
1.0
 40
1.0
 10
112.1689732507942
 20
91.94444184300816
 30
0.0
 10
112.1671778035941
 20
91.95865598843704
 30
0.0
 10
112.1651505437873
 20
91.97033951769548
 30
0.0
 10
112.162098913377
 20
91.98939919186333
 30
0.0
 10
112.1610745427735
 20
91.99677533677276
 30
0.0
 10
112.1617055363931
 20
92.01357346696514
 30
0.0
 10
112.1670650060462
 20
92.01766514771231
 30
0.0
 10
112.1832293406065
 20
92.01766514771231
 30
0.0
  0
LINE
  5
11B
330
1F
100
AcDbEntity
  8
0
  6
Continuous
 62
     7
370
    25
100
AcDbLine
 10
112.1832292621
 20
92.0176652818
 30
0.0
 11
114.4837394451
 21
92.0176652818
 31
0.0
  0
LINE
  5
11C
330
1F
100
AcDbEntity
  8
0
  6
Continuous
 62
     7
370
    25
100
AcDbLine
 10
114.4837394451
 20
91.7676652408
 30
0.0
 11
114.4837394451
 21
92.0176652818
 31
0.0
  0
SPLINE
  5
11D
330
1F
100
AcDbEntity
  8
0
  6
Continuous
 62
     7
370
    25
100
AcDbSpline
210
0.0
220
0.0
230
1.0
 70
     8
 71
     3
 72
    12
 73
     8
 74
     0
 42
0.000000001
 43
0.00000001
 40
0.0
 40
0.0
 40
0.0
 40
0.0
 40
0.25
 40
0.25
 40
0.5
 40
0.5
 40
1.0
 40
1.0
 40
1.0
 40
1.0
 10
109.7337395978233
 20
92.01967274800201
 30
0.0
 10
109.9359470202436
 20
92.00940928871287
 30
0.0
 10
110.137833844348
 20
92.00183050891609
 30
0.0
 10
110.5432110314963
 20
91.98741705346703
 30
0.0
 10
110.74670139454
 20
91.98058237781473
 30
0.0
 10
111.3629448954369
 20
91.95425662481429
 30
0.0
 10
111.7629364213007
 20
91.94458967345331
 30
0.0
 10
112.1689732507942
 20
91.94444184300816
 30
0.0
  0
SPLINE
  5
11E
330
1F
100
AcDbEntity
  8
0
  6
Continuous
 62
     7
370
    25
100
AcDbSpline
210
0.0
220
0.0
230
1.0
 70
    24
 71
     3
 72
    10
 73
     6
 74
     0
 42
0.000000001
 43
0.00000001
 40
0.0
 40
0.0
 40
0.0
 40
0.0
 40
0.5
 40
0.5
 40
1.0
 40
1.0
 40
1.0
 40
1.0
 10
109.7337395978233
 20
92.01967274800201
 30
0.0
 10
109.7337395978233
 20
91.97861891084547
 30
0.0
 10
109.7337395978233
 20
91.93454455853244
 30
0.0
 10
109.7337395978233
 20
91.8431932890205
 30
0.0
 10
109.7337395978233
 20
91.81044350752349
 30
0.0
 10
109.7337395978233
 20
91.76766514771231
 30
0.0
  0
SPLINE
  5
11F
330
1F
100
AcDbEntity
  8
0
  6
Continuous
 62
     7
370
    25
100
AcDbSpline
210
0.0
220
0.0
230
1.0
 70
     8
 71
     3
 72
    12
 73
     8
 74
     0
 42
0.000000001
 43
0.00000001
 40
0.0
 40
0.0
 40
0.0
 40
0.0
 40
0.25
 40
0.25
 40
0.5
 40
0.5
 40
1.0
 40
1.0
 40
1.0
 40
1.0
 10
116.235747198113
 20
85.51766514771232
 30
0.0
 10
116.2254837388239
 20
85.31545772529202
 30
0.0
 10
116.2179049590271
 20
85.11357090118759
 30
0.0
 10
116.203491503578
 20
84.70819371403935
 30
0.0
 10
116.1966568279257
 20
84.50470335099558
 30
0.0
 10
116.1703310749253
 20
83.88845985009873
 30
0.0
 10
116.1606641235643
 20
83.48846832423497
 30
0.0
 10
116.1605162931192
 20
83.08243149474147
 30
0.0
  0
SPLINE
  5
120
330
1F
100
AcDbEntity
  8
0
  6
Continuous
 62
     7
370
    25
100
AcDbSpline
210
0.0
220
0.0
230
1.0
 70
    24
 71
     3
 72
    10
 73
     6
 74
     0
 42
0.000000001
 43
0.00000001
 40
0.0
 40
0.0
 40
0.0
 40
0.0
 40
0.5
 40
0.5
 40
1.0
 40
1.0
 40
1.0
 40
1.0
 10
116.235747198113
 20
85.51766514771232
 30
0.0
 10
116.1946933609565
 20
85.51766514771232
 30
0.0
 10
116.1506190086434
 20
85.51766514771232
 30
0.0
 10
116.0592677391315
 20
85.51766514771232
 30
0.0
 10
116.0265179576345
 20
85.51766514771232
 30
0.0
 10
115.9837395978233
 20
85.51766514771232
 30
0.0
  0
SPLINE
  5
121
330
1F
100
AcDbEntity
  8
0
  6
Continuous
 62
     7
370
    25
100
AcDbSpline
210
0.0
220
0.0
230
1.0
 70
     8
 71
     3
 72
    12
 73
     8
 74
     0
 42
0.000000001
 43
0.00000001
 40
0.0
 40
0.0
 40
0.0
 40
0.0
 40
0.25
 40
0.25
 40
0.5
 40
0.5
 40
1.0
 40
1.0
 40
1.0
 40
1.0
 10
109.7337395978233
 20
92.01967274800201
 30
0.0
 10
109.531532175403
 20
92.00940928871287
 30
0.0
 10
109.3296453512986
 20
92.0018305089161
 30
0.0
 10
108.9242681641503
 20
91.98741705346703
 30
0.0
 10
108.7207778011066
 20
91.98058237781473
 30
0.0
 10
108.1045343002097
 20
91.95425662481429
 30
0.0
 10
107.704542774346
 20
91.94458967345331
 30
0.0
 10
107.2985059448525
 20
91.94444184300816
 30
0.0
  0
SPLINE
  5
122
330
1F
100
AcDbEntity
  8
0
  6
Continuous
 62
     7
370
    25
100
AcDbSpline
210
0.0
220
0.0
230
1.0
 70
     8
 71
     3
 72
    12
 73
     8
 74
     0
 42
0.000000001
 43
0.00000001
 40
0.0
 40
0.0
 40
0.0
 40
0.0
 40
0.25
 40
0.25
 40
0.5
 40
0.5
 40
1.0
 40
1.0
 40
1.0
 40
1.0
 10
116.235747198113
 20
85.51766514771232
 30
0.0
 10
116.2254837388239
 20
85.71987257013261
 30
0.0
 10
116.2179049590271
 20
85.92175939423706
 30
0.0
 10
116.203491503578
 20
86.32713658138528
 30
0.0
 10
116.1966568279257
 20
86.53062694442905
 30
0.0
 10
116.1703310749253
 20
87.1468704453259
 30
0.0
 10
116.1606641235643
 20
87.54686197118967
 30
0.0
 10
116.1605162931192
 20
87.95289880068316
 30
0.0
  0
LWPOLYLINE
  5
123
330
1F
100
AcDbEntity
  8
0
  6
Continuous
 62
     7
370
    25
100
AcDbPolyline
 90
        9
 70
   128
 43
0.0
 10
114.628222501
 20
83.3043162803
 10
114.5822985192
 20
83.2878912426
 10
114.5381398593
 20
83.2720974087
 10
114.4974429254
 20
83.2575415354
 10
114.4617714082
 20
83.2447835802
 10
114.4324971457
 20
83.2343131862
 10
114.4107437787
 20
83.2265329174
 10
114.3973485661
 20
83.2217419612
 10
114.392825598
 20
83.2201242539
  0
LINE
  5
124
330
1F
100
AcDbEntity
  8
0
  6
Continuous
 62
     7
370
    25
100
AcDbLine
 10
114.392825598
 20
83.2201242539
 30
0.0
 11
113.5049631913
 21
85.7025481038
 31
0.0
  0
SPLINE
  5
125
330
1F
100
AcDbEntity
  8
0
  6
Continuous
 62
     7
370
    25
100
AcDbSpline
210
0.0
220
0.0
230
1.0
 70
     8
 71
     3
 72
    10
 73
     6
 74
     0
 42
0.000000001
 43
0.00000001
 40
0.0
 40
0.0
 40
0.0
 40
0.0
 40
0.5
 40
0.5
 40
1.0
 40
1.0
 40
1.0
 40
1.0
 10
113.5049631088359
 20
85.70254811031208
 30
0.0
 10
113.5049631088359
 20
85.70254811031208
 30
0.0
 10
113.5299791561865
 20
85.71313077407301
 30
0.0
 10
113.6152054234857
 20
85.7486370732947
 30
0.0
 10
113.6759072432893
 20
85.77368020782562
 30
0.0
 10
113.7362210658908
 20
85.79831245165644
 30
0.0
  0
SPLINE
  5
126
330
1F
100
AcDbEntity
  8
0
  6
Continuous
 62
     7
370
    25
100
AcDbSpline
210
0.0
220
0.0
230
1.0
 70
     8
 71
     3
 72
    14
 73
    10
 74
     0
 42
0.000000001
 43
0.00000001
 40
0.0
 40
0.0
 40
0.0
 40
0.0
 40
0.25
 40
0.25
 40
0.5
 40
0.5
 40
0.75
 40
0.75
 40
1.0
 40
1.0
 40
1.0
 40
1.0
 10
113.5049631088359
 20
85.70254811031208
 30
0.0
 10
113.4670614270872
 20
85.78013134308577
 30
0.0
 10
113.4059523150953
 20
85.84472080839863
 30
0.0
 10
113.2600186325426
 20
85.93217551300245
 30
0.0
 10
113.17514001239
 20
85.9555552303638
 30
0.0
 10
113.0026638441083
 20
85.95573057703545
 30
0.0
 10
112.918006489702
 20
85.93285032451342
 30
0.0
 10
112.7700269480003
 20
85.84425986771546
 30
0.0
 10
112.7097557696279
 20
85.78011811079506
 30
0.0
 10
112.6718605522409
 20
85.70254811031234
 30
0.0
  0
SPLINE
  5
127
330
1F
100
AcDbEntity
  8
0
  6
Continuous
 62
     7
370
    25
100
AcDbSpline
210
0.0
220
0.0
230
1.0
 70
     8
 71
     3
 72
    10
 73
     6
 74
     0
 42
0.000000001
 43
0.00000001
 40
0.0
 40
0.0
 40
0.0
 40
0.0
 40
0.5
 40
0.5
 40
1.0
 40
1.0
 40
1.0
 40
1.0
 10
112.6718605522407
 20
85.70254811031198
 30
0.0
 10
112.6718605522407
 20
85.70254811031198
 30
0.0
 10
112.6468445048899
 20
85.71313077407252
 30
0.0
 10
112.5616182375907
 20
85.74863707329418
 30
0.0
 10
112.5009164177871
 20
85.773680207825
 30
0.0
 10
112.4406025951856
 20
85.79831245165589
 30
0.0
  0
LINE
  5
128
330
1F
100
AcDbEntity
  8
0
  6
Continuous
 62
     7
370
    25
100
AcDbLine
 10
112.6718604566
 20
85.7025481038
 30
0.0
 11
111.7842052692
 21
83.2207028381
 31
0.0
  0
LWPOLYLINE
  5
129
330
1F
100
AcDbEntity
  8
0
  6
Continuous
 62
     7
370
    25
100
AcDbPolyline
 90
        9
 70
   128
 43
0.0
 10
111.5488082497
 20
83.3048946317
 10
111.5947318823
 20
83.2884695939
 10
111.638890775
 20
83.27267576
 10
111.6795877089
 20
83.2581201195
 10
111.7152589933
 20
83.2453619316
 10
111.7445337215
 20
83.2348915375
 10
111.7662866228
 20
83.2271115016
 10
111.7796820683
 20
83.2223205454
 10
111.7842052692
 20
83.2207028381
  0
SPLINE
  5
12A
330
1F
100
AcDbEntity
  8
0
  6
Continuous
 62
     7
370
    25
100
AcDbSpline
210
0.0
220
0.0
230
1.0
 70
     8
 71
     3
 72
    14
 73
    10
 74
     0
 42
0.000000001
 43
0.00000001
 40
0.0
 40
0.0
 40
0.0
 40
0.0
 40
0.25
 40
0.25
 40
0.5
 40
0.5
 40
0.75
 40
0.75
 40
1.0
 40
1.0
 40
1.0
 40
1.0
 10
109.7337395978233
 20
92.01967274800201
 30
0.0
 10
109.531532175403
 20
92.02993620729113
 30
0.0
 10
109.3309423428727
 20
92.0446010977219
 30
0.0
 10
108.9329683629188
 20
92.0763364759054
 30
0.0
 10
108.7355842154952
 20
92.09340696365815
 30
0.0
 10
108.3439921110812
 20
92.12355627152444
 30
0.0
 10
108.1471139356824
 20
92.12938774167434
 30
0.0
 10
107.7547568752418
 20
92.12328161845276
 30
0.0
 10
107.5592779902001
 20
92.11134402508131
 30
0.0
 10
107.3662805187072
 20
92.09088055197175
 30
0.0
  0
SPLINE
  5
12B
330
1F
100
AcDbEntity
  8
0
  6
Continuous
 62
     7
370
    25
100
AcDbSpline
210
0.0
220
0.0
230
1.0
 70
     8
 71
     3
 72
     8
 73
     4
 74
     0
 42
0.000000001
 43
0.00000001
 40
0.0
 40
0.0
 40
0.0
 40
0.0
 40
1.0
 40
1.0
 40
1.0
 40
1.0
 10
107.3662805187072
 20
92.09088055197175
 30
0.0
 10
107.3800705400503
 20
92.1371611475762
 30
0.0
 10
107.3864267313875
 20
92.20221157637431
 30
0.0
 10
107.3822294447515
 20
92.26766514771231
 30
0.0
  0
SPLINE
  5
12C
330
1F
100
AcDbEntity
  8
0
  6
Continuous
 62
     7
370
    25
100
AcDbSpline
210
0.0
220
0.0
230
1.0
 70
    24
 71
     3
 72
    10
 73
     6
 74
     0
 42
0.000000001
 43
0.00000001
 40
0.0
 40
0.0
 40
0.0
 40
0.0
 40
0.5
 40
0.5
 40
1.0
 40
1.0
 40
1.0
 40
1.0
 10
109.7337395978233
 20
92.01967274800201
 30
0.0
 10
109.7337395978233
 20
92.06072658515855
 30
0.0
 10
109.7337395978233
 20
92.10420341553954
 30
0.0
 10
109.7337395978233
 20
92.19326211526389
 30
0.0
 10
109.7337395978233
 20
92.22536548478755
 30
0.0
 10
109.7337395978233
 20
92.26766514771231
 30
0.0
  0
SPLINE
  5
12D
330
1F
100
AcDbEntity
  8
0
  6
Continuous
 62
     7
370
    25
100
AcDbSpline
210
0.0
220
0.0
230
1.0
 70
     8
 71
     3
 72
    12
 73
     8
 74
     0
 42
0.000000001
 43
0.00000001
 40
0.0
 40
0.0
 40
0.0
 40
0.0
 40
0.25
 40
0.25
 40
0.5
 40
0.5
 40
1.0
 40
1.0
 40
1.0
 40
1.0
 10
116.235747198113
 20
85.51766514771232
 30
0.0
 10
116.2460106574021
 20
85.71987257013261
 30
0.0
 10
116.2606755478329
 20
85.92046240266289
 30
0.0
 10
116.2924109260164
 20
86.31843638261681
 30
0.0
 10
116.3094814137691
 20
86.51582053004044
 30
0.0
 10
116.3547053755686
 20
87.10320868666146
 30
0.0
 10
116.3478819483019
 20
87.49912928384269
 30
0.0
 10
116.3069550020827
 20
87.8851242268284
 30
0.0
  0
SPLINE
  5
12E
330
1F
100
AcDbEntity
  8
0
  6
Continuous
 62
     7
370
    25
100
AcDbSpline
210
0.0
220
0.0
230
1.0
 70
     8
 71
     3
 72
    10
 73
     6
 74
     0
 42
0.000000001
 43
0.00000001
 40
0.0
 40
0.0
 40
0.0
 40
0.0
 40
0.5
 40
0.5
 40
1.0
 40
1.0
 40
1.0
 40
1.0
 10
116.3069550020827
 20
87.8851242268284
 30
0.0
 10
116.33538226215
 20
87.87725499444815
 30
0.0
 10
116.3696089003169
 20
87.87298814706323
 30
0.0
 10
116.4326309458544
 20
87.86905931074926
 30
0.0
 10
116.4612166651464
 20
87.86917530078416
 30
0.0
 10
116.4837395978233
 20
87.86917530078416
 30
0.0
  0
SPLINE
  5
12F
330
1F
100
AcDbEntity
  8
0
  6
Continuous
 62
     7
370
    25
100
AcDbSpline
210
0.0
220
0.0
230
1.0
 70
    24
 71
     3
 72
    10
 73
     6
 74
     0
 42
0.000000001
 43
0.00000001
 40
0.0
 40
0.0
 40
0.0
 40
0.0
 40
0.5
 40
0.5
 40
1.0
 40
1.0
 40
1.0
 40
1.0
 10
116.235747198113
 20
85.51766514771232
 30
0.0
 10
116.2768010352695
 20
85.51766514771232
 30
0.0
 10
116.3202778656505
 20
85.51766514771232
 30
0.0
 10
116.4093365653749
 20
85.51766514771232
 30
0.0
 10
116.4414399348985
 20
85.51766514771232
 30
0.0
 10
116.4837395978233
 20
85.51766514771232
 30
0.0
  0
SPLINE
  5
130
330
1F
100
AcDbEntity
  8
0
  6
Continuous
 62
     7
370
    25
100
AcDbSpline
210
0.0
220
0.0
230
1.0
 70
     8
 71
     3
 72
    10
 73
     6
 74
     0
 42
0.000000001
 43
0.00000001
 40
0.0
 40
0.0
 40
0.0
 40
0.0
 40
0.5
 40
0.5
 40
1.0
 40
1.0
 40
1.0
 40
1.0
 10
112.1011986769394
 20
92.09088055197175
 30
0.0
 10
112.0933294445591
 20
92.11930781203901
 30
0.0
 10
112.0890625971742
 20
92.15353445020588
 30
0.0
 10
112.0851337608602
 20
92.21655649574343
 30
0.0
 10
112.0852497508952
 20
92.24514221503543
 30
0.0
 10
112.0852497508952
 20
92.26766514771231
 30
0.0
  0
SPLINE
  5
131
330
1F
100
AcDbEntity
  8
0
  6
Continuous
 62
     7
370
    25
100
AcDbSpline
210
0.0
220
0.0
230
1.0
 70
     8
 71
     3
 72
    14
 73
    10
 74
     0
 42
0.000000001
 43
0.00000001
 40
0.0
 40
0.0
 40
0.0
 40
0.0
 40
0.25
 40
0.25
 40
0.5
 40
0.5
 40
0.75
 40
0.75
 40
1.0
 40
1.0
 40
1.0
 40
1.0
 10
109.7337395978233
 20
92.01967274800201
 30
0.0
 10
109.9359470202436
 20
92.02993620729113
 30
0.0
 10
110.1365368527739
 20
92.0446010977219
 30
0.0
 10
110.5345108327278
 20
92.07633647590539
 30
0.0
 10
110.7318949801514
 20
92.09340696365815
 30
0.0
 10
111.1234870845654
 20
92.12355627152444
 30
0.0
 10
111.3203652599642
 20
92.12938774167434
 30
0.0
 10
111.7127223204048
 20
92.12328161845278
 30
0.0
 10
111.9082012054465
 20
92.11134402508131
 30
0.0
 10
112.1011986769394
 20
92.09088055197175
 30
0.0
  0
SPLINE
  5
132
330
1F
100
AcDbEntity
  8
0
  6
Continuous
 62
     7
370
    25
100
AcDbSpline
210
0.0
220
0.0
230
1.0
 70
     8
 71
     3
 72
     8
 73
     4
 74
     0
 42
0.000000001
 43
0.00000001
 40
0.0
 40
0.0
 40
0.0
 40
0.0
 40
1.0
 40
1.0
 40
1.0
 40
1.0
 10
116.4837395978233
 20
83.16615499464046
 30
0.0
 10
116.4182860264853
 20
83.17035228127656
 30
0.0
 10
116.3532355976872
 20
83.1639960899393
 30
0.0
 10
116.3069550020827
 20
83.15020606859625
 30
0.0
  0
SPLINE
  5
133
330
1F
100
AcDbEntity
  8
0
  6
Continuous
 62
     7
370
    25
100
AcDbSpline
210
0.0
220
0.0
230
1.0
 70
     8
 71
     3
 72
    12
 73
     8
 74
     0
 42
0.000000001
 43
0.00000001
 40
0.0
 40
0.0
 40
0.0
 40
0.0
 40
0.25
 40
0.25
 40
0.5
 40
0.5
 40
1.0
 40
1.0
 40
1.0
 40
1.0
 10
116.235747198113
 20
85.51766514771232
 30
0.0
 10
116.2460106574021
 20
85.31545772529202
 30
0.0
 10
116.2606755478329
 20
85.11486789276174
 30
0.0
 10
116.2924109260164
 20
84.71689391280782
 30
0.0
 10
116.3094814137691
 20
84.51950976538419
 30
0.0
 10
116.3547053755686
 20
83.93212160876317
 30
0.0
 10
116.3478819483019
 20
83.53620101158195
 30
0.0
 10
116.3069550020827
 20
83.15020606859625
 30
0.0
  0
SPLINE
  5
134
330
1F
100
AcDbEntity
  8
0
  6
Continuous
 62
     7
370
    25
100
AcDbSpline
210
0.0
220
0.0
230
1.0
 70
     8
 71
     3
 72
    14
 73
    10
 74
     0
 42
0.000000001
 43
0.00000001
 40
0.0
 40
0.0
 40
0.0
 40
0.0
 40
0.0526822267945598
 40
0.1287456339724992
 40
0.2353187193853958
 40
0.3749156516620482
 40
0.5485969096886099
 40
0.7568720674016369
 40
0.9999999999999999
 40
0.9999999999999999
 40
0.9999999999999999
 40
0.9999999999999999
 10
107.2842498550401
 20
92.01766514771231
 30
0.0
 10
107.2877305396838
 20
92.01767594872011
 30
0.0
 10
107.2962366902087
 20
92.01770234438864
 30
0.0
 10
107.3067863491178
 20
92.01852925085501
 30
0.0
 10
107.3184299063714
 20
92.02123275124907
 30
0.0
 10
107.3307055001947
 20
92.02753319200605
 30
0.0
 10
107.3434528651699
 20
92.03970737098122
 30
0.0
 10
107.3561976591656
 20
92.05981166026126
 30
0.0
 10
107.3627509070496
 20
92.08000455772451
 30
0.0
 10
107.3662805187072
 20
92.09088055197175
 30
0.0
  0
SPLINE
  5
135
330
1F
100
AcDbEntity
  8
0
  6
Continuous
 62
     7
370
    25
100
AcDbSpline
210
0.0
220
0.0
230
1.0
 70
     8
 71
     3
 72
    12
 73
     8
 74
     0
 42
0.000000001
 43
0.00000001
 40
0.0
 40
0.0
 40
0.0
 40
0.0
 40
0.25
 40
0.25
 40
0.5
 40
0.5
 40
1.0
 40
1.0
 40
1.0
 40
1.0
 10
116.3069550020827
 20
87.8851242268284
 30
0.0
 10
116.2927413720491
 20
87.88905884301852
 30
0.0
 10
116.2800398482965
 20
87.89395637684008
 30
0.0
 10
116.2589724189541
 20
87.90534301060497
 30
0.0
 10
116.2506065133642
 20
87.9118321105483
 30
0.0
 10
116.2339793322396
 20
87.93318535584936
 30
0.0
 10
116.2337395978233
 20
87.94958631183808
 30
0.0
 10
116.2337395978233
 20
87.96715489049551
 30
0.0
  0
SPLINE
  5
136
330
1F
100
AcDbEntity
  8
0
  6
Continuous
 62
     7
370
    25
100
AcDbSpline
210
0.0
220
0.0
230
1.0
 70
     8
 71
     3
 72
    14
 73
    10
 74
     0
 42
0.000000001
 43
0.00000001
 40
0.0
 40
0.0
 40
0.0
 40
0.0
 40
0.243127932598341
 40
0.4514030903113563
 40
0.6250843483379128
 40
0.7646812806145595
 40
0.8712543660274661
 40
0.9473177732054238
 40
1.0
 40
1.0
 40
1.0
 40
1.0
 10
116.3069550020827
 20
83.15020606859625
 30
0.0
 10
116.2960790078355
 20
83.14667645693862
 30
0.0
 10
116.2758861103723
 20
83.1401232090546
 30
0.0
 10
116.2557818210922
 20
83.12737841505887
 30
0.0
 10
116.243607642117
 20
83.11463105008376
 30
0.0
 10
116.2373072013601
 20
83.10235545626044
 30
0.0
 10
116.234603700966
 20
83.0907118990068
 30
0.0
 10
116.2337767944996
 20
83.08016224009774
 30
0.0
 10
116.2337503988311
 20
83.07165608957278
 30
0.0
 10
116.2337395978233
 20
83.06817540492914
 30
0.0
  0
SPLINE
  5
137
330
1F
100
AcDbEntity
  8
0
  6
Continuous
 62
     7
370
    25
100
AcDbSpline
210
0.0
220
0.0
230
1.0
 70
     8
 71
     3
 72
    12
 73
     8
 74
     0
 42
0.000000001
 43
0.00000001
 40
0.0
 40
0.0
 40
0.0
 40
0.0
 40
0.25
 40
0.25
 40
0.5
 40
0.5
 40
1.0
 40
1.0
 40
1.0
 40
1.0
 10
112.1011986769394
 20
92.09088055197175
 30
0.0
 10
112.1051332931295
 20
92.07666692193811
 30
0.0
 10
112.1100308269511
 20
92.06396539818554
 30
0.0
 10
112.1214174607159
 20
92.0428979688431
 30
0.0
 10
112.1279065606593
 20
92.03453206325324
 30
0.0
 10
112.1492598059604
 20
92.01790488212858
 30
0.0
 10
112.1656607619491
 20
92.01766514771231
 30
0.0
 10
112.1832293406065
 20
92.01766514771231
 30
0.0
  0
LINE
  5
138
330
1F
100
AcDbEntity
  8
0
  6
Continuous
 62
     7
370
    25
100
AcDbLine
 10
115.73373965
 20
90.517665036
 30
0.0
 11
115.983739691
 21
90.517665036
 31
0.0
  0
LINE
  5
139
330
1F
100
AcDbEntity
  8
0
  6
Continuous
 62
     7
370
    25
100
AcDbLine
 10
115.983739691
 20
90.517665036
 30
0.0
 11
115.983739691
 21
90.267664995
 31
0.0
  0
LINE
  5
13A
330
1F
100
AcDbEntity
  8
0
  6
Continuous
 62
     7
370
    25
100
AcDbLine
 10
115.73373965
 20
90.517665036
 30
0.0
 11
115.73373965
 21
90.267664995
 31
0.0
  0
LINE
  5
13B
330
1F
100
AcDbEntity
  8
0
  6
Continuous
 62
     7
370
    25
100
AcDbLine
 10
115.983739691
 20
80.7676653004
 30
0.0
 11
115.983739691
 21
80.5176652595
 31
0.0
  0
LINE
  5
13C
330
1F
100
AcDbEntity
  8
0
  6
Continuous
 62
     7
370
    25
100
AcDbLine
 10
115.983739691
 20
80.5176652595
 30
0.0
 11
106.7337395717
 21
80.5176652595
 31
0.0
  0
LINE
  5
13D
330
1F
100
AcDbEntity
  8
0
  6
Continuous
 62
     7
370
    25
100
AcDbLine
 10
106.7337395717
 20
80.7676653004
 30
0.0
 11
106.7337395717
 21
80.5176652595
 31
0.0
  0
LINE
  5
13E
330
1F
100
AcDbEntity
  8
0
  6
Continuous
 62
     7
370
    25
100
AcDbLine
 10
115.1206621063
 20
82.9930601268
 30
0.0
 11
115.0913049561
 21
82.9762837476
 31
0.0
  0
LWPOLYLINE
  5
13F
330
1F
100
AcDbEntity
  8
0
  6
Continuous
 62
     7
370
    25
100
AcDbPolyline
 90
        9
 70
   128
 43
0.0
 10
115.0913049561
 20
82.9762837476
 10
115.0889217016
 20
82.980454443
 10
115.0818632078
 20
82.9928063414
 10
115.0704004896
 20
83.0128647014
 10
115.0549745281
 20
83.0398586205
 10
115.0361781103
 20
83.0727508384
 10
115.014733011
 20
83.1102773174
 10
114.9914639165
 20
83.1509956717
 10
114.9672648964
 20
83.193341745
  0
LWPOLYLINE
  5
140
330
1F
100
AcDbEntity
  8
0
  6
Continuous
 62
     7
370
    25
100
AcDbPolyline
 90
        9
 70
   128
 43
0.0
 10
115.1206621063
 20
82.9930601268
 10
115.1325536986
 20
83.0053885094
 10
115.1677707304
 20
83.0418993811
 10
115.2249609214
 20
83.1011897045
 10
115.301925419
 20
83.1809812318
 10
115.395707274
 20
83.2782075833
 10
115.5027022679
 20
83.3891322929
 10
115.6187986118
 20
83.5094924643
 10
115.739534339
 20
83.6346629168
  0
ARC
  5
141
330
1F
100
AcDbEntity
  8
0
  6
Continuous
 62
     7
370
    25
100
AcDbCircle
 10
115.9837395978
 20
80.7676651477
 30
0.0
 40
0.25
100
AcDbArc
 50
270.0
 51
0.0
  0
ARC
  5
142
330
1F
100
AcDbEntity
  8
0
  6
Continuous
 62
     7
370
    25
100
AcDbCircle
 10
115.9837395978
 20
90.2676651477
 30
0.0
 40
0.25
100
AcDbArc
 50
0.0
 51
90.0
  0
LWPOLYLINE
  5
143
330
1F
100
AcDbEntity
  8
0
  6
Continuous
 62
     7
370
    25
100
AcDbPolyline
 90
        9
 70
   128
 43
0.0
 10
111.2130499306
 20
83.1920781731
 10
111.1895353162
 20
83.1493483949
 10
111.1669243175
 20
83.1082607712
 10
111.1460859749
 20
83.0703941266
 10
111.1278209929
 20
83.0372038855
 10
111.1128312397
 20
83.0099652614
 10
111.1016928545
 20
82.9897252935
 10
111.0948338966
 20
82.9772614035
 10
111.0925179302
 20
82.9730529896
  0
LINE
  5
144
330
1F
100
AcDbEntity
  8
0
  6
Continuous
 62
     7
370
    25
100
AcDbLine
 10
111.0925179302
 20
82.9730529896
 30
0.0
 11
111.0561615416
 21
82.9930601268
 31
0.0
  0
LWPOLYLINE
  5
145
330
1F
100
AcDbEntity
  8
0
  6
Continuous
 62
     7
370
    25
100
AcDbPolyline
 90
        9
 70
   128
 43
0.0
 10
110.4488488264
 20
83.6126264277
 10
110.5673297053
 20
83.491755193
 10
110.6812573481
 20
83.3755286969
 10
110.7862537821
 20
83.2684137951
 10
110.8782838193
 20
83.1745269335
 10
110.9538109369
 20
83.0974760558
 10
111.009932668
 20
83.0402218363
 10
111.0444923026
 20
83.0049649905
 10
111.0561615416
 20
82.9930601268
  0
SPLINE
  5
146
330
1F
100
AcDbEntity
  8
0
  6
Continuous
 62
     7
370
    25
100
AcDbSpline
210
0.0
220
0.0
230
1.0
 70
     8
 71
     3
 72
    10
 73
     6
 74
     0
 42
0.000000001
 43
0.00000001
 40
0.0
 40
0.0
 40
0.0
 40
0.0
 40
0.5
 40
0.5
 40
1.0
 40
1.0
 40
1.0
 40
1.0
 10
115.0913050177723
 20
82.97628383255808
 30
0.0
 10
114.9686230327996
 20
82.90617594482224
 30
0.0
 10
114.8176344040172
 20
82.8927799468434
 30
0.0
 10
114.5522152283694
 20
82.98292498243704
 30
0.0
 10
114.4404534080076
 20
83.08695845205108
 30
0.0
 10
114.3928254078819
 20
83.22012424188652
 30
0.0
  0
ARC
  5
147
330
1F
100
AcDbEntity
  8
0
  6
Continuous
 62
     7
370
    25
100
AcDbCircle
 10
114.4837395978
 20
91.7676651477
 30
0.0
 40
0.25
100
AcDbArc
 50
0.0
 51
90.0
  0
LINE
  5
148
330
1F
100
AcDbEntity
  8
0
  6
Continuous
 62
     7
370
    25
100
AcDbLine
 10
114.4837394451
 20
91.7676652408
 30
0.0
 11
114.7337394861
 21
91.7676652408
 31
0.0
  0
SPLINE
  5
149
330
1F
100
AcDbEntity
  8
0
  6
Continuous
 62
     7
370
    25
100
AcDbSpline
210
0.0
220
0.0
230
1.0
 70
     8
 71
     3
 72
    14
 73
    10
 74
     0
 42
0.000000001
 43
0.00000001
 40
0.0
 40
0.0
 40
0.0
 40
0.0
 40
0.5000000000000003
 40
0.5000000000000003
 40
0.6250000000000006
 40
0.6250000000000006
 40
0.7500000000000008
 40
0.7500000000000008
 40
1.0
 40
1.0
 40
1.0
 40
1.0
 10
111.7116039444573
 20
81.9069215891707
 30
0.0
 10
112.0898162901621
 20
82.24262313598422
 30
0.0
 10
112.5870180454197
 20
82.42331391644753
 30
0.0
 10
113.2136608147055
 20
82.42333744101451
 30
0.0
 10
113.3401832531749
 20
82.41203264048139
 30
0.0
 10
113.5858627818265
 20
82.36784498262115
 30
0.0
 10
113.7062832624303
 20
82.33503166517683
 30
0.0
 10
114.0600055426391
 20
82.20318680234273
 30
0.0
 10
114.2760950028139
 20
82.07478881954067
 30
0.0
 10
114.4652197166195
 20
81.90692158917061
 30
0.0
  0
LWPOLYLINE
  5
14A
330
1F
100
AcDbEntity
  8
0
  6
Continuous
 62
     7
370
    25
100
AcDbPolyline
 90
        9
 70
   128
 43
0.0
 10
114.46521963
 20
81.9069217052
 10
114.4620307815
 20
81.9033288955
 10
114.4525871706
 20
81.8926892336
 10
114.4372510818
 20
81.8754111043
 10
114.4166120422
 20
81.8521587736
 10
114.3914635387
 20
81.8238256126
 10
114.3627722842
 20
81.791500803
 10
114.3316400332
 20
81.7564260307
 10
114.2992635352
 20
81.7199496179
  0
LWPOLYLINE
  5
14B
330
1F
100
AcDbEntity
  8
0
  6
Continuous
 62
     7
370
    25
100
AcDbPolyline
 90
        9
 70
   128
 43
0.0
 10
111.7116040179
 20
81.9069217052
 10
111.7147926335
 20
81.9033288955
 10
111.7242367101
 20
81.8926892336
 10
111.7395725661
 20
81.8754111043
 10
111.7602113728
 20
81.8521587736
 10
111.7853598763
 20
81.8238256126
 10
111.8140515965
 20
81.791500803
 10
111.8451838476
 20
81.7564260307
 10
111.8775603456
 20
81.7199496179
  0
LINE
  5
14C
330
1F
100
AcDbEntity
  8
0
  6
Continuous
 62
     7
370
    25
100
AcDbLine
 10
104.7337397096
 20
82.5176651216
 30
0.0
 11
104.7337397096
 21
91.7676652408
 31
0.0
  0
LINE
  5
14D
330
1F
100
AcDbEntity
  8
0
  6
Continuous
 62
     7
370
    25
100
AcDbLine
 10
104.7337397096
 20
91.7676652408
 30
0.0
 11
104.9837397506
 21
91.7676652408
 31
0.0
  0
LINE
  5
14E
330
1F
100
AcDbEntity
  8
0
  6
Continuous
 62
     7
370
    25
100
AcDbLine
 10
104.7337397096
 20
82.5176651216
 30
0.0
 11
104.9837397506
 21
82.5176651216
 31
0.0
  0
LINE
  5
14F
330
1F
100
AcDbEntity
  8
0
  6
Continuous
 62
     7
370
    25
100
AcDbLine
 10
114.7337394861
 20
91.7676652408
 30
0.0
 11
114.7337394861
 21
91.5176651999
 31
0.0
  0
LINE
  5
150
330
1F
100
AcDbEntity
  8
0
  6
Continuous
 62
     7
370
    25
100
AcDbLine
 10
114.4837394451
 20
91.5176651999
 30
0.0
 11
114.7337394861
 21
91.5176651999
 31
0.0
  0
ARC
  5
151
330
1F
100
AcDbEntity
  8
0
  6
Continuous
 62
     7
370
    25
100
AcDbCircle
 10
115.7337395978
 20
91.5176651477
 30
0.0
 40
1.0
100
AcDbArc
 50
180.0
 51
270.0
  0
ARC
  5
152
330
1F
100
AcDbEntity
  8
0
  6
Continuous
 62
     7
370
    25
100
AcDbCircle
 10
104.9837395978
 20
91.7676651477
 30
0.0
 40
0.25
100
AcDbArc
 50
90.0
 51
180.0
  0
ARC
  5
153
330
1F
100
AcDbEntity
  8
0
  6
Continuous
 62
     7
370
    25
100
AcDbCircle
 10
106.7337395978
 20
82.5176651477
 30
0.0
 40
2.0
100
AcDbArc
 50
180.0
 51
270.0
  0
LINE
  5
154
330
1F
100
AcDbEntity
  8
0
  6
Continuous
 62
     7
370
    25
100
AcDbLine
 10
114.5594154579
 20
81.9231369625
 30
0.0
 11
115.1206621063
 21
82.9930601268
 31
0.0
  0
LWPOLYLINE
  5
155
330
1F
100
AcDbEntity
  8
0
  6
Continuous
 62
     7
370
    25
100
AcDbPolyline
 90
        9
 70
   128
 43
0.0
 10
114.5594154579
 20
81.9231369625
 10
114.5636692737
 20
81.9209055136
 10
114.5762677399
 20
81.9142968486
 10
114.5967261029
 20
81.9035649858
 10
114.6242587921
 20
81.8891222681
 10
114.6578073596
 20
81.8715237639
 10
114.6960823891
 20
81.8514458462
 10
114.7376133223
 20
81.8296601157
 10
114.780804338
 20
81.8070035986
  0
ELLIPSE
  5
156
330
1F
100
AcDbEntity
  8
0
  6
Continuous
 62
     7
370
    25
100
AcDbEllipse
 10
113.3024553052
 20
83.2779239671
 30
0.0
 11
0.05977206589648176
 21
0.0
 31
0.0
210
0.0
220
0.0
230
1.0
 40
0.9531667975
 41
4.712388980384703
 42
6.626209245739648
  0
LINE
  5
157
330
1F
100
AcDbEntity
  8
0
  6
Continuous
 62
     7
370
    25
100
AcDbLine
 10
113.3024552465
 20
83.2209512684
 30
0.0
 11
112.8743684013
 21
83.2209512684
 31
0.0
  0
ELLIPSE
  5
158
330
1F
100
AcDbEntity
  8
0
  6
Continuous
 62
     7
370
    25
100
AcDbEllipse
 10
112.8743683562
 20
83.2779239671
 30
0.0
 11
-0.05977206589648176
 21
0.0
 31
0.0
210
0.0
220
0.0
230
1.0
 40
0.9531667975
 41
5.940161364897858
 42
7.853981633974483
  0
ELLIPSE
  5
159
330
1F
100
AcDbEntity
  8
0
  6
Continuous
 62
     7
370
    25
100
AcDbEllipse
 10
113.088411832
 20
83.8491775397
 30
0.0
 11
0.05977206589648176
 21
0.0
 31
0.0
210
0.0
220
0.0
230
1.0
 40
0.9531667975
 41
0.3430239404218064
 42
2.798568713168691
  0
LINE
  5
15A
330
1F
100
AcDbEntity
  8
0
  6
Continuous
 62
     7
370
    25
100
AcDbLine
 10
113.1447017753
 20
83.8683395506
 30
0.0
 11
113.3587450815
 21
83.2970859575
 31
0.0
  0
LINE
  5
15B
330
1F
100
AcDbEntity
  8
0
  6
Continuous
 62
     7
370
    25
100
AcDbLine
 10
112.8180785664
 20
83.2970859575
 30
0.0
 11
113.0321218726
 21
83.8683395506
 31
0.0
  0
SPLINE
  5
15C
330
1F
100
AcDbEntity
  8
0
  6
Continuous
 62
     7
370
    25
100
AcDbSpline
210
0.0
220
0.0
230
1.0
 70
     8
 71
     3
 72
    23
 73
    19
 74
     0
 42
0.000000001
 43
0.00000001
 40
0.0
 40
0.0
 40
0.0
 40
0.0
 40
0.0000076769896581
 40
0.0000076769896581
 40
0.0000076769896581
 40
0.0000285420058146
 40
0.0000285420058146
 40
0.0000285420058146
 40
0.0000497754494318
 40
0.0000497754494318
 40
0.0000497754494318
 40
0.00007072706396
 40
0.00007072706396
 40
0.00007072706396
 40
0.0000909558732107
 40
0.0000909558732107
 40
0.0000909558732107
 40
0.0001104364738497
 40
0.0001104364738497
 40
0.0001104364738497
 40
0.0001104364738497
 10
114.4652197166195
 20
81.90692158917065
 30
0.0
 10
114.467133558177
 20
81.90522286204428
 30
0.0
 10
114.4691627470313
 20
81.90364618573581
 30
0.0
 10
114.4712800103103
 20
81.90220894547602
 30
0.0
 10
114.4769627801
 20
81.89835136875891
 30
0.0
 10
114.483403135116
 20
81.89544614781349
 30
0.0
 10
114.4900453471529
 20
81.89369806604557
 30
0.0
 10
114.496804605134
 20
81.89191918040088
 30
0.0
 10
114.5039638615641
 20
81.89128608001607
 30
0.0
 10
114.5109312153279
 20
81.89184104318673
 30
0.0
 10
114.5178076559722
 20
81.892388764952
 30
0.0
 10
114.5246870807312
 20
81.89410907869224
 30
0.0
 10
114.5310013202058
 20
81.89688681426733
 30
0.0
 10
114.5370996211612
 20
81.89956955501228
 30
0.0
 10
114.5428347071688
 20
81.90331339517138
 30
0.0
 10
114.547711650497
 20
81.90785231533162
 30
0.0
 10
114.5524090006277
 20
81.9122240899808
 30
0.0
 10
114.5564345416392
 20
81.91745432939985
 30
0.0
 10
114.559415438745
 20
81.92313691369554
 30
0.0
  0
LINE
  5
15D
330
1F
100
AcDbEntity
  8
0
  6
Continuous
 62
     7
370
    25
100
AcDbLine
 10
111.0561615416
 20
82.9930601268
 30
0.0
 11
111.61740819
 21
81.9231369625
 31
0.0
  0
LWPOLYLINE
  5
15E
330
1F
100
AcDbEntity
  8
0
  6
Continuous
 62
     7
370
    25
100
AcDbPolyline
 90
        9
 70
   128
 43
0.0
 10
111.61740819
 20
81.9231369625
 10
111.6131542577
 20
81.9209055136
 10
111.6005560245
 20
81.9142968486
 10
111.5800974286
 20
81.9035649858
 10
111.5525649722
 20
81.8891222681
 10
111.5190164047
 20
81.8715237639
 10
111.4807411424
 20
81.8514458462
 10
111.4392102092
 20
81.8296601157
 10
111.3960193099
 20
81.8070035986
  0
SPLINE
  5
15F
330
1F
100
AcDbEntity
  8
0
  6
Continuous
 62
     7
370
    25
100
AcDbSpline
210
0.0
220
0.0
230
1.0
 70
     8
 71
     3
 72
    23
 73
    19
 74
     0
 42
0.000000001
 43
0.00000001
 40
0.0
 40
0.0
 40
0.0
 40
0.0
 40
0.0000069464595966
 40
0.0000069464595966
 40
0.0000069464595966
 40
0.0000269173558753
 40
0.0000269173558753
 40
0.0000269173558753
 40
0.0000477420212559
 40
0.0000477420212559
 40
0.0000477420212559
 40
0.0000689844307043
 40
0.0000689844307043
 40
0.0000689844307043
 40
0.0000900350769267
 40
0.0000900350769267
 40
0.0000900350769267
 40
0.0001105259114901
 40
0.0001105259114901
 40
0.0001105259114901
 40
0.0001105259114901
 10
111.6174082223305
 20
81.92313691369796
 30
0.0
 10
111.6184838431366
 20
81.92108642161985
 30
0.0
 10
111.6196892480965
 20
81.91909913804463
 30
0.0
 10
111.6210088855828
 20
81.91719649914415
 30
0.0
 10
111.6247541740652
 20
81.91179658315666
 30
0.0
 10
111.6295124826233
 20
81.90699265036164
 30
0.0
 10
111.6348458204284
 20
81.90315314696346
 30
0.0
 10
111.6404053905726
 20
81.89915077748279
 30
0.0
 10
111.6467473100179
 20
81.89607836087245
 30
0.0
 10
111.6533217876926
 20
81.8941537765138
 30
0.0
 10
111.6600277557245
 20
81.8921907002327
 30
0.0
 10
111.6671653482573
 20
81.89136387121124
 30
0.0
 10
111.6741432144593
 20
81.89172864373937
 30
0.0
 10
111.6810591783301
 20
81.89209018028257
 30
0.0
 10
111.6880101946633
 20
81.89363242546523
 30
0.0
 10
111.6944210483661
 20
81.89625200935123
 30
0.0
 10
111.7006621278234
 20
81.89880222059229
 30
0.0
 10
111.7065616820901
 20
81.9024460735108
 30
0.0
 10
111.7116039444553
 20
81.90692158916896
 30
0.0
  0
SPLINE
  5
160
330
1F
100
AcDbEntity
  8
0
  6
Continuous
 62
     7
370
    25
100
AcDbSpline
210
0.0
220
0.0
230
1.0
 70
     8
 71
     3
 72
    10
 73
     6
 74
     0
 42
0.000000001
 43
0.00000001
 40
0.0
 40
0.0
 40
0.0
 40
0.0
 40
0.5
 40
0.5
 40
1.0
 40
1.0
 40
1.0
 40
1.0
 10
111.7842051576361
 20
83.22070273759005
 30
0.0
 10
111.7369704123148
 20
83.08863647086062
 30
0.0
 10
111.6262988919335
 20
82.98518445486802
 30
0.0
 10
111.3653393475663
 20
82.8942328113314
 30
0.0
 10
111.2152739425232
 20
82.90549892907745
 30
0.0
 10
111.0925179393347
 20
82.97305292110059
 30
0.0
  0
ARC
  5
161
330
1F
100
AcDbEntity
  8
0
  6
Continuous
 62
     7
370
    25
100
AcDbCircle
 10
116.4573399507
 20
80.7329282351
 30
0.0
 40
0.2262823933024138
100
AcDbArc
 50
83.3001813581
 51
171.1694920169
  0
ARC
  5
162
330
1F
100
AcDbEntity
  8
0
  6
Continuous
 62
     7
370
    25
100
AcDbCircle
 10
114.5184765104
 20
92.2412655005
 30
0.0
 40
0.2262823933024017
100
AcDbArc
 50
173.3001813581
 51
261.1694920169
  0
ARC
  5
163
330
1F
100
AcDbEntity
  8
0
  6
Continuous
 62
     7
370
    25
100
AcDbCircle
 10
116.4573399507
 20
90.3024020603
 30
0.0
 40
0.2262823933024138
100
AcDbArc
 50
188.8305079831
 51
276.6998186419
  0
ARC
  5
164
330
1F
100
AcDbEntity
  8
0
  6
Continuous
 62
     7
370
    25
100
AcDbCircle
 10
104.9490026852
 20
92.2412655005
 30
0.0
 40
0.2262823933024017
100
AcDbArc
 50
278.8305079831
 51
6.6998186419
  0
LINE
  5
165
330
1F
100
AcDbEntity
  8
0
  6
Continuous
 62
     7
370
    25
100
AcDbLine
 10
114.7337394861
 20
91.7676652408
 30
0.0
 11
114.7737397906
 21
91.7676652408
 31
0.0
  0
LINE
  5
166
330
1F
100
AcDbEntity
  8
0
  6
Continuous
 62
     7
370
    25
100
AcDbLine
 10
115.983739691
 20
80.4776649549
 30
0.0
 11
115.983739691
 21
80.5176652595
 31
0.0
  0
LINE
  5
167
330
1F
100
AcDbEntity
  8
0
  6
Continuous
 62
     7
370
    25
100
AcDbLine
 10
104.7337397096
 20
91.7676652408
 30
0.0
 11
104.693739405
 21
91.7676652408
 31
0.0
  0
LINE
  5
168
330
1F
100
AcDbEntity
  8
0
  6
Continuous
 62
     7
370
    25
100
AcDbLine
 10
115.983739691
 20
90.5576653405
 30
0.0
 11
115.983739691
 21
90.517665036
 31
0.0
  0
LWPOLYLINE
  5
169
330
1F
100
AcDbEntity
  8
0
  6
Continuous
 62
     7
370
    25
100
AcDbPolyline
 90
        9
 70
   128
 43
0.0
 10
106.3905853872
 20
80.5029340646
 10
106.3956440986
 20
80.5122305266
 10
106.4006741718
 20
80.5203050933
 10
106.4056479001
 20
80.52711213
 10
106.4105371107
 20
80.5326139181
 10
106.4153147955
 20
80.5367792583
 10
106.4199539461
 20
80.5395848676
 10
106.4244284854
 20
80.5410153791
 10
106.4287137334
 20
80.5410624109
  0
SPLINE
  5
16A
330
1F
100
AcDbEntity
  8
0
  6
Continuous
 62
     7
370
    25
100
AcDbSpline
210
0.0
220
0.0
230
1.0
 70
     8
 71
     3
 72
    14
 73
    10
 74
     0
 42
0.000000001
 43
0.00000001
 40
0.0
 40
0.0
 40
0.0
 40
0.0
 40
0.2500000000000003
 40
0.2500000000000003
 40
0.5000000000000002
 40
0.5000000000000002
 40
0.7500000000000001
 40
0.7500000000000001
 40
1.0
 40
1.0
 40
1.0
 40
1.0
 10
106.3905854761935
 20
80.50293396526759
 30
0.0
 10
106.1825735865282
 20
80.53268786399315
 30
0.0
 10
105.9826145294507
 20
80.59404360353695
 30
0.0
 10
105.600060650052
 20
80.78379784471868
 30
0.0
 10
105.4277596832216
 20
80.90721449428935
 30
0.0
 10
105.1240880604582
 20
81.21068961855885
 30
0.0
 10
105.0002596295879
 20
81.38340695951074
 30
0.0
 10
104.8104642006849
 20
81.76564136251051
 30
0.0
 10
104.7487639957436
 20
81.96648737994067
 30
0.0
 10
104.7190084153786
 20
82.1745110260825
 30
0.0
  0
LWPOLYLINE
  5
16B
330
1F
100
AcDbEntity
  8
0
  6
Continuous
 62
     7
370
    25
100
AcDbPolyline
 90
        9
 70
   128
 43
0.0
 10
104.757136861
 20
82.2126392833
 10
104.7570898292
 20
82.2083540353
 10
104.7556593177
 20
82.203879496
 10
104.7528537084
 20
82.1992403454
 10
104.7486883682
 20
82.1944626606
 10
104.7431865801
 20
82.1895734499
 10
104.7363795434
 20
82.1845997217
 10
104.7283049767
 20
82.1795696485
 10
104.7190085148
 20
82.1745109371
  0
LINE
  5
16C
330
1F
100
AcDbEntity
  8
0
  6
Continuous
 62
     7
370
    25
100
AcDbLine
 10
106.7337395717
 20
80.4776649549
 30
0.0
 11
106.7337395717
 21
80.5176652595
 31
0.0
  0
LINE
  5
16D
330
1F
100
AcDbEntity
  8
0
  6
Continuous
 62
     7
370
    25
100
AcDbLine
 10
104.7337397096
 20
82.5176651216
 30
0.0
 11
104.693739405
 21
82.5176651216
 31
0.0
  0
SPLINE
  5
16E
330
1F
100
AcDbEntity
  8
0
  6
Continuous
 62
     7
370
    25
100
AcDbSpline
210
0.0
220
0.0
230
1.0
 70
    24
 71
     3
 72
    10
 73
     6
 74
     0
 42
0.000000001
 43
0.00000001
 40
0.0
 40
0.0
 40
0.0
 40
0.0
 40
0.5
 40
0.5
 40
1.0
 40
1.0
 40
1.0
 40
1.0
 10
115.103473360685
 20
90.88739891057399
 30
0.0
 10
115.0781613396666
 20
90.86208688955564
 30
0.0
 10
115.0598153413461
 20
90.84374089123509
 30
0.0
 10
115.033717105129
 20
90.81764265501798
 30
0.0
 10
115.0266328166375
 20
90.81055836652652
 30
0.0
 10
115.0266328166367
 20
90.81055836652577
 30
0.0
  0
LINE
  5
16F
330
1F
100
AcDbEntity
  8
0
  6
Continuous
 62
     7
370
    25
100
AcDbLine
 10
114.7337394861
 20
91.5176651999
 30
0.0
 11
114.7737397906
 21
91.5176651999
 31
0.0
  0
LINE
  5
170
330
1F
100
AcDbEntity
  8
0
  6
Continuous
 62
     7
370
    25
100
AcDbLine
 10
115.73373965
 20
90.5576653405
 30
0.0
 11
115.73373965
 21
90.517665036
 31
0.0
  0
LINE
  5
171
330
1F
100
AcDbEntity
  8
0
  6
Continuous
 62
     8
370
    25
100
AcDbLine
 10
159.2819147837
 20
81.5842158719
 30
0.0
 11
159.2819147837
 21
89.4511144235
 31
0.0
  0
LINE
  5
172
330
1F
100
AcDbEntity
  8
0
  6
Continuous
 62
     8
370
    25
100
AcDbLine
 10
121.2880245504
 20
85.5176651477
 30
0.0
 11
121.2880245504
 21
77.6676654442
 31
0.0
  0
LINE
  5
173
330
1F
100
AcDbEntity
  8
0
  6
Continuous
 62
     8
370
    25
100
AcDbLine
 10
121.2880245504
 20
93.3676648512
 30
0.0
 11
121.2880245504
 21
85.5176651477
 31
0.0
  0
LINE
  5
174
330
1F
100
AcDbEntity
  8
0
  6
Continuous
 62
     8
370
    25
100
AcDbLine
 10
133.6880249065
 20
77.6676654442
 30
0.0
 11
133.6880249065
 21
93.3676648512
 31
0.0
  0
LINE
  5
175
330
1F
100
AcDbEntity
  8
0
  6
Continuous
 62
     8
370
    25
100
AcDbLine
 10
115.73373965
 20
95.0176648422
 30
0.0
 11
103.7337395457
 21
95.0176648422
 31
0.0
  0
LINE
  5
176
330
1F
100
AcDbEntity
  8
0
  6
Continuous
 62
     8
370
    25
100
AcDbLine
 10
119.2337392923
 20
79.5176650956
 30
0.0
 11
119.2337392923
 21
91.5176651999
 31
0.0
  0
LWPOLYLINE
  5
177
330
1F
100
AcDbEntity
  8
0
  6
Continuous
 62
     8
370
    25
100
AcDbPolyline
 90
        8
 70
   128
 43
0.0
 10
103.7337395457
 20
81.5176649577
 10
103.7544111815
 20
81.5314462035
 10
103.8162826655
 20
81.5726940147
 10
103.9189288487
 20
81.6411245707
 10
104.0616414604
 20
81.7362663894
 10
104.2434374896
 20
81.857463587
 10
104.4630643074
 20
82.0038814656
 10
104.7190085148
 20
82.1745109371
  0
LWPOLYLINE
  5
178
330
1F
100
AcDbEntity
  8
0
  6
Continuous
 62
     8
370
    25
100
AcDbPolyline
 90
        8
 70
   128
 43
0.0
 10
106.3905853872
 20
80.5029340646
 10
106.2199559157
 20
80.2469898573
 10
106.0735380371
 20
80.0273630395
 10
105.9523408395
 20
79.8455670103
 10
105.8571990208
 20
79.7028543986
 10
105.7887684648
 20
79.6002082153
 10
105.7475206536
 20
79.5383367314
 10
105.7337394078
 20
79.5176650956
  0
LINE
  5
179
330
1F
100
AcDbEntity
  8
0
  6
Continuous
 62
     7
370
     0
100
AcDbLine
 10
115.4832779017
 20
106.6524394252
 30
0.0
 11
115.8309270978
 21
95.5276651477
 31
0.0
  0
LINE
  5
17A
330
1F
100
AcDbEntity
  8
0
  6
Continuous
 62
     7
370
     0
100
AcDbLine
 10
103.984201294
 20
106.6524394252
 30
0.0
 11
103.6365520978
 21
95.5276651477
 31
0.0
  0
LINE
  5
17B
330
1F
100
AcDbEntity
  8
0
  6
Continuous
 62
     7
370
     0
100
AcDbLine
 10
102.9680520978
 20
95.5276651477
 30
0.0
 11
116.4994270978
 21
95.5276651477
 31
0.0
  0
LINE
  5
17C
330
1F
100
AcDbEntity
  8
0
  6
CENTERX2
 62
     7
370
    18
100
AcDbLine
 10
101.6569011064
 20
85.5176651477
 30
0.0
 11
161.9880245161
 21
85.5176651477
 31
0.0
  0
LINE
  5
17D
330
1F
100
AcDbEntity
  8
0
  6
CENTERX2
 62
     7
370
    18
100
AcDbLine
 10
109.7337395978
 20
105.4283052547
 30
0.0
 11
109.7337395978
 21
76.3349226431
 31
0.0
  0
LINE
  5
17E
330
1F
100
AcDbEntity
  8
0
  6
CENTERX2
 62
     7
370
    18
100
AcDbLine
 10
109.7337395978
 20
105.4283052547
 30
0.0
 11
109.7337395978
 21
109.5176651477
 31
0.0
  0
ARC
  5
17F
330
1F
100
AcDbEntity
  8
0
  6
Continuous
 62
     7
370
    25
100
AcDbCircle
 10
190.0726737878
 20
96.0176651477
 30
0.0
 40
0.5
100
AcDbArc
 50
268.1671385201
 51
270.0
  0
ARC
  5
180
330
1F
100
AcDbEntity
  8
0
  6
Continuous
 62
     7
370
    25
100
AcDbCircle
 10
203.5726737878
 20
96.0176651477
 30
0.0
 40
0.5
100
AcDbArc
 50
270.0
 51
271.8328614799
  0
LINE
  5
181
330
1F
100
AcDbEntity
  8
0
  6
Continuous
 62
     7
370
    25
100
AcDbLine
 10
203.5886657028
 20
95.5179210379
 30
0.0
 11
203.2789664878
 21
105.4283061623
 31
0.0
  0
LINE
  5
182
330
1F
100
AcDbEntity
  8
0
  6
Continuous
 62
     7
370
    25
100
AcDbLine
 10
190.3663810877
 20
105.4283061623
 30
0.0
 11
190.0566818727
 21
95.5179210379
 31
0.0
  0
ARC
  5
183
330
1F
100
AcDbEntity
  8
0
  6
Continuous
 62
     7
370
    25
100
AcDbCircle
 10
190.3226737878
 20
95.0176651477
 30
0.0
 40
0.5
100
AcDbArc
 50
0.0
 51
90.0
  0
ARC
  5
184
330
1F
100
AcDbEntity
  8
0
  6
Continuous
 62
     7
370
    25
100
AcDbCircle
 10
203.3226737878
 20
95.0176651477
 30
0.0
 40
0.5
100
AcDbArc
 50
90.0
 51
180.0
  0
LINE
  5
185
330
1F
100
AcDbEntity
  8
0
  6
Continuous
 62
     7
370
    25
100
AcDbLine
 10
203.2789664878
 20
105.4283061623
 30
0.0
 11
202.072673717
 21
107.5176650285
 31
0.0
  0
LINE
  5
186
330
1F
100
AcDbEntity
  8
0
  6
Continuous
 62
     7
370
    25
100
AcDbLine
 10
191.5726738585
 20
107.5176650285
 30
0.0
 11
190.3663810877
 21
105.4283061623
 31
0.0
  0
LINE
  5
187
330
1F
100
AcDbEntity
  8
0
  6
Continuous
 62
     7
370
    25
100
AcDbLine
 10
202.8226738399
 20
92.2676653228
 30
0.0
 11
202.8226738399
 21
95.0176648422
 31
0.0
  0
LINE
  5
188
330
1F
100
AcDbEntity
  8
0
  6
Continuous
 62
     7
370
    25
100
AcDbLine
 10
190.8226737356
 20
95.0176648422
 30
0.0
 11
190.8226737356
 21
92.2676653228
 31
0.0
  0
CIRCLE
  5
189
330
1F
100
AcDbEntity
  8
0
  6
Continuous
 62
     7
370
    25
100
AcDbCircle
 10
196.8226737878
 20
85.5176651477
 30
0.0
 40
3.933449123032062
  0
CIRCLE
  5
18A
330
1F
100
AcDbEntity
  8
0
  6
Continuous
 62
     7
370
    25
100
AcDbCircle
 10
196.8226737878
 20
85.5176651477
 30
0.0
 40
3.138978050180555
  0
CIRCLE
  5
18B
330
1F
100
AcDbEntity
  8
0
  6
Continuous
 62
     7
370
    25
100
AcDbCircle
 10
196.8226737878
 20
85.5176651477
 30
0.0
 40
2.700000000000017
  0
CIRCLE
  5
18C
330
1F
100
AcDbEntity
  8
0
  6
Continuous
 62
     7
370
    25
100
AcDbCircle
 10
196.8226737878
 20
85.5176651477
 30
0.0
 40
2.5
  0
CIRCLE
  5
18D
330
1F
100
AcDbEntity
  8
0
  6
Continuous
 62
     7
370
    25
100
AcDbCircle
 10
196.8226737878
 20
85.5176651477
 30
0.0
 40
4.5
  0
CIRCLE
  5
18E
330
1F
100
AcDbEntity
  8
0
  6
Continuous
 62
     7
370
    25
100
AcDbCircle
 10
196.8226737878
 20
85.5176651477
 30
0.0
 40
4.749999999999972
  0
CIRCLE
  5
18F
330
1F
100
AcDbEntity
  8
0
  6
Continuous
 62
     7
370
    25
100
AcDbCircle
 10
196.8226737878
 20
85.5176651477
 30
0.0
 40
4.849999999999966
  0
CIRCLE
  5
190
330
1F
100
AcDbEntity
  8
0
  6
Continuous
 62
     7
370
    25
100
AcDbCircle
 10
196.8226737878
 20
85.5176651477
 30
0.0
 40
7.849999999999994
  0
CIRCLE
  5
191
330
1F
100
AcDbEntity
  8
0
  6
Continuous
 62
     7
370
    25
100
AcDbCircle
 10
196.8226737878
 20
85.5176651477
 30
0.0
 40
7.549999999999983
  0
SPLINE
  5
192
330
1F
100
AcDbEntity
  8
0
  6
Continuous
 62
     7
370
    25
100
AcDbSpline
210
0.0
220
0.0
230
1.0
 70
     8
 71
     3
 72
    15
 73
    11
 74
     0
 42
0.000000001
 43
0.00000001
 40
0.0
 40
0.0
 40
0.0
 40
0.0
 40
0.1323049836088744
 40
0.2645725542962953
 40
0.3997989460670495
 40
0.5350009961647513
 40
0.6501921448046264
 40
0.7654012094574273
 40
0.8826892612248055
 40
1.0
 40
1.0
 40
1.0
 40
1.0
 10
188.8226734077869
 20
90.1364672555829
 30
0.0
 10
189.1683046760491
 20
90.33601762634467
 30
0.0
 10
189.8594694756999
 20
90.73506193943943
 30
0.0
 10
190.9238013224737
 20
91.34955338107362
 30
0.0
 10
192.0081963819371
 20
91.9756297741949
 30
0.0
 10
193.0533120413862
 20
92.57902720380648
 30
0.0
 10
194.0419666707631
 20
93.14982789955928
 30
0.0
 10
194.975015751851
 20
93.68852296261518
 30
0.0
 10
195.9038456395331
 20
94.22478327429381
 30
0.0
 10
196.5163779932602
 20
94.57842926722212
 30
0.0
 10
196.8226737877665
 20
94.75526936345348
 30
0.0
  0
SPLINE
  5
193
330
1F
100
AcDbEntity
  8
0
  6
Continuous
 62
     7
370
    25
100
AcDbSpline
210
0.0
220
0.0
230
1.0
 70
     8
 71
     3
 72
    15
 73
    11
 74
     0
 42
0.000000001
 43
0.00000001
 40
0.0
 40
0.0
 40
0.0
 40
0.0
 40
0.1323049282587865
 40
0.2645725126911059
 40
0.3997989257496958
 40
0.5350009327659058
 40
0.6501920780127178
 40
0.7654011811473761
 40
0.8826892697167906
 40
1.0
 40
1.0
 40
1.0
 40
1.0
 10
196.8226737877665
 20
94.75526936345348
 30
0.0
 10
197.1683049772753
 20
94.55571921839295
 30
0.0
 10
197.8594697999029
 20
94.15667525244731
 30
0.0
 10
198.9238011223317
 20
93.54218298629773
 30
0.0
 10
200.0081964924761
 20
92.91610718347195
 30
0.0
 10
201.0533116194361
 20
92.3127089874525
 30
0.0
 10
202.0419669634163
 20
91.74190958148415
 30
0.0
 10
202.975015335834
 20
91.20321283550328
 30
0.0
 10
203.903845747296
 20
90.6669529734986
 30
0.0
 10
204.5163783219168
 20
90.31330720529816
 30
0.0
 10
204.8226741677461
 20
90.1364672555829
 30
0.0
  0
SPLINE
  5
194
330
1F
100
AcDbEntity
  8
0
  6
Continuous
 62
     7
370
    25
100
AcDbSpline
210
0.0
220
0.0
230
1.0
 70
    24
 71
     3
 72
    16
 73
    12
 74
     0
 42
0.000000001
 43
0.00000001
 40
0.0
 40
0.0
 40
0.0
 40
0.0
 40
0.0956237048719251
 40
0.1912377572329386
 40
0.2877937386129499
 40
0.384338844905961
 40
0.5102676226299211
 40
0.6361984342829863
 40
0.7654843057556924
 40
0.8948065565616085
 40
1.0
 40
1.0
 40
1.0
 40
1.0
 10
204.8226741677461
 20
90.1364672555829
 30
0.0
 10
204.8226741677461
 20
89.8483792290074
 30
0.0
 10
204.8226741677461
 20
89.2722322562275
 30
0.0
 10
204.8226741677461
 20
88.39318405937848
 30
0.0
 10
204.8226741677461
 20
87.50296259595618
 30
0.0
 10
204.8226741677461
 20
86.51107095470972
 30
0.0
 10
204.8226741677461
 20
85.42138133281173
 30
0.0
 10
204.8226741677461
 20
84.22996278331887
 30
0.0
 10
204.8226741677461
 20
83.03756722388052
 30
0.0
 10
204.8226741677461
 20
81.92266802701356
 30
0.0
 10
204.8226741677461
 20
81.21589181553101
 30
0.0
 10
204.8226741677461
 20
80.89886303984174
 30
0.0
  0
SPLINE
  5
195
330
1F
100
AcDbEntity
  8
0
  6
Continuous
 62
     7
370
    25
100
AcDbSpline
210
0.0
220
0.0
230
1.0
 70
     8
 71
     3
 72
    15
 73
    11
 74
     0
 42
0.000000001
 43
0.00000001
 40
0.0
 40
0.0
 40
0.0
 40
0.0
 40
0.1323049836088737
 40
0.2645725542962938
 40
0.3997989460670472
 40
0.5350009961647483
 40
0.6501921448046227
 40
0.765401209457423
 40
0.8826892612248005
 40
1.0
 40
1.0
 40
1.0
 40
1.0
 10
204.8226741677461
 20
80.89886303984174
 30
0.0
 10
204.4770428994838
 20
80.69931266907996
 30
0.0
 10
203.7858780998331
 20
80.30026835598521
 30
0.0
 10
202.7215462530593
 20
79.68577691435102
 30
0.0
 10
201.6371511935959
 20
79.05970052122974
 30
0.0
 10
200.5920355341467
 20
78.45630309161817
 30
0.0
 10
199.6033809047698
 20
77.88550239586536
 30
0.0
 10
198.670331823682
 20
77.34680733280946
 30
0.0
 10
197.7415019359999
 20
76.81054702113082
 30
0.0
 10
197.1289695822727
 20
76.45690102820251
 30
0.0
 10
196.8226737877664
 20
76.28006093197116
 30
0.0
  0
SPLINE
  5
196
330
1F
100
AcDbEntity
  8
0
  6
Continuous
 62
     7
370
    25
100
AcDbSpline
210
0.0
220
0.0
230
1.0
 70
     8
 71
     3
 72
    15
 73
    11
 74
     0
 42
0.000000001
 43
0.00000001
 40
0.0
 40
0.0
 40
0.0
 40
0.0
 40
0.1323049282587815
 40
0.2645725126911017
 40
0.3997989257496923
 40
0.5350009327659031
 40
0.650192078012716
 40
0.7654011811473749
 40
0.8826892697167901
 40
1.0
 40
1.0
 40
1.0
 40
1.0
 10
196.8226737877664
 20
76.28006093197116
 30
0.0
 10
196.4770425982577
 20
76.47961107703169
 30
0.0
 10
195.78587777563
 20
76.87865504297734
 30
0.0
 10
194.7215464532013
 20
77.49314730912691
 30
0.0
 10
193.6371510830568
 20
78.11922311195268
 30
0.0
 10
192.5920359560968
 20
78.72262130797213
 30
0.0
 10
191.6033806121167
 20
79.29342071394048
 30
0.0
 10
190.6703322396989
 20
79.83211745992135
 30
0.0
 10
189.7415018282369
 20
80.36837732192605
 30
0.0
 10
189.1289692536162
 20
80.72202309012647
 30
0.0
 10
188.8226734077869
 20
80.89886303984174
 30
0.0
  0
SPLINE
  5
197
330
1F
100
AcDbEntity
  8
0
  6
Continuous
 62
     7
370
    25
100
AcDbSpline
210
0.0
220
0.0
230
1.0
 70
    24
 71
     3
 72
    16
 73
    12
 74
     0
 42
0.000000001
 43
0.00000001
 40
0.0
 40
0.0
 40
0.0
 40
0.0
 40
0.1051935697998784
 40
0.2312919055104034
 40
0.3573572604453449
 40
0.4865103305331645
 40
0.6156604549436534
 40
0.7112032446126787
 40
0.8067564405381822
 40
0.9033731847371418
 40
1.0
 40
1.0
 40
1.0
 40
1.0
 10
188.8226734077869
 20
80.89886303984174
 30
0.0
 10
188.8226734077869
 20
81.21589084831075
 30
0.0
 10
188.8226734077869
 20
81.91294834013351
 30
0.0
 10
188.8226734077869
 20
83.00786588869339
 30
0.0
 10
188.8226734077869
 20
84.18972939309879
 30
0.0
 10
188.8226734077869
 20
85.39109911624273
 30
0.0
 10
188.8226734077869
 20
86.49792501676507
 30
0.0
 10
188.8226734077869
 20
87.49361590149762
 30
0.0
 10
188.8226734077869
 20
88.38086800757455
 30
0.0
 10
188.8226734077869
 20
89.26313853745201
 30
0.0
 10
188.8226734077869
 20
89.84534756875483
 30
0.0
 10
188.8226734077869
 20
90.1364672555829
 30
0.0
  0
LINE
  5
198
330
1F
100
AcDbEntity
  8
0
  6
Continuous
 62
     7
370
    25
100
AcDbLine
 10
196.8226737878
 20
95.5179210379
 30
0.0
 11
190.0566818727
 21
95.5179210379
 31
0.0
  0
LINE
  5
199
330
1F
100
AcDbEntity
  8
0
  6
Continuous
 62
     7
370
    25
100
AcDbLine
 10
203.5886657028
 20
95.5179210379
 30
0.0
 11
196.8226737878
 21
95.5179210379
 31
0.0
  0
LINE
  5
19A
330
1F
100
AcDbEntity
  8
0
  6
Continuous
 62
     7
370
    25
100
AcDbLine
 10
196.8226737878
 20
95.5176649242
 30
0.0
 11
190.0726736127
 21
95.5176649242
 31
0.0
  0
LINE
  5
19B
330
1F
100
AcDbEntity
  8
0
  6
Continuous
 62
     7
370
    25
100
AcDbLine
 10
203.5726739629
 20
95.5176649242
 30
0.0
 11
196.8226737878
 21
95.5176649242
 31
0.0
  0
LINE
  5
19C
330
1F
100
AcDbEntity
  8
0
  6
Continuous
 62
     7
370
    25
100
AcDbLine
 10
203.2789664878
 20
105.4283061623
 30
0.0
 11
190.3663810877
 21
105.4283061623
 31
0.0
  0
LINE
  5
19D
330
1F
100
AcDbEntity
  8
0
  6
Continuous
 62
     7
370
    25
100
AcDbLine
 10
196.8226737878
 20
107.5176650285
 30
0.0
 11
202.072673717
 21
107.5176650285
 31
0.0
  0
LINE
  5
19E
330
1F
100
AcDbEntity
  8
0
  6
Continuous
 62
     7
370
    25
100
AcDbLine
 10
191.5726738585
 20
107.5176650285
 30
0.0
 11
196.8226737878
 21
107.5176650285
 31
0.0
  0
LINE
  5
19F
330
1F
100
AcDbEntity
  8
0
  6
Continuous
 62
     7
370
    25
100
AcDbLine
 10
190.8226737356
 20
91.5176651999
 30
0.0
 11
191.0726737766
 21
91.5176651999
 31
0.0
  0
LINE
  5
1A0
330
1F
100
AcDbEntity
  8
0
  6
Continuous
 62
     7
370
    25
100
AcDbLine
 10
190.8226737356
 20
91.2865439988
 30
0.0
 11
190.8226737356
 21
91.5176651999
 31
0.0
  0
LINE
  5
1A1
330
1F
100
AcDbEntity
  8
0
  6
Continuous
 62
     7
370
    25
100
AcDbLine
 10
202.8226738399
 20
91.5176651999
 30
0.0
 11
202.5726737989
 21
91.5176651999
 31
0.0
  0
LINE
  5
1A2
330
1F
100
AcDbEntity
  8
0
  6
Continuous
 62
     7
370
    25
100
AcDbLine
 10
202.8226738399
 20
91.5176651999
 30
0.0
 11
202.8226738399
 21
91.2868662364
 31
0.0
  0
SPLINE
  5
1A3
330
1F
100
AcDbEntity
  8
0
  6
Continuous
 62
     7
370
    25
100
AcDbSpline
210
0.0
220
0.0
230
1.0
 70
    24
 71
     3
 72
    14
 73
    10
 74
     0
 42
0.000000001
 43
0.00000001
 40
0.0
 40
0.0
 40
0.0
 40
0.0
 40
0.25
 40
0.25
 40
0.5
 40
0.5
 40
0.75
 40
0.75
 40
1.0
 40
1.0
 40
1.0
 40
1.0
 10
190.8226737877665
 20
92.26766514771231
 30
0.0
 10
190.8226737877665
 20
92.26766514771231
 30
0.0
 10
190.8325187015041
 20
92.26766514771231
 30
0.0
 10
190.8720108078132
 20
92.26766514771231
 30
0.0
 10
190.9016584469884
 20
92.26766514771231
 30
0.0
 10
190.981087584192
 20
92.26766514771231
 30
0.0
 10
191.0308700082614
 20
92.26766514771231
 30
0.0
 10
191.1510989945959
 20
92.26766514771231
 30
0.0
 10
191.2215470272031
 20
92.26766514771231
 30
0.0
 10
191.3026737877665
 20
92.26766514771231
 30
0.0
  0
SPLINE
  5
1A4
330
1F
100
AcDbEntity
  8
0
  6
Continuous
 62
     7
370
    25
100
AcDbSpline
210
0.0
220
0.0
230
1.0
 70
    24
 71
     3
 72
    14
 73
    10
 74
     0
 42
0.000000001
 43
0.00000001
 40
0.0
 40
0.0
 40
0.0
 40
0.0
 40
0.25
 40
0.25
 40
0.5
 40
0.5
 40
0.75
 40
0.75
 40
1.0
 40
1.0
 40
1.0
 40
1.0
 10
202.8226737877665
 20
92.26766514771231
 30
0.0
 10
202.8226737877665
 20
92.26766514771231
 30
0.0
 10
202.8128288740289
 20
92.26766514771231
 30
0.0
 10
202.7733367677198
 20
92.26766514771231
 30
0.0
 10
202.7436891285446
 20
92.26766514771231
 30
0.0
 10
202.6642599913409
 20
92.26766514771231
 30
0.0
 10
202.6144775672716
 20
92.26766514771231
 30
0.0
 10
202.494248580937
 20
92.26766514771231
 30
0.0
 10
202.4238005483299
 20
92.26766514771231
 30
0.0
 10
202.3426737877665
 20
92.26766514771231
 30
0.0
  0
SPLINE
  5
1A5
330
1F
100
AcDbEntity
  8
0
  6
Continuous
 62
     7
370
    25
100
AcDbSpline
210
0.0
220
0.0
230
1.0
 70
     8
 71
     3
 72
    10
 73
     6
 74
     0
 42
0.000000001
 43
0.00000001
 40
0.0
 40
0.0
 40
0.0
 40
0.0
 40
0.5
 40
0.5
 40
1.0
 40
1.0
 40
1.0
 40
1.0
 10
202.4154615348721
 20
92.09088055197175
 30
0.0
 10
202.3879205880501
 20
92.11930781203901
 30
0.0
 10
202.3683074541604
 20
92.15353445020588
 30
0.0
 10
202.3459985808721
 20
92.21655649574343
 30
0.0
 10
202.3426737877665
 20
92.24514221503543
 30
0.0
 10
202.3426737877665
 20
92.26766514771231
 30
0.0
  0
SPLINE
  5
1A6
330
1F
100
AcDbEntity
  8
0
  6
Continuous
 62
     7
370
    25
100
AcDbSpline
210
0.0
220
0.0
230
1.0
 70
     8
 71
     3
 72
    12
 73
     8
 74
     0
 42
0.000000001
 43
0.00000001
 40
0.0
 40
0.0
 40
0.0
 40
0.0
 40
0.25
 40
0.25
 40
0.5
 40
0.5
 40
1.0
 40
1.0
 40
1.0
 40
1.0
 10
202.4154615348721
 20
92.09088055197175
 30
0.0
 10
202.4292320082831
 20
92.07666692193811
 30
0.0
 10
202.4452960281343
 20
92.06396539818554
 30
0.0
 10
202.4786873323297
 20
92.0428979688431
 30
0.0
 10
202.4960146166738
 20
92.03453206325324
 30
0.0
 10
202.5449056238641
 20
92.01790488212858
 30
0.0
 10
202.5726737877665
 20
92.01766514771231
 30
0.0
 10
202.5726737877665
 20
92.01766514771231
 30
0.0
  0
LINE
  5
1A7
330
1F
100
AcDbEntity
  8
0
  6
Continuous
 62
     7
370
    25
100
AcDbLine
 10
191.0726737766
 20
92.0176652818
 30
0.0
 11
192.0810041553
 21
92.0176652818
 31
0.0
  0
LINE
  5
1A8
330
1F
100
AcDbEntity
  8
0
  6
Continuous
 62
     7
370
    25
100
AcDbLine
 10
191.0726737766
 20
91.7676652408
 30
0.0
 11
191.0726737766
 21
92.0176652818
 31
0.0
  0
LINE
  5
1A9
330
1F
100
AcDbEntity
  8
0
  6
Continuous
 62
     7
370
    25
100
AcDbLine
 10
191.0726737766
 20
91.7676652408
 30
0.0
 11
191.0726737766
 21
91.5176651999
 31
0.0
  0
LINE
  5
1AA
330
1F
100
AcDbEntity
  8
0
  6
Continuous
 62
     7
370
    25
100
AcDbLine
 10
202.5726737989
 20
91.5176651999
 30
0.0
 11
202.5726737989
 21
92.0176652818
 31
0.0
  0
LINE
  5
1AB
330
1F
100
AcDbEntity
  8
0
  6
Continuous
 62
     7
370
    25
100
AcDbLine
 10
201.5643434203
 20
92.0176652818
 30
0.0
 11
202.5726737989
 21
92.0176652818
 31
0.0
  0
ARC
  5
1AC
330
1F
100
AcDbEntity
  8
0
  6
Continuous
 62
     7
370
    25
100
AcDbCircle
 10
191.0726737878
 20
91.7676651477
 30
0.0
 40
0.25
100
AcDbArc
 50
90.0
 51
180.0
  0
LINE
  5
1AD
330
1F
100
AcDbEntity
  8
0
  6
Continuous
 62
     7
370
    25
100
AcDbLine
 10
190.8226737356
 20
91.7676652408
 30
0.0
 11
191.0726737766
 21
91.7676652408
 31
0.0
  0
LINE
  5
1AE
330
1F
100
AcDbEntity
  8
0
  6
Continuous
 62
     7
370
    25
100
AcDbLine
 10
190.8226737356
 20
91.5176651999
 30
0.0
 11
190.8226737356
 21
91.7676652408
 31
0.0
  0
ARC
  5
1AF
330
1F
100
AcDbEntity
  8
0
  6
Continuous
 62
     7
370
    25
100
AcDbCircle
 10
202.5726737878
 20
91.7676651477
 30
0.0
 40
0.25
100
AcDbArc
 50
0.0
 51
90.0
  0
LINE
  5
1B0
330
1F
100
AcDbEntity
  8
0
  6
Continuous
 62
     7
370
    25
100
AcDbLine
 10
202.8226738399
 20
91.7676652408
 30
0.0
 11
202.8226738399
 21
91.5176651999
 31
0.0
  0
SPLINE
  5
1B1
330
1F
100
AcDbEntity
  8
0
  6
Continuous
 62
     7
370
    25
100
AcDbSpline
210
0.0
220
0.0
230
1.0
 70
     8
 71
     3
 72
    12
 73
     8
 74
     0
 42
0.000000001
 43
0.00000001
 40
0.0
 40
0.0
 40
0.0
 40
0.0
 40
0.25
 40
0.25
 40
0.5
 40
0.5
 40
1.0
 40
1.0
 40
1.0
 40
1.0
 10
191.2298860406609
 20
92.09088055197175
 30
0.0
 10
191.2161155672499
 20
92.07666692193811
 30
0.0
 10
191.2000515473986
 20
92.06396539818554
 30
0.0
 10
191.1666602432033
 20
92.0428979688431
 30
0.0
 10
191.1493329588592
 20
92.03453206325324
 30
0.0
 10
191.1004419516689
 20
92.01790488212858
 30
0.0
 10
191.0726737877665
 20
92.01766514771231
 30
0.0
 10
191.0726737877665
 20
92.01766514771231
 30
0.0
  0
SPLINE
  5
1B2
330
1F
100
AcDbEntity
  8
0
  6
Continuous
 62
     7
370
    25
100
AcDbSpline
210
0.0
220
0.0
230
1.0
 70
     8
 71
     3
 72
    10
 73
     6
 74
     0
 42
0.000000001
 43
0.00000001
 40
0.0
 40
0.0
 40
0.0
 40
0.0
 40
0.5
 40
0.5
 40
1.0
 40
1.0
 40
1.0
 40
1.0
 10
191.2298860406609
 20
92.09088055197175
 30
0.0
 10
191.2574269874829
 20
92.11930781203901
 30
0.0
 10
191.2770401213725
 20
92.15353445020588
 30
0.0
 10
191.2993489946609
 20
92.21655649574343
 30
0.0
 10
191.3026737877665
 20
92.24514221503543
 30
0.0
 10
191.3026737877665
 20
92.26766514771231
 30
0.0
  0
LINE
  5
1B3
330
1F
100
AcDbEntity
  8
0
  6
Continuous
 62
     7
370
    25
100
AcDbLine
 10
199.2721634521
 20
85.017665124
 30
0.0
 11
194.3731841235
 21
85.017665124
 31
0.0
  0
SPLINE
  5
1B4
330
1F
100
AcDbEntity
  8
0
  6
Continuous
 62
     7
370
    25
100
AcDbSpline
210
0.0
220
0.0
230
1.0
 70
     8
 71
     3
 72
    14
 73
    10
 74
     0
 42
0.000000001
 43
0.00000001
 40
0.0
 40
0.0
 40
0.0
 40
0.0
 40
0.0956663388952793
 40
0.2495117647446216
 40
0.3929992592178784
 40
0.5362724562146268
 40
0.6795818735399597
 40
0.8231360267727043
 40
1.0
 40
1.0
 40
1.0
 40
1.0
 10
194.8182014817683
 20
84.0575542626212
 30
0.0
 10
194.9369104532769
 20
84.0108552259029
 30
0.0
 10
195.246520764638
 20
83.88905732710164
 30
0.0
 10
195.7657990699934
 20
83.73866488312191
 30
0.0
 10
196.3701795244969
 20
83.62304162173801
 30
0.0
 10
196.9765484740918
 20
83.59489272225345
 30
0.0
 10
197.5762087214092
 20
83.6712920260929
 30
0.0
 10
198.2021185352507
 20
83.82399801706181
 30
0.0
 10
198.605603370749
 20
83.97382861060723
 30
0.0
 10
198.8283183960555
 20
84.05653190326491
 30
0.0
  0
SPLINE
  5
1B5
330
1F
100
AcDbEntity
  8
0
  6
Continuous
 62
     7
370
    25
100
AcDbSpline
210
0.0
220
0.0
230
1.0
 70
     8
 71
     3
 72
    12
 73
     8
 74
     0
 42
0.000000001
 43
0.00000001
 40
0.0
 40
0.0
 40
0.0
 40
0.0
 40
0.25
 40
0.25
 40
0.5
 40
0.5
 40
1.0
 40
1.0
 40
1.0
 40
1.0
 10
202.821380570438
 20
92.01967274800201
 30
0.0
 10
202.8213704130808
 20
92.00940928871287
 30
0.0
 10
202.8128139869694
 20
92.0018305089161
 30
0.0
 10
202.7914406307344
 20
91.98741705346703
 30
0.0
 10
202.778623700611
 20
91.98058237781474
 30
0.0
 10
202.7530302044674
 20
91.95425662481429
 30
0.0
 10
202.7493026526188
 20
91.94458967345331
 30
0.0
 10
202.7494504830639
 20
91.94444184300816
 30
0.0
  0
LINE
  5
1B6
330
1F
100
AcDbEntity
  8
0
  6
Continuous
 62
     7
370
    25
100
AcDbLine
 10
202.8229751228
 20
91.825769525
 30
0.0
 11
202.8233024827
 21
91.8888736143
 31
0.0
  0
SPLINE
  5
1B7
330
1F
100
AcDbEntity
  8
0
  6
Continuous
 62
     7
370
    25
100
AcDbSpline
210
0.0
220
0.0
230
1.0
 70
     8
 71
     3
 72
    12
 73
     8
 74
     0
 42
0.000000001
 43
0.00000001
 40
0.0
 40
0.0
 40
0.0
 40
0.0
 40
0.25
 40
0.25
 40
0.5
 40
0.5
 40
1.0
 40
1.0
 40
1.0
 40
1.0
 10
202.821380570438
 20
92.01967274800201
 30
0.0
 10
202.8213907277951
 20
92.02993620729114
 30
0.0
 10
202.8128563154021
 20
92.04460109772191
 30
0.0
 10
202.7768108272969
 20
92.0763364759054
 30
0.0
 10
202.7492997515847
 20
92.09340696365815
 30
0.0
 10
202.635470243741
 20
92.13863092545759
 30
0.0
 10
202.5344086926976
 20
92.13180749819087
 30
0.0
 10
202.4154615348721
 20
92.09088055197175
 30
0.0
  0
SPLINE
  5
1B8
330
1F
100
AcDbEntity
  8
0
  6
Continuous
 62
     7
370
    25
100
AcDbSpline
210
0.0
220
0.0
230
1.0
 70
     8
 71
     3
 72
    12
 73
     8
 74
     0
 42
0.000000001
 43
0.00000001
 40
0.0
 40
0.0
 40
0.0
 40
0.0
 40
0.25
 40
0.25
 40
0.5
 40
0.5
 40
1.0
 40
1.0
 40
1.0
 40
1.0
 10
190.823967005095
 20
92.01967274800201
 30
0.0
 10
190.8239771624522
 20
92.00940928871287
 30
0.0
 10
190.8325335885636
 20
92.00183050891609
 30
0.0
 10
190.8539069447985
 20
91.98741705346703
 30
0.0
 10
190.866723874922
 20
91.98058237781473
 30
0.0
 10
190.8923173710656
 20
91.95425662481429
 30
0.0
 10
190.8960449229142
 20
91.94458967345331
 30
0.0
 10
190.8958970924691
 20
91.94444184300816
 30
0.0
  0
LINE
  5
1B9
330
1F
100
AcDbEntity
  8
0
  6
Continuous
 62
     7
370
    25
100
AcDbLine
 10
190.8223724528
 20
91.825769525
 30
0.0
 11
190.8220450929
 21
91.8888736143
 31
0.0
  0
SPLINE
  5
1BA
330
1F
100
AcDbEntity
  8
0
  6
Continuous
 62
     7
370
    25
100
AcDbSpline
210
0.0
220
0.0
230
1.0
 70
     8
 71
     3
 72
    14
 73
    10
 74
     0
 42
0.000000001
 43
0.00000001
 40
0.0
 40
0.0
 40
0.0
 40
0.0
 40
0.25
 40
0.25
 40
0.5
 40
0.5
 40
0.75
 40
0.75
 40
1.0
 40
1.0
 40
1.0
 40
1.0
 10
190.823967005095
 20
92.01967274800201
 30
0.0
 10
190.8239568477379
 20
92.02993620729113
 30
0.0
 10
190.8324912601309
 20
92.0446010977219
 30
0.0
 10
190.8685367482361
 20
92.07633647590539
 30
0.0
 10
190.8960478239483
 20
92.09340696365815
 30
0.0
 10
190.9719341625108
 20
92.12355627152444
 30
0.0
 10
191.0161711349122
 20
92.12938774167434
 30
0.0
 10
191.1154102845309
 20
92.12328161845278
 30
0.0
 10
191.1704124617481
 20
92.11134402508131
 30
0.0
 10
191.2298860406609
 20
92.09088055197175
 30
0.0
  0
SPLINE
  5
1BB
330
1F
100
AcDbEntity
  8
0
  6
Continuous
 62
     7
370
    25
100
AcDbSpline
210
0.0
220
0.0
230
1.0
 70
     8
 71
     3
 72
    10
 73
     6
 74
     0
 42
0.000000001
 43
0.00000001
 40
0.0
 40
0.0
 40
0.0
 40
0.0
 40
0.5
 40
0.5
 40
1.0
 40
1.0
 40
1.0
 40
1.0
 10
202.821380570438
 20
92.01967274800201
 30
0.0
 10
202.8214211998666
 20
92.06072658515855
 30
0.0
 10
202.8218664047148
 20
92.10420341553954
 30
0.0
 10
202.8183408037635
 20
92.19326211526389
 30
0.0
 10
202.8226737877665
 20
92.22536548478755
 30
0.0
 10
202.8226737877665
 20
92.26766514771231
 30
0.0
  0
SPLINE
  5
1BC
330
1F
100
AcDbEntity
  8
0
  6
Continuous
 62
     7
370
    25
100
AcDbSpline
210
0.0
220
0.0
230
1.0
 70
     8
 71
     3
 72
     9
 73
     5
 74
     0
 42
0.000000001
 43
0.00000001
 40
0.0
 40
0.0
 40
0.0
 40
0.0
 40
0.1237681934257705
 40
1.0
 40
1.0
 40
1.0
 40
1.0
 10
190.8244604779718
 20
92.14872099452266
 30
0.0
 10
190.8245475003865
 20
92.14339742967478
 30
0.0
 10
190.825250608449
 20
92.10038504740974
 30
0.0
 10
190.8245664011793
 20
92.05736674898064
 30
0.0
 10
190.8239668770073
 20
92.01967274763236
 30
0.0
  0
LINE
  5
1BD
330
1F
100
AcDbEntity
  8
0
  6
Continuous
 62
     8
370
    25
100
AcDbLine
 10
196.8226737878
 20
95.0176648422
 30
0.0
 11
190.8226737356
 21
95.0176648422
 31
0.0
  0
LINE
  5
1BE
330
1F
100
AcDbEntity
  8
0
  6
Continuous
 62
     8
370
    25
100
AcDbLine
 10
202.8226738399
 20
95.0176648422
 30
0.0
 11
196.8226737878
 21
95.0176648422
 31
0.0
  0
LINE
  5
1BF
330
1F
100
AcDbEntity
  8
0
  6
Continuous
 62
     8
370
    25
100
AcDbLine
 10
191.0726737766
 20
91.5176651999
 30
0.0
 11
191.0726737766
 21
91.4333656057
 31
0.0
  0
LINE
  5
1C0
330
1F
100
AcDbEntity
  8
0
  6
Continuous
 62
     8
370
    25
100
AcDbLine
 10
202.5726737989
 20
91.4337120577
 30
0.0
 11
202.5726737989
 21
91.5176651999
 31
0.0
  0
LINE
  5
1C1
330
1F
100
AcDbEntity
  8
0
  6
Continuous
 62
     8
370
    25
100
AcDbLine
 10
191.0726737766
 20
91.5176651999
 30
0.0
 11
191.214978469
 21
91.5176651999
 31
0.0
  0
LINE
  5
1C2
330
1F
100
AcDbEntity
  8
0
  6
Continuous
 62
     8
370
    25
100
AcDbLine
 10
202.4303691065
 20
91.5176651999
 30
0.0
 11
202.5726737989
 21
91.5176651999
 31
0.0
  0
LINE
  5
1C3
330
1F
100
AcDbEntity
  8
0
  6
Continuous
 62
     8
370
    25
100
AcDbLine
 10
201.1460263817
 20
92.2676653228
 30
0.0
 11
202.3426739103
 21
92.2676653228
 31
0.0
  0
LINE
  5
1C4
330
1F
100
AcDbEntity
  8
0
  6
Continuous
 62
     8
370
    25
100
AcDbLine
 10
191.3026736653
 20
92.2676653228
 30
0.0
 11
192.5106460763
 21
92.2676653228
 31
0.0
  0
LINE
  5
1C5
330
1F
100
AcDbEntity
  8
0
  6
Continuous
 62
     8
370
    25
100
AcDbLine
 10
191.6479913121
 20
91.7676652408
 30
0.0
 11
191.0726737766
 21
91.7676652408
 31
0.0
  0
SPLINE
  5
1C6
330
1F
100
AcDbEntity
  8
0
  6
Continuous
 62
     8
370
    25
100
AcDbSpline
210
0.0
220
0.0
230
1.0
 70
     8
 71
     3
 72
     9
 73
     5
 74
     0
 42
0.000000001
 43
0.00000001
 40
0.0
 40
0.0
 40
0.0
 40
0.0
 40
0.1251159292884992
 40
1.0
 40
1.0
 40
1.0
 40
1.0
 10
202.8233024826584
 20
91.88887361430177
 30
0.0
 10
202.8233386500695
 20
91.89432934979953
 30
0.0
 10
202.8236277212633
 20
91.93793479259796
 30
0.0
 10
202.8224292350354
 20
91.98153106412816
 30
0.0
 10
202.8213806985257
 20
92.01967274763236
 30
0.0
  0
SPLINE
  5
1C7
330
1F
100
AcDbEntity
  8
0
  6
Continuous
 62
     8
370
    25
100
AcDbSpline
210
0.0
220
0.0
230
1.0
 70
     8
 71
     3
 72
     9
 73
     5
 74
     0
 42
0.000000001
 43
0.00000001
 40
0.0
 40
0.0
 40
0.0
 40
0.0
 40
0.1251159292884992
 40
1.0
 40
1.0
 40
1.0
 40
1.0
 10
190.8220450928746
 20
91.88887361430177
 30
0.0
 10
190.8220089254635
 20
91.89432934979953
 30
0.0
 10
190.8217198542696
 20
91.93793479259796
 30
0.0
 10
190.8229183404975
 20
91.98153106412816
 30
0.0
 10
190.8239668770073
 20
92.01967274763236
 30
0.0
  0
LINE
  5
1C8
330
1F
100
AcDbEntity
  8
0
  6
Continuous
 62
     8
370
    25
100
AcDbLine
 10
190.8226737356
 20
92.2676653228
 30
0.0
 11
190.824460478
 21
92.1487209945
 31
0.0
  0
INSERT
  5
1D4
330
1F
100
AcDbEntity
  8
0
  6
Continuous
 62
     7
370
    18
100
AcDbBlockReference
  2
SW_CENTERMARKSYMBOL_0
 10
196.8226737878
 20
85.5176651477
 30
0.0
  0
LINE
  5
1D5
330
1F
100
AcDbEntity
  8
0
  6
Continuous
 62
     7
370
     0
100
AcDbLine
 10
202.5722120916
 20
106.6524394252
 30
0.0
 11
202.9198612878
 21
95.5276651477
 31
0.0
  0
LINE
  5
1D6
330
1F
100
AcDbEntity
  8
0
  6
Continuous
 62
     7
370
     0
100
AcDbLine
 10
191.0731354839
 20
106.6524394252
 30
0.0
 11
190.7254862878
 21
95.5276651477
 31
0.0
  0
LINE
  5
1D7
330
1F
100
AcDbEntity
  8
0
  6
Continuous
 62
     7
370
     0
100
AcDbLine
 10
190.0569862878
 20
95.5276651477
 30
0.0
 11
203.5883612878
 21
95.5276651477
 31
0.0
  0
ARC
  5
1D8
330
1F
100
AcDbEntity
  8
0
  6
Continuous
 62
     7
370
     0
100
AcDbCircle
 10
196.8226737878
 20
85.5176651477
 30
0.0
 40
6.578500000000004
100
AcDbArc
 50
75.0
 51
345.0
  0
LINE
  5
1D9
330
1F
100
AcDbEntity
  8
0
  6
Continuous
 62
     7
370
    25
100
AcDbLine
 10
154.4880249632
 20
137.7737540954
 30
0.0
 11
159.2819147837
 21
138.3403046259
 31
0.0
  0
LINE
  5
1DA
330
1F
100
AcDbEntity
  8
0
  6
Continuous
 62
     7
370
    25
100
AcDbLine
 10
159.2819147837
 20
146.2072031775
 30
0.0
 11
154.4880249632
 21
146.773753708
 31
0.0
  0
LINE
  5
1DB
330
1F
100
AcDbEntity
  8
0
  6
Continuous
 62
     7
370
    25
100
AcDbLine
 10
150.4880243075
 20
137.7737540954
 30
0.0
 11
154.4880249632
 21
138.4237539225
 31
0.0
  0
LINE
  5
1DC
330
1F
100
AcDbEntity
  8
0
  6
Continuous
 62
     7
370
    25
100
AcDbLine
 10
154.4880249632
 20
146.1237538808
 30
0.0
 11
150.4880243075
 21
146.773753708
 31
0.0
  0
LINE
  5
1DD
330
1F
100
AcDbEntity
  8
0
  6
Continuous
 62
     7
370
    25
100
AcDbLine
 10
146.4880236519
 20
137.7737540954
 30
0.0
 11
150.4880243075
 21
138.4237539225
 31
0.0
  0
LINE
  5
1DE
330
1F
100
AcDbEntity
  8
0
  6
Continuous
 62
     7
370
    25
100
AcDbLine
 10
150.4880243075
 20
146.1237538808
 30
0.0
 11
146.4880236519
 21
146.773753708
 31
0.0
  0
LINE
  5
1DF
330
1F
100
AcDbEntity
  8
0
  6
Continuous
 62
     7
370
    25
100
AcDbLine
 10
142.4880229962
 20
137.7737540954
 30
0.0
 11
146.4880236519
 21
138.4237539225
 31
0.0
  0
LINE
  5
1E0
330
1F
100
AcDbEntity
  8
0
  6
Continuous
 62
     7
370
    25
100
AcDbLine
 10
146.4880236519
 20
146.1237538808
 30
0.0
 11
142.4880229962
 21
146.773753708
 31
0.0
  0
LINE
  5
1E1
330
1F
100
AcDbEntity
  8
0
  6
Continuous
 62
     7
370
    25
100
AcDbLine
 10
134.068408711
 20
146.773753708
 30
0.0
 11
133.9880243969
 21
146.4737537519
 31
0.0
  0
LINE
  5
1E2
330
1F
100
AcDbEntity
  8
0
  6
Continuous
 62
     7
370
    25
100
AcDbLine
 10
133.9880243969
 20
138.0737540514
 30
0.0
 11
134.068408711
 21
137.7737540954
 31
0.0
  0
LINE
  5
1E3
330
1F
100
AcDbEntity
  8
0
  6
Continuous
 62
     7
370
    25
100
AcDbLine
 10
134.068408711
 20
137.7737540954
 30
0.0
 11
138.4880242032
 21
137.7737540954
 31
0.0
  0
LINE
  5
1E4
330
1F
100
AcDbEntity
  8
0
  6
Continuous
 62
     7
370
    25
100
AcDbLine
 10
138.4880242032
 20
146.773753708
 30
0.0
 11
134.068408711
 21
146.773753708
 31
0.0
  0
LINE
  5
1E5
330
1F
100
AcDbEntity
  8
0
  6
Continuous
 62
     7
370
    25
100
AcDbLine
 10
138.4880242032
 20
137.7737540954
 30
0.0
 11
142.4880229962
 21
138.4237539225
 31
0.0
  0
LINE
  5
1E6
330
1F
100
AcDbEntity
  8
0
  6
Continuous
 62
     7
370
    25
100
AcDbLine
 10
142.4880229962
 20
146.1237538808
 30
0.0
 11
138.4880242032
 21
146.773753708
 31
0.0
  0
ARC
  5
1E7
330
1F
100
AcDbEntity
  8
0
  6
Continuous
 62
     7
370
    25
100
AcDbCircle
 10
159.1880245161
 20
139.1347758515
 30
0.0
 40
0.8000000000000135
100
AcDbArc
 50
276.7400560979
 51
0.0
  0
ARC
  5
1E8
330
1F
100
AcDbEntity
  8
0
  6
Continuous
 62
     7
370
    25
100
AcDbCircle
 10
159.1880245161
 20
145.4127319519
 30
0.0
 40
0.7999999999999853
100
AcDbArc
 50
0.0
 51
83.2599439021
  0
LINE
  5
1E9
330
1F
100
AcDbEntity
  8
0
  6
Continuous
 62
     7
370
    25
100
AcDbLine
 10
123.0746272114
 20
150.2737542817
 30
0.0
 11
122.9880244565
 21
150.1237536051
 31
0.0
  0
LINE
  5
1EA
330
1F
100
AcDbEntity
  8
0
  6
Continuous
 62
     7
370
    25
100
AcDbLine
 10
122.9880244565
 20
134.4237541982
 30
0.0
 11
123.0746272114
 21
134.2737535217
 31
0.0
  0
LINE
  5
1EB
330
1F
100
AcDbEntity
  8
0
  6
Continuous
 62
     7
370
    25
100
AcDbLine
 10
131.9014222455
 20
134.2737535217
 30
0.0
 11
131.9880240691
 21
134.4237541982
 31
0.0
  0
LINE
  5
1EC
330
1F
100
AcDbEntity
  8
0
  6
Continuous
 62
     7
370
    25
100
AcDbLine
 10
131.9880240691
 20
150.1237536051
 30
0.0
 11
131.9014222455
 21
150.2737542817
 31
0.0
  0
ARC
  5
1ED
330
1F
100
AcDbEntity
  8
0
  6
Continuous
 62
     7
370
    25
100
AcDbCircle
 10
121.2880245161
 20
134.7237539017
 30
0.0
 40
0.3000000000000114
100
AcDbArc
 50
180.0
 51
270.0
  0
ARC
  5
1EE
330
1F
100
AcDbEntity
  8
0
  6
Continuous
 62
     7
370
    25
100
AcDbCircle
 10
121.2880245161
 20
149.8237539017
 30
0.0
 40
0.2999999999999972
100
AcDbArc
 50
90.0
 51
180.0
  0
LINE
  5
1EF
330
1F
100
AcDbEntity
  8
0
  6
Continuous
 62
     7
370
    25
100
AcDbLine
 10
122.9880244565
 20
150.1237536051
 30
0.0
 11
121.2880245504
 21
150.1237536051
 31
0.0
  0
LINE
  5
1F0
330
1F
100
AcDbEntity
  8
0
  6
Continuous
 62
     7
370
    25
100
AcDbLine
 10
121.2880245504
 20
134.4237541982
 30
0.0
 11
122.9880244565
 21
134.4237541982
 31
0.0
  0
LINE
  5
1F1
330
1F
100
AcDbEntity
  8
0
  6
Continuous
 62
     7
370
    25
100
AcDbLine
 10
131.9880240691
 20
134.4237541982
 30
0.0
 11
133.6880249065
 21
134.4237541982
 31
0.0
  0
LINE
  5
1F2
330
1F
100
AcDbEntity
  8
0
  6
Continuous
 62
     7
370
    25
100
AcDbLine
 10
133.6880249065
 20
150.1237536051
 30
0.0
 11
131.9880240691
 21
150.1237536051
 31
0.0
  0
ARC
  5
1F3
330
1F
100
AcDbEntity
  8
0
  6
Continuous
 62
     7
370
    25
100
AcDbCircle
 10
133.6880245161
 20
149.8237539017
 30
0.0
 40
0.3000000000000114
100
AcDbArc
 50
0.0
 51
90.0
  0
ARC
  5
1F4
330
1F
100
AcDbEntity
  8
0
  6
Continuous
 62
     7
370
    25
100
AcDbCircle
 10
133.6880245161
 20
134.7237539017
 30
0.0
 40
0.3000000000000114
100
AcDbArc
 50
270.0
 51
0.0
  0
LINE
  5
1F5
330
1F
100
AcDbEntity
  8
0
  6
Continuous
 62
     7
370
    25
100
AcDbLine
 10
120.9880241287
 20
148.8522538186
 30
0.0
 11
119.7337393743
 21
148.8522538186
 31
0.0
  0
LINE
  5
1F6
330
1F
100
AcDbEntity
  8
0
  6
Continuous
 62
     7
370
    25
100
AcDbLine
 10
119.7337393743
 20
135.6952539847
 30
0.0
 11
120.9880241287
 21
135.6952539847
 31
0.0
  0
ARC
  5
1F7
330
1F
100
AcDbEntity
  8
0
  6
Continuous
 62
     7
370
    25
100
AcDbCircle
 10
119.2337395978
 20
148.7737539017
 30
0.0
 40
0.5
100
AcDbArc
 50
270.0
 51
0.0
  0
ARC
  5
1F8
330
1F
100
AcDbEntity
  8
0
  6
Continuous
 62
     7
370
    25
100
AcDbCircle
 10
119.2337395978
 20
135.7737539017
 30
0.0
 40
0.5
100
AcDbArc
 50
0.0
 51
90.0
  0
LINE
  5
1F9
330
1F
100
AcDbEntity
  8
0
  6
Continuous
 62
     7
370
    25
100
AcDbLine
 10
116.4837397729
 20
136.2737538495
 30
0.0
 11
119.2337392923
 21
136.2737538495
 31
0.0
  0
LINE
  5
1FA
330
1F
100
AcDbEntity
  8
0
  6
Continuous
 62
     7
370
    25
100
AcDbLine
 10
116.7337398139
 20
148.2737539538
 30
0.0
 11
116.4837397729
 21
148.2737539538
 31
0.0
  0
LINE
  5
1FB
330
1F
100
AcDbEntity
  8
0
  6
Continuous
 62
     7
370
    25
100
AcDbLine
 10
119.2337392923
 20
148.2737539538
 30
0.0
 11
117.7337399778
 21
148.2737539538
 31
0.0
  0
SPLINE
  5
1FC
330
1F
100
AcDbEntity
  8
0
  6
Continuous
 62
     7
370
    25
100
AcDbSpline
210
0.0
220
0.0
230
1.0
 70
     8
 71
     3
 72
    11
 73
     7
 74
     0
 42
0.000000001
 43
0.00000001
 40
0.0
 40
0.0
 40
0.0
 40
0.0
 40
0.2500002694667829
 40
0.5000005925037904
 40
0.7499999357165025
 40
1.0
 40
1.0
 40
1.0
 40
1.0
 10
116.9837398548683
 20
148.5737539098672
 30
0.0
 10
116.9509805349094
 20
148.5699959875208
 30
0.0
 10
116.8854618879718
 20
148.5624801420227
 30
0.0
 10
116.8028255283861
 20
148.5046679605317
 30
0.0
 10
116.7450129172805
 20
148.4220317849741
 30
0.0
 10
116.737497518633
 20
148.3565132057464
 30
0.0
 10
116.7337398138901
 20
148.323753868889
 30
0.0
  0
SPLINE
  5
1FD
330
1F
100
AcDbEntity
  8
0
  6
Continuous
 62
     7
370
    25
100
AcDbSpline
210
0.0
220
0.0
230
1.0
 70
     8
 71
     3
 72
    11
 73
     7
 74
     0
 42
0.000000001
 43
0.00000001
 40
0.0
 40
0.0
 40
0.0
 40
0.0
 40
0.250000564155491
 40
0.4999992895422198
 40
0.7499996699689473
 40
1.0
 40
1.0
 40
1.0
 40
1.0
 10
117.7337399778029
 20
148.323753868889
 30
0.0
 10
117.7299818567626
 20
148.3565131696609
 30
0.0
 10
117.7224656423231
 20
148.422031530258
 30
0.0
 10
117.6646539120326
 20
148.504668110158
 30
0.0
 10
117.582017390194
 20
148.5624801178838
 30
0.0
 10
117.5164987753057
 20
148.5699959794586
 30
0.0
 10
117.4837394711634
 20
148.5737539098672
 30
0.0
  0
LINE
  5
1FE
330
1F
100
AcDbEntity
  8
0
  6
Continuous
 62
     7
370
    25
100
AcDbLine
 10
116.7337398139
 20
148.3240537548
 30
0.0
 11
116.7337398139
 21
148.2737539538
 31
0.0
  0
LINE
  5
1FF
330
1F
100
AcDbEntity
  8
0
  6
Continuous
 62
     7
370
    25
100
AcDbLine
 10
117.7337399778
 20
148.2737539538
 30
0.0
 11
117.7337399778
 21
148.3240537548
 31
0.0
  0
LINE
  5
200
330
1F
100
AcDbEntity
  8
0
  6
Continuous
 62
     7
370
    25
100
AcDbLine
 10
117.4990504143
 20
148.5737539099
 30
0.0
 11
116.9684284461
 21
148.5737539099
 31
0.0
  0
LINE
  5
201
330
1F
100
AcDbEntity
  8
0
  6
Continuous
 62
     7
370
    25
100
AcDbLine
 10
154.4880249632
 20
137.7737540954
 30
0.0
 11
154.4880249632
 21
146.773753708
 31
0.0
  0
LINE
  5
202
330
1F
100
AcDbEntity
  8
0
  6
Continuous
 62
     7
370
    25
100
AcDbLine
 10
150.4880243075
 20
137.7737540954
 30
0.0
 11
150.4880243075
 21
146.773753708
 31
0.0
  0
LINE
  5
203
330
1F
100
AcDbEntity
  8
0
  6
Continuous
 62
     7
370
    25
100
AcDbLine
 10
146.4880236519
 20
137.7737540954
 30
0.0
 11
146.4880236519
 21
146.773753708
 31
0.0
  0
LINE
  5
204
330
1F
100
AcDbEntity
  8
0
  6
Continuous
 62
     7
370
    25
100
AcDbLine
 10
142.4880229962
 20
137.7737540954
 30
0.0
 11
142.4880229962
 21
146.773753708
 31
0.0
  0
LINE
  5
205
330
1F
100
AcDbEntity
  8
0
  6
Continuous
 62
     7
370
    25
100
AcDbLine
 10
134.068408711
 20
137.7737540954
 30
0.0
 11
134.068408711
 21
146.773753708
 31
0.0
  0
LINE
  5
206
330
1F
100
AcDbEntity
  8
0
  6
Continuous
 62
     7
370
    25
100
AcDbLine
 10
138.4880242032
 20
137.7737540954
 30
0.0
 11
138.4880242032
 21
146.773753708
 31
0.0
  0
LINE
  5
207
330
1F
100
AcDbEntity
  8
0
  6
Continuous
 62
     7
370
    25
100
AcDbLine
 10
159.9880249334
 20
139.1347758674
 30
0.0
 11
159.9880249334
 21
145.4127319359
 31
0.0
  0
LINE
  5
208
330
1F
100
AcDbEntity
  8
0
  6
Continuous
 62
     7
370
    25
100
AcDbLine
 10
123.7891583798
 20
142.2737539017
 30
0.0
 11
127.4344340992
 21
142.2737539017
 31
0.0
  0
SPLINE
  5
209
330
1F
100
AcDbEntity
  8
0
  6
Continuous
 62
     7
370
    25
100
AcDbSpline
210
0.0
220
0.0
230
1.0
 70
     8
 71
     3
 72
    15
 73
    11
 74
     0
 42
0.000000001
 43
0.00000001
 40
0.0
 40
0.0
 40
0.0
 40
0.0
 40
0.1323049485469518
 40
0.2645724911618945
 40
0.3997989213359818
 40
0.5350009236706258
 40
0.6501920649287771
 40
0.7654011640741528
 40
0.8826892485822967
 40
1.0
 40
1.0
 40
1.0
 40
1.0
 10
123.7891583797595
 20
142.2737539016716
 30
0.0
 10
123.6803868541898
 20
142.6193850345156
 30
0.0
 10
123.4628745554927
 20
143.3105495816012
 30
0.0
 10
123.2288397093803
 20
144.3748815804024
 30
0.0
 10
123.0881203479112
 20
145.4592764494547
 30
0.0
 10
123.0602498656119
 20
146.5043917541762
 30
0.0
 10
123.1325527810912
 20
147.4930470754947
 30
0.0
 10
123.2807020330373
 20
148.4260954373827
 30
0.0
 10
123.4980220682414
 20
149.3549259804807
 30
0.0
 10
123.6921066917763
 20
149.9674584536579
 30
0.0
 10
123.7891583797595
 20
150.2737542816512
 30
0.0
  0
LINE
  5
20A
330
1F
100
AcDbEntity
  8
0
  6
Continuous
 62
     7
370
    25
100
AcDbLine
 10
123.7891583798
 20
150.2737542817
 30
0.0
 11
127.4344340992
 21
150.2737542817
 31
0.0
  0
LINE
  5
20B
330
1F
100
AcDbEntity
  8
0
  6
Continuous
 62
     7
370
    25
100
AcDbLine
 10
127.4880242628
 20
149.9150060319
 30
0.0
 11
127.4344340992
 21
150.2737542817
 31
0.0
  0
LINE
  5
20C
330
1F
100
AcDbEntity
  8
0
  6
Continuous
 62
     7
370
    25
100
AcDbLine
 10
127.5416144264
 20
150.2737542817
 30
0.0
 11
127.4880242628
 21
149.9150060319
 31
0.0
  0
LINE
  5
20D
330
1F
100
AcDbEntity
  8
0
  6
Continuous
 62
     7
370
    25
100
AcDbLine
 10
127.5416144264
 20
150.2737542817
 30
0.0
 11
131.1868910772
 21
150.2737542817
 31
0.0
  0
SPLINE
  5
20E
330
1F
100
AcDbEntity
  8
0
  6
Continuous
 62
     7
370
    25
100
AcDbSpline
210
0.0
220
0.0
230
1.0
 70
     8
 71
     3
 72
    15
 73
    11
 74
     0
 42
0.000000001
 43
0.00000001
 40
0.0
 40
0.0
 40
0.0
 40
0.0
 40
0.1323049282587865
 40
0.2645725126911059
 40
0.3997989257496958
 40
0.5350009327659058
 40
0.6501920780127178
 40
0.7654011811473761
 40
0.8826892697167906
 40
1.0
 40
1.0
 40
1.0
 40
1.0
 10
131.1868910771867
 20
142.2737539016716
 30
0.0
 10
131.2956619547548
 20
142.6193850911804
 30
0.0
 10
131.5131730086856
 20
143.3105499138081
 30
0.0
 10
131.7472120323034
 20
144.3748812362368
 30
0.0
 10
131.8879273050788
 20
145.4592766063813
 30
0.0
 10
131.9157988607937
 20
146.5043917333413
 30
0.0
 10
131.8434956796175
 20
147.4930470773214
 30
0.0
 10
131.6953465668184
 20
148.4260954497392
 30
0.0
 10
131.4780262375143
 20
149.3549258612011
 30
0.0
 10
131.2839423744676
 20
149.9674584358219
 30
0.0
 10
131.1868910771867
 20
150.2737542816512
 30
0.0
  0
LINE
  5
20F
330
1F
100
AcDbEntity
  8
0
  6
Continuous
 62
     7
370
    25
100
AcDbLine
 10
127.5416144264
 20
142.2737539017
 30
0.0
 11
131.1868910772
 21
142.2737539017
 31
0.0
  0
LINE
  5
210
330
1F
100
AcDbEntity
  8
0
  6
Continuous
 62
     7
370
    25
100
AcDbLine
 10
127.4880242628
 20
142.6325015402
 30
0.0
 11
127.5416144264
 21
142.2737539017
 31
0.0
  0
LINE
  5
211
330
1F
100
AcDbEntity
  8
0
  6
Continuous
 62
     7
370
    25
100
AcDbLine
 10
127.4344340992
 20
142.2737539017
 30
0.0
 11
127.4880242628
 21
142.6325015402
 31
0.0
  0
SPLINE
  5
212
330
1F
100
AcDbEntity
  8
0
  6
Continuous
 62
     7
370
    25
100
AcDbSpline
210
0.0
220
0.0
230
1.0
 70
    24
 71
     3
 72
    12
 73
     8
 74
     0
 42
0.000000001
 43
0.00000001
 40
0.0
 40
0.0
 40
0.0
 40
0.0
 40
0.2313820691220372
 40
0.4224524563612784
 40
0.6135436004137734
 40
0.8067617043110576
 40
1.0
 40
1.0
 40
1.0
 40
1.0
 10
123.0799757969639
 20
134.273753521692
 30
0.0
 10
123.0857904088064
 20
134.273753521692
 30
0.0
 10
123.0964066033325
 20
134.273753521692
 30
0.0
 10
123.2058152097462
 20
134.273753521692
 30
0.0
 10
123.3537529567398
 20
134.273753521692
 30
0.0
 10
123.5473725422722
 20
134.273753521692
 30
0.0
 10
123.7085602933209
 20
134.273753521692
 30
0.0
 10
123.7891583797595
 20
134.273753521692
 30
0.0
  0
SPLINE
  5
213
330
1F
100
AcDbEntity
  8
0
  6
Continuous
 62
     7
370
    25
100
AcDbSpline
210
0.0
220
0.0
230
1.0
 70
    24
 71
     3
 72
    12
 73
     8
 74
     0
 42
0.000000001
 43
0.00000001
 40
0.0
 40
0.0
 40
0.0
 40
0.0
 40
0.1912318339729968
 40
0.3824442703760744
 40
0.5755404537005614
 40
0.7686149100837236
 40
0.9999999999999999
 40
0.9999999999999999
 40
0.9999999999999999
 40
0.9999999999999999
 10
123.7891583797595
 20
150.2737542816512
 30
0.0
 10
123.7093630212924
 20
150.2737542816512
 30
0.0
 10
123.5497803983874
 20
150.2737542816512
 30
0.0
 10
123.3561950922414
 20
150.2737542816512
 30
0.0
 10
123.2068931286124
 20
150.2737542816512
 30
0.0
 10
123.0967428449559
 20
150.2737542816512
 30
0.0
 10
123.0851095272147
 20
150.2737542816512
 30
0.0
 10
123.0787678715846
 20
150.2737542816512
 30
0.0
  0
SPLINE
  5
214
330
1F
100
AcDbEntity
  8
0
  6
Continuous
 62
     7
370
    25
100
AcDbSpline
210
0.0
220
0.0
230
1.0
 70
     8
 71
     3
 72
    15
 73
    11
 74
     0
 42
0.000000001
 43
0.00000001
 40
0.0
 40
0.0
 40
0.0
 40
0.0
 40
0.1323050038970291
 40
0.2645725327670714
 40
0.3997989416533288
 40
0.5350009870694649
 40
0.6501921317206805
 40
0.7654011923842015
 40
0.882689240090312
 40
1.0
 40
1.0
 40
1.0
 40
1.0
 10
123.7891583797595
 20
134.273753521692
 30
0.0
 10
123.680386864467
 20
134.6193847332894
 30
0.0
 10
123.4628746431135
 20
135.310549257398
 30
0.0
 10
123.2288397030512
 20
136.3748817805445
 30
0.0
 10
123.0881203258393
 20
137.4592763389155
 30
0.0
 10
123.060249869203
 20
138.5043921761263
 30
0.0
 10
123.1325527569651
 20
139.4930467828416
 30
0.0
 10
123.2807020292981
 20
140.4260958533997
 30
0.0
 10
123.4980221270041
 20
141.3549258727177
 30
0.0
 10
123.6921066988741
 20
141.9674581250014
 30
0.0
 10
123.7891583797595
 20
142.2737539016716
 30
0.0
  0
LINE
  5
215
330
1F
100
AcDbEntity
  8
0
  6
Continuous
 62
     7
370
    25
100
AcDbLine
 10
122.9880244565
 20
134.4237541982
 30
0.0
 11
122.9880244565
 21
150.1237536051
 31
0.0
  0
SPLINE
  5
216
330
1F
100
AcDbEntity
  8
0
  6
Continuous
 62
     7
370
    25
100
AcDbSpline
210
0.0
220
0.0
230
1.0
 70
     8
 71
     3
 72
    15
 73
    11
 74
     0
 42
0.000000001
 43
0.00000001
 40
0.0
 40
0.0
 40
0.0
 40
0.0
 40
0.1323049836088744
 40
0.2645725542962953
 40
0.3997989460670495
 40
0.5350009961647513
 40
0.6501921448046264
 40
0.7654012094574273
 40
0.8826892612248055
 40
1.0
 40
1.0
 40
1.0
 40
1.0
 10
131.1868910771867
 20
134.273753521692
 30
0.0
 10
131.2956619444774
 20
134.6193847899543
 30
0.0
 10
131.5131729210645
 20
135.310549589605
 30
0.0
 10
131.7472120386323
 20
136.3748814363788
 30
0.0
 10
131.8879273271502
 20
137.4592764958422
 30
0.0
 10
131.9157988572027
 20
138.5043921552914
 30
0.0
 10
131.8434957037436
 20
139.4930467846683
 30
0.0
 10
131.6953465705576
 20
140.4260958657561
 30
0.0
 10
131.4780261787516
 20
141.3549257534382
 30
0.0
 10
131.2839423673697
 20
141.9674581071654
 30
0.0
 10
131.1868910771867
 20
142.2737539016716
 30
0.0
  0
SPLINE
  5
217
330
1F
100
AcDbEntity
  8
0
  6
Continuous
 62
     7
370
    25
100
AcDbSpline
210
0.0
220
0.0
230
1.0
 70
    24
 71
     3
 72
    12
 73
     8
 74
     0
 42
0.000000001
 43
0.00000001
 40
0.0
 40
0.0
 40
0.0
 40
0.0
 40
0.1912317870580458
 40
0.3824442706712637
 40
0.575540458433218
 40
0.7686148977979078
 40
1.0
 40
1.0
 40
1.0
 40
1.0
 10
131.1868910771867
 20
150.2737542816512
 30
0.0
 10
131.2666859540022
 20
150.2737542816512
 30
0.0
 10
131.4262676529262
 20
150.2737542816512
 30
0.0
 10
131.6198546386427
 20
150.2737542816512
 30
0.0
 10
131.7691565942252
 20
150.2737542816512
 30
0.0
 10
131.8793051274147
 20
150.2737542816512
 30
0.0
 10
131.8909394057025
 20
150.2737542816512
 30
0.0
 10
131.8972815853616
 20
150.2737542816512
 30
0.0
  0
SPLINE
  5
218
330
1F
100
AcDbEntity
  8
0
  6
Continuous
 62
     7
370
    25
100
AcDbSpline
210
0.0
220
0.0
230
1.0
 70
    24
 71
     3
 72
    12
 73
     8
 74
     0
 42
0.000000001
 43
0.00000001
 40
0.0
 40
0.0
 40
0.0
 40
0.0
 40
0.2313820783801172
 40
0.4224524518708432
 40
0.6135436362183467
 40
0.806761747846691
 40
1.0
 40
1.0
 40
1.0
 40
1.0
 10
131.8960727286598
 20
134.273753521692
 30
0.0
 10
131.8902579456056
 20
134.273753521692
 30
0.0
 10
131.8796414390224
 20
134.273753521692
 30
0.0
 10
131.7702348680407
 20
134.273753521692
 30
0.0
 10
131.6222952204031
 20
134.273753521692
 30
0.0
 10
131.4286758743785
 20
134.273753521692
 30
0.0
 10
131.2674888097208
 20
134.273753521692
 30
0.0
 10
131.1868910771867
 20
134.273753521692
 30
0.0
  0
LINE
  5
219
330
1F
100
AcDbEntity
  8
0
  6
Continuous
 62
     7
370
    25
100
AcDbLine
 10
131.9880240691
 20
134.4237541982
 30
0.0
 11
131.9880240691
 21
150.1237536051
 31
0.0
  0
LINE
  5
21A
330
1F
100
AcDbEntity
  8
0
  6
Continuous
 62
     7
370
    25
100
AcDbLine
 10
127.5416144264
 20
142.2737539017
 30
0.0
 11
127.4880242628
 21
141.9150062631
 31
0.0
  0
LINE
  5
21B
330
1F
100
AcDbEntity
  8
0
  6
Continuous
 62
     7
370
    25
100
AcDbLine
 10
127.4880242628
 20
141.9150062631
 30
0.0
 11
127.4880242628
 21
142.6325015402
 31
0.0
  0
LINE
  5
21C
330
1F
100
AcDbEntity
  8
0
  6
Continuous
 62
     7
370
    25
100
AcDbLine
 10
127.4880242628
 20
141.9150062631
 30
0.0
 11
127.4344340992
 21
142.2737539017
 31
0.0
  0
LINE
  5
21D
330
1F
100
AcDbEntity
  8
0
  6
Continuous
 62
     7
370
    25
100
AcDbLine
 10
123.7891583798
 20
134.2737535217
 30
0.0
 11
127.4344340992
 21
134.2737535217
 31
0.0
  0
LINE
  5
21E
330
1F
100
AcDbEntity
  8
0
  6
Continuous
 62
     7
370
    25
100
AcDbLine
 10
127.5416144264
 20
134.2737535217
 30
0.0
 11
131.1868910772
 21
134.2737535217
 31
0.0
  0
LINE
  5
21F
330
1F
100
AcDbEntity
  8
0
  6
Continuous
 62
     7
370
    25
100
AcDbLine
 10
127.4880242628
 20
134.6325017714
 30
0.0
 11
127.5416144264
 21
134.2737535217
 31
0.0
  0
LINE
  5
220
330
1F
100
AcDbEntity
  8
0
  6
Continuous
 62
     7
370
    25
100
AcDbLine
 10
127.4344340992
 20
134.2737535217
 30
0.0
 11
127.4880242628
 21
134.6325017714
 31
0.0
  0
LINE
  5
221
330
1F
100
AcDbEntity
  8
0
  6
Continuous
 62
     7
370
    25
100
AcDbLine
 10
120.9880241287
 20
134.7237536886
 30
0.0
 11
120.9880241287
 21
149.8237541148
 31
0.0
  0
LINE
  5
222
330
1F
100
AcDbEntity
  8
0
  6
Continuous
 62
     7
370
    25
100
AcDbLine
 10
133.9880243969
 20
149.8237541148
 30
0.0
 11
133.9880243969
 21
134.7237536886
 31
0.0
  0
LINE
  5
223
330
1F
100
AcDbEntity
  8
0
  6
Continuous
 62
     7
370
    25
100
AcDbLine
 10
127.4880242628
 20
134.2737535217
 30
0.0
 11
127.4880242628
 21
134.6325017714
 31
0.0
  0
LINE
  5
224
330
1F
100
AcDbEntity
  8
0
  6
Continuous
 62
     7
370
    25
100
AcDbLine
 10
127.4880242628
 20
134.2737535217
 30
0.0
 11
127.4344340992
 21
134.2737535217
 31
0.0
  0
LINE
  5
225
330
1F
100
AcDbEntity
  8
0
  6
Continuous
 62
     7
370
    25
100
AcDbLine
 10
127.5416144264
 20
134.2737535217
 30
0.0
 11
127.4880242628
 21
134.2737535217
 31
0.0
  0
LINE
  5
226
330
1F
100
AcDbEntity
  8
0
  6
Continuous
 62
     7
370
    25
100
AcDbLine
 10
127.4880242628
 20
149.9150060319
 30
0.0
 11
127.4880242628
 21
150.2737542817
 31
0.0
  0
LINE
  5
227
330
1F
100
AcDbEntity
  8
0
  6
Continuous
 62
     7
370
    25
100
AcDbLine
 10
127.4880242628
 20
150.2737542817
 30
0.0
 11
127.5416144264
 21
150.2737542817
 31
0.0
  0
LINE
  5
228
330
1F
100
AcDbEntity
  8
0
  6
Continuous
 62
     7
370
    25
100
AcDbLine
 10
127.4344340992
 20
150.2737542817
 30
0.0
 11
127.4880242628
 21
150.2737542817
 31
0.0
  0
CIRCLE
  5
229
330
1F
100
AcDbEntity
  8
0
  6
Continuous
 62
     7
370
    25
100
AcDbCircle
 10
109.7337395978
 20
142.2737539017
 30
0.0
 40
5.25
  0
CIRCLE
  5
22A
330
1F
100
AcDbEntity
  8
0
  6
Continuous
 62
     7
370
    25
100
AcDbCircle
 10
109.7337395978
 20
142.2737539017
 30
0.0
 40
6.456292496656175
  0
CIRCLE
  5
22B
330
1F
100
AcDbEntity
  8
0
  6
Continuous
 62
     7
370
    25
100
AcDbCircle
 10
109.7337395978
 20
142.2737539017
 30
0.0
 40
4.199999999999989
  0
CIRCLE
  5
22C
330
1F
100
AcDbEntity
  8
0
  6
Continuous
 62
     7
370
    25
100
AcDbCircle
 10
109.7337395978
 20
142.2737539017
 30
0.0
 40
4.0
  0
CIRCLE
  5
22D
330
1F
100
AcDbEntity
  8
0
  6
Continuous
 62
     7
370
    25
100
AcDbCircle
 10
109.7337395978
 20
142.2737539017
 30
0.0
 40
6.765992005947226
  0
LINE
  5
22E
330
1F
100
AcDbEntity
  8
0
  6
Continuous
 62
     7
370
    25
100
AcDbLine
 10
119.7337393743
 20
148.8522538186
 30
0.0
 11
119.7337393743
 21
135.6952539847
 31
0.0
  0
LINE
  5
22F
330
1F
100
AcDbEntity
  8
0
  6
Continuous
 62
     7
370
    25
100
AcDbLine
 10
104.9837397506
 20
148.0237539128
 30
0.0
 11
104.9837397506
 21
148.2737539538
 31
0.0
  0
LINE
  5
230
330
1F
100
AcDbEntity
  8
0
  6
Continuous
 62
     7
370
    25
100
AcDbLine
 10
104.9837397506
 20
148.2737539538
 30
0.0
 11
106.6066566483
 21
148.2737539538
 31
0.0
  0
LINE
  5
231
330
1F
100
AcDbEntity
  8
0
  6
Continuous
 62
     7
370
    25
100
AcDbLine
 10
112.8608225473
 20
148.2737539538
 30
0.0
 11
114.4837394451
 21
148.2737539538
 31
0.0
  0
ARC
  5
232
330
1F
100
AcDbEntity
  8
0
  6
Continuous
 62
     7
370
    25
100
AcDbCircle
 10
114.4837395978
 20
148.0237539017
 30
0.0
 40
0.25
100
AcDbArc
 50
0.0
 51
90.0
  0
LINE
  5
233
330
1F
100
AcDbEntity
  8
0
  6
Continuous
 62
     7
370
    25
100
AcDbLine
 10
114.7337394861
 20
146.8321141058
 30
0.0
 11
114.7337394861
 21
148.0237539128
 31
0.0
  0
LINE
  5
234
330
1F
100
AcDbEntity
  8
0
  6
Continuous
 62
     7
370
    25
100
AcDbLine
 10
106.6066566483
 20
136.2737538495
 30
0.0
 11
104.9837397506
 21
136.2737538495
 31
0.0
  0
LINE
  5
235
330
1F
100
AcDbEntity
  8
0
  6
Continuous
 62
     7
370
    25
100
AcDbLine
 10
104.9837397506
 20
136.2737538495
 30
0.0
 11
104.9837397506
 21
136.5237538905
 31
0.0
  0
LINE
  5
236
330
1F
100
AcDbEntity
  8
0
  6
Continuous
 62
     7
370
    25
100
AcDbLine
 10
114.4837394451
 20
136.2737538495
 30
0.0
 11
112.8608225473
 21
136.2737538495
 31
0.0
  0
LINE
  5
237
330
1F
100
AcDbEntity
  8
0
  6
Continuous
 62
     7
370
    25
100
AcDbLine
 10
114.4837394451
 20
136.2737538495
 30
0.0
 11
114.4837394451
 21
136.5237538905
 31
0.0
  0
ARC
  5
238
330
1F
100
AcDbEntity
  8
0
  6
Continuous
 62
     7
370
    25
100
AcDbCircle
 10
104.9837395978
 20
148.0237539017
 30
0.0
 40
0.25
100
AcDbArc
 50
90.0
 51
180.0
  0
LINE
  5
239
330
1F
100
AcDbEntity
  8
0
  6
Continuous
 62
     7
370
    25
100
AcDbLine
 10
104.7337397096
 20
148.0237539128
 30
0.0
 11
104.9837397506
 21
148.0237539128
 31
0.0
  0
LINE
  5
23A
330
1F
100
AcDbEntity
  8
0
  6
Continuous
 62
     7
370
    25
100
AcDbLine
 10
104.7337397096
 20
146.8321141058
 30
0.0
 11
104.7337397096
 21
148.0237539128
 31
0.0
  0
LINE
  5
23B
330
1F
100
AcDbEntity
  8
0
  6
Continuous
 62
     7
370
    25
100
AcDbLine
 10
104.7337397096
 20
136.5237538905
 30
0.0
 11
104.7337397096
 21
137.7153936976
 31
0.0
  0
LINE
  5
23C
330
1F
100
AcDbEntity
  8
0
  6
Continuous
 62
     7
370
    25
100
AcDbLine
 10
104.7337397096
 20
136.5237538905
 30
0.0
 11
104.9837397506
 21
136.5237538905
 31
0.0
  0
LINE
  5
23D
330
1F
100
AcDbEntity
  8
0
  6
Continuous
 62
     7
370
    25
100
AcDbLine
 10
114.7337394861
 20
137.7153936976
 30
0.0
 11
114.7337394861
 21
136.5237538905
 31
0.0
  0
LINE
  5
23E
330
1F
100
AcDbEntity
  8
0
  6
Continuous
 62
     7
370
    25
100
AcDbLine
 10
114.7337394861
 20
136.5237538905
 30
0.0
 11
114.4837394451
 21
136.5237538905
 31
0.0
  0
ARC
  5
23F
330
1F
100
AcDbEntity
  8
0
  6
Continuous
 62
     7
370
    25
100
AcDbCircle
 10
114.4837395978
 20
136.5237539017
 30
0.0
 40
0.25
100
AcDbArc
 50
270.0
 51
0.0
  0
ARC
  5
240
330
1F
100
AcDbEntity
  8
0
  6
Continuous
 62
     7
370
    25
100
AcDbCircle
 10
104.9837395978
 20
136.5237539017
 30
0.0
 40
0.25
100
AcDbArc
 50
180.0
 51
270.0
  0
LINE
  5
241
330
1F
100
AcDbEntity
  8
0
  6
Continuous
 62
     7
370
    25
100
AcDbLine
 10
115.73373965
 20
148.2737539538
 30
0.0
 11
115.73373965
 21
148.0237539128
 31
0.0
  0
LINE
  5
242
330
1F
100
AcDbEntity
  8
0
  6
Continuous
 62
     7
370
    25
100
AcDbLine
 10
115.73373965
 20
148.0237539128
 30
0.0
 11
114.7337394861
 21
148.0237539128
 31
0.0
  0
LINE
  5
243
330
1F
100
AcDbEntity
  8
0
  6
Continuous
 62
     7
370
    25
100
AcDbLine
 10
114.4837394451
 20
148.2737539538
 30
0.0
 11
115.73373965
 21
148.2737539538
 31
0.0
  0
LINE
  5
244
330
1F
100
AcDbEntity
  8
0
  6
Continuous
 62
     7
370
    25
100
AcDbLine
 10
115.73373965
 20
145.6649189551
 30
0.0
 11
115.73373965
 21
148.0237539128
 31
0.0
  0
SPLINE
  5
245
330
1F
100
AcDbEntity
  8
0
  6
Continuous
 62
     7
370
    25
100
AcDbSpline
210
0.0
220
0.0
230
1.0
 70
     8
 71
     3
 72
    22
 73
    18
 74
     0
 42
0.000000001
 43
0.00000001
 40
0.0
 40
0.0
 40
0.0
 40
0.0
 40
0.0625000000121793
 40
0.0625000000121793
 40
0.1250000000121793
 40
0.1250000000121793
 40
0.1875000000121793
 40
0.1875000000121793
 40
0.2500000000121793
 40
0.2500000000121793
 40
0.3125000000121793
 40
0.3125000000121793
 40
0.3750000000121793
 40
0.3750000000121793
 40
0.4375000000121793
 40
0.4375000000121793
 40
0.5000000000121793
 40
0.5000000000121793
 40
0.5000000000121793
 40
0.5000000000121793
 10
117.7337395978065
 20
148.2737539016716
 30
0.0
 10
117.7337329753327
 20
148.273753901811
 30
0.0
 10
117.721046223906
 20
148.2726552997378
 30
0.0
 10
117.6703125031128
 20
148.2687510786103
 30
0.0
 10
117.6341581954962
 20
148.2660996574209
 30
0.0
 10
117.5404277741479
 20
148.2605808396451
 30
0.0
 10
117.4863100722074
 20
148.257930444167
 30
0.0
 10
117.3638525547613
 20
148.2540301984318
 30
0.0
 10
117.2998667262321
 20
148.2529271181012
 30
0.0
 10
117.1676124820341
 20
148.252938125683
 30
0.0
 10
117.1034771386965
 20
148.2540338595284
 30
0.0
 10
116.9813186489112
 20
148.2579267823214
 30
0.0
 10
116.9270420639778
 20
148.2605802869755
 30
0.0
 10
116.8333303755861
 20
148.2661002090436
 30
0.0
 10
116.7971544496302
 20
148.2687509166815
 30
0.0
 10
116.7464452242591
 20
148.2726554609225
 30
0.0
 10
116.7337396033035
 20
148.2737539016716
 30
0.0
 10
116.7337395978233
 20
148.2737539016716
 30
0.0
  0
SPLINE
  5
246
330
1F
100
AcDbEntity
  8
0
  6
Continuous
 62
     7
370
    25
100
AcDbSpline
210
0.0
220
0.0
230
1.0
 70
    24
 71
     3
 72
    14
 73
    10
 74
     0
 42
0.000000001
 43
0.00000001
 40
0.0
 40
0.0
 40
0.0
 40
0.0
 40
0.25
 40
0.25
 40
0.5
 40
0.5
 40
0.75
 40
0.75
 40
1.0
 40
1.0
 40
1.0
 40
1.0
 10
116.4837395978233
 20
148.2737539016716
 30
0.0
 10
116.4837395978233
 20
148.2737539016716
 30
0.0
 10
116.4837395978233
 20
148.263908987934
 30
0.0
 10
116.4837395978233
 20
148.2244168816249
 30
0.0
 10
116.4837395978233
 20
148.1947692424497
 30
0.0
 10
116.4837395978233
 20
148.115340105246
 30
0.0
 10
116.4837395978233
 20
148.0655576811767
 30
0.0
 10
116.4837395978233
 20
147.9453286948421
 30
0.0
 10
116.4837395978233
 20
147.874880662235
 30
0.0
 10
116.4837395978233
 20
147.7937539016716
 30
0.0
  0
SPLINE
  5
247
330
1F
100
AcDbEntity
  8
0
  6
Continuous
 62
     7
370
    25
100
AcDbSpline
210
0.0
220
0.0
230
1.0
 70
    24
 71
     3
 72
    14
 73
    10
 74
     0
 42
0.000000001
 43
0.00000001
 40
0.0
 40
0.0
 40
0.0
 40
0.0
 40
0.25
 40
0.25
 40
0.5
 40
0.5
 40
0.75
 40
0.75
 40
1.0
 40
1.0
 40
1.0
 40
1.0
 10
116.4837395978233
 20
136.2737539016716
 30
0.0
 10
116.4837395978233
 20
136.2737539016716
 30
0.0
 10
116.4837395978233
 20
136.2835988154092
 30
0.0
 10
116.4837395978233
 20
136.3230909217183
 30
0.0
 10
116.4837395978233
 20
136.3527385608935
 30
0.0
 10
116.4837395978233
 20
136.4321676980972
 30
0.0
 10
116.4837395978233
 20
136.4819501221665
 30
0.0
 10
116.4837395978233
 20
136.6021791085011
 30
0.0
 10
116.4837395978233
 20
136.6726271411082
 30
0.0
 10
116.4837395978233
 20
136.7537539016716
 30
0.0
  0
LINE
  5
248
330
1F
100
AcDbEntity
  8
0
  6
Continuous
 62
     7
370
    25
100
AcDbLine
 10
116.4837397729
 20
138.3742154778
 30
0.0
 11
116.4837397729
 21
136.7537537792
 31
0.0
  0
SPLINE
  5
249
330
1F
100
AcDbEntity
  8
0
  6
Continuous
 62
     7
370
    25
100
AcDbSpline
210
0.0
220
0.0
230
1.0
 70
     8
 71
     3
 72
    14
 73
    10
 74
     0
 42
0.000000001
 43
0.00000001
 40
0.0
 40
0.0
 40
0.0
 40
0.0
 40
0.25
 40
0.25
 40
0.5
 40
0.5
 40
0.75
 40
0.75
 40
1.0
 40
1.0
 40
1.0
 40
1.0
 10
116.4837395978233
 20
138.3742154674464
 30
0.0
 10
116.4837395978233
 20
138.4398793351649
 30
0.0
 10
116.4737862912708
 20
138.5056041754729
 30
0.0
 10
116.4354146754548
 20
138.6371119750291
 30
0.0
 10
116.4068757434816
 20
138.7027430598687
 30
0.0
 10
116.3296881962015
 20
138.8264029717547
 30
0.0
 10
116.2802595110136
 20
138.8862936177095
 30
0.0
 10
116.1527510238365
 20
138.9824062931264
 30
0.0
 10
116.0711348137824
 20
139.0182355097715
 30
0.0
 10
115.9837395978233
 20
139.0182355097715
 30
0.0
  0
LINE
  5
24A
330
1F
100
AcDbEntity
  8
0
  6
Continuous
 62
     7
370
    25
100
AcDbLine
 10
115.73373965
 20
139.0182355155
 30
0.0
 11
115.983739691
 21
139.0182355155
 31
0.0
  0
LINE
  5
24B
330
1F
100
AcDbEntity
  8
0
  6
Continuous
 62
     7
370
    25
100
AcDbLine
 10
115.983739691
 20
145.5292722878
 30
0.0
 11
115.73373965
 21
145.5292722878
 31
0.0
  0
SPLINE
  5
24C
330
1F
100
AcDbEntity
  8
0
  6
Continuous
 62
     7
370
    25
100
AcDbSpline
210
0.0
220
0.0
230
1.0
 70
     8
 71
     3
 72
    14
 73
    10
 74
     0
 42
0.000000001
 43
0.00000001
 40
0.0
 40
0.0
 40
0.0
 40
0.0
 40
0.25
 40
0.25
 40
0.5
 40
0.5
 40
0.75
 40
0.75
 40
1.0
 40
1.0
 40
1.0
 40
1.0
 10
115.9837395978233
 20
145.5292722935718
 30
0.0
 10
116.0710576268297
 20
145.5292722935718
 30
0.0
 10
116.1526857346513
 20
145.5650445964449
 30
0.0
 10
116.2803868527847
 20
145.6613178768195
 30
0.0
 10
116.3297776456103
 20
145.7211867074382
 30
0.0
 10
116.4071363131683
 20
145.8452439015058
 30
0.0
 10
116.4357051227402
 20
145.9112354268556
 30
0.0
 10
116.4737724917073
 20
146.042013295968
 30
0.0
 10
116.4837395978233
 20
146.1075732992448
 30
0.0
 10
116.4837395978233
 20
146.1732923358969
 30
0.0
  0
LINE
  5
24D
330
1F
100
AcDbEntity
  8
0
  6
Continuous
 62
     7
370
    25
100
AcDbLine
 10
116.4837397729
 20
147.7937540242
 30
0.0
 11
116.4837397729
 21
146.1732923255
 31
0.0
  0
LINE
  5
24E
330
1F
100
AcDbEntity
  8
0
  6
Continuous
 62
     7
370
    25
100
AcDbLine
 10
114.7337394861
 20
136.5237538905
 30
0.0
 11
115.73373965
 21
136.5237538905
 31
0.0
  0
LINE
  5
24F
330
1F
100
AcDbEntity
  8
0
  6
Continuous
 62
     7
370
    25
100
AcDbLine
 10
115.73373965
 20
136.5237538905
 30
0.0
 11
115.73373965
 21
138.8825888482
 31
0.0
  0
LINE
  5
250
330
1F
100
AcDbEntity
  8
0
  6
Continuous
 62
     7
370
    25
100
AcDbLine
 10
115.73373965
 20
136.5237538905
 30
0.0
 11
115.73373965
 21
136.2737538495
 31
0.0
  0
LINE
  5
251
330
1F
100
AcDbEntity
  8
0
  6
Continuous
 62
     7
370
    25
100
AcDbLine
 10
115.73373965
 20
136.2737538495
 30
0.0
 11
114.4837394451
 21
136.2737538495
 31
0.0
  0
LINE
  5
252
330
1F
100
AcDbEntity
  8
0
  6
Continuous
 62
     7
370
    25
100
AcDbLine
 10
115.73373965
 20
145.6649189551
 30
0.0
 11
115.73373965
 21
145.5292722878
 31
0.0
  0
LINE
  5
253
330
1F
100
AcDbEntity
  8
0
  6
Continuous
 62
     7
370
    25
100
AcDbLine
 10
115.73373965
 20
139.0182355155
 30
0.0
 11
115.73373965
 21
138.8825888482
 31
0.0
  0
SPLINE
  5
254
330
1F
100
AcDbEntity
  8
0
  6
Continuous
 62
     7
370
    25
100
AcDbSpline
210
0.0
220
0.0
230
1.0
 70
     8
 71
     3
 72
    14
 73
    10
 74
     0
 42
0.000000001
 43
0.00000001
 40
0.0
 40
0.0
 40
0.0
 40
0.0
 40
0.4999999999999984
 40
0.4999999999999984
 40
0.7499999999999981
 40
0.7499999999999981
 40
0.874999999999999
 40
0.874999999999999
 40
1.0
 40
1.0
 40
1.0
 40
1.0
 10
116.2337395978233
 20
146.3357731039896
 30
0.0
 10
116.2337395978233
 20
146.2131000533617
 30
0.0
 10
116.2188359309894
 20
146.0896340243368
 30
0.0
 10
116.1710771774078
 20
145.9076371668542
 30
0.0
 10
116.1510071569545
 20
145.8472435211431
 30
0.0
 10
116.1073880530884
 20
145.7622327720096
 30
0.0
 10
116.090448638492
 20
145.7344324229763
 30
0.0
 10
116.0469943419042
 20
145.6867185187164
 30
0.0
 10
116.0177612855786
 20
145.6649188932342
 30
0.0
 10
115.9837395978233
 20
145.6649188932342
 30
0.0
  0
LWPOLYLINE
  5
255
330
1F
100
AcDbEntity
  8
0
  6
Continuous
 62
     7
370
    25
100
AcDbPolyline
 90
        9
 70
   128
 43
0.0
 10
116.2337397319
 20
146.3357731902
 10
116.2385434938
 20
146.3040746951
 10
116.2527699118
 20
146.2735943698
 10
116.2758722995
 20
146.2455038183
 10
116.3069631067
 20
146.2208819778
 10
116.3448469807
 20
146.2006750719
 10
116.3880687301
 20
146.1856602893
 10
116.4349668753
 20
146.1764143516
 10
116.4837397729
 20
146.1732923255
  0
LINE
  5
256
330
1F
100
AcDbEntity
  8
0
  6
Continuous
 62
     7
370
    25
100
AcDbLine
 10
115.983739691
 20
145.6649189551
 30
0.0
 11
115.983739691
 21
145.5292722878
 31
0.0
  0
LWPOLYLINE
  5
257
330
1F
100
AcDbEntity
  8
0
  6
Continuous
 62
     7
370
    25
100
AcDbPolyline
 90
        9
 70
   128
 43
0.0
 10
116.4837397729
 20
138.3742154778
 10
116.4349668753
 20
138.3710934517
 10
116.3880687301
 20
138.361847514
 10
116.3448469807
 20
138.3468327315
 10
116.3069631067
 20
138.3266258256
 10
116.2758722995
 20
138.302003985
 10
116.2527699118
 20
138.2739134335
 10
116.2385434938
 20
138.2434331083
 10
116.2337397319
 20
138.2117346131
  0
SPLINE
  5
258
330
1F
100
AcDbEntity
  8
0
  6
Continuous
 62
     7
370
    25
100
AcDbSpline
210
0.0
220
0.0
230
1.0
 70
     8
 71
     3
 72
    14
 73
    10
 74
     0
 42
0.000000001
 43
0.00000001
 40
0.0
 40
0.0
 40
0.0
 40
0.0
 40
0.1250000000000003
 40
0.1250000000000003
 40
0.2500000000000006
 40
0.2500000000000006
 40
0.5000000000000008
 40
0.5000000000000008
 40
1.0
 40
1.0
 40
1.0
 40
1.0
 10
115.9837395978233
 20
138.882588910109
 30
0.0
 10
116.0178431481201
 20
138.882588910109
 30
0.0
 10
116.0469435903791
 20
138.8608380451496
 30
0.0
 10
116.0904540129322
 20
138.8130764378025
 30
0.0
 10
116.1073905985183
 20
138.7852661484526
 30
0.0
 10
116.150958824714
 20
138.7003663167195
 30
0.0
 10
116.171063295399
 20
138.6398946786063
 30
0.0
 10
116.2187532200226
 20
138.4582465875549
 30
0.0
 10
116.2337395978233
 20
138.3343720092665
 30
0.0
 10
116.2337395978233
 20
138.2117346993536
 30
0.0
  0
LINE
  5
259
330
1F
100
AcDbEntity
  8
0
  6
Continuous
 62
     7
370
    25
100
AcDbLine
 10
115.983739691
 20
139.0182355155
 30
0.0
 11
115.983739691
 21
138.8825888482
 31
0.0
  0
LINE
  5
25A
330
1F
100
AcDbEntity
  8
0
  6
Continuous
 62
     7
370
    25
100
AcDbLine
 10
115.73373965
 20
145.6649189551
 30
0.0
 11
115.983739691
 21
145.6649189551
 31
0.0
  0
LINE
  5
25B
330
1F
100
AcDbEntity
  8
0
  6
Continuous
 62
     7
370
    25
100
AcDbLine
 10
115.983739691
 20
138.8825888482
 30
0.0
 11
115.73373965
 21
138.8825888482
 31
0.0
  0
ARC
  5
25C
330
1F
100
AcDbEntity
  8
0
  6
Continuous
 62
     7
370
    25
100
AcDbCircle
 10
115.9837395978
 20
148.0237539017
 30
0.0
 40
0.25
100
AcDbArc
 50
0.0
 51
90.0
  0
LINE
  5
25D
330
1F
100
AcDbEntity
  8
0
  6
Continuous
 62
     7
370
    25
100
AcDbLine
 10
115.983739691
 20
148.0237539128
 30
0.0
 11
116.2337397319
 21
148.0237539128
 31
0.0
  0
LINE
  5
25E
330
1F
100
AcDbEntity
  8
0
  6
Continuous
 62
     7
370
    25
100
AcDbLine
 10
115.983739691
 20
148.2737539538
 30
0.0
 11
115.983739691
 21
148.0237539128
 31
0.0
  0
LINE
  5
25F
330
1F
100
AcDbEntity
  8
0
  6
Continuous
 62
     7
370
    25
100
AcDbLine
 10
115.983739691
 20
148.0237539128
 30
0.0
 11
115.73373965
 21
148.0237539128
 31
0.0
  0
LINE
  5
260
330
1F
100
AcDbEntity
  8
0
  6
Continuous
 62
     7
370
    25
100
AcDbLine
 10
115.73373965
 20
148.2737539538
 30
0.0
 11
115.983739691
 21
148.2737539538
 31
0.0
  0
LINE
  5
261
330
1F
100
AcDbEntity
  8
0
  6
Continuous
 62
     7
370
    25
100
AcDbLine
 10
115.983739691
 20
145.6649189551
 30
0.0
 11
115.983739691
 21
148.0237539128
 31
0.0
  0
LINE
  5
262
330
1F
100
AcDbEntity
  8
0
  6
Continuous
 62
     7
370
    25
100
AcDbLine
 10
116.2337397319
 20
148.0237539128
 30
0.0
 11
116.2337397319
 21
146.3357731902
 31
0.0
  0
LINE
  5
263
330
1F
100
AcDbEntity
  8
0
  6
Continuous
 62
     7
370
    25
100
AcDbLine
 10
116.2337397319
 20
138.2117346131
 30
0.0
 11
116.2337397319
 21
136.5237538905
 31
0.0
  0
LINE
  5
264
330
1F
100
AcDbEntity
  8
0
  6
Continuous
 62
     7
370
    25
100
AcDbLine
 10
116.2337397319
 20
136.5237538905
 30
0.0
 11
115.983739691
 21
136.5237538905
 31
0.0
  0
LINE
  5
265
330
1F
100
AcDbEntity
  8
0
  6
Continuous
 62
     7
370
    25
100
AcDbLine
 10
115.983739691
 20
136.5237538905
 30
0.0
 11
115.983739691
 21
138.8825888482
 31
0.0
  0
LINE
  5
266
330
1F
100
AcDbEntity
  8
0
  6
Continuous
 62
     7
370
    25
100
AcDbLine
 10
115.73373965
 20
136.5237538905
 30
0.0
 11
115.983739691
 21
136.5237538905
 31
0.0
  0
LINE
  5
267
330
1F
100
AcDbEntity
  8
0
  6
Continuous
 62
     7
370
    25
100
AcDbLine
 10
115.983739691
 20
136.5237538905
 30
0.0
 11
115.983739691
 21
136.2737538495
 31
0.0
  0
LINE
  5
268
330
1F
100
AcDbEntity
  8
0
  6
Continuous
 62
     7
370
    25
100
AcDbLine
 10
115.983739691
 20
136.2737538495
 30
0.0
 11
115.73373965
 21
136.2737538495
 31
0.0
  0
ARC
  5
269
330
1F
100
AcDbEntity
  8
0
  6
Continuous
 62
     7
370
    25
100
AcDbCircle
 10
115.9837395978
 20
136.5237539017
 30
0.0
 40
0.25
100
AcDbArc
 50
270.0
 51
0.0
  0
SPLINE
  5
26A
330
1F
100
AcDbEntity
  8
0
  6
Continuous
 62
     7
370
    25
100
AcDbSpline
210
0.0
220
0.0
230
1.0
 70
     8
 71
     3
 72
    12
 73
     8
 74
     0
 42
0.000000001
 43
0.00000001
 40
0.0
 40
0.0
 40
0.0
 40
0.0
 40
0.25
 40
0.25
 40
0.5
 40
0.5
 40
1.0
 40
1.0
 40
1.0
 40
1.0
 10
116.3069550020827
 20
147.8665416487772
 30
0.0
 10
116.2927413720491
 20
147.8803121221882
 30
0.0
 10
116.2800398482965
 20
147.8963761420395
 30
0.0
 10
116.2589724189541
 20
147.9297674462348
 30
0.0
 10
116.2506065133642
 20
147.9470947305789
 30
0.0
 10
116.2339793322396
 20
147.9959857377692
 30
0.0
 10
116.2337395978233
 20
148.0237539016716
 30
0.0
 10
116.2337395978233
 20
148.0237539016716
 30
0.0
  0
SPLINE
  5
26B
330
1F
100
AcDbEntity
  8
0
  6
Continuous
 62
     7
370
    25
100
AcDbSpline
210
0.0
220
0.0
230
1.0
 70
     8
 71
     3
 72
    10
 73
     6
 74
     0
 42
0.000000001
 43
0.00000001
 40
0.0
 40
0.0
 40
0.0
 40
0.0
 40
0.5
 40
0.5
 40
1.0
 40
1.0
 40
1.0
 40
1.0
 10
116.3069550020827
 20
147.8665416487772
 30
0.0
 10
116.33538226215
 20
147.8390007019552
 30
0.0
 10
116.3696089003169
 20
147.8193875680655
 30
0.0
 10
116.4326309458544
 20
147.7970786947772
 30
0.0
 10
116.4612166651464
 20
147.7937539016716
 30
0.0
 10
116.4837395978233
 20
147.7937539016716
 30
0.0
  0
SPLINE
  5
26C
330
1F
100
AcDbEntity
  8
0
  6
Continuous
 62
     7
370
    25
100
AcDbSpline
210
0.0
220
0.0
230
1.0
 70
     8
 71
     3
 72
    10
 73
     6
 74
     0
 42
0.000000001
 43
0.00000001
 40
0.0
 40
0.0
 40
0.0
 40
0.0
 40
0.5
 40
0.5
 40
1.0
 40
1.0
 40
1.0
 40
1.0
 10
116.3069550020827
 20
136.680966154566
 30
0.0
 10
116.33538226215
 20
136.708507101388
 30
0.0
 10
116.3696089003169
 20
136.7281202352777
 30
0.0
 10
116.4326309458544
 20
136.750429108566
 30
0.0
 10
116.4612166651464
 20
136.7537539016716
 30
0.0
 10
116.4837395978233
 20
136.7537539016716
 30
0.0
  0
SPLINE
  5
26D
330
1F
100
AcDbEntity
  8
0
  6
Continuous
 62
     7
370
    25
100
AcDbSpline
210
0.0
220
0.0
230
1.0
 70
     8
 71
     3
 72
    12
 73
     8
 74
     0
 42
0.000000001
 43
0.00000001
 40
0.0
 40
0.0
 40
0.0
 40
0.0
 40
0.25
 40
0.25
 40
0.5
 40
0.5
 40
1.0
 40
1.0
 40
1.0
 40
1.0
 10
116.3069550020827
 20
136.680966154566
 30
0.0
 10
116.2927413720491
 20
136.667195681155
 30
0.0
 10
116.2800398482965
 20
136.6511316613038
 30
0.0
 10
116.2589724189541
 20
136.6177403571084
 30
0.0
 10
116.2506065133642
 20
136.6004130727643
 30
0.0
 10
116.2339793322396
 20
136.551522065574
 30
0.0
 10
116.2337395978233
 20
136.5237539016716
 30
0.0
 10
116.2337395978233
 20
136.5237539016716
 30
0.0
  0
SPLINE
  5
26E
330
1F
100
AcDbEntity
  8
0
  6
Continuous
 62
     7
370
    25
100
AcDbSpline
210
0.0
220
0.0
230
1.0
 70
     8
 71
     3
 72
    16
 73
    12
 74
     0
 42
0.000000001
 43
0.00000001
 40
0.0
 40
0.0
 40
0.0
 40
0.0
 40
0.1250000000000001
 40
0.1250000000000001
 40
0.2500000000000001
 40
0.2500000000000001
 40
0.5000000000000002
 40
0.5000000000000002
 40
0.7500000000000001
 40
0.7500000000000001
 40
1.0
 40
1.0
 40
1.0
 40
1.0
 10
108.7337395978233
 20
145.0534297628379
 30
0.0
 10
108.8877622671503
 20
145.0369227996065
 30
0.0
 10
109.043309622921
 20
145.0219875082212
 30
0.0
 10
109.3591767160579
 20
144.9998782017916
 30
0.0
 10
109.5209188490605
 20
144.9928243841754
 30
0.0
 10
110.0058597779593
 20
144.9892605607632
 30
0.0
 10
110.3198811916655
 20
145.0112029896499
 30
0.0
 10
110.9375724709413
 20
145.073745080374
 30
0.0
 10
111.2416820681564
 20
145.1126034197885
 30
0.0
 10
111.8385587732571
 20
145.180429446521
 30
0.0
 10
112.1330404458138
 20
145.2101146427181
 30
0.0
 10
112.4263220013905
 20
145.2317937932214
 30
0.0
  0
SPLINE
  5
26F
330
1F
100
AcDbEntity
  8
0
  6
Continuous
 62
     7
370
    25
100
AcDbSpline
210
0.0
220
0.0
230
1.0
 70
     8
 71
     3
 72
    14
 73
    10
 74
     0
 42
0.000000001
 43
0.00000001
 40
0.0
 40
0.0
 40
0.0
 40
0.0
 40
0.25
 40
0.25
 40
0.5
 40
0.5
 40
0.75
 40
0.75
 40
1.0
 40
1.0
 40
1.0
 40
1.0
 10
112.4263220013911
 20
139.3157140101218
 30
0.0
 10
112.1330383352163
 20
139.3373933166389
 30
0.0
 10
111.838565870451
 20
139.3670778302499
 30
0.0
 10
111.241749848117
 20
139.434896401504
 30
0.0
 10
110.9377326617916
 20
139.4737536911564
 30
0.0
 10
110.318983659105
 20
139.5363884937979
 30
0.0
 10
110.0037690006783
 20
139.5583757430774
 30
0.0
 10
109.3551433741967
 20
139.5533198860115
 30
0.0
 10
109.0417479408552
 20
139.5270880020622
 30
0.0
 10
108.7337395978233
 20
139.4940780405054
 30
0.0
  0
LINE
  5
270
330
1F
100
AcDbEntity
  8
0
  6
Continuous
 62
     7
370
    25
100
AcDbLine
 10
108.7337395503
 20
139.4940780212
 30
0.0
 11
108.7337395503
 21
145.0534297821
 31
0.0
  0
SPLINE
  5
271
330
1F
100
AcDbEntity
  8
0
  6
Continuous
 62
     7
370
    25
100
AcDbSpline
210
0.0
220
0.0
230
1.0
 70
     8
 71
     3
 72
    12
 73
     8
 74
     0
 42
0.000000001
 43
0.00000001
 40
0.0
 40
0.0
 40
0.0
 40
0.0
 40
0.25
 40
0.25
 40
0.5
 40
0.5
 40
1.0
 40
1.0
 40
1.0
 40
1.0
 10
116.235747198113
 20
148.2724606843431
 30
0.0
 10
116.2254837388239
 20
148.2724505269859
 30
0.0
 10
116.2179049590271
 20
148.2638941008745
 30
0.0
 10
116.203491503578
 20
148.2425207446396
 30
0.0
 10
116.1966568279257
 20
148.2297038145161
 30
0.0
 10
116.1703310749253
 20
148.2041103183725
 30
0.0
 10
116.1606641235643
 20
148.2003827665239
 30
0.0
 10
116.1605162931192
 20
148.200530596969
 30
0.0
  0
SPLINE
  5
272
330
1F
100
AcDbEntity
  8
0
  6
Continuous
 62
     7
370
    25
100
AcDbSpline
210
0.0
220
0.0
230
1.0
 70
     8
 71
     3
 72
    10
 73
     6
 74
     0
 42
0.000000001
 43
0.00000001
 40
0.0
 40
0.0
 40
0.0
 40
0.0
 40
0.5
 40
0.5
 40
1.0
 40
1.0
 40
1.0
 40
1.0
 10
116.235747198113
 20
148.2724606843431
 30
0.0
 10
116.1946933609565
 20
148.2724200549144
 30
0.0
 10
116.1506190086434
 20
148.2727786136712
 30
0.0
 10
116.0592677391315
 20
148.2777771682541
 30
0.0
 10
116.0265179576345
 20
148.2737539016716
 30
0.0
 10
115.9837395978233
 20
148.2737539016716
 30
0.0
  0
SPLINE
  5
273
330
1F
100
AcDbEntity
  8
0
  6
Continuous
 62
     7
370
    25
100
AcDbSpline
210
0.0
220
0.0
230
1.0
 70
     8
 71
     3
 72
    14
 73
    10
 74
     0
 42
0.000000001
 43
0.00000001
 40
0.0
 40
0.0
 40
0.0
 40
0.0
 40
0.25
 40
0.25
 40
0.5
 40
0.5
 40
0.75
 40
0.75
 40
1.0
 40
1.0
 40
1.0
 40
1.0
 10
116.235747198113
 20
148.2724606843431
 30
0.0
 10
116.2460106574021
 20
148.2724708417002
 30
0.0
 10
116.2606755478329
 20
148.2639364293072
 30
0.0
 10
116.2924109260164
 20
148.227890941202
 30
0.0
 10
116.3094814137691
 20
148.2003798654898
 30
0.0
 10
116.3396307216354
 20
148.1244935269273
 30
0.0
 10
116.3454621917853
 20
148.0802565545259
 30
0.0
 10
116.3393560685638
 20
147.9810174049072
 30
0.0
 10
116.3274184751923
 20
147.92601522769
 30
0.0
 10
116.3069550020827
 20
147.8665416487772
 30
0.0
  0
SPLINE
  5
274
330
1F
100
AcDbEntity
  8
0
  6
Continuous
 62
     7
370
    25
100
AcDbSpline
210
0.0
220
0.0
230
1.0
 70
     8
 71
     3
 72
    12
 73
     8
 74
     0
 42
0.000000001
 43
0.00000001
 40
0.0
 40
0.0
 40
0.0
 40
0.0
 40
0.25
 40
0.25
 40
0.5
 40
0.5
 40
1.0
 40
1.0
 40
1.0
 40
1.0
 10
116.235747198113
 20
136.2750471190002
 30
0.0
 10
116.2254837388239
 20
136.2750572763573
 30
0.0
 10
116.2179049590271
 20
136.2836137024688
 30
0.0
 10
116.203491503578
 20
136.3049870587037
 30
0.0
 10
116.1966568279257
 20
136.3178039888271
 30
0.0
 10
116.1703310749253
 20
136.3433974849707
 30
0.0
 10
116.1606641235643
 20
136.3471250368193
 30
0.0
 10
116.1605162931192
 20
136.3469772063742
 30
0.0
  0
SPLINE
  5
275
330
1F
100
AcDbEntity
  8
0
  6
Continuous
 62
     7
370
    25
100
AcDbSpline
210
0.0
220
0.0
230
1.0
 70
     8
 71
     3
 72
    12
 73
     8
 74
     0
 42
0.000000001
 43
0.00000001
 40
0.0
 40
0.0
 40
0.0
 40
0.0
 40
0.25
 40
0.25
 40
0.5
 40
0.5
 40
1.0
 40
1.0
 40
1.0
 40
1.0
 10
116.235747198113
 20
136.2750471190002
 30
0.0
 10
116.2460106574021
 20
136.275036961643
 30
0.0
 10
116.2606755478329
 20
136.283571374036
 30
0.0
 10
116.2924109260164
 20
136.3196168621412
 30
0.0
 10
116.3094814137691
 20
136.3471279378535
 30
0.0
 10
116.3547053755686
 20
136.4609574456971
 30
0.0
 10
116.3478819483019
 20
136.5620189967404
 30
0.0
 10
116.3069550020827
 20
136.680966154566
 30
0.0
  0
SPLINE
  5
276
330
1F
100
AcDbEntity
  8
0
  6
Continuous
 62
     7
370
    25
100
AcDbSpline
210
0.0
220
0.0
230
1.0
 70
     8
 71
     3
 72
    10
 73
     6
 74
     0
 42
0.000000001
 43
0.00000001
 40
0.0
 40
0.0
 40
0.0
 40
0.0
 40
0.5
 40
0.5
 40
1.0
 40
1.0
 40
1.0
 40
1.0
 10
116.235747198113
 20
136.2750471190002
 30
0.0
 10
116.1946933609565
 20
136.2750877484288
 30
0.0
 10
116.1506190086434
 20
136.274729189672
 30
0.0
 10
116.0592677391315
 20
136.2697306350892
 30
0.0
 10
116.0265179576345
 20
136.2737539016716
 30
0.0
 10
115.9837395978233
 20
136.2737539016716
 30
0.0
  0
SPLINE
  5
277
330
1F
100
AcDbEntity
  8
0
  6
Continuous
 62
     7
370
    25
100
AcDbSpline
210
0.0
220
0.0
230
1.0
 70
     8
 71
     3
 72
    10
 73
     6
 74
     0
 42
0.000000001
 43
0.00000001
 40
0.0
 40
0.0
 40
0.0
 40
0.0
 40
0.5
 40
0.5
 40
1.0
 40
1.0
 40
1.0
 40
1.0
 10
116.235747198113
 20
148.2724606843431
 30
0.0
 10
116.2768010352695
 20
148.2725013137717
 30
0.0
 10
116.3202778656505
 20
148.2729465186199
 30
0.0
 10
116.4093365653749
 20
148.2694209176687
 30
0.0
 10
116.4414399348985
 20
148.2737539016716
 30
0.0
 10
116.4837395978233
 20
148.2737539016716
 30
0.0
  0
SPLINE
  5
278
330
1F
100
AcDbEntity
  8
0
  6
Continuous
 62
     7
370
    25
100
AcDbSpline
210
0.0
220
0.0
230
1.0
 70
     8
 71
     3
 72
    10
 73
     6
 74
     0
 42
0.000000001
 43
0.00000001
 40
0.0
 40
0.0
 40
0.0
 40
0.0
 40
0.5
 40
0.5
 40
1.0
 40
1.0
 40
1.0
 40
1.0
 10
116.235747198113
 20
136.2750471190002
 30
0.0
 10
116.2768010352695
 20
136.2750064895715
 30
0.0
 10
116.3202778656505
 20
136.2745612847233
 30
0.0
 10
116.4093365653749
 20
136.2780868856746
 30
0.0
 10
116.4414399348985
 20
136.2737539016716
 30
0.0
 10
116.4837395978233
 20
136.2737539016716
 30
0.0
  0
SPLINE
  5
279
330
1F
100
AcDbEntity
  8
0
  6
Continuous
 62
     7
370
    25
100
AcDbSpline
210
0.0
220
0.0
230
1.0
 70
     8
 71
     3
 72
    18
 73
    14
 74
     0
 42
0.000000001
 43
0.00000001
 40
0.0
 40
0.0
 40
0.0
 40
0.0
 40
0.25
 40
0.25
 40
0.3749999999999999
 40
0.3749999999999999
 40
0.4999999999999999
 40
0.4999999999999999
 40
0.6249999999999999
 40
0.6249999999999999
 40
0.7499999999999999
 40
0.7499999999999999
 40
1.0
 40
1.0
 40
1.0
 40
1.0
 10
108.7337395978233
 20
139.4940780405054
 30
0.0
 10
108.5450740373945
 20
139.9136921604756
 30
0.0
 10
108.3778091148975
 20
140.3465281848941
 30
0.0
 10
108.1994822448505
 20
141.0399853976603
 30
0.0
 10
108.1525506933803
 20
141.2812858338696
 30
0.0
 10
108.0923178753308
 20
141.7694051791815
 30
0.0
 10
108.0781392587307
 20
142.0166748893079
 30
0.0
 10
108.0776924002457
 20
142.5190901085607
 30
0.0
 10
108.091777333079
 20
142.770997213285
 30
0.0
 10
108.1512702553307
 20
143.2584886582262
 30
0.0
 10
108.1974340310088
 20
143.4983705248067
 30
0.0
 10
108.3764063332576
 20
144.1978449469848
 30
0.0
 10
108.5445135455632
 20
144.6325690439334
 30
0.0
 10
108.7337395978233
 20
145.0534297628379
 30
0.0
  0
LINE
  5
27A
330
1F
100
AcDbEntity
  8
0
  6
Continuous
 62
     8
370
    25
100
AcDbLine
 10
159.2819147837
 20
138.3403046259
 30
0.0
 11
159.2819147837
 21
146.2072031775
 31
0.0
  0
LINE
  5
27B
330
1F
100
AcDbEntity
  8
0
  6
Continuous
 62
     8
370
    25
100
AcDbLine
 10
121.2880245504
 20
150.1237536051
 30
0.0
 11
121.2880245504
 21
134.4237541982
 31
0.0
  0
LINE
  5
27C
330
1F
100
AcDbEntity
  8
0
  6
Continuous
 62
     8
370
    25
100
AcDbLine
 10
133.6880249065
 20
134.4237541982
 30
0.0
 11
133.6880249065
 21
150.1237536051
 31
0.0
  0
LINE
  5
27D
330
1F
100
AcDbEntity
  8
0
  6
Continuous
 62
     8
370
    25
100
AcDbLine
 10
106.1677687896
 20
148.0237539128
 30
0.0
 11
104.9837397506
 21
148.0237539128
 31
0.0
  0
LINE
  5
27E
330
1F
100
AcDbEntity
  8
0
  6
Continuous
 62
     8
370
    25
100
AcDbLine
 10
114.7337394861
 20
148.0237539128
 30
0.0
 11
113.2997104061
 21
148.0237539128
 31
0.0
  0
LINE
  5
27F
330
1F
100
AcDbEntity
  8
0
  6
Continuous
 62
     8
370
    25
100
AcDbLine
 10
104.9837397506
 20
148.0237539128
 30
0.0
 11
104.9837397506
 21
147.0920676568
 31
0.0
  0
LINE
  5
280
330
1F
100
AcDbEntity
  8
0
  6
Continuous
 62
     8
370
    25
100
AcDbLine
 10
104.9837397506
 20
136.5237538905
 30
0.0
 11
106.1677687896
 21
136.5237538905
 31
0.0
  0
LINE
  5
281
330
1F
100
AcDbEntity
  8
0
  6
Continuous
 62
     8
370
    25
100
AcDbLine
 10
104.9837397506
 20
137.4554401466
 30
0.0
 11
104.9837397506
 21
136.5237538905
 31
0.0
  0
LINE
  5
282
330
1F
100
AcDbEntity
  8
0
  6
Continuous
 62
     8
370
    25
100
AcDbLine
 10
114.4837394451
 20
136.5237538905
 30
0.0
 11
114.4837394451
 21
137.4554401466
 31
0.0
  0
LINE
  5
283
330
1F
100
AcDbEntity
  8
0
  6
Continuous
 62
     8
370
    25
100
AcDbLine
 10
113.2997104061
 20
136.5237538905
 30
0.0
 11
114.4837394451
 21
136.5237538905
 31
0.0
  0
LINE
  5
284
330
1F
100
AcDbEntity
  8
0
  6
Continuous
 62
     8
370
    25
100
AcDbLine
 10
119.2337392923
 20
136.2737538495
 30
0.0
 11
119.2337392923
 21
148.2737539538
 31
0.0
  0
LINE
  5
285
330
1F
100
AcDbEntity
  8
0
  6
Continuous
 62
     8
370
    25
100
AcDbLine
 10
115.5936966744
 20
145.6493844946
 30
0.0
 11
115.73373965
 21
145.6649189551
 31
0.0
  0
LINE
  5
286
330
1F
100
AcDbEntity
  8
0
  6
Continuous
 62
     8
370
    25
100
AcDbLine
 10
115.6658085157
 20
139.0278807578
 30
0.0
 11
115.73373965
 21
139.0182355155
 31
0.0
  0
LINE
  5
287
330
1F
100
AcDbEntity
  8
0
  6
Continuous
 62
     8
370
    25
100
AcDbLine
 10
115.73373965
 20
145.5292722878
 30
0.0
 11
115.6564645563
 21
145.5183003766
 31
0.0
  0
LINE
  5
288
330
1F
100
AcDbEntity
  8
0
  6
Continuous
 62
     8
370
    25
100
AcDbLine
 10
115.73373965
 20
138.8825888482
 30
0.0
 11
115.5824476947
 21
138.8993710482
 31
0.0
  0
SPLINE
  5
289
330
1F
100
AcDbEntity
  8
0
  6
Continuous
 62
     8
370
    25
100
AcDbSpline
210
0.0
220
0.0
230
1.0
 70
     8
 71
     3
 72
    14
 73
    10
 74
     0
 42
0.000000001
 43
0.00000001
 40
0.0
 40
0.0
 40
0.0
 40
0.0
 40
0.25
 40
0.25
 40
0.5
 40
0.5
 40
0.75
 40
0.75
 40
1.0
 40
1.0
 40
1.0
 40
1.0
 10
116.9837395978233
 20
148.5737539016716
 30
0.0
 10
116.9837396035508
 20
148.573753901884
 30
0.0
 10
117.0085380712342
 20
148.572514473716
 30
0.0
 10
117.1006055786475
 20
148.5695872755475
 30
0.0
 10
117.1667975027738
 20
148.5682022477603
 30
0.0
 10
117.3010091620264
 20
148.5681943836784
 30
0.0
 10
117.367520643066
 20
148.569607239221
 30
0.0
 10
117.4586788797401
 20
148.5725066102395
 30
0.0
 10
117.4837305113157
 20
148.5737540540343
 30
0.0
 10
117.4837395976978
 20
148.5737539016557
 30
0.0
  0
LWPOLYLINE
  5
28A
330
1F
100
AcDbEntity
  8
0
  6
Continuous
 62
     8
370
    25
100
AcDbPolyline
 90
       13
 70
   128
 43
0.0
 10
117.7337381152
 20
148.3237538689
 10
117.7337399778
 20
148.3237538689
 10
117.7047898156
 20
148.3208136835
 10
117.6208227036
 20
148.3132797496
 10
117.4924254512
 20
148.3046072737
 10
117.3348154035
 20
148.2986724206
 10
117.1662497428
 20
148.2980833591
 10
117.0074327012
 20
148.3029662834
 10
116.8738358748
 20
148.311166113
 10
116.7801532057
 20
148.3191363716
 10
116.7363018823
 20
148.3234833197
 10
116.7337398139
 20
148.3237538689
 10
116.7337398139
 20
148.3237538689
  0
INSERT
  5
296
330
1F
100
AcDbEntity
  8
0
  6
Continuous
 62
     7
370
    18
100
AcDbBlockReference
  2
SW_CENTERMARKSYMBOL_1
 10
109.7337395978
 20
142.2737539017
 30
0.0
  0
ENDSEC
  0
SECTION
  2
OBJECTS
  0
DICTIONARY
  5
C
330
0
100
AcDbDictionary
281
     1
  3
ACAD_GROUP
350
D
  3
ACAD_LAYOUT
350
1A
  3
ACAD_MLINESTYLE
350
17
  3
ACAD_PLOTSETTINGS
350
19
  3
ACAD_PLOTSTYLENAME
350
E
  3
ACAD_SCALELIST
350
47
  0
DICTIONARY
  5
D
102
{ACAD_REACTORS
330
C
102
}
330
C
100
AcDbDictionary
281
     1
  0
DICTIONARY
  5
1A
102
{ACAD_REACTORS
330
C
102
}
330
C
100
AcDbDictionary
281
     1
  3
Layout1
350
1E
  3
Layout2
350
26
  3
Model
350
22
  0
DICTIONARY
  5
17
102
{ACAD_REACTORS
330
C
102
}
330
C
100
AcDbDictionary
281
     1
  3
Standard
350
18
  0
DICTIONARY
  5
19
102
{ACAD_REACTORS
330
C
102
}
330
C
100
AcDbDictionary
281
     1
  0
ACDBDICTIONARYWDFLT
  5
E
102
{ACAD_REACTORS
330
C
102
}
330
C
100
AcDbDictionary
281
     1
  3
Normal
350
F
100
AcDbDictionaryWithDefault
340
F
  0
DICTIONARY
  5
47
102
{ACAD_REACTORS
330
C
102
}
330
C
100
AcDbDictionary
281
     1
  3
A0
350
48
  3
A1
350
49
  3
A2
350
4A
  3
A3
350
4B
  3
A4
350
4C
  3
A5
350
4D
  3
A6
350
4E
  3
A7
350
4F
  3
A8
350
50
  3
A9
350
51
  3
B0
350
52
  3
B1
350
53
  3
B2
350
54
  3
B3
350
55
  3
B4
350
56
  3
B5
350
57
  3
B6
350
58
  3
B7
350
59
  3
B8
350
5A
  3
B9
350
5B
  3
C0
350
5C
  3
C1
350
5D
  3
C2
350
5E
  3
C3
350
5F
  3
C4
350
60
  3
C5
350
61
  3
C6
350
62
  3
C7
350
63
  3
C8
350
64
  3
C9
350
65
  3
D0
350
66
  3
D1
350
67
  3
D2
350
68
  0
LAYOUT
  5
1E
102
{ACAD_REACTORS
330
1A
102
}
330
1A
100
AcDbPlotSettings
  1

  2
none_device
  4

  6

 40
0.0
 41
0.0
 42
0.0
 43
0.0
 44
0.0
 45
0.0
 46
0.0
 47
0.0
 48
0.0
 49
0.0
140
0.0
141
0.0
142
1.0
143
1.0
 70
   688
 72
     1
 73
     0
 74
     5
  7

 75
    16
147
1.0
148
0.0
149
0.0
100
AcDbLayout
  1
Layout1
 70
     1
 71
     1
 10
0.0
 20
0.0
 11
420.0
 21
297.0
 12
0.0
 22
0.0
 32
0.0
 14
1.0000000000E+20
 24
1.0000000000E+20
 34
1.0000000000E+20
 15
-1.0000000000E+20
 25
-1.0000000000E+20
 35
-1.0000000000E+20
146
0.0
 13
0.0
 23
0.0
 33
0.0
 16
1.0
 26
0.0
 36
0.0
 17
0.0
 27
1.0
 37
0.0
 76
     0
330
1B
  0
LAYOUT
  5
26
102
{ACAD_REACTORS
330
1A
102
}
330
1A
100
AcDbPlotSettings
  1

  2
none_device
  4

  6

 40
0.0
 41
0.0
 42
0.0
 43
0.0
 44
0.0
 45
0.0
 46
0.0
 47
0.0
 48
0.0
 49
0.0
140
0.0
141
0.0
142
1.0
143
1.0
 70
   688
 72
     1
 73
     0
 74
     5
  7

 75
    16
147
1.0
148
0.0
149
0.0
100
AcDbLayout
  1
Layout2
 70
     1
 71
     2
 10
0.0
 20
0.0
 11
0.0
 21
0.0
 12
0.0
 22
0.0
 32
0.0
 14
0.0
 24
0.0
 34
0.0
 15
0.0
 25
0.0
 35
0.0
146
0.0
 13
0.0
 23
0.0
 33
0.0
 16
1.0
 26
0.0
 36
0.0
 17
0.0
 27
1.0
 37
0.0
 76
     0
330
23
  0
LAYOUT
  5
22
102
{ACAD_REACTORS
330
1A
102
}
330
1A
100
AcDbPlotSettings
  1

  2
none_device
  4
Letter_(8.50_x_11.00_Inches)
  6

 40
6.35
 41
6.35
 42
6.35000508
 43
6.35000508
 44
215.9
 45
279.4
 46
0.0
 47
0.0
 48
0.0
 49
0.0
140
0.0
141
0.0
142
1.0
143
1.0
 70
  1712
 72
     1
 73
     0
 74
     0
  7

 75
     0
147
1.0
148
0.0
149
0.0
100
AcDbLayout
  1
Model
 70
     1
 71
     0
 10
0.0
 20
0.0
 11
431.8
 21
279.4
 12
0.0
 22
0.0
 32
0.0
 14
0.0
 24
0.0
 34
0.0
 15
431.8
 25
279.4
 35
0.0
146
0.0
 13
0.0
 23
0.0
 33
0.0
 16
1.0
 26
0.0
 36
0.0
 17
0.0
 27
1.0
 37
0.0
 76
     0
330
1F
331
29
  0
MLINESTYLE
  5
18
102
{ACAD_REACTORS
330
17
102
}
330
17
100
AcDbMlineStyle
  2
Standard
 70
     0
  3

 62
   256
 51
90.0
 52
90.0
 71
     2
 49
0.5
 62
   256
  6
BYLAYER
 49
-0.5
 62
   256
  6
BYLAYER
  0
ACDBPLACEHOLDER
  5
F
102
{ACAD_REACTORS
330
E
102
}
330
E
  0
SCALE
  5
48
102
{ACAD_REACTORS
330
47
102
}
330
47
100
AcDbScale
 70
     0
300
1:1
140
1.0
141
1.0
290
     1
  0
SCALE
  5
49
102
{ACAD_REACTORS
330
47
102
}
330
47
100
AcDbScale
 70
     0
300
1:2
140
1.0
141
2.0
290
     0
  0
SCALE
  5
4A
102
{ACAD_REACTORS
330
47
102
}
330
47
100
AcDbScale
 70
     0
300
1:4
140
1.0
141
4.0
290
     0
  0
SCALE
  5
4B
102
{ACAD_REACTORS
330
47
102
}
330
47
100
AcDbScale
 70
     0
300
1:5
140
1.0
141
5.0
290
     0
  0
SCALE
  5
4C
102
{ACAD_REACTORS
330
47
102
}
330
47
100
AcDbScale
 70
     0
300
1:8
140
1.0
141
8.0
290
     0
  0
SCALE
  5
4D
102
{ACAD_REACTORS
330
47
102
}
330
47
100
AcDbScale
 70
     0
300
1:10
140
1.0
141
10.0
290
     0
  0
SCALE
  5
4E
102
{ACAD_REACTORS
330
47
102
}
330
47
100
AcDbScale
 70
     0
300
1:16
140
1.0
141
16.0
290
     0
  0
SCALE
  5
4F
102
{ACAD_REACTORS
330
47
102
}
330
47
100
AcDbScale
 70
     0
300
1:20
140
1.0
141
20.0
290
     0
  0
SCALE
  5
50
102
{ACAD_REACTORS
330
47
102
}
330
47
100
AcDbScale
 70
     0
300
1:30
140
1.0
141
30.0
290
     0
  0
SCALE
  5
51
102
{ACAD_REACTORS
330
47
102
}
330
47
100
AcDbScale
 70
     0
300
1:40
140
1.0
141
40.0
290
     0
  0
SCALE
  5
52
102
{ACAD_REACTORS
330
47
102
}
330
47
100
AcDbScale
 70
     0
300
1:50
140
1.0
141
50.0
290
     0
  0
SCALE
  5
53
102
{ACAD_REACTORS
330
47
102
}
330
47
100
AcDbScale
 70
     0
300
1:100
140
1.0
141
100.0
290
     0
  0
SCALE
  5
54
102
{ACAD_REACTORS
330
47
102
}
330
47
100
AcDbScale
 70
     0
300
2:1
140
2.0
141
1.0
290
     0
  0
SCALE
  5
55
102
{ACAD_REACTORS
330
47
102
}
330
47
100
AcDbScale
 70
     0
300
4:1
140
4.0
141
1.0
290
     0
  0
SCALE
  5
56
102
{ACAD_REACTORS
330
47
102
}
330
47
100
AcDbScale
 70
     0
300
8:1
140
8.0
141
1.0
290
     0
  0
SCALE
  5
57
102
{ACAD_REACTORS
330
47
102
}
330
47
100
AcDbScale
 70
     0
300
10:1
140
10.0
141
1.0
290
     0
  0
SCALE
  5
58
102
{ACAD_REACTORS
330
47
102
}
330
47
100
AcDbScale
 70
     0
300
100:1
140
100.0
141
1.0
290
     0
  0
SCALE
  5
59
102
{ACAD_REACTORS
330
47
102
}
330
47
100
AcDbScale
 70
     0
300
1/128" = 1'-0"
140
0.0078125
141
12.0
290
     0
  0
SCALE
  5
5A
102
{ACAD_REACTORS
330
47
102
}
330
47
100
AcDbScale
 70
     0
300
1/64" = 1'-0"
140
0.015625
141
12.0
290
     0
  0
SCALE
  5
5B
102
{ACAD_REACTORS
330
47
102
}
330
47
100
AcDbScale
 70
     0
300
1/32" = 1'-0"
140
0.03125
141
12.0
290
     0
  0
SCALE
  5
5C
102
{ACAD_REACTORS
330
47
102
}
330
47
100
AcDbScale
 70
     0
300
1/16" = 1'-0"
140
0.0625
141
12.0
290
     0
  0
SCALE
  5
5D
102
{ACAD_REACTORS
330
47
102
}
330
47
100
AcDbScale
 70
     0
300
3/32" = 1'-0"
140
0.09375
141
12.0
290
     0
  0
SCALE
  5
5E
102
{ACAD_REACTORS
330
47
102
}
330
47
100
AcDbScale
 70
     0
300
1/8" = 1'-0"
140
0.125
141
12.0
290
     0
  0
SCALE
  5
5F
102
{ACAD_REACTORS
330
47
102
}
330
47
100
AcDbScale
 70
     0
300
3/16" = 1'-0"
140
0.1875
141
12.0
290
     0
  0
SCALE
  5
60
102
{ACAD_REACTORS
330
47
102
}
330
47
100
AcDbScale
 70
     0
300
1/4" = 1'-0"
140
0.25
141
12.0
290
     0
  0
SCALE
  5
61
102
{ACAD_REACTORS
330
47
102
}
330
47
100
AcDbScale
 70
     0
300
3/8" = 1'-0"
140
0.375
141
12.0
290
     0
  0
SCALE
  5
62
102
{ACAD_REACTORS
330
47
102
}
330
47
100
AcDbScale
 70
     0
300
1/2" = 1'-0"
140
0.5
141
12.0
290
     0
  0
SCALE
  5
63
102
{ACAD_REACTORS
330
47
102
}
330
47
100
AcDbScale
 70
     0
300
3/4" = 1'-0"
140
0.75
141
12.0
290
     0
  0
SCALE
  5
64
102
{ACAD_REACTORS
330
47
102
}
330
47
100
AcDbScale
 70
     0
300
1" = 1'-0"
140
1.0
141
12.0
290
     0
  0
SCALE
  5
65
102
{ACAD_REACTORS
330
47
102
}
330
47
100
AcDbScale
 70
     0
300
1-1/2" = 1'-0"
140
1.5
141
12.0
290
     0
  0
SCALE
  5
66
102
{ACAD_REACTORS
330
47
102
}
330
47
100
AcDbScale
 70
     0
300
3" = 1'-0"
140
3.0
141
12.0
290
     0
  0
SCALE
  5
67
102
{ACAD_REACTORS
330
47
102
}
330
47
100
AcDbScale
 70
     0
300
6" = 1'-0"
140
6.0
141
12.0
290
     0
  0
SCALE
  5
68
102
{ACAD_REACTORS
330
47
102
}
330
47
100
AcDbScale
 70
     0
300
1'-0" = 1'-0"
140
12.0
141
12.0
290
     0
  0
ENDSEC
  0
EOF
