  0
SECTION
  2
HEADER
  9
$ACADVER
  1
AC1015
  9
$ACADMAINTVER
 70
     6
  9
$DWGCODEPAGE
  3
DOS932
  9
$INSBASE
 10
0.0
 20
0.0
 30
0.0
  9
$EXTMIN
 10
0.0
 20
0.0
 30
0.0
  9
$EXTMAX
 10
431.8
 20
279.4
 30
0.0
  9
$LIMMIN
 10
0.0
 20
0.0
  9
$LIMMAX
 10
431.8
 20
279.4
  9
$ORTHOMODE
 70
     0
  9
$REGENMODE
 70
     1
  9
$FILLMODE
 70
     1
  9
$QTEXTMODE
 70
     0
  9
$MIRRTEXT
 70
     1
  9
$LTSCALE
 40
1.0
  9
$ATTMODE
 70
     1
  9
$TEXTSIZE
 40
3.5
  9
$TRACEWID
 40
1.0
  9
$TEXTSTYLE
  7
Standard
  9
$CLAYER
  8
0
  9
$CELTYPE
  6
ByLayer
  9
$CECOLOR
 62
   256
  9
$CELTSCALE
 40
1.0
  9
$DISPSILH
 70
     0
  9
$DIMSCALE
 40
1.0
  9
$DIMASZ
 40
3.302
  9
$DIMEXO
 40
1.0
  9
$DIMDLI
 40
3.75
  9
$DIMRND
 40
0.0
  9
$DIMDLE
 40
0.0
  9
$DIMEXE
 40
1.0
  9
$DIMTP
 40
0.0
  9
$DIMTM
 40
0.0
  9
$DIMTXT
 40
3.5
  9
$DIMCEN
 40
2.5
  9
$DIMTSZ
 40
0.0
  9
$DIMTOL
 70
     0
  9
$DIMLIM
 70
     0
  9
$DIMTIH
 70
     1
  9
$DIMTOH
 70
     1
  9
$DIMSE1
 70
     0
  9
$DIMSE2
 70
     0
  9
$DIMTAD
 70
     1
  9
$DIMZIN
 70
     1
  9
$DIMBLK
  1

  9
$DIMASO
 70
     1
  9
$DIMSHO
 70
     1
  9
$DIMPOST
  1

  9
$DIMAPOST
  1

  9
$DIMALT
 70
     0
  9
$DIMALTD
 70
     3
  9
$DIMALTF
 40
0.0393700787
  9
$DIMLFAC
 40
1.0
  9
$DIMTOFL
 70
     1
  9
$DIMTVP
 40
0.0
  9
$DIMTIX
 70
     0
  9
$DIMSOXD
 70
     0
  9
$DIMSAH
 70
     0
  9
$DIMBLK1
  1

  9
$DIMBLK2
  1

  9
$DIMSTYLE
  2
ISO-25
  9
$DIMCLRD
 70
     0
  9
$DIMCLRE
 70
     0
  9
$DIMCLRT
 70
     0
  9
$DIMTFAC
 40
1.0
  9
$DIMGAP
 40
1.524
  9
$DIMJUST
 70
     0
  9
$DIMSD1
 70
     0
  9
$DIMSD2
 70
     0
  9
$DIMTOLJ
 70
     0
  9
$DIMTZIN
 70
     1
  9
$DIMALTZ
 70
     0
  9
$DIMALTTZ
 70
     0
  9
$DIMUPT
 70
     0
  9
$DIMDEC
 70
     2
  9
$DIMTDEC
 70
     2
  9
$DIMALTU
 70
     2
  9
$DIMALTTD
 70
     3
  9
$DIMTXSTY
  7
Standard
  9
$DIMAUNIT
 70
     0
  9
$DIMADEC
 70
     2
  9
$DIMALTRND
 40
0.0
  9
$DIMAZIN
 70
     0
  9
$DIMDSEP
 70
    44
  9
$DIMATFIT
 70
     3
  9
$DIMFRAC
 70
     0
  9
$DIMLDRBLK
  1

  9
$DIMLUNIT
 70
     2
  9
$DIMLWD
 70
    -2
  9
$DIMLWE
 70
    -2
  9
$DIMTMOVE
 70
     0
  9
$LUNITS
 70
     2
  9
$LUPREC
 70
     2
  9
$SKETCHINC
 40
1.0
  9
$FILLETRAD
 40
10.0
  9
$AUNITS
 70
     0
  9
$AUPREC
 70
     2
  9
$MENU
  1
.
  9
$ELEVATION
 40
0.0
  9
$PELEVATION
 40
0.0
  9
$THICKNESS
 40
0.0
  9
$LIMCHECK
 70
     0
  9
$CHAMFERA
 40
0.0
  9
$CHAMFERB
 40
0.0
  9
$CHAMFERC
 40
0.0
  9
$CHAMFERD
 40
0.0
  9
$SKPOLY
 70
     0
  9
$TDCREATE
 40
2459296.609812708
  9
$TDUCREATE
 40
2459296.234812708
  9
$TDUPDATE
 40
2459296.609813496
  9
$TDUUPDATE
 40
2459296.234813496
  9
$TDINDWG
 40
0.0000000116
  9
$TDUSRTIMER
 40
0.0000000116
  9
$USRTIMER
 70
     1
  9
$ANGBASE
 50
0.0
  9
$ANGDIR
 70
     0
  9
$PDMODE
 70
     0
  9
$PDSIZE
 40
-1.0
  9
$PLINEWID
 40
0.0
  9
$SPLFRAME
 70
     0
  9
$SPLINETYPE
 70
     6
  9
$SPLINESEGS
 70
     8
  9
$HANDSEED
  5
29E
  9
$SURFTAB1
 70
     6
  9
$SURFTAB2
 70
     6
  9
$SURFTYPE
 70
     6
  9
$SURFU
 70
     6
  9
$SURFV
 70
     6
  9
$UCSBASE
  2

  9
$UCSNAME
  2

  9
$UCSORG
 10
0.0
 20
0.0
 30
0.0
  9
$UCSXDIR
 10
1.0
 20
0.0
 30
0.0
  9
$UCSYDIR
 10
0.0
 20
1.0
 30
0.0
  9
$UCSORTHOREF
  2

  9
$UCSORTHOVIEW
 70
     0
  9
$UCSORGTOP
 10
0.0
 20
0.0
 30
0.0
  9
$UCSORGBOTTOM
 10
0.0
 20
0.0
 30
0.0
  9
$UCSORGLEFT
 10
0.0
 20
0.0
 30
0.0
  9
$UCSORGRIGHT
 10
0.0
 20
0.0
 30
0.0
  9
$UCSORGFRONT
 10
0.0
 20
0.0
 30
0.0
  9
$UCSORGBACK
 10
0.0
 20
0.0
 30
0.0
  9
$PUCSBASE
  2

  9
$PUCSNAME
  2

  9
$PUCSORG
 10
0.0
 20
0.0
 30
0.0
  9
$PUCSXDIR
 10
1.0
 20
0.0
 30
0.0
  9
$PUCSYDIR
 10
0.0
 20
1.0
 30
0.0
  9
$PUCSORTHOREF
  2

  9
$PUCSORTHOVIEW
 70
     0
  9
$PUCSORGTOP
 10
0.0
 20
0.0
 30
0.0
  9
$PUCSORGBOTTOM
 10
0.0
 20
0.0
 30
0.0
  9
$PUCSORGLEFT
 10
0.0
 20
0.0
 30
0.0
  9
$PUCSORGRIGHT
 10
0.0
 20
0.0
 30
0.0
  9
$PUCSORGFRONT
 10
0.0
 20
0.0
 30
0.0
  9
$PUCSORGBACK
 10
0.0
 20
0.0
 30
0.0
  9
$USERI1
 70
     0
  9
$USERI2
 70
     0
  9
$USERI3
 70
     0
  9
$USERI4
 70
     0
  9
$USERI5
 70
     0
  9
$USERR1
 40
0.0
  9
$USERR2
 40
0.0
  9
$USERR3
 40
0.0
  9
$USERR4
 40
0.0
  9
$USERR5
 40
0.0
  9
$WORLDVIEW
 70
     1
  9
$SHADEDGE
 70
     3
  9
$SHADEDIF
 70
    70
  9
$TILEMODE
 70
     1
  9
$MAXACTVP
 70
    64
  9
$PINSBASE
 10
0.0
 20
0.0
 30
0.0
  9
$PLIMCHECK
 70
     0
  9
$PEXTMIN
 10
1.0000000000E+20
 20
1.0000000000E+20
 30
1.0000000000E+20
  9
$PEXTMAX
 10
-1.0000000000E+20
 20
-1.0000000000E+20
 30
-1.0000000000E+20
  9
$PLIMMIN
 10
0.0
 20
0.0
  9
$PLIMMAX
 10
420.0
 20
297.0
  9
$UNITMODE
 70
     0
  9
$VISRETAIN
 70
     1
  9
$PLINEGEN
 70
     0
  9
$PSLTSCALE
 70
     1
  9
$TREEDEPTH
 70
  3020
  9
$CMLSTYLE
  2
Standard
  9
$CMLJUST
 70
     0
  9
$CMLSCALE
 40
20.0
  9
$PROXYGRAPHICS
 70
     1
  9
$MEASUREMENT
 70
     1
  9
$CELWEIGHT
370
    -1
  9
$ENDCAPS
280
     0
  9
$JOINSTYLE
280
     0
  9
$LWDISPLAY
290
     1
  9
$INSUNITS
 70
     4
  9
$HYPERLINKBASE
  1

  9
$STYLESHEET
  1

  9
$XEDIT
290
     1
  9
$CEPSNTYPE
380
     0
  9
$PSTYLEMODE
290
     1
  9
$FINGERPRINTGUID
  2
{FB9BD6BF-F551-45EE-9283-E3C1E79F78D5}
  9
$VERSIONGUID
  2
{FAEB1C32-E019-11D5-929B-00C0DF256EC4}
  9
$EXTNAMES
290
     1
  9
$PSVPSCALE
 40
0.0
  9
$OLESTARTUP
290
     0
  0
ENDSEC
  0
SECTION
  2
CLASSES
  0
CLASS
  1
ACDBDICTIONARYWDFLT
  2
AcDbDictionaryWithDefault
  3
ObjectDBX Classes
 90
        0
280
     0
281
     0
  0
CLASS
  1
VISUALSTYLE
  2
AcDbVisualStyle
  3
ObjectDBX Classes
 90
     4095
280
     0
281
     0
  0
CLASS
  1
MATERIAL
  2
AcDbMaterial
  3
ObjectDBX Classes
 90
     1153
280
     0
281
     0
  0
CLASS
  1
SCALE
  2
AcDbScale
  3
ObjectDBX Classes
 90
     1153
280
     0
281
     0
  0
CLASS
  1
TABLESTYLE
  2
AcDbTableStyle
  3
ObjectDBX Classes
 90
     4095
280
     0
281
     0
  0
CLASS
  1
MLEADERSTYLE
  2
AcDbMLeaderStyle
  3
ACDB_MLEADERSTYLE_CLASS
 90
     4095
280
     0
281
     0
  0
CLASS
  1
SUN
  2
AcDbSun
  3
SCENEOE
 90
     1153
280
     0
281
     0
  0
CLASS
  1
ACDBPLACEHOLDER
  2
AcDbPlaceHolder
  3
ObjectDBX Classes
 90
        0
280
     0
281
     0
  0
CLASS
  1
LAYOUT
  2
AcDbLayout
  3
ObjectDBX Classes
 90
        0
280
     0
281
     0
  0
ENDSEC
  0
SECTION
  2
TABLES
  0
TABLE
  2
VPORT
  5
8
330
0
100
AcDbSymbolTable
 70
     1
  0
VPORT
  5
29
330
8
100
AcDbSymbolTableRecord
100
AcDbViewportTableRecord
  2
*Active
 70
     0
 10
0.0
 20
0.0
 11
1.0
 21
1.0
 12
215.9
 22
139.7
 13
0.0
 23
0.0
 14
10.0
 24
10.0
 15
10.0
 25
10.0
 16
0.0
 26
0.0
 36
1.0
 17
0.0
 27
0.0
 37
0.0
 40
279.4
 41
1.5454545455
 42
50.0
 43
0.0
 44
0.0
 50
0.0
 51
0.0
 71
     0
 72
  2000
 73
     1
 74
     3
 75
     0
 76
     0
 77
     0
 78
     0
281
     0
 65
     1
110
0.0
120
0.0
130
0.0
111
1.0
121
0.0
131
0.0
112
0.0
122
1.0
132
0.0
 79
     0
146
0.0
  0
ENDTAB
  0
TABLE
  2
LTYPE
  5
5
330
0
100
AcDbSymbolTable
 70
     6
  0
LTYPE
  5
14
330
5
100
AcDbSymbolTableRecord
100
AcDbLinetypeTableRecord
  2
ByBlock
 70
     0
  3

 72
    65
 73
     0
 40
0.0
  0
LTYPE
  5
15
330
5
100
AcDbSymbolTableRecord
100
AcDbLinetypeTableRecord
  2
ByLayer
 70
     0
  3

 72
    65
 73
     0
 40
0.0
  0
LTYPE
  5
16
330
5
100
AcDbSymbolTableRecord
100
AcDbLinetypeTableRecord
  2
Continuous
 70
     0
  3
Solid line
 72
    65
 73
     0
 40
0.0
  0
LTYPE
  5
6E
330
5
100
AcDbSymbolTableRecord
100
AcDbLinetypeTableRecord
  2
HIDDEN
 70
     0
  3
Hidden __ __ __ __ __ __ __ __ __ __ __ __ __ __
 72
    65
 73
     2
 40
1.905
 49
1.27
 74
     0
 49
-0.635
 74
     0
  0
LTYPE
  5
6F
330
5
100
AcDbSymbolTableRecord
100
AcDbLinetypeTableRecord
  2
PHANTOM
 70
     0
  3
Phantom ______  __  __  ______  __  __  ______
 72
    65
 73
     6
 40
12.7
 49
6.35
 74
     0
 49
-1.27
 74
     0
 49
1.27
 74
     0
 49
-1.27
 74
     0
 49
1.27
 74
     0
 49
-1.27
 74
     0
  0
LTYPE
  5
70
330
5
100
AcDbSymbolTableRecord
100
AcDbLinetypeTableRecord
  2
CENTER
 70
     0
  3
Center ____ _ ____ _ ____ _ ____ _ ____ _ ____
 72
    65
 73
     4
 40
10.16
 49
6.35
 74
     0
 49
-1.27
 74
     0
 49
1.27
 74
     0
 49
-1.27
 74
     0
  0
LTYPE
  5
71
330
5
100
AcDbSymbolTableRecord
100
AcDbLinetypeTableRecord
  2
CENTERX2
 70
     0
  3
Center (2x) ________  __  ________  __  _____
 72
    65
 73
     4
 40
20.32
 49
12.7
 74
     0
 49
-2.54
 74
     0
 49
2.54
 74
     0
 49
-2.54
 74
     0
  0
LTYPE
  5
72
330
5
100
AcDbSymbolTableRecord
100
AcDbLinetypeTableRecord
  2
DOT2
 70
     0
  3
Dot (.5x) ........................................
 72
    65
 73
     2
 40
0.635
 49
0.0
 74
     0
 49
-0.635
 74
     0
  0
ENDTAB
  0
TABLE
  2
LAYER
  5
2
330
0
100
AcDbSymbolTable
 70
     1
  0
LAYER
  5
10
330
2
100
AcDbSymbolTableRecord
100
AcDbLayerTableRecord
  2
0
 70
     0
 62
     7
  6
Continuous
370
    -3
390
F
  0
ENDTAB
  0
TABLE
  2
STYLE
  5
3
330
0
100
AcDbSymbolTable
 70
     2
  0
STYLE
  5
11
330
3
100
AcDbSymbolTableRecord
100
AcDbTextStyleTableRecord
  2
Standard
 70
     0
 40
0.0
 41
1.0
 50
0.0
 71
     0
 42
3.5
  3
txt
  4
bigfont
  0
STYLE
  5
73
330
3
100
AcDbSymbolTableRecord
100
AcDbTextStyleTableRecord
  2
SLDTEXTSTYLE0
 70
     0
 40
0.0
 41
0.7
 50
0.0
 71
     0
 42
3.5
  3
TXT
  4
bigfont
  0
ENDTAB
  0
TABLE
  2
VIEW
  5
6
330
0
100
AcDbSymbolTable
 70
     0
  0
ENDTAB
  0
TABLE
  2
UCS
  5
7
330
0
100
AcDbSymbolTable
 70
     0
  0
ENDTAB
  0
TABLE
  2
APPID
  5
9
330
0
100
AcDbSymbolTable
 70
     1
  0
APPID
  5
12
330
9
100
AcDbSymbolTableRecord
100
AcDbRegAppTableRecord
  2
ACAD
 70
     0
  0
ENDTAB
  0
TABLE
  2
DIMSTYLE
  5
A
330
0
100
AcDbSymbolTable
 70
     1
100
AcDbDimStyleTable
  0
DIMSTYLE
105
27
330
A
100
AcDbSymbolTableRecord
100
AcDbDimStyleTableRecord
  2
ISO-25
 70
     0
 41
2.5
 42
0.625
 43
3.75
 44
1.25
 73
     0
 74
     0
 77
     1
 78
     8
140
2.5
141
2.5
143
0.0393700787
147
0.625
171
     3
172
     1
178
     0
271
     2
272
     2
274
     3
278
    44
283
     0
284
     8
340
11
  0
ENDTAB
  0
TABLE
  2
BLOCK_RECORD
  5
1
330
0
100
AcDbSymbolTable
 70
     3
  0
BLOCK_RECORD
  5
1F
330
1
100
AcDbSymbolTableRecord
100
AcDbBlockTableRecord
  2
*Model_Space
340
22
  0
BLOCK_RECORD
  5
1B
330
1
100
AcDbSymbolTableRecord
100
AcDbBlockTableRecord
  2
*Paper_Space
340
1E
  0
BLOCK_RECORD
  5
23
330
1
100
AcDbSymbolTableRecord
100
AcDbBlockTableRecord
  2
*Paper_Space0
340
26
  0
BLOCK_RECORD
  5
1CD
330
1
100
AcDbSymbolTableRecord
100
AcDbBlockTableRecord
  2
SW_CENTERMARKSYMBOL_0
340
0
102
{BLKREFS
331
1D8
102
}
  0
BLOCK_RECORD
  5
292
330
1
100
AcDbSymbolTableRecord
100
AcDbBlockTableRecord
  2
SW_CENTERMARKSYMBOL_1
340
0
102
{BLKREFS
331
29D
102
}
  0
ENDTAB
  0
ENDSEC
  0
SECTION
  2
BLOCKS
  0
BLOCK
  5
20
330
1F
100
AcDbEntity
  8
0
100
AcDbBlockBegin
  2
*Model_Space
 70
     0
 10
0.0
 20
0.0
 30
0.0
  3
*Model_Space
  1

  0
ENDBLK
  5
21
330
1F
100
AcDbEntity
  8
0
100
AcDbBlockEnd
  0
BLOCK
  5
1C
330
1B
100
AcDbEntity
 67
     1
  8
0
100
AcDbBlockBegin
  2
*Paper_Space
 70
     0
 10
0.0
 20
0.0
 30
0.0
  3
*Paper_Space
  1

  0
ENDBLK
  5
1D
330
1B
100
AcDbEntity
 67
     1
  8
0
100
AcDbBlockEnd
  0
BLOCK
  5
24
330
23
100
AcDbEntity
  8
0
100
AcDbBlockBegin
  2
*Paper_Space0
 70
     0
 10
0.0
 20
0.0
 30
0.0
  3
*Paper_Space0
  1

  0
ENDBLK
  5
25
330
23
100
AcDbEntity
  8
0
100
AcDbBlockEnd
  0
BLOCK
  5
1CE
330
1CD
100
AcDbEntity
  8
0
100
AcDbBlockBegin
  2
SW_CENTERMARKSYMBOL_0
 70
     0
 10
0.0
 20
0.0
 30
0.0
  3
SW_CENTERMARKSYMBOL_0
  1

  0
LINE
  5
1D0
330
1CD
100
AcDbEntity
  8
0
  6
Continuous
 62
     0
370
    18
100
AcDbLine
 10
0.0
 20
0.0
 30
0.0
 11
0.0
 21
2.5
 31
0.0
  0
LINE
  5
1D1
330
1CD
100
AcDbEntity
  8
0
  6
Continuous
 62
     0
370
    18
100
AcDbLine
 10
0.0
 20
0.0
 30
0.0
 11
-2.5
 21
0.0
 31
0.0
  0
LINE
  5
1D2
330
1CD
100
AcDbEntity
  8
0
  6
Continuous
 62
     0
370
    18
100
AcDbLine
 10
0.0
 20
0.0
 30
0.0
 11
0.0
 21
-2.5
 31
0.0
  0
LINE
  5
1D3
330
1CD
100
AcDbEntity
  8
0
  6
Continuous
 62
     0
370
    18
100
AcDbLine
 10
0.0
 20
0.0
 30
0.0
 11
2.5
 21
0.0
 31
0.0
  0
LINE
  5
1D4
330
1CD
100
AcDbEntity
  8
0
  6
Continuous
 62
     0
370
    18
100
AcDbLine
 10
0.0
 20
5.0
 30
0.0
 11
0.0
 21
24.2163179839
 31
0.0
  0
LINE
  5
1D5
330
1CD
100
AcDbEntity
  8
0
  6
Continuous
 62
     0
370
    18
100
AcDbLine
 10
-5.0
 20
0.0
 30
0.0
 11
-10.35
 21
0.0
 31
0.0
  0
LINE
  5
1D6
330
1CD
100
AcDbEntity
  8
0
  6
Continuous
 62
     0
370
    18
100
AcDbLine
 10
0.0
 20
-5.0
 30
0.0
 11
0.0
 21
-10.35
 31
0.0
  0
LINE
  5
1D7
330
1CD
100
AcDbEntity
  8
0
  6
Continuous
 62
     0
370
    18
100
AcDbLine
 10
5.0
 20
0.0
 30
0.0
 11
10.35
 21
0.0
 31
0.0
  0
ENDBLK
  5
1CF
330
1CD
100
AcDbEntity
  8
0
100
AcDbBlockEnd
  0
BLOCK
  5
293
330
292
100
AcDbEntity
  8
0
100
AcDbBlockBegin
  2
SW_CENTERMARKSYMBOL_1
 70
     0
 10
0.0
 20
0.0
 30
0.0
  3
SW_CENTERMARKSYMBOL_1
  1

  0
LINE
  5
295
330
292
100
AcDbEntity
  8
0
  6
Continuous
 62
     0
370
    18
100
AcDbLine
 10
0.0
 20
0.0
 30
0.0
 11
0.0
 21
2.5
 31
0.0
  0
LINE
  5
296
330
292
100
AcDbEntity
  8
0
  6
Continuous
 62
     0
370
    18
100
AcDbLine
 10
0.0
 20
0.0
 30
0.0
 11
-2.5
 21
0.0
 31
0.0
  0
LINE
  5
297
330
292
100
AcDbEntity
  8
0
  6
Continuous
 62
     0
370
    18
100
AcDbLine
 10
0.0
 20
0.0
 30
0.0
 11
0.0
 21
-2.5
 31
0.0
  0
LINE
  5
298
330
292
100
AcDbEntity
  8
0
  6
Continuous
 62
     0
370
    18
100
AcDbLine
 10
0.0
 20
0.0
 30
0.0
 11
2.5
 21
0.0
 31
0.0
  0
LINE
  5
299
330
292
100
AcDbEntity
  8
0
  6
Continuous
 62
     0
370
    18
100
AcDbLine
 10
0.0
 20
5.0
 30
0.0
 11
0.0
 21
9.2659920059
 31
0.0
  0
LINE
  5
29A
330
292
100
AcDbEntity
  8
0
  6
Continuous
 62
     0
370
    18
100
AcDbLine
 10
-5.0
 20
0.0
 30
0.0
 11
-9.2659920059
 21
0.0
 31
0.0
  0
LINE
  5
29B
330
292
100
AcDbEntity
  8
0
  6
Continuous
 62
     0
370
    18
100
AcDbLine
 10
0.0
 20
-5.0
 30
0.0
 11
0.0
 21
-9.2659920059
 31
0.0
  0
LINE
  5
29C
330
292
100
AcDbEntity
  8
0
  6
Continuous
 62
     0
370
    18
100
AcDbLine
 10
5.0
 20
0.0
 30
0.0
 11
51.6921134253
 21
0.0
 31
0.0
  0
ENDBLK
  5
294
330
292
100
AcDbEntity
  8
0
100
AcDbBlockEnd
  0
ENDSEC
  0
SECTION
  2
ENTITIES
  0
MTEXT
  5
74
330
1F
100
AcDbEntity
  8
0
  6
Continuous
 62
     7
370
     0
100
AcDbMText
 10
173.9221911319
 20
123.5716072636
 30
0.0
 40
4.2333333333
 41
0.0
 71
     1
 72
     1
  1
HL-1208R
  7
SLDTEXTSTYLE0
 73
     1
 44
1.0
  0
LINE
  5
75
330
1F
100
AcDbEntity
  8
0
  6
Continuous
 62
     7
370
    25
100
AcDbLine
 10
136.8465010758
 20
86.4354095264
 30
0.0
 11
136.8197069253
 21
86.3354096962
 31
0.0
  0
LINE
  5
76
330
1F
100
AcDbEntity
  8
0
  6
Continuous
 62
     7
370
    25
100
AcDbLine
 10
136.8197069253
 20
77.5354097439
 30
0.0
 11
136.8465010758
 21
77.4354099138
 31
0.0
  0
LINE
  5
77
330
1F
100
AcDbEntity
  8
0
  6
Continuous
 62
     7
370
    25
100
AcDbLine
 10
136.8465010758
 20
77.4354099138
 30
0.0
 11
137.3197079386
 21
77.4354099138
 31
0.0
  0
LINE
  5
78
330
1F
100
AcDbEntity
  8
0
  6
Continuous
 62
     7
370
    25
100
AcDbLine
 10
137.3197079386
 20
86.4354095264
 30
0.0
 11
136.8465010758
 21
86.4354095264
 31
0.0
  0
LINE
  5
79
330
1F
100
AcDbEntity
  8
0
  6
Continuous
 62
     7
370
    25
100
AcDbLine
 10
141.3197067316
 20
77.9354095301
 30
0.0
 11
145.3197055246
 21
78.5854098229
 31
0.0
  0
LINE
  5
7A
330
1F
100
AcDbEntity
  8
0
  6
Continuous
 62
     7
370
    25
100
AcDbLine
 10
145.3197055246
 20
85.2854096173
 30
0.0
 11
141.3197067316
 21
85.9354099101
 31
0.0
  0
LINE
  5
7B
330
1F
100
AcDbEntity
  8
0
  6
Continuous
 62
     7
370
    25
100
AcDbLine
 10
137.3197079386
 20
77.9354095301
 30
0.0
 11
141.3197067316
 21
77.9354095301
 31
0.0
  0
LINE
  5
7C
330
1F
100
AcDbEntity
  8
0
  6
Continuous
 62
     7
370
    25
100
AcDbLine
 10
141.3197067316
 20
85.9354099101
 30
0.0
 11
137.3197079386
 21
85.9354099101
 31
0.0
  0
LINE
  5
7D
330
1F
100
AcDbEntity
  8
0
  6
Continuous
 62
     7
370
    25
100
AcDbLine
 10
149.3197061803
 20
77.9354095301
 30
0.0
 11
153.3197068359
 21
78.5854098229
 31
0.0
  0
LINE
  5
7E
330
1F
100
AcDbEntity
  8
0
  6
Continuous
 62
     7
370
    25
100
AcDbLine
 10
153.3197068359
 20
85.2854096173
 30
0.0
 11
149.3197061803
 21
85.9354099101
 31
0.0
  0
LINE
  5
7F
330
1F
100
AcDbEntity
  8
0
  6
Continuous
 62
     7
370
    25
100
AcDbLine
 10
145.3197055246
 20
77.9354095301
 30
0.0
 11
149.3197061803
 21
78.5854098229
 31
0.0
  0
LINE
  5
80
330
1F
100
AcDbEntity
  8
0
  6
Continuous
 62
     7
370
    25
100
AcDbLine
 10
149.3197061803
 20
85.2854096173
 30
0.0
 11
145.3197055246
 21
85.9354099101
 31
0.0
  0
LINE
  5
81
330
1F
100
AcDbEntity
  8
0
  6
Continuous
 62
     7
370
    25
100
AcDbLine
 10
153.3197068359
 20
77.9354095301
 30
0.0
 11
157.3197074916
 21
78.5854098229
 31
0.0
  0
LINE
  5
82
330
1F
100
AcDbEntity
  8
0
  6
Continuous
 62
     7
370
    25
100
AcDbLine
 10
157.3197074916
 20
85.2854096173
 30
0.0
 11
153.3197068359
 21
85.9354099101
 31
0.0
  0
LINE
  5
83
330
1F
100
AcDbEntity
  8
0
  6
Continuous
 62
     7
370
    25
100
AcDbLine
 10
157.3197074916
 20
77.9354095301
 30
0.0
 11
162.1135973122
 21
78.5019605262
 31
0.0
  0
LINE
  5
84
330
1F
100
AcDbEntity
  8
0
  6
Continuous
 62
     7
370
    25
100
AcDbLine
 10
162.1135973122
 20
85.3688589139
 30
0.0
 11
157.3197074916
 21
85.9354099101
 31
0.0
  0
ARC
  5
85
330
1F
100
AcDbEntity
  8
0
  6
Continuous
 62
     7
370
    25
100
AcDbCircle
 10
162.0197070446
 20
79.2964316699
 30
0.0
 40
0.7999999999999993
100
AcDbArc
 50
276.7400560979
 51
0.0
  0
ARC
  5
86
330
1F
100
AcDbEntity
  8
0
  6
Continuous
 62
     7
370
    25
100
AcDbCircle
 10
162.0197070446
 20
84.5743877703
 30
0.0
 40
0.7999999999999993
100
AcDbArc
 50
0.0
 51
83.2599439021
  0
LINE
  5
87
330
1F
100
AcDbEntity
  8
0
  6
Continuous
 62
     7
370
    25
100
AcDbLine
 10
126.6208409082
 20
91.1730139358
 30
0.0
 11
125.819706985
 21
89.7854094235
 31
0.0
  0
LINE
  5
88
330
1F
100
AcDbEntity
  8
0
  6
Continuous
 62
     7
370
    25
100
AcDbLine
 10
125.819706985
 20
74.0854100166
 30
0.0
 11
126.6208409082
 21
72.6978055043
 31
0.0
  0
LINE
  5
89
330
1F
100
AcDbEntity
  8
0
  6
Continuous
 62
     7
370
    25
100
AcDbLine
 10
134.0185736056
 20
72.6978055043
 30
0.0
 11
134.8197065975
 21
74.0854100166
 31
0.0
  0
LINE
  5
8A
330
1F
100
AcDbEntity
  8
0
  6
Continuous
 62
     7
370
    25
100
AcDbLine
 10
134.8197065975
 20
89.7854094235
 30
0.0
 11
134.0185736056
 21
91.1730139358
 31
0.0
  0
ARC
  5
8B
330
1F
100
AcDbEntity
  8
0
  6
Continuous
 62
     7
370
    25
100
AcDbCircle
 10
136.5197070446
 20
89.4854097201
 30
0.0
 40
0.2999999999999829
100
AcDbArc
 50
0.0
 51
90.0
  0
ARC
  5
8C
330
1F
100
AcDbEntity
  8
0
  6
Continuous
 62
     7
370
    25
100
AcDbCircle
 10
136.5197070446
 20
74.3854097201
 30
0.0
 40
0.2999999999999972
100
AcDbArc
 50
270.0
 51
0.0
  0
LINE
  5
8D
330
1F
100
AcDbEntity
  8
0
  6
Continuous
 62
     7
370
    25
100
AcDbLine
 10
125.819706985
 20
89.7854094235
 30
0.0
 11
124.1197070788
 21
89.7854094235
 31
0.0
  0
LINE
  5
8E
330
1F
100
AcDbEntity
  8
0
  6
Continuous
 62
     7
370
    25
100
AcDbLine
 10
124.1197070788
 20
74.0854100166
 30
0.0
 11
125.819706985
 21
74.0854100166
 31
0.0
  0
LINE
  5
8F
330
1F
100
AcDbEntity
  8
0
  6
Continuous
 62
     7
370
    25
100
AcDbLine
 10
134.8197065975
 20
74.0854100166
 30
0.0
 11
136.519707435
 21
74.0854100166
 31
0.0
  0
LINE
  5
90
330
1F
100
AcDbEntity
  8
0
  6
Continuous
 62
     7
370
    25
100
AcDbLine
 10
136.519707435
 20
89.7854094235
 30
0.0
 11
134.8197065975
 21
89.7854094235
 31
0.0
  0
ARC
  5
91
330
1F
100
AcDbEntity
  8
0
  6
Continuous
 62
     7
370
    25
100
AcDbCircle
 10
124.1197070446
 20
74.3854097201
 30
0.0
 40
0.2999999999999972
100
AcDbArc
 50
180.0
 51
270.0
  0
ARC
  5
92
330
1F
100
AcDbEntity
  8
0
  6
Continuous
 62
     7
370
    25
100
AcDbCircle
 10
124.1197070446
 20
89.4854097201
 30
0.0
 40
0.2999999999999972
100
AcDbArc
 50
90.0
 51
180.0
  0
LINE
  5
93
330
1F
100
AcDbEntity
  8
0
  6
Continuous
 62
     7
370
    25
100
AcDbLine
 10
130.2661166276
 20
72.6978055043
 30
0.0
 11
130.3197067912
 21
72.8978051646
 31
0.0
  0
LINE
  5
94
330
1F
100
AcDbEntity
  8
0
  6
Continuous
 62
     7
370
    25
100
AcDbLine
 10
130.3197067912
 20
72.8978051646
 30
0.0
 11
130.3732969548
 21
72.6978055043
 31
0.0
  0
LINE
  5
95
330
1F
100
AcDbEntity
  8
0
  6
Continuous
 62
     7
370
    25
100
AcDbLine
 10
130.3732969548
 20
91.1730139358
 30
0.0
 11
130.3197067912
 21
90.9730142756
 31
0.0
  0
LINE
  5
96
330
1F
100
AcDbEntity
  8
0
  6
Continuous
 62
     7
370
    25
100
AcDbLine
 10
130.3197067912
 20
90.9730142756
 30
0.0
 11
130.2661166276
 21
91.1730139358
 31
0.0
  0
ARC
  5
97
330
1F
100
AcDbEntity
  8
0
  6
Continuous
 62
     7
370
    25
100
AcDbCircle
 10
105.8154221262
 20
92.4354097201
 30
0.0
 40
0.5
100
AcDbArc
 50
268.1671385201
 51
270.0
  0
ARC
  5
98
330
1F
100
AcDbEntity
  8
0
  6
Continuous
 62
     7
370
    25
100
AcDbCircle
 10
119.3154221262
 20
92.4354097201
 30
0.0
 40
0.5
100
AcDbArc
 50
270.0
 51
271.8328614799
  0
LINE
  5
99
330
1F
100
AcDbEntity
  8
0
  6
Continuous
 62
     7
370
    25
100
AcDbLine
 10
119.3314140413
 20
91.9356656103
 30
0.0
 11
119.0217148263
 21
101.8460507346
 31
0.0
  0
LINE
  5
9A
330
1F
100
AcDbEntity
  8
0
  6
Continuous
 62
     7
370
    25
100
AcDbLine
 10
106.1091294262
 20
101.8460507346
 30
0.0
 11
105.7994302112
 21
91.9356656103
 31
0.0
  0
LINE
  5
9B
330
1F
100
AcDbEntity
  8
0
  6
Continuous
 62
     7
370
    25
100
AcDbLine
 10
123.8197066571
 20
88.513909637
 30
0.0
 11
122.5654219027
 21
88.513909637
 31
0.0
  0
LINE
  5
9C
330
1F
100
AcDbEntity
  8
0
  6
Continuous
 62
     7
370
    25
100
AcDbLine
 10
122.5654219027
 20
75.3569098031
 30
0.0
 11
123.8197066571
 21
75.3569098031
 31
0.0
  0
ARC
  5
9D
330
1F
100
AcDbEntity
  8
0
  6
Continuous
 62
     7
370
    25
100
AcDbCircle
 10
122.0654221262
 20
88.4354097201
 30
0.0
 40
0.5
100
AcDbArc
 50
270.0
 51
0.0
  0
ARC
  5
9E
330
1F
100
AcDbEntity
  8
0
  6
Continuous
 62
     7
370
    25
100
AcDbCircle
 10
122.0654221262
 20
75.4354097201
 30
0.0
 40
0.5
100
AcDbArc
 50
0.0
 51
90.0
  0
ARC
  5
9F
330
1F
100
AcDbEntity
  8
0
  6
Continuous
 62
     7
370
    25
100
AcDbCircle
 10
106.0654221262
 20
91.4354097201
 30
0.0
 40
0.5
100
AcDbArc
 50
0.0
 51
90.0
  0
ARC
  5
A0
330
1F
100
AcDbEntity
  8
0
  6
Continuous
 62
     7
370
    25
100
AcDbCircle
 10
119.0654221262
 20
91.4354097201
 30
0.0
 40
0.5000000000000142
100
AcDbArc
 50
90.0
 51
180.0
  0
LINE
  5
A1
330
1F
100
AcDbEntity
  8
0
  6
Continuous
 62
     7
370
    25
100
AcDbLine
 10
119.0217148263
 20
101.8460507346
 30
0.0
 11
117.8154220555
 21
103.9354096009
 31
0.0
  0
LINE
  5
A2
330
1F
100
AcDbEntity
  8
0
  6
Continuous
 62
     7
370
    25
100
AcDbLine
 10
107.315422197
 20
103.9354096009
 30
0.0
 11
106.1091294262
 21
101.8460507346
 31
0.0
  0
LINE
  5
A3
330
1F
100
AcDbEntity
  8
0
  6
Continuous
 62
     7
370
    25
100
AcDbLine
 10
118.5654221784
 20
87.9354097722
 30
0.0
 11
118.5654221784
 21
91.4354094146
 31
0.0
  0
LINE
  5
A4
330
1F
100
AcDbEntity
  8
0
  6
Continuous
 62
     7
370
    25
100
AcDbLine
 10
106.5654220741
 20
91.4354094146
 30
0.0
 11
106.5654220741
 21
77.9354095301
 31
0.0
  0
LINE
  5
A5
330
1F
100
AcDbEntity
  8
0
  6
Continuous
 62
     7
370
    25
100
AcDbLine
 10
108.5654219363
 20
75.9354096679
 30
0.0
 11
122.0654218208
 21
75.9354096679
 31
0.0
  0
LINE
  5
A6
330
1F
100
AcDbEntity
  8
0
  6
Continuous
 62
     7
370
    25
100
AcDbLine
 10
122.0654218208
 20
87.9354097722
 30
0.0
 11
118.5654221784
 21
87.9354097722
 31
0.0
  0
ARC
  5
A7
330
1F
100
AcDbEntity
  8
0
  6
Continuous
 62
     7
370
    25
100
AcDbCircle
 10
108.5654221262
 20
77.9354097201
 30
0.0
 40
1.999999999999998
100
AcDbArc
 50
179.699720089
 51
270.34007936
  0
LINE
  5
A8
330
1F
100
AcDbEntity
  8
0
  6
Continuous
 62
     7
370
    25
100
AcDbLine
 10
136.8465010758
 20
81.9354097201
 30
0.0
 11
136.8465010758
 21
86.4354095264
 31
0.0
  0
LINE
  5
A9
330
1F
100
AcDbEntity
  8
0
  6
Continuous
 62
     7
370
    25
100
AcDbLine
 10
136.8465010758
 20
77.4354099138
 30
0.0
 11
136.8465010758
 21
81.9354097201
 31
0.0
  0
LINE
  5
AA
330
1F
100
AcDbEntity
  8
0
  6
Continuous
 62
     7
370
    25
100
AcDbLine
 10
137.3197079386
 20
86.4354095264
 30
0.0
 11
137.3197079386
 21
77.4354099138
 31
0.0
  0
LINE
  5
AB
330
1F
100
AcDbEntity
  8
0
  6
Continuous
 62
     7
370
    25
100
AcDbLine
 10
141.3197067316
 20
81.9354097201
 30
0.0
 11
141.3197067316
 21
85.9354099101
 31
0.0
  0
LINE
  5
AC
330
1F
100
AcDbEntity
  8
0
  6
Continuous
 62
     7
370
    25
100
AcDbLine
 10
141.3197067316
 20
77.9354095301
 30
0.0
 11
141.3197067316
 21
81.9354097201
 31
0.0
  0
LINE
  5
AD
330
1F
100
AcDbEntity
  8
0
  6
Continuous
 62
     7
370
    25
100
AcDbLine
 10
149.3197061803
 20
81.9354097201
 30
0.0
 11
149.3197061803
 21
85.9354099101
 31
0.0
  0
LINE
  5
AE
330
1F
100
AcDbEntity
  8
0
  6
Continuous
 62
     7
370
    25
100
AcDbLine
 10
149.3197061803
 20
77.9354095301
 30
0.0
 11
149.3197061803
 21
81.9354097201
 31
0.0
  0
LINE
  5
AF
330
1F
100
AcDbEntity
  8
0
  6
Continuous
 62
     7
370
    25
100
AcDbLine
 10
145.3197055246
 20
81.9354097201
 30
0.0
 11
145.3197055246
 21
85.9354099101
 31
0.0
  0
LINE
  5
B0
330
1F
100
AcDbEntity
  8
0
  6
Continuous
 62
     7
370
    25
100
AcDbLine
 10
145.3197055246
 20
77.9354095301
 30
0.0
 11
145.3197055246
 21
81.9354097201
 31
0.0
  0
LINE
  5
B1
330
1F
100
AcDbEntity
  8
0
  6
Continuous
 62
     7
370
    25
100
AcDbLine
 10
153.3197068359
 20
81.9354097201
 30
0.0
 11
153.3197068359
 21
85.9354099101
 31
0.0
  0
LINE
  5
B2
330
1F
100
AcDbEntity
  8
0
  6
Continuous
 62
     7
370
    25
100
AcDbLine
 10
153.3197068359
 20
77.9354095301
 30
0.0
 11
153.3197068359
 21
81.9354097201
 31
0.0
  0
LINE
  5
B3
330
1F
100
AcDbEntity
  8
0
  6
Continuous
 62
     7
370
    25
100
AcDbLine
 10
157.3197074916
 20
81.9354097201
 30
0.0
 11
157.3197074916
 21
85.9354099101
 31
0.0
  0
LINE
  5
B4
330
1F
100
AcDbEntity
  8
0
  6
Continuous
 62
     7
370
    25
100
AcDbLine
 10
157.3197074916
 20
77.9354095301
 30
0.0
 11
157.3197074916
 21
81.9354097201
 31
0.0
  0
LINE
  5
B5
330
1F
100
AcDbEntity
  8
0
  6
Continuous
 62
     7
370
    25
100
AcDbLine
 10
162.8197074618
 20
81.9354097201
 30
0.0
 11
162.8197074618
 21
79.2964317678
 31
0.0
  0
LINE
  5
B6
330
1F
100
AcDbEntity
  8
0
  6
Continuous
 62
     7
370
    25
100
AcDbLine
 10
162.8197074618
 20
84.5743876724
 30
0.0
 11
162.8197074618
 21
81.9354097201
 31
0.0
  0
LINE
  5
B7
330
1F
100
AcDbEntity
  8
0
  6
Continuous
 62
     7
370
    25
100
AcDbLine
 10
130.3197067912
 20
86.7613347089
 30
0.0
 11
130.3732969548
 21
86.5542118279
 31
0.0
  0
LINE
  5
B8
330
1F
100
AcDbEntity
  8
0
  6
Continuous
 62
     7
370
    25
100
AcDbLine
 10
130.3732969548
 20
86.5542118279
 30
0.0
 11
130.3197067912
 21
86.1399656003
 31
0.0
  0
LINE
  5
B9
330
1F
100
AcDbEntity
  8
0
  6
Continuous
 62
     7
370
    25
100
AcDbLine
 10
130.3197067912
 20
86.1399656003
 30
0.0
 11
130.3197067912
 21
86.7613347089
 31
0.0
  0
SPLINE
  5
BA
330
1F
100
AcDbEntity
  8
0
  6
Continuous
 62
     7
370
    25
100
AcDbSpline
210
0.0
220
0.0
230
1.0
 70
     8
 71
     3
 72
    16
 73
    12
 74
     0
 42
0.000000001
 43
0.00000001
 40
0.0
 40
0.0
 40
0.0
 40
0.0
 40
0.1051935678786939
 40
0.2312918811301986
 40
0.3573572470174911
 40
0.4865103199035579
 40
0.6156604419553359
 40
0.7112032405771035
 40
0.8067564184316626
 40
0.903373160866079
 40
1.0
 40
1.0
 40
1.0
 40
1.0
 10
126.6208409081845
 20
77.31660761220004
 30
0.0
 10
126.5333983792306
 20
77.63363540211272
 30
0.0
 10
126.3411361770791
 20
78.33069279238971
 30
0.0
 10
126.1150237951651
 20
79.4256106710168
 30
0.0
 10
125.9525428891019
 20
80.60747389788371
 30
0.0
 10
125.8900121686639
 20
81.80884365145683
 30
0.0
 10
125.9275837059757
 20
82.9156696917659
 30
0.0
 10
126.0364973445389
 20
83.9113603049396
 30
0.0
 10
126.1857055860378
 20
84.79861267854012
 30
0.0
 10
126.3789872260666
 20
85.68088323372491
 30
0.0
 10
126.5402202060813
 20
86.26309215667585
 30
0.0
 10
126.6208409081845
 20
86.5542118279412
 30
0.0
  0
SPLINE
  5
BB
330
1F
100
AcDbEntity
  8
0
  6
Continuous
 62
     7
370
    25
100
AcDbSpline
210
0.0
220
0.0
230
1.0
 70
     8
 71
     3
 72
    15
 73
    11
 74
     0
 42
0.000000001
 43
0.00000001
 40
0.0
 40
0.0
 40
0.0
 40
0.0
 40
0.1323049485469467
 40
0.2645724911618902
 40
0.3997989213359782
 40
0.535000923670623
 40
0.650192064928775
 40
0.7654011640741514
 40
0.8826892485822961
 40
1.0
 40
1.0
 40
1.0
 40
1.0
 10
126.6208409081845
 20
72.69780550432947
 30
0.0
 10
126.5120693826148
 20
72.89735561667455
 30
0.0
 10
126.2945570839177
 20
73.29639942353592
 30
0.0
 10
126.0605222378053
 20
73.91089208018936
 30
0.0
 10
125.9198028763361
 20
74.53696759370938
 30
0.0
 10
125.8919323940369
 20
75.1403658923595
 30
0.0
 10
125.9642353095162
 20
75.71116528524414
 30
0.0
 10
126.1123845614623
 20
76.24986202514567
 30
0.0
 10
126.3297045966664
 20
76.78612196315038
 30
0.0
 10
126.5237892202013
 20
77.1397676727824
 30
0.0
 10
126.6208409081845
 20
77.31660761220004
 30
0.0
  0
SPLINE
  5
BC
330
1F
100
AcDbEntity
  8
0
  6
Continuous
 62
     7
370
    25
100
AcDbSpline
210
0.0
220
0.0
230
1.0
 70
     8
 71
     3
 72
    15
 73
    11
 74
     0
 42
0.000000001
 43
0.00000001
 40
0.0
 40
0.0
 40
0.0
 40
0.0
 40
0.1323050038970291
 40
0.2645725327670714
 40
0.3997989416533288
 40
0.5350009870694649
 40
0.6501921317206805
 40
0.7654011923842015
 40
0.882689240090312
 40
1.0
 40
1.0
 40
1.0
 40
1.0
 10
126.6208409081845
 20
86.5542118279412
 30
0.0
 10
126.512069392892
 20
86.75376216598754
 30
0.0
 10
126.2945571715385
 20
87.15280631999802
 30
0.0
 10
126.0605222314762
 20
87.76729815213604
 30
0.0
 10
125.9198028542643
 20
88.3933742559516
 30
0.0
 10
125.891932397628
 20
88.99677178819384
 30
0.0
 10
125.9642352853901
 20
89.56757247086291
 30
0.0
 10
126.1123845577231
 20
90.10626752783949
 30
0.0
 10
126.3297046554291
 20
90.64252791551819
 30
0.0
 10
126.5237892272991
 20
90.99617384987806
 30
0.0
 10
126.6208409081845
 20
91.17301393581178
 30
0.0
  0
LINE
  5
BD
330
1F
100
AcDbEntity
  8
0
  6
Continuous
 62
     7
370
    25
100
AcDbLine
 10
125.819706985
 20
81.9354097201
 30
0.0
 11
125.819706985
 21
89.7854094235
 31
0.0
  0
LINE
  5
BE
330
1F
100
AcDbEntity
  8
0
  6
Continuous
 62
     7
370
    25
100
AcDbLine
 10
125.819706985
 20
74.0854100166
 30
0.0
 11
125.819706985
 21
81.9354097201
 31
0.0
  0
SPLINE
  5
BF
330
1F
100
AcDbEntity
  8
0
  6
Continuous
 62
     7
370
    25
100
AcDbSpline
210
0.0
220
0.0
230
1.0
 70
     8
 71
     3
 72
    15
 73
    11
 74
     0
 42
0.000000001
 43
0.00000001
 40
0.0
 40
0.0
 40
0.0
 40
0.0
 40
0.1323049836088744
 40
0.2645725542962953
 40
0.3997989460670495
 40
0.5350009961647513
 40
0.6501921448046264
 40
0.7654012094574273
 40
0.8826892612248055
 40
1.0
 40
1.0
 40
1.0
 40
1.0
 10
134.0185736056117
 20
86.5542118279412
 30
0.0
 10
134.1273444729024
 20
86.75376219870299
 30
0.0
 10
134.3448554494895
 20
87.15280651179775
 30
0.0
 10
134.5788945670573
 20
87.76729795343192
 30
0.0
 10
134.7196098555752
 20
88.39337434655322
 30
0.0
 10
134.7474813856277
 20
88.99677177616479
 30
0.0
 10
134.6751782321686
 20
89.56757247191759
 30
0.0
 10
134.5270290989826
 20
90.10626753497348
 30
0.0
 10
134.3097087071766
 20
90.64252784665213
 30
0.0
 10
134.1156248957947
 20
90.99617383958044
 30
0.0
 10
134.0185736056117
 20
91.17301393581178
 30
0.0
  0
SPLINE
  5
C0
330
1F
100
AcDbEntity
  8
0
  6
Continuous
 62
     7
370
    25
100
AcDbSpline
210
0.0
220
0.0
230
1.0
 70
     8
 71
     3
 72
    15
 73
    11
 74
     0
 42
0.000000001
 43
0.00000001
 40
0.0
 40
0.0
 40
0.0
 40
0.0
 40
0.1323049282587815
 40
0.2645725126911017
 40
0.3997989257496923
 40
0.5350009327659031
 40
0.650192078012716
 40
0.7654011811473749
 40
0.8826892697167901
 40
1.0
 40
1.0
 40
1.0
 40
1.0
 10
134.0185736056117
 20
72.69780550432947
 30
0.0
 10
134.1273444831798
 20
72.89735564939
 30
0.0
 10
134.3448555371106
 20
73.29639961533566
 30
0.0
 10
134.5788945607284
 20
73.91089188148523
 30
0.0
 10
134.7196098335038
 20
74.536967684311
 30
0.0
 10
134.7474813892187
 20
75.14036588033044
 30
0.0
 10
134.6751782080425
 20
75.7111652862988
 30
0.0
 10
134.5270290952434
 20
76.24986203227965
 30
0.0
 10
134.3097087659393
 20
76.78612189428435
 30
0.0
 10
134.1156249028926
 20
77.13976766248479
 30
0.0
 10
134.0185736056117
 20
77.31660761220004
 30
0.0
  0
SPLINE
  5
C1
330
1F
100
AcDbEntity
  8
0
  6
Continuous
 62
     7
370
    25
100
AcDbSpline
210
0.0
220
0.0
230
1.0
 70
     8
 71
     3
 72
    16
 73
    12
 74
     0
 42
0.000000001
 43
0.00000001
 40
0.0
 40
0.0
 40
0.0
 40
0.0
 40
0.1051935697998784
 40
0.2312919055104034
 40
0.3573572604453449
 40
0.4865103305331645
 40
0.6156604549436534
 40
0.7112032446126787
 40
0.8067564405381822
 40
0.9033731847371418
 40
1.0
 40
1.0
 40
1.0
 40
1.0
 10
134.0185736056117
 20
77.31660761220004
 30
0.0
 10
134.1060160406353
 20
77.63363542066907
 30
0.0
 10
134.2982780530143
 20
78.33069291249183
 30
0.0
 10
134.5243922188235
 20
79.4256104610517
 30
0.0
 10
134.686871478638
 20
80.60747396545709
 30
0.0
 10
134.7494013624454
 20
81.80884368860103
 30
0.0
 10
134.7118293397611
 20
82.91566958912337
 30
0.0
 10
134.6029177820086
 20
83.91136047385592
 30
0.0
 10
134.453707650156
 20
84.79861257993286
 30
0.0
 10
134.2604262468554
 20
85.68088310981031
 30
0.0
 10
134.0991939536155
 20
86.26309214111313
 30
0.0
 10
134.0185736056117
 20
86.5542118279412
 30
0.0
  0
LINE
  5
C2
330
1F
100
AcDbEntity
  8
0
  6
Continuous
 62
     7
370
    25
100
AcDbLine
 10
134.8197065975
 20
81.9354097201
 30
0.0
 11
134.8197065975
 21
89.7854094235
 31
0.0
  0
LINE
  5
C3
330
1F
100
AcDbEntity
  8
0
  6
Continuous
 62
     7
370
    25
100
AcDbLine
 10
134.8197065975
 20
74.0854100166
 30
0.0
 11
134.8197065975
 21
81.9354097201
 31
0.0
  0
LINE
  5
C4
330
1F
100
AcDbEntity
  8
0
  6
Continuous
 62
     7
370
    25
100
AcDbLine
 10
130.2661166276
 20
86.5542118279
 30
0.0
 11
130.3197067912
 21
86.7613347089
 31
0.0
  0
LINE
  5
C5
330
1F
100
AcDbEntity
  8
0
  6
Continuous
 62
     7
370
    25
100
AcDbLine
 10
130.3197067912
 20
86.1399656003
 30
0.0
 11
130.2661166276
 21
86.5542118279
 31
0.0
  0
LINE
  5
C6
330
1F
100
AcDbEntity
  8
0
  6
Continuous
 62
     7
370
    25
100
AcDbLine
 10
126.6208409082
 20
72.6978055043
 30
0.0
 11
130.2661166276
 21
72.6978055043
 31
0.0
  0
LINE
  5
C7
330
1F
100
AcDbEntity
  8
0
  6
Continuous
 62
     7
370
    25
100
AcDbLine
 10
126.6208409082
 20
77.3166076122
 30
0.0
 11
130.2661166276
 21
77.3166076122
 31
0.0
  0
LINE
  5
C8
330
1F
100
AcDbEntity
  8
0
  6
Continuous
 62
     7
370
    25
100
AcDbLine
 10
130.3197067912
 20
77.1094847312
 30
0.0
 11
130.2661166276
 21
77.3166076122
 31
0.0
  0
LINE
  5
C9
330
1F
100
AcDbEntity
  8
0
  6
Continuous
 62
     7
370
    25
100
AcDbLine
 10
130.3732969548
 20
77.3166076122
 30
0.0
 11
130.3197067912
 21
77.1094847312
 31
0.0
  0
LINE
  5
CA
330
1F
100
AcDbEntity
  8
0
  6
Continuous
 62
     7
370
    25
100
AcDbLine
 10
130.3732969548
 20
77.3166076122
 30
0.0
 11
134.0185736056
 21
77.3166076122
 31
0.0
  0
LINE
  5
CB
330
1F
100
AcDbEntity
  8
0
  6
Continuous
 62
     7
370
    25
100
AcDbLine
 10
130.3732969548
 20
72.6978055043
 30
0.0
 11
134.0185736056
 21
72.6978055043
 31
0.0
  0
LINE
  5
CC
330
1F
100
AcDbEntity
  8
0
  6
Continuous
 62
     7
370
    25
100
AcDbLine
 10
130.3197067912
 20
72.904928851
 30
0.0
 11
130.3732969548
 21
72.6978055043
 31
0.0
  0
LINE
  5
CD
330
1F
100
AcDbEntity
  8
0
  6
Continuous
 62
     7
370
    25
100
AcDbLine
 10
130.2661166276
 20
72.6978055043
 30
0.0
 11
130.3197067912
 21
72.904928851
 31
0.0
  0
LINE
  5
CE
330
1F
100
AcDbEntity
  8
0
  6
Continuous
 62
     7
370
    25
100
AcDbLine
 10
130.2661166276
 20
77.3166076122
 30
0.0
 11
130.3197067912
 21
77.7308538398
 31
0.0
  0
LINE
  5
CF
330
1F
100
AcDbEntity
  8
0
  6
Continuous
 62
     7
370
    25
100
AcDbLine
 10
130.3197067912
 20
77.1094847312
 30
0.0
 11
130.3197067912
 21
77.7308538398
 31
0.0
  0
LINE
  5
D0
330
1F
100
AcDbEntity
  8
0
  6
Continuous
 62
     7
370
    25
100
AcDbLine
 10
130.3197067912
 20
77.7308538398
 30
0.0
 11
130.3732969548
 21
77.3166076122
 31
0.0
  0
LINE
  5
D1
330
1F
100
AcDbEntity
  8
0
  6
Continuous
 62
     7
370
    25
100
AcDbLine
 10
126.6208409082
 20
86.5542118279
 30
0.0
 11
130.2661166276
 21
86.5542118279
 31
0.0
  0
LINE
  5
D2
330
1F
100
AcDbEntity
  8
0
  6
Continuous
 62
     7
370
    25
100
AcDbLine
 10
130.3732969548
 20
86.5542118279
 30
0.0
 11
134.0185736056
 21
86.5542118279
 31
0.0
  0
LINE
  5
D3
330
1F
100
AcDbEntity
  8
0
  6
Continuous
 62
     7
370
    25
100
AcDbLine
 10
126.6208409082
 20
91.1730139358
 30
0.0
 11
130.2661166276
 21
91.1730139358
 31
0.0
  0
LINE
  5
D4
330
1F
100
AcDbEntity
  8
0
  6
Continuous
 62
     7
370
    25
100
AcDbLine
 10
130.3197067912
 20
90.9658905892
 30
0.0
 11
130.2661166276
 21
91.1730139358
 31
0.0
  0
LINE
  5
D5
330
1F
100
AcDbEntity
  8
0
  6
Continuous
 62
     7
370
    25
100
AcDbLine
 10
130.3732969548
 20
91.1730139358
 30
0.0
 11
130.3197067912
 21
90.9658905892
 31
0.0
  0
LINE
  5
D6
330
1F
100
AcDbEntity
  8
0
  6
Continuous
 62
     7
370
    25
100
AcDbLine
 10
130.3732969548
 20
91.1730139358
 30
0.0
 11
134.0185736056
 21
91.1730139358
 31
0.0
  0
LINE
  5
D7
330
1F
100
AcDbEntity
  8
0
  6
Continuous
 62
     7
370
    25
100
AcDbLine
 10
136.8197069253
 20
89.4854099332
 30
0.0
 11
136.8197069253
 21
74.385409507
 31
0.0
  0
LINE
  5
D8
330
1F
100
AcDbEntity
  8
0
  6
Continuous
 62
     7
370
    25
100
AcDbLine
 10
123.8197066571
 20
81.9354097201
 30
0.0
 11
123.8197066571
 21
89.4854099332
 31
0.0
  0
LINE
  5
D9
330
1F
100
AcDbEntity
  8
0
  6
Continuous
 62
     7
370
    25
100
AcDbLine
 10
123.8197066571
 20
74.385409507
 30
0.0
 11
123.8197066571
 21
81.9354097201
 31
0.0
  0
LINE
  5
DA
330
1F
100
AcDbEntity
  8
0
  6
Continuous
 62
     7
370
    25
100
AcDbLine
 10
130.3197067912
 20
72.8978051646
 30
0.0
 11
130.3197067912
 21
72.904928851
 31
0.0
  0
LINE
  5
DB
330
1F
100
AcDbEntity
  8
0
  6
Continuous
 62
     7
370
    25
100
AcDbLine
 10
130.3197067912
 20
90.9658905892
 30
0.0
 11
130.3197067912
 21
90.9730142756
 31
0.0
  0
LINE
  5
DC
330
1F
100
AcDbEntity
  8
0
  6
Continuous
 62
     7
370
    25
100
AcDbLine
 10
119.3314140413
 20
91.9356656103
 30
0.0
 11
105.7994302112
 21
91.9356656103
 31
0.0
  0
LINE
  5
DD
330
1F
100
AcDbEntity
  8
0
  6
Continuous
 62
     7
370
    25
100
AcDbLine
 10
119.3154223013
 20
91.9354094966
 30
0.0
 11
105.8154219512
 21
91.9354094966
 31
0.0
  0
LINE
  5
DE
330
1F
100
AcDbEntity
  8
0
  6
Continuous
 62
     7
370
    25
100
AcDbLine
 10
119.0217148263
 20
101.8460507346
 30
0.0
 11
106.1091294262
 21
101.8460507346
 31
0.0
  0
LINE
  5
DF
330
1F
100
AcDbEntity
  8
0
  6
Continuous
 62
     7
370
    25
100
AcDbLine
 10
122.5654219027
 20
88.513909637
 30
0.0
 11
122.5654219027
 21
75.3569098031
 31
0.0
  0
LINE
  5
E0
330
1F
100
AcDbEntity
  8
0
  6
Continuous
 62
     7
370
    25
100
AcDbLine
 10
107.315422197
 20
103.9354096009
 30
0.0
 11
117.8154220555
 21
103.9354096009
 31
0.0
  0
SPLINE
  5
E1
330
1F
100
AcDbEntity
  8
0
  6
Continuous
 62
     7
370
    25
100
AcDbSpline
210
0.0
220
0.0
230
1.0
 70
    24
 71
     3
 72
    14
 73
    10
 74
     0
 42
0.000000001
 43
0.00000001
 40
0.0
 40
0.0
 40
0.0
 40
0.0
 40
0.25
 40
0.25
 40
0.5
 40
0.5
 40
0.75
 40
0.75
 40
1.0
 40
1.0
 40
1.0
 40
1.0
 10
112.5654221262483
 20
88.68540972007062
 30
0.0
 10
112.7639594408373
 20
88.68540972007062
 30
0.0
 10
112.9624981716707
 20
88.68540972007062
 30
0.0
 10
113.3586670079442
 20
88.68540972007062
 30
0.0
 10
113.5562999532655
 20
88.68540972007062
 30
0.0
 10
113.9496663821557
 20
88.68540972007062
 30
0.0
 10
114.145402722812
 20
88.68540972007062
 30
0.0
 10
114.5338146357038
 20
88.68540972007062
 30
0.0
 10
114.7264930767826
 20
88.68540972007062
 30
0.0
 10
114.9169322793202
 20
88.68540972007062
 30
0.0
  0
SPLINE
  5
E2
330
1F
100
AcDbEntity
  8
0
  6
Continuous
 62
     7
370
    25
100
AcDbSpline
210
0.0
220
0.0
230
1.0
 70
    24
 71
     3
 72
    14
 73
    10
 74
     0
 42
0.000000001
 43
0.00000001
 40
0.0
 40
0.0
 40
0.0
 40
0.0
 40
0.25
 40
0.25
 40
0.5
 40
0.5
 40
0.75
 40
0.75
 40
1.0
 40
1.0
 40
1.0
 40
1.0
 10
112.5654221262483
 20
88.68540972007062
 30
0.0
 10
112.3668848116593
 20
88.68540972007062
 30
0.0
 10
112.1683460808259
 20
88.68540972007062
 30
0.0
 10
111.7721772445524
 20
88.68540972007062
 30
0.0
 10
111.5745442992311
 20
88.68540972007062
 30
0.0
 10
111.1811778703409
 20
88.68540972007062
 30
0.0
 10
110.9854415296846
 20
88.68540972007062
 30
0.0
 10
110.5970296167928
 20
88.68540972007062
 30
0.0
 10
110.404351175714
 20
88.68540972007062
 30
0.0
 10
110.2139119731765
 20
88.68540972007062
 30
0.0
  0
LINE
  5
E3
330
1F
100
AcDbEntity
  8
0
  6
Continuous
 62
     7
370
    25
100
AcDbLine
 10
108.0054223288
 20
88.6854098952
 30
0.0
 11
110.2139120206
 21
88.6854098952
 31
0.0
  0
SPLINE
  5
E4
330
1F
100
AcDbEntity
  8
0
  6
Continuous
 62
     7
370
    25
100
AcDbSpline
210
0.0
220
0.0
230
1.0
 70
     8
 71
     3
 72
    14
 73
    10
 74
     0
 42
0.000000001
 43
0.00000001
 40
0.0
 40
0.0
 40
0.0
 40
0.0
 40
0.25
 40
0.25
 40
0.5
 40
0.5
 40
0.75
 40
0.75
 40
1.0
 40
1.0
 40
1.0
 40
1.0
 10
108.0054221262483
 20
88.68540972007062
 30
0.0
 10
107.9492688859175
 20
88.68540972007062
 30
0.0
 10
107.8955152935989
 20
88.6754564135181
 30
0.0
 10
107.7923918851894
 20
88.63708479770212
 30
0.0
 10
107.7432139091818
 20
88.60854586572894
 30
0.0
 10
107.654049396856
 20
88.53135831844884
 30
0.0
 10
107.6128007325841
 20
88.4819296332609
 30
0.0
 10
107.5484133795822
 20
88.35442114608384
 30
0.0
 10
107.5254221262483
 20
88.27280493602971
 30
0.0
 10
107.5254221262483
 20
88.18540972007062
 30
0.0
  0
LINE
  5
E5
330
1F
100
AcDbEntity
  8
0
  6
Continuous
 62
     7
370
    25
100
AcDbLine
 10
107.5254219334
 20
78.935409694
 30
0.0
 11
107.5254219334
 21
88.1854098132
 31
0.0
  0
SPLINE
  5
E6
330
1F
100
AcDbEntity
  8
0
  6
Continuous
 62
     7
370
    25
100
AcDbSpline
210
0.0
220
0.0
230
1.0
 70
     8
 71
     3
 72
     8
 73
     4
 74
     0
 42
0.000000001
 43
0.00000001
 40
0.0
 40
0.0
 40
0.0
 40
0.0
 40
1.0
 40
1.0
 40
1.0
 40
1.0
 10
107.5506909438036
 20
78.5922555984408
 30
0.0
 10
107.5340429493785
 20
78.70463156238638
 30
0.0
 10
107.5254221262483
 20
78.81894313284843
 30
0.0
 10
107.5254221262483
 20
78.93540972007062
 30
0.0
  0
LINE
  5
E7
330
1F
100
AcDbEntity
  8
0
  6
Continuous
 62
     7
370
    25
100
AcDbLine
 10
117.9351556796
 20
87.3051432735
 30
0.0
 11
118.5654221784
 21
87.9354097722
 31
0.0
  0
SPLINE
  5
E8
330
1F
100
AcDbEntity
  8
0
  6
Continuous
 62
     7
370
    25
100
AcDbSpline
210
0.0
220
0.0
230
1.0
 70
     8
 71
     3
 72
    12
 73
     8
 74
     0
 42
0.000000001
 43
0.00000001
 40
0.0
 40
0.0
 40
0.0
 40
0.0
 40
0.2499999999999999
 40
0.2499999999999999
 40
0.4999999999999998
 40
0.4999999999999998
 40
1.0
 40
1.0
 40
1.0
 40
1.0
 10
117.6054221262483
 20
87.93540972007064
 30
0.0
 10
117.6054221262483
 20
87.85259077185616
 30
0.0
 10
117.6190717330927
 20
87.77215046303247
 30
0.0
 10
117.663593158356
 20
87.63086294146736
 30
0.0
 10
117.6935202897087
 20
87.5707032217423
 30
0.0
 10
117.7916883899749
 20
87.41722986869033
 30
0.0
 10
117.8651316947376
 20
87.35219163748037
 30
0.0
 10
117.9351558891099
 20
87.30514348293195
 30
0.0
  0
LINE
  5
E9
330
1F
100
AcDbEntity
  8
0
  6
Continuous
 62
     7
370
    25
100
AcDbLine
 10
117.6054223191
 20
88.1854098132
 30
0.0
 11
117.6054223191
 21
87.9354097722
 31
0.0
  0
SPLINE
  5
EA
330
1F
100
AcDbEntity
  8
0
  6
Continuous
 62
     7
370
    25
100
AcDbSpline
210
0.0
220
0.0
230
1.0
 70
     8
 71
     3
 72
    14
 73
    10
 74
     0
 42
0.000000001
 43
0.00000001
 40
0.0
 40
0.0
 40
0.0
 40
0.0
 40
0.25
 40
0.25
 40
0.5
 40
0.5
 40
0.75
 40
0.75
 40
1.0
 40
1.0
 40
1.0
 40
1.0
 10
117.6054221262483
 20
88.18540972007062
 30
0.0
 10
117.6054221262483
 20
88.27272774907702
 30
0.0
 10
117.5824693274619
 20
88.35435585689861
 30
0.0
 10
117.5179737283002
 20
88.48205697503205
 30
0.0
 10
117.4767412414939
 20
88.53144776785763
 30
0.0
 10
117.3872794015248
 20
88.60880643541564
 30
0.0
 10
117.3378045641646
 20
88.63737524498752
 30
0.0
 10
117.2352323062324
 20
88.67544261395463
 30
0.0
 10
117.1816225449512
 20
88.68540972007062
 30
0.0
 10
117.1254221262483
 20
88.68540972007062
 30
0.0
  0
LINE
  5
EB
330
1F
100
AcDbEntity
  8
0
  6
Continuous
 62
     7
370
    25
100
AcDbLine
 10
114.9169322319
 20
88.6854098952
 30
0.0
 11
117.1254219237
 21
88.6854098952
 31
0.0
  0
SPLINE
  5
EC
330
1F
100
AcDbEntity
  8
0
  6
Continuous
 62
     7
370
    25
100
AcDbSpline
210
0.0
220
0.0
230
1.0
 70
     8
 71
     3
 72
     8
 73
     4
 74
     0
 42
0.000000001
 43
0.00000001
 40
0.0
 40
0.0
 40
0.0
 40
0.0
 40
1.0
 40
1.0
 40
1.0
 40
1.0
 10
109.5654221262483
 20
76.89540972007063
 30
0.0
 10
109.4489555390261
 20
76.89540972007063
 30
0.0
 10
109.3346439685641
 20
76.90403054320083
 30
0.0
 10
109.2222680046185
 20
76.92067853762589
 30
0.0
  0
LINE
  5
ED
330
1F
100
AcDbEntity
  8
0
  6
Continuous
 62
     7
370
    25
100
AcDbLine
 10
118.8154222194
 20
76.8954095272
 30
0.0
 11
109.5654221002
 21
76.8954095272
 31
0.0
  0
SPLINE
  5
EE
330
1F
100
AcDbEntity
  8
0
  6
Continuous
 62
     7
370
    25
100
AcDbSpline
210
0.0
220
0.0
230
1.0
 70
     8
 71
     3
 72
    14
 73
    10
 74
     0
 42
0.000000001
 43
0.00000001
 40
0.0
 40
0.0
 40
0.0
 40
0.0
 40
0.25
 40
0.25
 40
0.5
 40
0.5
 40
0.75
 40
0.75
 40
1.0
 40
1.0
 40
1.0
 40
1.0
 10
118.8154221262483
 20
76.89540972007063
 30
0.0
 10
118.9027401552547
 20
76.89540972007063
 30
0.0
 10
118.9843682630763
 20
76.91836251885707
 30
0.0
 10
119.1120693812097
 20
76.98285811801877
 30
0.0
 10
119.1614601740353
 20
77.02409060482503
 30
0.0
 10
119.2388188415933
 20
77.11355244479411
 30
0.0
 10
119.2673876511652
 20
77.16302728215427
 30
0.0
 10
119.3054550201323
 20
77.26559954008647
 30
0.0
 10
119.3154221262483
 20
77.31920930136774
 30
0.0
 10
119.3154221262483
 20
77.37540972007062
 30
0.0
  0
LINE
  5
EF
330
1F
100
AcDbEntity
  8
0
  6
Continuous
 62
     7
370
    25
100
AcDbLine
 10
119.3154223013
 20
79.5838996144
 30
0.0
 11
119.3154223013
 21
77.3754099226
 31
0.0
  0
SPLINE
  5
F0
330
1F
100
AcDbEntity
  8
0
  6
Continuous
 62
     7
370
    25
100
AcDbSpline
210
0.0
220
0.0
230
1.0
 70
    24
 71
     3
 72
    14
 73
    10
 74
     0
 42
0.000000001
 43
0.00000001
 40
0.0
 40
0.0
 40
0.0
 40
0.0
 40
0.25
 40
0.25
 40
0.5
 40
0.5
 40
0.75
 40
0.75
 40
1.0
 40
1.0
 40
1.0
 40
1.0
 10
119.3154221262483
 20
81.93540972007062
 30
0.0
 10
119.3154221262483
 20
81.73687240548159
 30
0.0
 10
119.3154221262483
 20
81.53833367464824
 30
0.0
 10
119.3154221262483
 20
81.14216483837471
 30
0.0
 10
119.3154221262483
 20
80.9445318930534
 30
0.0
 10
119.3154221262483
 20
80.55116546416322
 30
0.0
 10
119.3154221262483
 20
80.35542912350692
 30
0.0
 10
119.3154221262483
 20
79.96701721061513
 30
0.0
 10
119.3154221262483
 20
79.77433876953629
 30
0.0
 10
119.3154221262483
 20
79.58389956699877
 30
0.0
  0
SPLINE
  5
F1
330
1F
100
AcDbEntity
  8
0
  6
Continuous
 62
     7
370
    25
100
AcDbSpline
210
0.0
220
0.0
230
1.0
 70
    24
 71
     3
 72
    14
 73
    10
 74
     0
 42
0.000000001
 43
0.00000001
 40
0.0
 40
0.0
 40
0.0
 40
0.0
 40
0.25
 40
0.25
 40
0.5
 40
0.5
 40
0.75
 40
0.75
 40
1.0
 40
1.0
 40
1.0
 40
1.0
 10
119.3154221262483
 20
81.93540972007062
 30
0.0
 10
119.3154221262483
 20
82.13394703465966
 30
0.0
 10
119.3154221262483
 20
82.332485765493
 30
0.0
 10
119.3154221262483
 20
82.72865460176655
 30
0.0
 10
119.3154221262483
 20
82.92628754708785
 30
0.0
 10
119.3154221262483
 20
83.31965397597803
 30
0.0
 10
119.3154221262483
 20
83.51539031663432
 30
0.0
 10
119.3154221262483
 20
83.90380222952614
 30
0.0
 10
119.3154221262483
 20
84.09648067060498
 30
0.0
 10
119.3154221262483
 20
84.28691987314248
 30
0.0
  0
LINE
  5
F2
330
1F
100
AcDbEntity
  8
0
  6
Continuous
 62
     7
370
    25
100
AcDbLine
 10
119.3154223013
 20
86.4954095176
 30
0.0
 11
119.3154223013
 21
84.2869198257
 31
0.0
  0
SPLINE
  5
F3
330
1F
100
AcDbEntity
  8
0
  6
Continuous
 62
     7
370
    25
100
AcDbSpline
210
0.0
220
0.0
230
1.0
 70
     8
 71
     3
 72
    14
 73
    10
 74
     0
 42
0.000000001
 43
0.00000001
 40
0.0
 40
0.0
 40
0.0
 40
0.0
 40
0.25
 40
0.25
 40
0.5
 40
0.5
 40
0.75
 40
0.75
 40
1.0
 40
1.0
 40
1.0
 40
1.0
 10
119.3154221262483
 20
86.49540972007063
 30
0.0
 10
119.3154221262483
 20
86.55156296040145
 30
0.0
 10
119.3054688196958
 20
86.60531655272
 30
0.0
 10
119.2670972038798
 20
86.7084399611295
 30
0.0
 10
119.2385582719066
 20
86.75761793713713
 30
0.0
 10
119.1613707246265
 20
86.84678244946289
 30
0.0
 10
119.1119420394386
 20
86.88803111373477
 30
0.0
 10
118.9844335522615
 20
86.95241846673677
 30
0.0
 10
118.9028173422074
 20
86.97540972007062
 30
0.0
 10
118.8154221262483
 20
86.97540972007062
 30
0.0
  0
LINE
  5
F4
330
1F
100
AcDbEntity
  8
0
  6
Continuous
 62
     7
370
    25
100
AcDbLine
 10
118.5654221784
 20
86.9754099129
 30
0.0
 11
118.8154222194
 21
86.9754099129
 31
0.0
  0
SPLINE
  5
F5
330
1F
100
AcDbEntity
  8
0
  6
Continuous
 62
     7
370
    25
100
AcDbSpline
210
0.0
220
0.0
230
1.0
 70
     8
 71
     3
 72
    12
 73
     8
 74
     0
 42
0.000000001
 43
0.00000001
 40
0.0
 40
0.0
 40
0.0
 40
0.0
 40
0.5000000000000009
 40
0.5000000000000009
 40
0.7500000000000004
 40
0.7500000000000004
 40
1.0
 40
1.0
 40
1.0
 40
1.0
 10
117.93515588911
 20
87.30514348293228
 30
0.0
 10
117.9822040436584
 20
87.23511928855994
 30
0.0
 10
118.047242274868
 20
87.16167598379725
 30
0.0
 10
118.20071562792
 20
87.06350788353105
 30
0.0
 10
118.260875347645
 20
87.03358075217832
 30
0.0
 10
118.4021628692102
 20
86.98905932691505
 30
0.0
 10
118.4826031780338
 20
86.97540972007062
 30
0.0
 10
118.5654221262483
 20
86.97540972007063
 30
0.0
  0
SPLINE
  5
F6
330
1F
100
AcDbEntity
  8
0
  6
Continuous
 62
     7
370
    25
100
AcDbSpline
210
0.0
220
0.0
230
1.0
 70
     8
 71
     3
 72
    12
 73
     8
 74
     0
 42
0.000000001
 43
0.00000001
 40
0.0
 40
0.0
 40
0.0
 40
0.0
 40
0.25
 40
0.25
 40
0.5
 40
0.5
 40
1.0
 40
1.0
 40
1.0
 40
1.0
 10
118.9921988215442
 20
79.50017606709977
 30
0.0
 10
119.006412966973
 20
79.50197151429983
 30
0.0
 10
119.0180964962315
 20
79.5039987741066
 30
0.0
 10
119.0371561703993
 20
79.5070504045169
 30
0.0
 10
119.0445323153087
 20
79.50807477512039
 30
0.0
 10
119.0613304455011
 20
79.50744378150084
 30
0.0
 10
119.0654221262483
 20
79.5020843118477
 30
0.0
 10
119.0654221262483
 20
79.48591997728745
 30
0.0
  0
LINE
  5
F7
330
1F
100
AcDbEntity
  8
0
  6
Continuous
 62
     7
370
    25
100
AcDbLine
 10
119.0654222604
 20
79.4859200558
 30
0.0
 11
119.0654222604
 21
77.1854098728
 31
0.0
  0
LINE
  5
F8
330
1F
100
AcDbEntity
  8
0
  6
Continuous
 62
     7
370
    25
100
AcDbLine
 10
119.0654222604
 20
77.1854098728
 30
0.0
 11
118.8154222194
 21
77.1854098728
 31
0.0
  0
LINE
  5
F9
330
1F
100
AcDbEntity
  8
0
  6
Continuous
 62
     7
370
    25
100
AcDbLine
 10
118.8154222194
 20
77.1854098728
 30
0.0
 11
118.8154222194
 21
79.4859200558
 31
0.0
  0
SPLINE
  5
FA
330
1F
100
AcDbEntity
  8
0
  6
Continuous
 62
     7
370
    25
100
AcDbSpline
210
0.0
220
0.0
230
1.0
 70
     8
 71
     3
 72
    10
 73
     6
 74
     0
 42
0.000000001
 43
0.00000001
 40
0.0
 40
0.0
 40
0.0
 40
0.0
 40
0.5
 40
0.5
 40
1.0
 40
1.0
 40
1.0
 40
1.0
 10
118.9921988215442
 20
79.50017606709977
 30
0.0
 10
118.9637705306864
 20
79.49658517269968
 30
0.0
 10
118.9308366022496
 20
79.4930211502466
 30
0.0
 10
118.8679226454177
 20
79.48768855254049
 30
0.0
 10
118.8379426170226
 20
79.48591997728745
 30
0.0
 10
118.8154221262483
 20
79.48591997728745
 30
0.0
  0
LINE
  5
FB
330
1F
100
AcDbEntity
  8
0
  6
Continuous
 62
     7
370
    25
100
AcDbLine
 10
117.3154219735
 20
88.1854098132
 30
0.0
 11
115.0149117905
 21
88.1854098132
 31
0.0
  0
SPLINE
  5
FC
330
1F
100
AcDbEntity
  8
0
  6
Continuous
 62
     7
370
    25
100
AcDbSpline
210
0.0
220
0.0
230
1.0
 70
     8
 71
     3
 72
    10
 73
     6
 74
     0
 42
0.000000001
 43
0.00000001
 40
0.0
 40
0.0
 40
0.0
 40
0.0
 40
0.5
 40
0.5
 40
1.0
 40
1.0
 40
1.0
 40
1.0
 10
115.0006557792191
 20
88.36218641536647
 30
0.0
 10
115.0042466736192
 20
88.33375812450873
 30
0.0
 10
115.0078106960723
 20
88.30082419607194
 30
0.0
 10
115.0131432937784
 20
88.23791023924002
 30
0.0
 10
115.0149118690315
 20
88.20793021084494
 30
0.0
 10
115.0149118690315
 20
88.18540972007062
 30
0.0
  0
SPLINE
  5
FD
330
1F
100
AcDbEntity
  8
0
  6
Continuous
 62
     7
370
    25
100
AcDbSpline
210
0.0
220
0.0
230
1.0
 70
     8
 71
     3
 72
    12
 73
     8
 74
     0
 42
0.000000001
 43
0.00000001
 40
0.0
 40
0.0
 40
0.0
 40
0.0
 40
0.25
 40
0.25
 40
0.5
 40
0.5
 40
1.0
 40
1.0
 40
1.0
 40
1.0
 10
115.0006557792191
 20
88.36218641536647
 30
0.0
 10
114.9988603320191
 20
88.37640056079535
 30
0.0
 10
114.9968330722123
 20
88.3880840900538
 30
0.0
 10
114.993781441802
 20
88.40714376422164
 30
0.0
 10
114.9927570711985
 20
88.41451990913104
 30
0.0
 10
114.9933880648181
 20
88.43131803932346
 30
0.0
 10
114.9987475344712
 20
88.43540972007062
 30
0.0
 10
115.0149118690315
 20
88.43540972007062
 30
0.0
  0
LINE
  5
FE
330
1F
100
AcDbEntity
  8
0
  6
Continuous
 62
     7
370
    25
100
AcDbLine
 10
115.0149117905
 20
88.4354098542
 30
0.0
 11
117.3154219735
 21
88.4354098542
 31
0.0
  0
LINE
  5
FF
330
1F
100
AcDbEntity
  8
0
  6
Continuous
 62
     7
370
    25
100
AcDbLine
 10
117.3154219735
 20
88.1854098132
 30
0.0
 11
117.3154219735
 21
88.4354098542
 31
0.0
  0
LINE
  5
100
330
1F
100
AcDbEntity
  8
0
  6
Continuous
 62
     7
370
    25
100
AcDbLine
 10
117.3154219735
 20
87.9354097722
 30
0.0
 11
117.3154219735
 21
88.1854098132
 31
0.0
  0
ARC
  5
101
330
1F
100
AcDbEntity
  8
0
  6
Continuous
 62
     7
370
    25
100
AcDbCircle
 10
118.5654221262
 20
87.9354097201
 30
0.0
 40
1.25
100
AcDbArc
 50
180.0
 51
270.0
  0
LINE
  5
102
330
1F
100
AcDbEntity
  8
0
  6
Continuous
 62
     7
370
    25
100
AcDbLine
 10
118.8154222194
 20
86.6854095673
 30
0.0
 11
118.5654221784
 21
86.6854095673
 31
0.0
  0
LINE
  5
103
330
1F
100
AcDbEntity
  8
0
  6
Continuous
 62
     7
370
    25
100
AcDbLine
 10
118.8154222194
 20
84.3848993844
 30
0.0
 11
118.8154222194
 21
86.6854095673
 31
0.0
  0
LINE
  5
104
330
1F
100
AcDbEntity
  8
0
  6
Continuous
 62
     7
370
    25
100
AcDbLine
 10
118.8154222194
 20
84.3848993844
 30
0.0
 11
118.8154222194
 21
81.9354097201
 31
0.0
  0
LINE
  5
105
330
1F
100
AcDbEntity
  8
0
  6
Continuous
 62
     7
370
    25
100
AcDbLine
 10
118.8154222194
 20
81.9354097201
 30
0.0
 11
118.8154222194
 21
79.4859200558
 31
0.0
  0
LINE
  5
106
330
1F
100
AcDbEntity
  8
0
  6
Continuous
 62
     7
370
    25
100
AcDbLine
 10
109.5654221002
 20
77.1854098728
 30
0.0
 11
118.8154222194
 21
77.1854098728
 31
0.0
  0
ARC
  5
107
330
1F
100
AcDbEntity
  8
0
  6
Continuous
 62
     7
370
    25
100
AcDbCircle
 10
109.5654221262
 20
78.9354097201
 30
0.0
 40
1.75
100
AcDbArc
 50
180.0
 51
270.0
  0
LINE
  5
108
330
1F
100
AcDbEntity
  8
0
  6
Continuous
 62
     7
370
    25
100
AcDbLine
 10
107.815422279
 20
88.1854098132
 30
0.0
 11
107.815422279
 21
78.935409694
 31
0.0
  0
LINE
  5
109
330
1F
100
AcDbEntity
  8
0
  6
Continuous
 62
     7
370
    25
100
AcDbLine
 10
110.115932462
 20
88.1854098132
 30
0.0
 11
107.815422279
 21
88.1854098132
 31
0.0
  0
LINE
  5
10A
330
1F
100
AcDbEntity
  8
0
  6
Continuous
 62
     7
370
    25
100
AcDbLine
 10
110.115932462
 20
88.1854098132
 30
0.0
 11
112.5654221262
 21
88.1854098132
 31
0.0
  0
LINE
  5
10B
330
1F
100
AcDbEntity
  8
0
  6
Continuous
 62
     7
370
    25
100
AcDbLine
 10
112.5654221262
 20
88.1854098132
 30
0.0
 11
115.0149117905
 21
88.1854098132
 31
0.0
  0
SPLINE
  5
10C
330
1F
100
AcDbEntity
  8
0
  6
Continuous
 62
     7
370
    25
100
AcDbSpline
210
0.0
220
0.0
230
1.0
 70
     8
 71
     3
 72
    14
 73
    10
 74
     0
 42
0.000000001
 43
0.00000001
 40
0.0
 40
0.0
 40
0.0
 40
0.0
 40
0.25
 40
0.25
 40
0.5
 40
0.5
 40
0.75
 40
0.75
 40
1.0
 40
1.0
 40
1.0
 40
1.0
 10
115.2722851236106
 20
82.2160570240142
 30
0.0
 10
115.3291111131216
 20
82.3394339016615
 30
0.0
 10
115.4217102308043
 20
82.44272211780131
 30
0.0
 10
115.6514843458108
 20
82.58582194106735
 30
0.0
 10
115.7850091167699
 20
82.62350700360635
 30
0.0
 10
116.0564693463051
 20
82.62326787870609
 30
0.0
 10
116.1898439901435
 20
82.5851034201694
 30
0.0
 10
116.417271557054
 20
82.44348255701473
 30
0.0
 10
116.5110728618187
 20
82.33944419932354
 30
0.0
 10
116.5679035943158
 20
82.21605702401475
 30
0.0
  0
LINE
  5
10D
330
1F
100
AcDbEntity
  8
0
  6
Continuous
 62
     7
370
    25
100
AcDbLine
 10
114.3804907782
 20
79.722639204
 30
0.0
 11
115.2722851123
 21
82.2160570258
 31
0.0
  0
SPLINE
  5
10E
330
1F
100
AcDbEntity
  8
0
  6
Continuous
 62
     7
370
    25
100
AcDbSpline
210
0.0
220
0.0
230
1.0
 70
     8
 71
     3
 72
    10
 73
     6
 74
     0
 42
0.000000001
 43
0.00000001
 40
0.0
 40
0.0
 40
0.0
 40
0.0
 40
0.5
 40
0.5
 40
1.0
 40
1.0
 40
1.0
 40
1.0
 10
114.0447324667792
 20
79.6098226911243
 30
0.0
 10
114.103816346565
 20
79.57730817582507
 30
0.0
 10
114.1750277164103
 20
79.57120331897916
 30
0.0
 10
114.3020483751722
 20
79.61140373000487
 30
0.0
 10
114.357737622718
 20
79.6590225069918
 30
0.0
 10
114.380490748391
 20
79.72263924385881
 30
0.0
  0
LINE
  5
10F
330
1F
100
AcDbEntity
  8
0
  6
Continuous
 62
     7
370
    25
100
AcDbLine
 10
113.2805313549
 20
80.0303710001
 30
0.0
 11
114.044732459
 21
79.6098227454
 31
0.0
  0
LINE
  5
110
330
1F
100
AcDbEntity
  8
0
  6
Continuous
 62
     7
370
    25
100
AcDbLine
 10
114.2277018383
 20
78.2247481709
 30
0.0
 11
113.2805313549
 21
80.0303710001
 31
0.0
  0
SPLINE
  5
111
330
1F
100
AcDbEntity
  8
0
  6
Continuous
 62
     7
370
    25
100
AcDbSpline
210
0.0
220
0.0
230
1.0
 70
     8
 71
     3
 72
    10
 73
     6
 74
     0
 42
0.000000001
 43
0.00000001
 40
0.0
 40
0.0
 40
0.0
 40
0.0
 40
0.5000000000000006
 40
0.5000000000000006
 40
1.0
 40
1.0
 40
1.0
 40
1.0
 10
114.7092428440019
 20
78.13769428427256
 30
0.0
 10
114.6384165966751
 20
78.07482885681436
 30
0.0
 10
114.5395426493202
 20
78.04780052348707
 30
0.0
 10
114.3554212266086
 20
78.08075125178512
 30
0.0
 10
114.2716969125824
 20
78.1408788717878
 30
0.0
 10
114.2277018493734
 20
78.22474813880054
 30
0.0
  0
SPLINE
  5
112
330
1F
100
AcDbEntity
  8
0
  6
Continuous
 62
     7
370
    25
100
AcDbSpline
210
0.0
220
0.0
230
1.0
 70
     8
 71
     3
 72
    14
 73
    10
 74
     0
 42
0.000000001
 43
0.00000001
 40
0.0
 40
0.0
 40
0.0
 40
0.0
 40
0.2500000000000001
 40
0.2500000000000001
 40
0.3750000000000003
 40
0.3750000000000003
 40
0.5000000000000004
 40
0.5000000000000004
 40
1.0
 40
1.0
 40
1.0
 40
1.0
 10
117.1309458739252
 20
78.13769428427221
 30
0.0
 10
116.9646456522192
 20
78.28530247923504
 30
0.0
 10
116.7744749174293
 20
78.3980201779888
 30
0.0
 10
116.4633980556419
 20
78.51366676255223
 30
0.0
 10
116.3574995561155
 20
78.54243672376153
 30
0.0
 10
116.1414607187792
 20
78.58117495860328
 30
0.0
 10
116.0302133821443
 20
78.59108173224612
 30
0.0
 10
115.4792429935123
 20
78.59105961324767
 30
0.0
 10
115.0418059650173
 20
78.43287754681224
 30
0.0
 10
114.7092428440019
 20
78.13769428427256
 30
0.0
  0
SPLINE
  5
113
330
1F
100
AcDbEntity
  8
0
  6
Continuous
 62
     7
370
    25
100
AcDbSpline
210
0.0
220
0.0
230
1.0
 70
     8
 71
     3
 72
    10
 73
     6
 74
     0
 42
0.000000001
 43
0.00000001
 40
0.0
 40
0.0
 40
0.0
 40
0.0
 40
0.5
 40
0.5
 40
1.0
 40
1.0
 40
1.0
 40
1.0
 10
117.6124868685534
 20
78.22474813880055
 30
0.0
 10
117.5684948585028
 20
78.140884692126
 30
0.0
 10
117.4852408399989
 20
78.0809735993068
 30
0.0
 10
117.3010609570552
 20
78.04773779869963
 30
0.0
 10
117.2017638050838
 20
78.07483623825112
 30
0.0
 10
117.1309458739252
 20
78.13769428427227
 30
0.0
  0
LINE
  5
114
330
1F
100
AcDbEntity
  8
0
  6
Continuous
 62
     7
370
    25
100
AcDbLine
 10
118.5712168675
 20
80.0524074892
 30
0.0
 11
117.6124868665
 21
78.2247481709
 31
0.0
  0
LINE
  5
115
330
1F
100
AcDbEntity
  8
0
  6
Continuous
 62
     7
370
    25
100
AcDbLine
 10
117.7989474248
 20
79.6110863174
 30
0.0
 11
118.5712168675
 21
80.0524074892
 31
0.0
  0
SPLINE
  5
116
330
1F
100
AcDbEntity
  8
0
  6
Continuous
 62
     7
370
    25
100
AcDbSpline
210
0.0
220
0.0
230
1.0
 70
     8
 71
     3
 72
    10
 73
     6
 74
     0
 42
0.000000001
 43
0.00000001
 40
0.0
 40
0.0
 40
0.0
 40
0.0
 40
0.5
 40
0.5
 40
1.0
 40
1.0
 40
1.0
 40
1.0
 10
117.4599048739769
 20
79.72206074815517
 30
0.0
 10
117.4828209953907
 20
79.65798828237908
 30
0.0
 10
117.5389486462047
 20
79.61014671115963
 30
0.0
 10
117.6680302889734
 20
79.57028291928239
 30
0.0
 10
117.7399814536777
 20
79.5773893988097
 30
0.0
 10
117.798947614888
 20
79.61108622081065
 30
0.0
  0
LINE
  5
117
330
1F
100
AcDbEntity
  8
0
  6
Continuous
 62
     7
370
    25
100
AcDbLine
 10
116.5679038252
 20
82.2160570258
 30
0.0
 11
117.4599050294
 21
79.7220608527
 31
0.0
  0
LINE
  5
118
330
1F
100
AcDbEntity
  8
0
  6
Continuous
 62
     7
370
    25
100
AcDbLine
 10
107.815422279
 20
88.4354098542
 30
0.0
 11
110.115932462
 21
88.4354098542
 31
0.0
  0
SPLINE
  5
119
330
1F
100
AcDbEntity
  8
0
  6
Continuous
 62
     7
370
    25
100
AcDbSpline
210
0.0
220
0.0
230
1.0
 70
     8
 71
     3
 72
    12
 73
     8
 74
     0
 42
0.000000001
 43
0.00000001
 40
0.0
 40
0.0
 40
0.0
 40
0.0
 40
0.25
 40
0.25
 40
0.5
 40
0.5
 40
1.0
 40
1.0
 40
1.0
 40
1.0
 10
110.1301884732775
 20
88.36218641536647
 30
0.0
 10
110.1319839204775
 20
88.37640056079535
 30
0.0
 10
110.1340111802843
 20
88.3880840900538
 30
0.0
 10
110.1370628106946
 20
88.40714376422164
 30
0.0
 10
110.1380871812981
 20
88.41451990913104
 30
0.0
 10
110.1374561876785
 20
88.43131803932346
 30
0.0
 10
110.1320967180254
 20
88.43540972007062
 30
0.0
 10
110.1159323834651
 20
88.43540972007062
 30
0.0
  0
SPLINE
  5
11A
330
1F
100
AcDbEntity
  8
0
  6
Continuous
 62
     7
370
    25
100
AcDbSpline
210
0.0
220
0.0
230
1.0
 70
     8
 71
     3
 72
    10
 73
     6
 74
     0
 42
0.000000001
 43
0.00000001
 40
0.0
 40
0.0
 40
0.0
 40
0.0
 40
0.5
 40
0.5
 40
1.0
 40
1.0
 40
1.0
 40
1.0
 10
110.1301884732775
 20
88.36218641536647
 30
0.0
 10
110.1265975788774
 20
88.33375812450873
 30
0.0
 10
110.1230335564243
 20
88.30082419607194
 30
0.0
 10
110.1177009587182
 20
88.23791023924002
 30
0.0
 10
110.1159323834651
 20
88.20793021084494
 30
0.0
 10
110.1159323834651
 20
88.18540972007062
 30
0.0
  0
LINE
  5
11B
330
1F
100
AcDbEntity
  8
0
  6
Continuous
 62
     7
370
    25
100
AcDbLine
 10
107.815422279
 20
88.1854098132
 30
0.0
 11
107.815422279
 21
88.4354098542
 31
0.0
  0
LINE
  5
11C
330
1F
100
AcDbEntity
  8
0
  6
Continuous
 62
     7
370
    25
100
AcDbLine
 10
119.0654222604
 20
86.6854095673
 30
0.0
 11
119.0654222604
 21
84.3848993844
 31
0.0
  0
SPLINE
  5
11D
330
1F
100
AcDbEntity
  8
0
  6
Continuous
 62
     7
370
    25
100
AcDbSpline
210
0.0
220
0.0
230
1.0
 70
     8
 71
     3
 72
    12
 73
     8
 74
     0
 42
0.000000001
 43
0.00000001
 40
0.0
 40
0.0
 40
0.0
 40
0.0
 40
0.25
 40
0.25
 40
0.5
 40
0.5
 40
1.0
 40
1.0
 40
1.0
 40
1.0
 10
118.9921988215442
 20
84.37064337304147
 30
0.0
 10
119.006412966973
 20
84.36884792584142
 30
0.0
 10
119.0180964962315
 20
84.36682066603464
 30
0.0
 10
119.0371561703993
 20
84.36376903562436
 30
0.0
 10
119.0445323153087
 20
84.36274466502086
 30
0.0
 10
119.0613304455011
 20
84.36337565864041
 30
0.0
 10
119.0654221262483
 20
84.36873512829354
 30
0.0
 10
119.0654221262483
 20
84.38489946285381
 30
0.0
  0
SPLINE
  5
11E
330
1F
100
AcDbEntity
  8
0
  6
Continuous
 62
     7
370
    25
100
AcDbSpline
210
0.0
220
0.0
230
1.0
 70
     8
 71
     3
 72
    10
 73
     6
 74
     0
 42
0.000000001
 43
0.00000001
 40
0.0
 40
0.0
 40
0.0
 40
0.0
 40
0.5
 40
0.5
 40
1.0
 40
1.0
 40
1.0
 40
1.0
 10
118.9921988215442
 20
84.37064337304147
 30
0.0
 10
118.9637705306864
 20
84.37423426744157
 30
0.0
 10
118.9308366022496
 20
84.37779828989466
 30
0.0
 10
118.8679226454177
 20
84.38313088760077
 30
0.0
 10
118.8379426170226
 20
84.38489946285381
 30
0.0
 10
118.8154221262483
 20
84.38489946285381
 30
0.0
  0
LINE
  5
11F
330
1F
100
AcDbEntity
  8
0
  6
Continuous
 62
     7
370
    25
100
AcDbLine
 10
119.0654222604
 20
86.6854095673
 30
0.0
 11
118.8154222194
 21
86.6854095673
 31
0.0
  0
SPLINE
  5
120
330
1F
100
AcDbEntity
  8
0
  6
Continuous
 62
     7
370
    25
100
AcDbSpline
210
0.0
220
0.0
230
1.0
 70
     8
 71
     3
 72
    12
 73
     8
 74
     0
 42
0.000000001
 43
0.00000001
 40
0.0
 40
0.0
 40
0.0
 40
0.0
 40
0.25
 40
0.25
 40
0.5
 40
0.5
 40
1.0
 40
1.0
 40
1.0
 40
1.0
 10
119.067429726538
 20
81.93540972007062
 30
0.0
 10
119.0571662672489
 20
81.73320229765032
 30
0.0
 10
119.0495874874521
 20
81.53131547354589
 30
0.0
 10
119.035174032003
 20
81.12593828639767
 30
0.0
 10
119.0283393563507
 20
80.92244792335389
 30
0.0
 10
119.0020136033503
 20
80.30620442245703
 30
0.0
 10
118.9923466519893
 20
79.90621289659327
 30
0.0
 10
118.9921988215442
 20
79.50017606709977
 30
0.0
  0
SPLINE
  5
121
330
1F
100
AcDbEntity
  8
0
  6
Continuous
 62
     7
370
    25
100
AcDbSpline
210
0.0
220
0.0
230
1.0
 70
    24
 71
     3
 72
    10
 73
     6
 74
     0
 42
0.000000001
 43
0.00000001
 40
0.0
 40
0.0
 40
0.0
 40
0.0
 40
0.5
 40
0.5
 40
1.0
 40
1.0
 40
1.0
 40
1.0
 10
119.067429726538
 20
81.93540972007062
 30
0.0
 10
119.0263758893815
 20
81.93540972007062
 30
0.0
 10
118.9823015370684
 20
81.93540972007062
 30
0.0
 10
118.8909502675565
 20
81.93540972007062
 30
0.0
 10
118.8582004860595
 20
81.93540972007062
 30
0.0
 10
118.8154221262483
 20
81.93540972007062
 30
0.0
  0
SPLINE
  5
122
330
1F
100
AcDbEntity
  8
0
  6
Continuous
 62
     7
370
    25
100
AcDbSpline
210
0.0
220
0.0
230
1.0
 70
     8
 71
     3
 72
    12
 73
     8
 74
     0
 42
0.000000001
 43
0.00000001
 40
0.0
 40
0.0
 40
0.0
 40
0.0
 40
0.25
 40
0.25
 40
0.5
 40
0.5
 40
1.0
 40
1.0
 40
1.0
 40
1.0
 10
112.5654221262483
 20
88.43741732036031
 30
0.0
 10
112.7676295486686
 20
88.42715386107118
 30
0.0
 10
112.969516372773
 20
88.4195750812744
 30
0.0
 10
113.3748935599212
 20
88.40516162582533
 30
0.0
 10
113.578383922965
 20
88.39832695017304
 30
0.0
 10
114.1946274238619
 20
88.37200119717261
 30
0.0
 10
114.5946189497257
 20
88.36233424581162
 30
0.0
 10
115.0006557792191
 20
88.36218641536647
 30
0.0
  0
SPLINE
  5
123
330
1F
100
AcDbEntity
  8
0
  6
Continuous
 62
     7
370
    25
100
AcDbSpline
210
0.0
220
0.0
230
1.0
 70
    24
 71
     3
 72
    10
 73
     6
 74
     0
 42
0.000000001
 43
0.00000001
 40
0.0
 40
0.0
 40
0.0
 40
0.0
 40
0.5
 40
0.5
 40
1.0
 40
1.0
 40
1.0
 40
1.0
 10
112.5654221262483
 20
88.43741732036031
 30
0.0
 10
112.5654221262483
 20
88.39636348320377
 30
0.0
 10
112.5654221262483
 20
88.35228913089074
 30
0.0
 10
112.5654221262483
 20
88.2609378613788
 30
0.0
 10
112.5654221262483
 20
88.22818807988179
 30
0.0
 10
112.5654221262483
 20
88.18540972007062
 30
0.0
  0
SPLINE
  5
124
330
1F
100
AcDbEntity
  8
0
  6
Continuous
 62
     7
370
    25
100
AcDbSpline
210
0.0
220
0.0
230
1.0
 70
     8
 71
     3
 72
    12
 73
     8
 74
     0
 42
0.000000001
 43
0.00000001
 40
0.0
 40
0.0
 40
0.0
 40
0.0
 40
0.25
 40
0.25
 40
0.5
 40
0.5
 40
1.0
 40
1.0
 40
1.0
 40
1.0
 10
112.5654221262483
 20
88.43741732036031
 30
0.0
 10
112.363214703828
 20
88.42715386107118
 30
0.0
 10
112.1613278797236
 20
88.4195750812744
 30
0.0
 10
111.7559506925754
 20
88.40516162582533
 30
0.0
 10
111.5524603295316
 20
88.39832695017304
 30
0.0
 10
110.9362168286347
 20
88.3720011971726
 30
0.0
 10
110.5362253027709
 20
88.36233424581162
 30
0.0
 10
110.1301884732775
 20
88.36218641536647
 30
0.0
  0
SPLINE
  5
125
330
1F
100
AcDbEntity
  8
0
  6
Continuous
 62
     7
370
    25
100
AcDbSpline
210
0.0
220
0.0
230
1.0
 70
     8
 71
     3
 72
    12
 73
     8
 74
     0
 42
0.000000001
 43
0.00000001
 40
0.0
 40
0.0
 40
0.0
 40
0.0
 40
0.25
 40
0.25
 40
0.5
 40
0.5
 40
1.0
 40
1.0
 40
1.0
 40
1.0
 10
119.067429726538
 20
81.93540972007062
 30
0.0
 10
119.0571662672489
 20
82.13761714249092
 30
0.0
 10
119.0495874874521
 20
82.33950396659537
 30
0.0
 10
119.035174032003
 20
82.74488115374358
 30
0.0
 10
119.0283393563507
 20
82.94837151678736
 30
0.0
 10
119.0020136033503
 20
83.5646150176842
 30
0.0
 10
118.9923466519893
 20
83.96460654354799
 30
0.0
 10
118.9921988215442
 20
84.37064337304147
 30
0.0
  0
LWPOLYLINE
  5
126
330
1F
100
AcDbEntity
  8
0
  6
Continuous
 62
     7
370
    25
100
AcDbPolyline
 90
        9
 70
   128
 43
0.0
 10
117.4599050294
 20
79.7220608527
 10
117.4139810476
 20
79.7056358149
 10
117.3698223877
 20
79.6898419811
 10
117.3291254539
 20
79.6752861077
 10
117.2934539366
 20
79.6625281526
 10
117.2641796741
 20
79.6520577585
 10
117.2424263071
 20
79.6442774898
 10
117.2290310945
 20
79.6394865336
 10
117.2245081264
 20
79.6378688263
  0
LINE
  5
127
330
1F
100
AcDbEntity
  8
0
  6
Continuous
 62
     7
370
    25
100
AcDbLine
 10
117.2245081264
 20
79.6378688263
 30
0.0
 11
116.3366457198
 21
82.1202926762
 31
0.0
  0
SPLINE
  5
128
330
1F
100
AcDbEntity
  8
0
  6
Continuous
 62
     7
370
    25
100
AcDbSpline
210
0.0
220
0.0
230
1.0
 70
     8
 71
     3
 72
    10
 73
     6
 74
     0
 42
0.000000001
 43
0.00000001
 40
0.0
 40
0.0
 40
0.0
 40
0.0
 40
0.5
 40
0.5
 40
1.0
 40
1.0
 40
1.0
 40
1.0
 10
116.3366456372609
 20
82.1202926826704
 30
0.0
 10
116.3366456372609
 20
82.1202926826704
 30
0.0
 10
116.3616616846115
 20
82.13087534643132
 30
0.0
 10
116.4468879519107
 20
82.16638164565302
 30
0.0
 10
116.5075897717143
 20
82.19142478018394
 30
0.0
 10
116.5679035943159
 20
82.21605702401476
 30
0.0
  0
SPLINE
  5
129
330
1F
100
AcDbEntity
  8
0
  6
Continuous
 62
     7
370
    25
100
AcDbSpline
210
0.0
220
0.0
230
1.0
 70
     8
 71
     3
 72
    14
 73
    10
 74
     0
 42
0.000000001
 43
0.00000001
 40
0.0
 40
0.0
 40
0.0
 40
0.0
 40
0.25
 40
0.25
 40
0.5
 40
0.5
 40
0.75
 40
0.75
 40
1.0
 40
1.0
 40
1.0
 40
1.0
 10
116.3366456372609
 20
82.1202926826704
 30
0.0
 10
116.2987439555122
 20
82.19787591544407
 30
0.0
 10
116.2376348435203
 20
82.26246538075695
 30
0.0
 10
116.0917011609676
 20
82.34992008536075
 30
0.0
 10
116.006822540815
 20
82.3732998027221
 30
0.0
 10
115.8343463725333
 20
82.37347514939377
 30
0.0
 10
115.749689018127
 20
82.35059489687173
 30
0.0
 10
115.6017094764253
 20
82.26200444007375
 30
0.0
 10
115.5414382980529
 20
82.19786268315336
 30
0.0
 10
115.5035430806659
 20
82.12029268267064
 30
0.0
  0
SPLINE
  5
12A
330
1F
100
AcDbEntity
  8
0
  6
Continuous
 62
     7
370
    25
100
AcDbSpline
210
0.0
220
0.0
230
1.0
 70
     8
 71
     3
 72
    10
 73
     6
 74
     0
 42
0.000000001
 43
0.00000001
 40
0.0
 40
0.0
 40
0.0
 40
0.0
 40
0.5
 40
0.5
 40
1.0
 40
1.0
 40
1.0
 40
1.0
 10
115.5035430806657
 20
82.1202926826703
 30
0.0
 10
115.5035430806657
 20
82.1202926826703
 30
0.0
 10
115.4785270333149
 20
82.13087534643084
 30
0.0
 10
115.3933007660157
 20
82.16638164565249
 30
0.0
 10
115.3325989462121
 20
82.19142478018331
 30
0.0
 10
115.2722851236106
 20
82.2160570240142
 30
0.0
  0
LINE
  5
12B
330
1F
100
AcDbEntity
  8
0
  6
Continuous
 62
     7
370
    25
100
AcDbLine
 10
115.503542985
 20
82.1202926762
 30
0.0
 11
114.6158877976
 21
79.6384474104
 31
0.0
  0
LWPOLYLINE
  5
12C
330
1F
100
AcDbEntity
  8
0
  6
Continuous
 62
     7
370
    25
100
AcDbPolyline
 90
        9
 70
   128
 43
0.0
 10
114.3804907782
 20
79.722639204
 10
114.4264144107
 20
79.7062141663
 10
114.4705733034
 20
79.6904203324
 10
114.5112702373
 20
79.6758646919
 10
114.5469415217
 20
79.6631065039
 10
114.5762162499
 20
79.6526361099
 10
114.5979691513
 20
79.6448560739
 10
114.6113645967
 20
79.6400651178
 10
114.6158877976
 20
79.6384474104
  0
SPLINE
  5
12D
330
1F
100
AcDbEntity
  8
0
  6
Continuous
 62
     7
370
    25
100
AcDbSpline
210
0.0
220
0.0
230
1.0
 70
     8
 71
     3
 72
    14
 73
    10
 74
     0
 42
0.000000001
 43
0.00000001
 40
0.0
 40
0.0
 40
0.0
 40
0.0
 40
0.25
 40
0.25
 40
0.5
 40
0.5
 40
0.75
 40
0.75
 40
1.0
 40
1.0
 40
1.0
 40
1.0
 10
112.5654221262483
 20
88.43741732036031
 30
0.0
 10
112.363214703828
 20
88.44768077964945
 30
0.0
 10
112.1626248712977
 20
88.4623456700802
 30
0.0
 10
111.7646508913438
 20
88.49408104826371
 30
0.0
 10
111.5672667439202
 20
88.51115153601647
 30
0.0
 10
111.1756746395062
 20
88.54130084388275
 30
0.0
 10
110.9787964641073
 20
88.54713231403264
 30
0.0
 10
110.5864394036668
 20
88.54102619081108
 30
0.0
 10
110.3909605186251
 20
88.52908859743961
 30
0.0
 10
110.1979630471322
 20
88.50862512433005
 30
0.0
  0
SPLINE
  5
12E
330
1F
100
AcDbEntity
  8
0
  6
Continuous
 62
     7
370
    25
100
AcDbSpline
210
0.0
220
0.0
230
1.0
 70
     8
 71
     3
 72
     8
 73
     4
 74
     0
 42
0.000000001
 43
0.00000001
 40
0.0
 40
0.0
 40
0.0
 40
0.0
 40
1.0
 40
1.0
 40
1.0
 40
1.0
 10
110.1979630471322
 20
88.50862512433005
 30
0.0
 10
110.2117530684753
 20
88.55490571993451
 30
0.0
 10
110.2181092598125
 20
88.61995614873263
 30
0.0
 10
110.2139119731765
 20
88.68540972007062
 30
0.0
  0
SPLINE
  5
12F
330
1F
100
AcDbEntity
  8
0
  6
Continuous
 62
     7
370
    25
100
AcDbSpline
210
0.0
220
0.0
230
1.0
 70
    24
 71
     3
 72
    10
 73
     6
 74
     0
 42
0.000000001
 43
0.00000001
 40
0.0
 40
0.0
 40
0.0
 40
0.0
 40
0.5
 40
0.5
 40
1.0
 40
1.0
 40
1.0
 40
1.0
 10
112.5654221262483
 20
88.43741732036031
 30
0.0
 10
112.5654221262483
 20
88.47847115751685
 30
0.0
 10
112.5654221262483
 20
88.52194798789785
 30
0.0
 10
112.5654221262483
 20
88.61100668762221
 30
0.0
 10
112.5654221262483
 20
88.64311005714586
 30
0.0
 10
112.5654221262483
 20
88.68540972007062
 30
0.0
  0
SPLINE
  5
130
330
1F
100
AcDbEntity
  8
0
  6
Continuous
 62
     7
370
    25
100
AcDbSpline
210
0.0
220
0.0
230
1.0
 70
     8
 71
     3
 72
     8
 73
     4
 74
     0
 42
0.000000001
 43
0.00000001
 40
0.0
 40
0.0
 40
0.0
 40
0.0
 40
1.0
 40
1.0
 40
1.0
 40
1.0
 10
119.3154221262483
 20
79.58389956699877
 30
0.0
 10
119.2499685549103
 20
79.58809685363487
 30
0.0
 10
119.1849181261122
 20
79.58174066229762
 30
0.0
 10
119.1386375305077
 20
79.56795064095455
 30
0.0
  0
SPLINE
  5
131
330
1F
100
AcDbEntity
  8
0
  6
Continuous
 62
     7
370
    25
100
AcDbSpline
210
0.0
220
0.0
230
1.0
 70
     8
 71
     3
 72
    12
 73
     8
 74
     0
 42
0.000000001
 43
0.00000001
 40
0.0
 40
0.0
 40
0.0
 40
0.0
 40
0.25
 40
0.25
 40
0.5
 40
0.5
 40
1.0
 40
1.0
 40
1.0
 40
1.0
 10
119.067429726538
 20
81.93540972007062
 30
0.0
 10
119.0776931858271
 20
81.73320229765032
 30
0.0
 10
119.0923580762579
 20
81.53261246512004
 30
0.0
 10
119.1240934544414
 20
81.13463848516612
 30
0.0
 10
119.1411639421941
 20
80.93725433774249
 30
0.0
 10
119.1863879039936
 20
80.34986618112147
 30
0.0
 10
119.1795644767269
 20
79.95394558394025
 30
0.0
 10
119.1386375305077
 20
79.56795064095454
 30
0.0
  0
SPLINE
  5
132
330
1F
100
AcDbEntity
  8
0
  6
Continuous
 62
     7
370
    25
100
AcDbSpline
210
0.0
220
0.0
230
1.0
 70
    24
 71
     3
 72
    10
 73
     6
 74
     0
 42
0.000000001
 43
0.00000001
 40
0.0
 40
0.0
 40
0.0
 40
0.0
 40
0.5
 40
0.5
 40
1.0
 40
1.0
 40
1.0
 40
1.0
 10
119.067429726538
 20
81.93540972007062
 30
0.0
 10
119.1084835636945
 20
81.93540972007062
 30
0.0
 10
119.1519603940755
 20
81.93540972007062
 30
0.0
 10
119.2410190937999
 20
81.93540972007062
 30
0.0
 10
119.2731224633235
 20
81.93540972007062
 30
0.0
 10
119.3154221262483
 20
81.93540972007062
 30
0.0
  0
SPLINE
  5
133
330
1F
100
AcDbEntity
  8
0
  6
Continuous
 62
     7
370
    25
100
AcDbSpline
210
0.0
220
0.0
230
1.0
 70
     8
 71
     3
 72
    10
 73
     6
 74
     0
 42
0.000000001
 43
0.00000001
 40
0.0
 40
0.0
 40
0.0
 40
0.0
 40
0.5
 40
0.5
 40
1.0
 40
1.0
 40
1.0
 40
1.0
 10
114.9328812053644
 20
88.50862512433005
 30
0.0
 10
114.9250119729841
 20
88.53705238439733
 30
0.0
 10
114.9207451255992
 20
88.57127902256418
 30
0.0
 10
114.9168162892852
 20
88.63430106810175
 30
0.0
 10
114.9169322793202
 20
88.66288678739373
 30
0.0
 10
114.9169322793202
 20
88.68540972007062
 30
0.0
  0
SPLINE
  5
134
330
1F
100
AcDbEntity
  8
0
  6
Continuous
 62
     7
370
    25
100
AcDbSpline
210
0.0
220
0.0
230
1.0
 70
     8
 71
     3
 72
    14
 73
    10
 74
     0
 42
0.000000001
 43
0.00000001
 40
0.0
 40
0.0
 40
0.0
 40
0.0
 40
0.25
 40
0.25
 40
0.5
 40
0.5
 40
0.75
 40
0.75
 40
1.0
 40
1.0
 40
1.0
 40
1.0
 10
112.5654221262483
 20
88.43741732036031
 30
0.0
 10
112.7676295486686
 20
88.44768077964945
 30
0.0
 10
112.9682193811989
 20
88.4623456700802
 30
0.0
 10
113.3661933611528
 20
88.4940810482637
 30
0.0
 10
113.5635775085764
 20
88.51115153601647
 30
0.0
 10
113.9551696129904
 20
88.54130084388275
 30
0.0
 10
114.1520477883893
 20
88.54713231403264
 30
0.0
 10
114.5444048488298
 20
88.54102619081108
 30
0.0
 10
114.7398837338715
 20
88.52908859743961
 30
0.0
 10
114.9328812053644
 20
88.50862512433005
 30
0.0
  0
SPLINE
  5
135
330
1F
100
AcDbEntity
  8
0
  6
Continuous
 62
     7
370
    25
100
AcDbSpline
210
0.0
220
0.0
230
1.0
 70
     8
 71
     3
 72
    12
 73
     8
 74
     0
 42
0.000000001
 43
0.00000001
 40
0.0
 40
0.0
 40
0.0
 40
0.0
 40
0.25
 40
0.25
 40
0.5
 40
0.5
 40
1.0
 40
1.0
 40
1.0
 40
1.0
 10
119.067429726538
 20
81.93540972007062
 30
0.0
 10
119.0776931858271
 20
82.13761714249092
 30
0.0
 10
119.0923580762579
 20
82.3382069750212
 30
0.0
 10
119.1240934544414
 20
82.73618095497513
 30
0.0
 10
119.1411639421941
 20
82.93356510239876
 30
0.0
 10
119.1863879039936
 20
83.52095325901978
 30
0.0
 10
119.1795644767269
 20
83.91687385620101
 30
0.0
 10
119.1386375305077
 20
84.30286879918671
 30
0.0
  0
SPLINE
  5
136
330
1F
100
AcDbEntity
  8
0
  6
Continuous
 62
     7
370
    25
100
AcDbSpline
210
0.0
220
0.0
230
1.0
 70
     8
 71
     3
 72
    10
 73
     6
 74
     0
 42
0.000000001
 43
0.00000001
 40
0.0
 40
0.0
 40
0.0
 40
0.0
 40
0.5
 40
0.5
 40
1.0
 40
1.0
 40
1.0
 40
1.0
 10
119.1386375305077
 20
84.30286879918671
 30
0.0
 10
119.167064790575
 20
84.29499956680645
 30
0.0
 10
119.2012914287419
 20
84.29073271942153
 30
0.0
 10
119.2643134742794
 20
84.28680388310757
 30
0.0
 10
119.2928991935714
 20
84.28691987314248
 30
0.0
 10
119.3154221262483
 20
84.28691987314248
 30
0.0
  0
SPLINE
  5
137
330
1F
100
AcDbEntity
  8
0
  6
Continuous
 62
     7
370
    25
100
AcDbSpline
210
0.0
220
0.0
230
1.0
 70
     8
 71
     3
 72
    14
 73
    10
 74
     0
 42
0.000000001
 43
0.00000001
 40
0.0
 40
0.0
 40
0.0
 40
0.0
 40
0.0526822267945598
 40
0.1287456339724992
 40
0.2353187193853958
 40
0.3749156516620482
 40
0.5485969096886099
 40
0.7568720674016369
 40
0.9999999999999999
 40
0.9999999999999999
 40
0.9999999999999999
 40
0.9999999999999999
 10
110.1159323834651
 20
88.43540972007062
 30
0.0
 10
110.1194130681088
 20
88.43542052107841
 30
0.0
 10
110.1279192186337
 20
88.43544691674694
 30
0.0
 10
110.1384688775428
 20
88.43627382321331
 30
0.0
 10
110.1501124347964
 20
88.43897732360738
 30
0.0
 10
110.1623880286197
 20
88.44527776436433
 30
0.0
 10
110.1751353935949
 20
88.45745194333952
 30
0.0
 10
110.1878801875906
 20
88.47755623261958
 30
0.0
 10
110.1944334354746
 20
88.49774913008282
 30
0.0
 10
110.1979630471322
 20
88.50862512433005
 30
0.0
  0
SPLINE
  5
138
330
1F
100
AcDbEntity
  8
0
  6
Continuous
 62
     7
370
    25
100
AcDbSpline
210
0.0
220
0.0
230
1.0
 70
     8
 71
     3
 72
    12
 73
     8
 74
     0
 42
0.000000001
 43
0.00000001
 40
0.0
 40
0.0
 40
0.0
 40
0.0
 40
0.25
 40
0.25
 40
0.5
 40
0.5
 40
1.0
 40
1.0
 40
1.0
 40
1.0
 10
119.1386375305077
 20
84.30286879918671
 30
0.0
 10
119.1244239004741
 20
84.30680341537683
 30
0.0
 10
119.1117223767215
 20
84.3117009491984
 30
0.0
 10
119.0906549473791
 20
84.32308758296328
 30
0.0
 10
119.0822890417892
 20
84.3295766829066
 30
0.0
 10
119.0656618606646
 20
84.35092992820766
 30
0.0
 10
119.0654221262483
 20
84.36733088419639
 30
0.0
 10
119.0654221262483
 20
84.38489946285381
 30
0.0
  0
SPLINE
  5
139
330
1F
100
AcDbEntity
  8
0
  6
Continuous
 62
     7
370
    25
100
AcDbSpline
210
0.0
220
0.0
230
1.0
 70
     8
 71
     3
 72
    14
 73
    10
 74
     0
 42
0.000000001
 43
0.00000001
 40
0.0
 40
0.0
 40
0.0
 40
0.0
 40
0.243127932598341
 40
0.4514030903113563
 40
0.6250843483379128
 40
0.7646812806145595
 40
0.8712543660274661
 40
0.9473177732054238
 40
1.0
 40
1.0
 40
1.0
 40
1.0
 10
119.1386375305077
 20
79.56795064095455
 30
0.0
 10
119.1277615362605
 20
79.56442102929692
 30
0.0
 10
119.1075686387972
 20
79.5578677814129
 30
0.0
 10
119.0874643495172
 20
79.54512298741719
 30
0.0
 10
119.075290170542
 20
79.53237562244206
 30
0.0
 10
119.068989729785
 20
79.52010002861874
 30
0.0
 10
119.066286229391
 20
79.50845647136512
 30
0.0
 10
119.0654593229246
 20
79.49790681245604
 30
0.0
 10
119.0654329272561
 20
79.48940066193109
 30
0.0
 10
119.0654221262483
 20
79.48591997728745
 30
0.0
  0
SPLINE
  5
13A
330
1F
100
AcDbEntity
  8
0
  6
Continuous
 62
     7
370
    25
100
AcDbSpline
210
0.0
220
0.0
230
1.0
 70
     8
 71
     3
 72
    12
 73
     8
 74
     0
 42
0.000000001
 43
0.00000001
 40
0.0
 40
0.0
 40
0.0
 40
0.0
 40
0.25
 40
0.25
 40
0.5
 40
0.5
 40
1.0
 40
1.0
 40
1.0
 40
1.0
 10
114.9328812053644
 20
88.50862512433005
 30
0.0
 10
114.9368158215545
 20
88.49441149429641
 30
0.0
 10
114.9417133553761
 20
88.48170997054385
 30
0.0
 10
114.953099989141
 20
88.46064254120142
 30
0.0
 10
114.9595890890843
 20
88.45227663561155
 30
0.0
 10
114.9809423343853
 20
88.43564945448688
 30
0.0
 10
114.9973432903741
 20
88.43540972007062
 30
0.0
 10
115.0149118690315
 20
88.43540972007062
 30
0.0
  0
ARC
  5
13B
330
1F
100
AcDbEntity
  8
0
  6
Continuous
 62
     7
370
    25
100
AcDbCircle
 10
109.5654221262
 20
78.9354097201
 30
0.0
 40
2.0
100
AcDbArc
 50
180.0
 51
270.0
  0
LINE
  5
13C
330
1F
100
AcDbEntity
  8
0
  6
Continuous
 62
     7
370
    25
100
AcDbLine
 10
107.565422238
 20
78.935409694
 30
0.0
 11
107.815422279
 21
78.935409694
 31
0.0
  0
LINE
  5
13D
330
1F
100
AcDbEntity
  8
0
  6
Continuous
 62
     7
370
    25
100
AcDbLine
 10
109.5654221002
 20
77.1854098728
 30
0.0
 11
109.5654221002
 21
76.9354098318
 31
0.0
  0
LINE
  5
13E
330
1F
100
AcDbEntity
  8
0
  6
Continuous
 62
     7
370
    25
100
AcDbLine
 10
117.3154219735
 20
87.9354097722
 30
0.0
 11
117.5654220145
 21
87.9354097722
 31
0.0
  0
ARC
  5
13F
330
1F
100
AcDbEntity
  8
0
  6
Continuous
 62
     7
370
    25
100
AcDbCircle
 10
118.5654221262
 20
87.9354097201
 30
0.0
 40
1.0
100
AcDbArc
 50
180.0
 51
270.0
  0
LINE
  5
140
330
1F
100
AcDbEntity
  8
0
  6
Continuous
 62
     7
370
    25
100
AcDbLine
 10
118.5654221784
 20
86.9354096083
 30
0.0
 11
118.5654221784
 21
86.6854095673
 31
0.0
  0
LINE
  5
141
330
1F
100
AcDbEntity
  8
0
  6
Continuous
 62
     7
370
    25
100
AcDbLine
 10
117.9523446347
 20
79.4108046992
 30
0.0
 11
117.9229874845
 21
79.39402832
 31
0.0
  0
LWPOLYLINE
  5
142
330
1F
100
AcDbEntity
  8
0
  6
Continuous
 62
     7
370
    25
100
AcDbPolyline
 90
        9
 70
   128
 43
0.0
 10
117.9229874845
 20
79.39402832
 10
117.9206042301
 20
79.3981990153
 10
117.9135457363
 20
79.4105509138
 10
117.902083018
 20
79.4306092737
 10
117.8866570566
 20
79.4576031929
 10
117.8678606387
 20
79.4904954108
 10
117.8464155394
 20
79.5280218898
 10
117.8231464449
 20
79.568740244
 10
117.7989474248
 20
79.6110863174
  0
LWPOLYLINE
  5
143
330
1F
100
AcDbEntity
  8
0
  6
Continuous
 62
     7
370
    25
100
AcDbPolyline
 90
        9
 70
   128
 43
0.0
 10
117.9523446347
 20
79.4108046992
 10
117.964236227
 20
79.4231330818
 10
117.9994532589
 20
79.4596439535
 10
118.0566434499
 20
79.5189342769
 10
118.1336079474
 20
79.5987258041
 10
118.2273898024
 20
79.6959521556
 10
118.3343847964
 20
79.8068768652
 10
118.4504811402
 20
79.9272370367
 10
118.5712168675
 20
80.0524074892
  0
LINE
  5
144
330
1F
100
AcDbEntity
  8
0
  6
Continuous
 62
     7
370
    25
100
AcDbLine
 10
117.3154219735
 20
88.1854098132
 30
0.0
 11
117.5654220145
 21
88.1854098132
 31
0.0
  0
LINE
  5
145
330
1F
100
AcDbEntity
  8
0
  6
Continuous
 62
     7
370
    25
100
AcDbLine
 10
117.5654220145
 20
88.1854098132
 30
0.0
 11
117.5654220145
 21
87.9354097722
 31
0.0
  0
LINE
  5
146
330
1F
100
AcDbEntity
  8
0
  6
Continuous
 62
     7
370
    25
100
AcDbLine
 10
117.3910979863
 20
78.3408815349
 30
0.0
 11
117.9523446347
 21
79.4108046992
 31
0.0
  0
LWPOLYLINE
  5
147
330
1F
100
AcDbEntity
  8
0
  6
Continuous
 62
     7
370
    25
100
AcDbPolyline
 90
        9
 70
   128
 43
0.0
 10
117.3910979863
 20
78.3408815349
 10
117.3953518022
 20
78.338650086
 10
117.4079502683
 20
78.332041421
 10
117.4284086313
 20
78.3213095581
 10
117.4559413206
 20
78.3068668405
 10
117.489489888
 20
78.2892683363
 10
117.5277649175
 20
78.2691904185
 10
117.5692958507
 20
78.2474046881
 10
117.6124868665
 20
78.2247481709
  0
SPLINE
  5
148
330
1F
100
AcDbEntity
  8
0
  6
Continuous
 62
     7
370
    25
100
AcDbSpline
210
0.0
220
0.0
230
1.0
 70
     8
 71
     3
 72
    23
 73
    19
 74
     0
 42
0.000000001
 43
0.00000001
 40
0.0
 40
0.0
 40
0.0
 40
0.0
 40
0.0000069464595966
 40
0.0000069464595966
 40
0.0000069464595966
 40
0.0000269173558753
 40
0.0000269173558753
 40
0.0000269173558753
 40
0.0000477420212559
 40
0.0000477420212559
 40
0.0000477420212559
 40
0.0000689844307043
 40
0.0000689844307043
 40
0.0000689844307043
 40
0.0000900350769267
 40
0.0000900350769267
 40
0.0000900350769267
 40
0.0001105259114901
 40
0.0001105259114901
 40
0.0001105259114901
 40
0.0001105259114901
 10
114.4490907507555
 20
78.34088148605626
 30
0.0
 10
114.4501663715616
 20
78.33883099397815
 30
0.0
 10
114.4513717765215
 20
78.33684371040293
 30
0.0
 10
114.4526914140078
 20
78.33494107150246
 30
0.0
 10
114.4564367024902
 20
78.32954115551496
 30
0.0
 10
114.4611950110483
 20
78.32473722271995
 30
0.0
 10
114.4665283488534
 20
78.32089771932176
 30
0.0
 10
114.4720879189976
 20
78.3168953498411
 30
0.0
 10
114.4784298384429
 20
78.31382293323077
 30
0.0
 10
114.4850043161176
 20
78.31189834887212
 30
0.0
 10
114.4917102841495
 20
78.30993527259102
 30
0.0
 10
114.4988478766823
 20
78.30910844356953
 30
0.0
 10
114.5058257428843
 20
78.30947321609767
 30
0.0
 10
114.5127417067551
 20
78.3098347526409
 30
0.0
 10
114.5196927230883
 20
78.31137699782353
 30
0.0
 10
114.5261035767911
 20
78.31399658170953
 30
0.0
 10
114.5323446562485
 20
78.31654679295059
 30
0.0
 10
114.5382442105151
 20
78.3201906458691
 30
0.0
 10
114.5432864728803
 20
78.32466616152726
 30
0.0
  0
LWPOLYLINE
  5
149
330
1F
100
AcDbEntity
  8
0
  6
Continuous
 62
     7
370
    25
100
AcDbPolyline
 90
        9
 70
   128
 43
0.0
 10
114.5432865463
 20
78.3246662775
 10
114.546475162
 20
78.3210734679
 10
114.5559192385
 20
78.3104338059
 10
114.5712550945
 20
78.2931556767
 10
114.5918939013
 20
78.269903346
 10
114.6170424048
 20
78.241570185
 10
114.645734125
 20
78.2092453754
 10
114.676866376
 20
78.1741706031
 10
114.709242874
 20
78.1376941903
  0
LWPOLYLINE
  5
14A
330
1F
100
AcDbEntity
  8
0
  6
Continuous
 62
     7
370
    25
100
AcDbPolyline
 90
        9
 70
   128
 43
0.0
 10
114.4490907184
 20
78.3408815349
 10
114.4448367862
 20
78.338650086
 10
114.4322385529
 20
78.332041421
 10
114.411779957
 20
78.3213095581
 10
114.3842475006
 20
78.3068668405
 10
114.3506989332
 20
78.2892683363
 10
114.3124236708
 20
78.2691904185
 10
114.2708927376
 20
78.2474046881
 10
114.2277018383
 20
78.2247481709
  0
SPLINE
  5
14B
330
1F
100
AcDbEntity
  8
0
  6
Continuous
 62
     7
370
    25
100
AcDbSpline
210
0.0
220
0.0
230
1.0
 70
     8
 71
     3
 72
    14
 73
    10
 74
     0
 42
0.000000001
 43
0.00000001
 40
0.0
 40
0.0
 40
0.0
 40
0.0
 40
0.5000000000000003
 40
0.5000000000000003
 40
0.6250000000000006
 40
0.6250000000000006
 40
0.7500000000000008
 40
0.7500000000000008
 40
1.0
 40
1.0
 40
1.0
 40
1.0
 10
114.5432864728823
 20
78.324666161529
 30
0.0
 10
114.9214988185871
 20
78.66036770834253
 30
0.0
 10
115.4187005738447
 20
78.84105848880583
 30
0.0
 10
116.0453433431305
 20
78.84108201337283
 30
0.0
 10
116.1718657815998
 20
78.82977721283969
 30
0.0
 10
116.4175453102515
 20
78.78558955497944
 30
0.0
 10
116.5379657908553
 20
78.75277623753514
 30
0.0
 10
116.8916880710641
 20
78.62093137470106
 30
0.0
 10
117.1077775312389
 20
78.49253339189897
 30
0.0
 10
117.2969022450445
 20
78.32466616152891
 30
0.0
  0
LWPOLYLINE
  5
14C
330
1F
100
AcDbEntity
  8
0
  6
Continuous
 62
     7
370
    25
100
AcDbPolyline
 90
        9
 70
   128
 43
0.0
 10
117.2969021585
 20
78.3246662775
 10
117.29371331
 20
78.3210734679
 10
117.2842696991
 20
78.3104338059
 10
117.2689336102
 20
78.2931556767
 10
117.2482945706
 20
78.269903346
 10
117.2231460672
 20
78.241570185
 10
117.1944548126
 20
78.2092453754
 10
117.1633225616
 20
78.1741706031
 10
117.1309460636
 20
78.1376941903
  0
SPLINE
  5
14D
330
1F
100
AcDbEntity
  8
0
  6
Continuous
 62
     7
370
    25
100
AcDbSpline
210
0.0
220
0.0
230
1.0
 70
     8
 71
     3
 72
    23
 73
    19
 74
     0
 42
0.000000001
 43
0.00000001
 40
0.0
 40
0.0
 40
0.0
 40
0.0
 40
0.0000076769896581
 40
0.0000076769896581
 40
0.0000076769896581
 40
0.0000285420058146
 40
0.0000285420058146
 40
0.0000285420058146
 40
0.0000497754494318
 40
0.0000497754494318
 40
0.0000497754494318
 40
0.00007072706396
 40
0.00007072706396
 40
0.00007072706396
 40
0.0000909558732107
 40
0.0000909558732107
 40
0.0000909558732107
 40
0.0001104364738497
 40
0.0001104364738497
 40
0.0001104364738497
 40
0.0001104364738497
 10
117.2969022450445
 20
78.32466616152897
 30
0.0
 10
117.298816086602
 20
78.32296743440259
 30
0.0
 10
117.3008452754563
 20
78.32139075809413
 30
0.0
 10
117.3029625387353
 20
78.31995351783434
 30
0.0
 10
117.308645308525
 20
78.31609594111721
 30
0.0
 10
117.315085663541
 20
78.31319072017182
 30
0.0
 10
117.3217278755779
 20
78.31144263840386
 30
0.0
 10
117.328487133559
 20
78.30966375275919
 30
0.0
 10
117.3356463899891
 20
78.30903065237437
 30
0.0
 10
117.3426137437529
 20
78.30958561554505
 30
0.0
 10
117.3494901843973
 20
78.3101333373103
 30
0.0
 10
117.3563696091562
 20
78.31185365105055
 30
0.0
 10
117.3626838486308
 20
78.31463138662565
 30
0.0
 10
117.3687821495862
 20
78.31731412737058
 30
0.0
 10
117.3745172355938
 20
78.3210579675297
 30
0.0
 10
117.379394178922
 20
78.32559688768993
 30
0.0
 10
117.3840915290527
 20
78.3299686623391
 30
0.0
 10
117.3881170700642
 20
78.33519890175815
 30
0.0
 10
117.3910979671701
 20
78.34088148605385
 30
0.0
  0
ARC
  5
14E
330
1F
100
AcDbEntity
  8
0
  6
Continuous
 62
     7
370
    25
100
AcDbCircle
 10
117.3154221262
 20
88.1854097201
 30
0.0
 40
0.25
100
AcDbArc
 50
0.0
 51
90.0
  0
LINE
  5
14F
330
1F
100
AcDbEntity
  8
0
  6
Continuous
 62
     7
370
    25
100
AcDbLine
 10
107.565422238
 20
78.935409694
 30
0.0
 11
107.565422238
 21
88.1854098132
 31
0.0
  0
LINE
  5
150
330
1F
100
AcDbEntity
  8
0
  6
Continuous
 62
     7
370
    25
100
AcDbLine
 10
107.565422238
 20
88.1854098132
 30
0.0
 11
107.815422279
 21
88.1854098132
 31
0.0
  0
LINE
  5
151
330
1F
100
AcDbEntity
  8
0
  6
Continuous
 62
     7
370
    25
100
AcDbLine
 10
118.8154222194
 20
77.1854098728
 30
0.0
 11
118.8154222194
 21
76.9354098318
 31
0.0
  0
LINE
  5
152
330
1F
100
AcDbEntity
  8
0
  6
Continuous
 62
     7
370
    25
100
AcDbLine
 10
118.8154222194
 20
76.9354098318
 30
0.0
 11
109.5654221002
 21
76.9354098318
 31
0.0
  0
ARC
  5
153
330
1F
100
AcDbEntity
  8
0
  6
Continuous
 62
     7
370
    25
100
AcDbCircle
 10
107.8154221262
 20
88.1854097201
 30
0.0
 40
0.25
100
AcDbArc
 50
90.0
 51
180.0
  0
SPLINE
  5
154
330
1F
100
AcDbEntity
  8
0
  6
Continuous
 62
     7
370
    25
100
AcDbSpline
210
0.0
220
0.0
230
1.0
 70
     8
 71
     3
 72
    10
 73
     6
 74
     0
 42
0.000000001
 43
0.00000001
 40
0.0
 40
0.0
 40
0.0
 40
0.0
 40
0.5
 40
0.5
 40
1.0
 40
1.0
 40
1.0
 40
1.0
 10
117.9229875461973
 20
79.39402840491638
 30
0.0
 10
117.8003055612246
 20
79.32392051718054
 30
0.0
 10
117.6493169324422
 20
79.31052451920172
 30
0.0
 10
117.3838977567944
 20
79.40066955479534
 30
0.0
 10
117.2721359364326
 20
79.50470302440938
 30
0.0
 10
117.2245079363069
 20
79.63786881424483
 30
0.0
  0
LINE
  5
155
330
1F
100
AcDbEntity
  8
0
  6
Continuous
 62
     7
370
    25
100
AcDbLine
 10
115.6497610949
 20
79.7148305299
 30
0.0
 11
115.8638044011
 21
80.286084123
 31
0.0
  0
ELLIPSE
  5
156
330
1F
100
AcDbEntity
  8
0
  6
Continuous
 62
     7
370
    25
100
AcDbEllipse
 10
115.9200943604
 20
80.2669221121
 30
0.0
 11
0.05977206589648176
 21
0.0
 31
0.0
210
0.0
220
0.0
230
1.0
 40
0.9531667975
 41
0.3430239404214925
 42
2.798568713169086
  0
LINE
  5
157
330
1F
100
AcDbEntity
  8
0
  6
Continuous
 62
     7
370
    25
100
AcDbLine
 10
115.9763843037
 20
80.286084123
 30
0.0
 11
116.1904276099
 21
79.7148305299
 31
0.0
  0
LINE
  5
158
330
1F
100
AcDbEntity
  8
0
  6
Continuous
 62
     7
370
    25
100
AcDbLine
 10
116.134137775
 20
79.6386958407
 30
0.0
 11
115.7060509298
 21
79.6386958407
 31
0.0
  0
ELLIPSE
  5
159
330
1F
100
AcDbEntity
  8
0
  6
Continuous
 62
     7
370
    25
100
AcDbEllipse
 10
115.7060508847
 20
79.6956685394
 30
0.0
 11
-0.05977206589649597
 21
0.0
 31
0.0
210
0.0
220
0.0
230
1.0
 40
0.9531667975
 41
5.940161364898173
 42
7.853981633974483
  0
ELLIPSE
  5
15A
330
1F
100
AcDbEntity
  8
0
  6
Continuous
 62
     7
370
    25
100
AcDbEllipse
 10
116.1341378336
 20
79.6956685394
 30
0.0
 11
0.05977206589648176
 21
0.0
 31
0.0
210
0.0
220
0.0
230
1.0
 40
0.9531667975
 41
4.712388980384703
 42
6.626209245739569
  0
LWPOLYLINE
  5
15B
330
1F
100
AcDbEntity
  8
0
  6
Continuous
 62
     7
370
    25
100
AcDbPolyline
 90
        9
 70
   128
 43
0.0
 10
114.044732459
 20
79.6098227454
 10
114.0212178446
 20
79.5670929672
 10
113.9986068459
 20
79.5260053435
 10
113.9777685033
 20
79.488138699
 10
113.9595035214
 20
79.4549484579
 10
113.9445137681
 20
79.4277098337
 10
113.933375383
 20
79.4074698659
 10
113.926516425
 20
79.3950059759
 10
113.9242004586
 20
79.390797562
  0
LINE
  5
15C
330
1F
100
AcDbEntity
  8
0
  6
Continuous
 62
     7
370
    25
100
AcDbLine
 10
113.9242004586
 20
79.390797562
 30
0.0
 11
113.88784407
 21
79.4108046992
 31
0.0
  0
LWPOLYLINE
  5
15D
330
1F
100
AcDbEntity
  8
0
  6
Continuous
 62
     7
370
    25
100
AcDbPolyline
 90
        9
 70
   128
 43
0.0
 10
113.2805313549
 20
80.0303710001
 10
113.3990122338
 20
79.9094997654
 10
113.5129398766
 20
79.7932732692
 10
113.6179363105
 20
79.6861583674
 10
113.7099663477
 20
79.5922715059
 10
113.7854934653
 20
79.5152206281
 10
113.8416151965
 20
79.4579664087
 10
113.876174831
 20
79.4227095628
 10
113.88784407
 20
79.4108046992
  0
ARC
  5
15E
330
1F
100
AcDbEntity
  8
0
  6
Continuous
 62
     7
370
    25
100
AcDbCircle
 10
118.8154221262
 20
77.1854097201
 30
0.0
 40
0.25
100
AcDbArc
 50
270.0
 51
0.0
  0
LINE
  5
15F
330
1F
100
AcDbEntity
  8
0
  6
Continuous
 62
     7
370
    25
100
AcDbLine
 10
113.88784407
 20
79.4108046992
 30
0.0
 11
114.4490907184
 21
78.3408815349
 31
0.0
  0
LINE
  5
160
330
1F
100
AcDbEntity
  8
0
  6
Continuous
 62
     7
370
    25
100
AcDbLine
 10
118.8154222194
 20
86.9354096083
 30
0.0
 11
118.8154222194
 21
86.6854095673
 31
0.0
  0
ARC
  5
161
330
1F
100
AcDbEntity
  8
0
  6
Continuous
 62
     7
370
    25
100
AcDbCircle
 10
118.8154221262
 20
86.6854097201
 30
0.0
 40
0.25
100
AcDbArc
 50
0.0
 51
90.0
  0
LINE
  5
162
330
1F
100
AcDbEntity
  8
0
  6
Continuous
 62
     7
370
    25
100
AcDbLine
 10
118.5654221784
 20
86.9354096083
 30
0.0
 11
118.8154222194
 21
86.9354096083
 31
0.0
  0
SPLINE
  5
163
330
1F
100
AcDbEntity
  8
0
  6
Continuous
 62
     7
370
    25
100
AcDbSpline
210
0.0
220
0.0
230
1.0
 70
     8
 71
     3
 72
    10
 73
     6
 74
     0
 42
0.000000001
 43
0.00000001
 40
0.0
 40
0.0
 40
0.0
 40
0.0
 40
0.5
 40
0.5
 40
1.0
 40
1.0
 40
1.0
 40
1.0
 10
114.6158876860611
 20
79.63844730994835
 30
0.0
 10
114.5686529407398
 20
79.50638104321892
 30
0.0
 10
114.4579814203585
 20
79.40292902722634
 30
0.0
 10
114.1970218759913
 20
79.31197738368971
 30
0.0
 10
114.0469564709482
 20
79.32324350143577
 30
0.0
 10
113.9242004677597
 20
79.3907974934589
 30
0.0
  0
ARC
  5
164
330
1F
100
AcDbEntity
  8
0
  6
Continuous
 62
     7
370
    25
100
AcDbCircle
 10
119.2890224791
 20
77.1506728075
 30
0.0
 40
0.2262823933023975
100
AcDbArc
 50
83.3001813581
 51
171.1694920169
  0
ARC
  5
165
330
1F
100
AcDbEntity
  8
0
  6
Continuous
 62
     7
370
    25
100
AcDbCircle
 10
117.3501590388
 20
88.6590100729
 30
0.0
 40
0.2262823933024116
100
AcDbArc
 50
173.3001813581
 51
261.1694920169
  0
ARC
  5
166
330
1F
100
AcDbEntity
  8
0
  6
Continuous
 62
     7
370
    25
100
AcDbCircle
 10
119.2890224791
 20
86.7201466327
 30
0.0
 40
0.2262823933024017
100
AcDbArc
 50
188.8305079831
 51
276.6998186419
  0
ARC
  5
167
330
1F
100
AcDbEntity
  8
0
  6
Continuous
 62
     7
370
    25
100
AcDbCircle
 10
107.7806852137
 20
88.6590100729
 30
0.0
 40
0.226282393302416
100
AcDbArc
 50
278.8305079831
 51
6.6998186419
  0
LINE
  5
168
330
1F
100
AcDbEntity
  8
0
  6
Continuous
 62
     7
370
    25
100
AcDbLine
 10
117.5654220145
 20
88.1854098132
 30
0.0
 11
117.6054223191
 21
88.1854098132
 31
0.0
  0
LINE
  5
169
330
1F
100
AcDbEntity
  8
0
  6
Continuous
 62
     7
370
    25
100
AcDbLine
 10
118.8154222194
 20
76.8954095272
 30
0.0
 11
118.8154222194
 21
76.9354098318
 31
0.0
  0
LINE
  5
16A
330
1F
100
AcDbEntity
  8
0
  6
Continuous
 62
     7
370
    25
100
AcDbLine
 10
107.565422238
 20
88.1854098132
 30
0.0
 11
107.5254219334
 21
88.1854098132
 31
0.0
  0
LINE
  5
16B
330
1F
100
AcDbEntity
  8
0
  6
Continuous
 62
     7
370
    25
100
AcDbLine
 10
118.8154222194
 20
86.9754099129
 30
0.0
 11
118.8154222194
 21
86.9354096083
 31
0.0
  0
LWPOLYLINE
  5
16C
330
1F
100
AcDbEntity
  8
0
  6
Continuous
 62
     7
370
    25
100
AcDbPolyline
 90
        9
 70
   128
 43
0.0
 10
109.2222679157
 20
76.920678637
 10
109.227326627
 20
76.9299750989
 10
109.2323567003
 20
76.9380496657
 10
109.2373304285
 20
76.9448567024
 10
109.2422196392
 20
76.9503584905
 10
109.246997324
 20
76.9545238307
 10
109.2516364745
 20
76.9573294399
 10
109.2561110139
 20
76.9587599514
 10
109.2603962619
 20
76.9588069832
  0
SPLINE
  5
16D
330
1F
100
AcDbEntity
  8
0
  6
Continuous
 62
     7
370
    25
100
AcDbSpline
210
0.0
220
0.0
230
1.0
 70
     8
 71
     3
 72
    14
 73
    10
 74
     0
 42
0.000000001
 43
0.00000001
 40
0.0
 40
0.0
 40
0.0
 40
0.0
 40
0.2500000000000003
 40
0.2500000000000003
 40
0.5000000000000002
 40
0.5000000000000002
 40
0.7500000000000001
 40
0.7500000000000001
 40
1.0
 40
1.0
 40
1.0
 40
1.0
 10
109.2222680046185
 20
76.92067853762589
 30
0.0
 10
109.0142561149532
 20
76.95043243635143
 30
0.0
 10
108.8142970578757
 20
77.01178817589525
 30
0.0
 10
108.431743178477
 20
77.20154241707696
 30
0.0
 10
108.2594422116466
 20
77.32495906664766
 30
0.0
 10
107.9557705888832
 20
77.62843419091715
 30
0.0
 10
107.8319421580129
 20
77.80115153186907
 30
0.0
 10
107.6421467291099
 20
78.18338593486881
 30
0.0
 10
107.5804465241687
 20
78.38423195229896
 30
0.0
 10
107.5506909438036
 20
78.5922555984408
 30
0.0
  0
LWPOLYLINE
  5
16E
330
1F
100
AcDbEntity
  8
0
  6
Continuous
 62
     7
370
    25
100
AcDbPolyline
 90
        9
 70
   128
 43
0.0
 10
107.5888193894
 20
78.6303838557
 10
107.5887723576
 20
78.6260986077
 10
107.5873418461
 20
78.6216240684
 10
107.5845362369
 20
78.6169849178
 10
107.5803708967
 20
78.612207233
 10
107.5748691085
 20
78.6073180223
 10
107.5680620718
 20
78.6023442941
 10
107.5599875051
 20
78.5973142209
 10
107.5506910432
 20
78.5922555095
  0
LINE
  5
16F
330
1F
100
AcDbEntity
  8
0
  6
Continuous
 62
     7
370
    25
100
AcDbLine
 10
109.5654221002
 20
76.8954095272
 30
0.0
 11
109.5654221002
 21
76.9354098318
 31
0.0
  0
LINE
  5
170
330
1F
100
AcDbEntity
  8
0
  6
Continuous
 62
     7
370
    25
100
AcDbLine
 10
107.565422238
 20
78.935409694
 30
0.0
 11
107.5254219334
 21
78.935409694
 31
0.0
  0
SPLINE
  5
171
330
1F
100
AcDbEntity
  8
0
  6
Continuous
 62
     7
370
    25
100
AcDbSpline
210
0.0
220
0.0
230
1.0
 70
    24
 71
     3
 72
    10
 73
     6
 74
     0
 42
0.000000001
 43
0.00000001
 40
0.0
 40
0.0
 40
0.0
 40
0.0
 40
0.5
 40
0.5
 40
1.0
 40
1.0
 40
1.0
 40
1.0
 10
117.93515588911
 20
87.30514348293228
 30
0.0
 10
117.9098438680916
 20
87.27983146191396
 30
0.0
 10
117.8914978697711
 20
87.26148546359342
 30
0.0
 10
117.8653996335539
 20
87.23538722737628
 30
0.0
 10
117.8583153450625
 20
87.22830293888482
 30
0.0
 10
117.8583153450618
 20
87.22830293888407
 30
0.0
  0
LINE
  5
172
330
1F
100
AcDbEntity
  8
0
  6
Continuous
 62
     7
370
    25
100
AcDbLine
 10
117.5654220145
 20
87.9354097722
 30
0.0
 11
117.6054223191
 21
87.9354097722
 31
0.0
  0
LINE
  5
173
330
1F
100
AcDbEntity
  8
0
  6
Continuous
 62
     7
370
    25
100
AcDbLine
 10
118.5654221784
 20
86.9754099129
 30
0.0
 11
118.5654221784
 21
86.9354096083
 31
0.0
  0
LINE
  5
174
330
1F
100
AcDbEntity
  8
0
  6
Continuous
 62
     8
370
    25
100
AcDbLine
 10
162.1135973122
 20
78.5019605262
 30
0.0
 11
162.1135973122
 21
85.3688589139
 31
0.0
  0
LINE
  5
175
330
1F
100
AcDbEntity
  8
0
  6
Continuous
 62
     8
370
    25
100
AcDbLine
 10
136.519707435
 20
74.0854100166
 30
0.0
 11
136.519707435
 21
89.7854094235
 31
0.0
  0
LINE
  5
176
330
1F
100
AcDbEntity
  8
0
  6
Continuous
 62
     8
370
    25
100
AcDbLine
 10
124.1197070788
 20
81.9354097201
 30
0.0
 11
124.1197070788
 21
74.0854100166
 31
0.0
  0
LINE
  5
177
330
1F
100
AcDbEntity
  8
0
  6
Continuous
 62
     8
370
    25
100
AcDbLine
 10
124.1197070788
 20
89.7854094235
 30
0.0
 11
124.1197070788
 21
81.9354097201
 31
0.0
  0
LINE
  5
178
330
1F
100
AcDbEntity
  8
0
  6
Continuous
 62
     8
370
    25
100
AcDbLine
 10
122.0654218208
 20
75.9354096679
 30
0.0
 11
122.0654218208
 21
87.9354097722
 31
0.0
  0
LINE
  5
179
330
1F
100
AcDbEntity
  8
0
  6
Continuous
 62
     8
370
    25
100
AcDbLine
 10
118.5654221784
 20
91.4354094146
 30
0.0
 11
106.5654220741
 21
91.4354094146
 31
0.0
  0
LWPOLYLINE
  5
17A
330
1F
100
AcDbEntity
  8
0
  6
Continuous
 62
     8
370
    25
100
AcDbPolyline
 90
        8
 70
   128
 43
0.0
 10
106.5654220741
 20
77.9354095301
 10
106.58609371
 20
77.9491907759
 10
106.6479651939
 20
77.990438587
 10
106.7506113771
 20
78.058869143
 10
106.8933239888
 20
78.1540109618
 10
107.075120018
 20
78.2752081594
 10
107.2947468359
 20
78.4216260379
 10
107.5506910432
 20
78.5922555095
  0
LWPOLYLINE
  5
17B
330
1F
100
AcDbEntity
  8
0
  6
Continuous
 62
     8
370
    25
100
AcDbPolyline
 90
        8
 70
   128
 43
0.0
 10
109.2222679157
 20
76.920678637
 10
109.0516384441
 20
76.6647344297
 10
108.9052205655
 20
76.4451076118
 10
108.784023368
 20
76.2633115826
 10
108.6888815492
 20
76.1205989709
 10
108.6204509932
 20
76.0179527877
 10
108.5792031821
 20
75.9560813038
 10
108.5654219363
 20
75.9354096679
  0
LINE
  5
17C
330
1F
100
AcDbEntity
  8
0
  6
Continuous
 62
     7
370
     0
100
AcDbLine
 10
118.3149604301
 20
103.0701839975
 30
0.0
 11
118.6626096262
 21
91.9454097201
 31
0.0
  0
LINE
  5
17D
330
1F
100
AcDbEntity
  8
0
  6
Continuous
 62
     7
370
     0
100
AcDbLine
 10
106.8158838224
 20
103.0701839975
 30
0.0
 11
106.4682346262
 21
91.9454097201
 31
0.0
  0
LINE
  5
17E
330
1F
100
AcDbEntity
  8
0
  6
Continuous
 62
     7
370
     0
100
AcDbLine
 10
105.7997346262
 20
91.9454097201
 30
0.0
 11
119.3311096262
 21
91.9454097201
 31
0.0
  0
LINE
  5
17F
330
1F
100
AcDbEntity
  8
0
  6
CENTERX2
 62
     7
370
    18
100
AcDbLine
 10
102.9522437868
 20
81.9354097201
 30
0.0
 11
164.8197070446
 21
81.9354097201
 31
0.0
  0
LINE
  5
180
330
1F
100
AcDbEntity
  8
0
  6
CENTERX2
 62
     7
370
    18
100
AcDbLine
 10
112.5654221262
 20
101.8460498271
 30
0.0
 11
112.5654221262
 21
73.1229077222
 31
0.0
  0
LINE
  5
181
330
1F
100
AcDbEntity
  8
0
  6
CENTERX2
 62
     7
370
    18
100
AcDbLine
 10
112.5654221262
 20
101.8460498271
 30
0.0
 11
112.5654221262
 21
105.9354097201
 31
0.0
  0
LINE
  5
182
330
1F
100
AcDbEntity
  8
0
  6
Continuous
 62
     7
370
    25
100
AcDbLine
 10
201.8335946549
 20
91.9356656103
 30
0.0
 11
201.5238954399
 21
101.8460507346
 31
0.0
  0
LINE
  5
183
330
1F
100
AcDbEntity
  8
0
  6
Continuous
 62
     7
370
    25
100
AcDbLine
 10
188.6113100399
 20
101.8460507346
 30
0.0
 11
188.3016108249
 21
91.9356656103
 31
0.0
  0
ARC
  5
184
330
1F
100
AcDbEntity
  8
0
  6
Continuous
 62
     7
370
    25
100
AcDbCircle
 10
188.3176027399
 20
92.4354097201
 30
0.0
 40
0.5
100
AcDbArc
 50
268.1671385201
 51
270.0
  0
ARC
  5
185
330
1F
100
AcDbEntity
  8
0
  6
Continuous
 62
     7
370
    25
100
AcDbCircle
 10
201.8176027399
 20
92.4354097201
 30
0.0
 40
0.5
100
AcDbArc
 50
270.0
 51
271.8328614799
  0
ARC
  5
186
330
1F
100
AcDbEntity
  8
0
  6
Continuous
 62
     7
370
    25
100
AcDbCircle
 10
188.5676027399
 20
91.4354097201
 30
0.0
 40
0.5
100
AcDbArc
 50
0.0
 51
90.0
  0
ARC
  5
187
330
1F
100
AcDbEntity
  8
0
  6
Continuous
 62
     7
370
    25
100
AcDbCircle
 10
201.5676027399
 20
91.4354097201
 30
0.0
 40
0.5
100
AcDbArc
 50
90.0
 51
180.0
  0
LINE
  5
188
330
1F
100
AcDbEntity
  8
0
  6
Continuous
 62
     7
370
    25
100
AcDbLine
 10
201.5238954399
 20
101.8460507346
 30
0.0
 11
200.3176026691
 21
103.9354096009
 31
0.0
  0
LINE
  5
189
330
1F
100
AcDbEntity
  8
0
  6
Continuous
 62
     7
370
    25
100
AcDbLine
 10
189.8176028107
 20
103.9354096009
 30
0.0
 11
188.6113100399
 21
101.8460507346
 31
0.0
  0
LINE
  5
18A
330
1F
100
AcDbEntity
  8
0
  6
Continuous
 62
     7
370
    25
100
AcDbLine
 10
201.067602792
 20
88.6854098952
 30
0.0
 11
201.067602792
 21
91.4354094146
 31
0.0
  0
LINE
  5
18B
330
1F
100
AcDbEntity
  8
0
  6
Continuous
 62
     7
370
    25
100
AcDbLine
 10
189.0676026877
 20
91.4354094146
 30
0.0
 11
189.0676026877
 21
88.6854098952
 31
0.0
  0
CIRCLE
  5
18C
330
1F
100
AcDbEntity
  8
0
  6
Continuous
 62
     7
370
    25
100
AcDbCircle
 10
195.0676027399
 20
81.9354097201
 30
0.0
 40
3.433449123032062
  0
CIRCLE
  5
18D
330
1F
100
AcDbEntity
  8
0
  6
Continuous
 62
     7
370
    25
100
AcDbCircle
 10
195.0676027399
 20
81.9354097201
 30
0.0
 40
2.638978050180583
  0
CIRCLE
  5
18E
330
1F
100
AcDbEntity
  8
0
  6
Continuous
 62
     7
370
    25
100
AcDbCircle
 10
195.0676027399
 20
81.9354097201
 30
0.0
 40
2.450000000000017
  0
CIRCLE
  5
18F
330
1F
100
AcDbEntity
  8
0
  6
Continuous
 62
     7
370
    25
100
AcDbCircle
 10
195.0676027399
 20
81.9354097201
 30
0.0
 40
2.25
  0
CIRCLE
  5
190
330
1F
100
AcDbEntity
  8
0
  6
Continuous
 62
     7
370
    25
100
AcDbCircle
 10
195.0676027399
 20
81.9354097201
 30
0.0
 40
4.0
  0
CIRCLE
  5
191
330
1F
100
AcDbEntity
  8
0
  6
Continuous
 62
     7
370
    25
100
AcDbCircle
 10
195.0676027399
 20
81.9354097201
 30
0.0
 40
4.499999999999972
  0
CIRCLE
  5
192
330
1F
100
AcDbEntity
  8
0
  6
Continuous
 62
     7
370
    25
100
AcDbCircle
 10
195.0676027399
 20
81.9354097201
 30
0.0
 40
4.849999999999966
  0
CIRCLE
  5
193
330
1F
100
AcDbEntity
  8
0
  6
Continuous
 62
     7
370
    25
100
AcDbCircle
 10
195.0676027399
 20
81.9354097201
 30
0.0
 40
7.550000000000011
  0
CIRCLE
  5
194
330
1F
100
AcDbEntity
  8
0
  6
Continuous
 62
     7
370
    25
100
AcDbCircle
 10
195.0676027399
 20
81.9354097201
 30
0.0
 40
4.749999999999972
  0
CIRCLE
  5
195
330
1F
100
AcDbEntity
  8
0
  6
Continuous
 62
     7
370
    25
100
AcDbCircle
 10
195.0676027399
 20
81.9354097201
 30
0.0
 40
7.849999999999994
  0
SPLINE
  5
196
330
1F
100
AcDbEntity
  8
0
  6
Continuous
 62
     7
370
    25
100
AcDbSpline
210
0.0
220
0.0
230
1.0
 70
     8
 71
     3
 72
    15
 73
    11
 74
     0
 42
0.000000001
 43
0.00000001
 40
0.0
 40
0.0
 40
0.0
 40
0.0
 40
0.1323049836088744
 40
0.2645725542962953
 40
0.3997989460670495
 40
0.5350009961647513
 40
0.6501921448046264
 40
0.7654012094574273
 40
0.8826892612248055
 40
1.0
 40
1.0
 40
1.0
 40
1.0
 10
187.0676023599115
 20
86.5542118279412
 30
0.0
 10
187.4132336281738
 20
86.75376219870299
 30
0.0
 10
188.1043984278245
 20
87.15280651179775
 30
0.0
 10
189.1687302745983
 20
87.76729795343192
 30
0.0
 10
190.2531253340617
 20
88.39337434655322
 30
0.0
 10
191.2982409935109
 20
88.99677177616479
 30
0.0
 10
192.2868956228878
 20
89.56757247191759
 30
0.0
 10
193.2199447039756
 20
90.10626753497348
 30
0.0
 10
194.1487745916577
 20
90.64252784665213
 30
0.0
 10
194.7613069453849
 20
90.99617383958044
 30
0.0
 10
195.0676027398912
 20
91.17301393581178
 30
0.0
  0
SPLINE
  5
197
330
1F
100
AcDbEntity
  8
0
  6
Continuous
 62
     7
370
    25
100
AcDbSpline
210
0.0
220
0.0
230
1.0
 70
     8
 71
     3
 72
    15
 73
    11
 74
     0
 42
0.000000001
 43
0.00000001
 40
0.0
 40
0.0
 40
0.0
 40
0.0
 40
0.1323049282587865
 40
0.2645725126911059
 40
0.3997989257496958
 40
0.5350009327659058
 40
0.6501920780127179
 40
0.7654011811473762
 40
0.8826892697167907
 40
1.0
 40
1.0
 40
1.0
 40
1.0
 10
195.0676027398912
 20
91.17301393581178
 30
0.0
 10
195.4132339293999
 20
90.97346379075125
 30
0.0
 10
196.1043987520276
 20
90.57441982480562
 30
0.0
 10
197.1687300744563
 20
89.95992755865603
 30
0.0
 10
198.2531254446008
 20
89.33385175583027
 30
0.0
 10
199.2982405715608
 20
88.73045355981081
 30
0.0
 10
200.286895915541
 20
88.15965415384245
 30
0.0
 10
201.2199442879587
 20
87.6209574078616
 30
0.0
 10
202.1487746994207
 20
87.0846975458569
 30
0.0
 10
202.7613072740415
 20
86.73105177765648
 30
0.0
 10
203.0676031198708
 20
86.5542118279412
 30
0.0
  0
SPLINE
  5
198
330
1F
100
AcDbEntity
  8
0
  6
Continuous
 62
     7
370
    25
100
AcDbSpline
210
0.0
220
0.0
230
1.0
 70
    24
 71
     3
 72
    16
 73
    12
 74
     0
 42
0.000000001
 43
0.00000001
 40
0.0
 40
0.0
 40
0.0
 40
0.0
 40
0.0956237048719251
 40
0.1912377572329386
 40
0.2877937386129499
 40
0.384338844905961
 40
0.5102676226299211
 40
0.6361984342829863
 40
0.7654843057556924
 40
0.8948065565616085
 40
1.0
 40
1.0
 40
1.0
 40
1.0
 10
203.0676031198708
 20
86.5542118279412
 30
0.0
 10
203.0676031198708
 20
86.26612380136571
 30
0.0
 10
203.0676031198708
 20
85.6899768285858
 30
0.0
 10
203.0676031198708
 20
84.8109286317368
 30
0.0
 10
203.0676031198707
 20
83.92070716831448
 30
0.0
 10
203.0676031198708
 20
82.92881552706802
 30
0.0
 10
203.0676031198707
 20
81.83912590517005
 30
0.0
 10
203.0676031198708
 20
80.64770735567718
 30
0.0
 10
203.0676031198708
 20
79.45531179623883
 30
0.0
 10
203.0676031198708
 20
78.34041259937187
 30
0.0
 10
203.0676031198708
 20
77.63363638788931
 30
0.0
 10
203.0676031198708
 20
77.31660761220004
 30
0.0
  0
SPLINE
  5
199
330
1F
100
AcDbEntity
  8
0
  6
Continuous
 62
     7
370
    25
100
AcDbSpline
210
0.0
220
0.0
230
1.0
 70
     8
 71
     3
 72
    15
 73
    11
 74
     0
 42
0.000000001
 43
0.00000001
 40
0.0
 40
0.0
 40
0.0
 40
0.0
 40
0.1323049836088737
 40
0.2645725542962938
 40
0.3997989460670472
 40
0.5350009961647483
 40
0.6501921448046227
 40
0.765401209457423
 40
0.8826892612248005
 40
1.0
 40
1.0
 40
1.0
 40
1.0
 10
203.0676031198708
 20
77.31660761220004
 30
0.0
 10
202.7219718516085
 20
77.11705724143827
 30
0.0
 10
202.0308070519577
 20
76.71801292834351
 30
0.0
 10
200.9664752051839
 20
76.10352148670933
 30
0.0
 10
199.8820801457206
 20
75.47744509358805
 30
0.0
 10
198.8369644862714
 20
74.87404766397647
 30
0.0
 10
197.8483098568945
 20
74.30324696822368
 30
0.0
 10
196.9152607758066
 20
73.76455190516778
 30
0.0
 10
195.9864308881245
 20
73.22829159348912
 30
0.0
 10
195.3738985343973
 20
72.87464560056081
 30
0.0
 10
195.0676027398911
 20
72.69780550432947
 30
0.0
  0
SPLINE
  5
19A
330
1F
100
AcDbEntity
  8
0
  6
Continuous
 62
     7
370
    25
100
AcDbSpline
210
0.0
220
0.0
230
1.0
 70
     8
 71
     3
 72
    15
 73
    11
 74
     0
 42
0.000000001
 43
0.00000001
 40
0.0
 40
0.0
 40
0.0
 40
0.0
 40
0.1323049282587815
 40
0.2645725126911017
 40
0.3997989257496923
 40
0.5350009327659031
 40
0.650192078012716
 40
0.7654011811473749
 40
0.8826892697167901
 40
1.0
 40
1.0
 40
1.0
 40
1.0
 10
195.0676027398911
 20
72.69780550432947
 30
0.0
 10
194.7219715503823
 20
72.89735564939
 30
0.0
 10
194.0308067277547
 20
73.29639961533566
 30
0.0
 10
192.966475405326
 20
73.91089188148523
 30
0.0
 10
191.8820800351815
 20
74.536967684311
 30
0.0
 10
190.8369649082215
 20
75.14036588033044
 30
0.0
 10
189.8483095642413
 20
75.7111652862988
 30
0.0
 10
188.9152611918236
 20
76.24986203227965
 30
0.0
 10
187.9864307803616
 20
76.78612189428435
 30
0.0
 10
187.3738982057408
 20
77.13976766248479
 30
0.0
 10
187.0676023599115
 20
77.31660761220004
 30
0.0
  0
SPLINE
  5
19B
330
1F
100
AcDbEntity
  8
0
  6
Continuous
 62
     7
370
    25
100
AcDbSpline
210
0.0
220
0.0
230
1.0
 70
    24
 71
     3
 72
    16
 73
    12
 74
     0
 42
0.000000001
 43
0.00000001
 40
0.0
 40
0.0
 40
0.0
 40
0.0
 40
0.1051935697998784
 40
0.2312919055104034
 40
0.3573572604453449
 40
0.4865103305331645
 40
0.6156604549436534
 40
0.7112032446126787
 40
0.8067564405381822
 40
0.9033731847371418
 40
1.0
 40
1.0
 40
1.0
 40
1.0
 10
187.0676023599115
 20
77.31660761220004
 30
0.0
 10
187.0676023599115
 20
77.63363542066907
 30
0.0
 10
187.0676023599115
 20
78.33069291249183
 30
0.0
 10
187.0676023599115
 20
79.4256104610517
 30
0.0
 10
187.0676023599115
 20
80.60747396545709
 30
0.0
 10
187.0676023599115
 20
81.80884368860103
 30
0.0
 10
187.0676023599115
 20
82.91566958912337
 30
0.0
 10
187.0676023599115
 20
83.91136047385592
 30
0.0
 10
187.0676023599115
 20
84.79861257993286
 30
0.0
 10
187.0676023599115
 20
85.68088310981031
 30
0.0
 10
187.0676023599115
 20
86.26309214111313
 30
0.0
 10
187.0676023599115
 20
86.5542118279412
 30
0.0
  0
LINE
  5
19C
330
1F
100
AcDbEntity
  8
0
  6
Continuous
 62
     7
370
    25
100
AcDbLine
 10
201.5238954399
 20
101.8460507346
 30
0.0
 11
188.6113100399
 21
101.8460507346
 31
0.0
  0
LINE
  5
19D
330
1F
100
AcDbEntity
  8
0
  6
Continuous
 62
     7
370
    25
100
AcDbLine
 10
195.0676027399
 20
91.9356656103
 30
0.0
 11
188.3016108249
 21
91.9356656103
 31
0.0
  0
LINE
  5
19E
330
1F
100
AcDbEntity
  8
0
  6
Continuous
 62
     7
370
    25
100
AcDbLine
 10
201.8335946549
 20
91.9356656103
 30
0.0
 11
195.0676027399
 21
91.9356656103
 31
0.0
  0
LINE
  5
19F
330
1F
100
AcDbEntity
  8
0
  6
Continuous
 62
     7
370
    25
100
AcDbLine
 10
195.0676027399
 20
91.9354094966
 30
0.0
 11
188.3176025648
 21
91.9354094966
 31
0.0
  0
LINE
  5
1A0
330
1F
100
AcDbEntity
  8
0
  6
Continuous
 62
     7
370
    25
100
AcDbLine
 10
201.817602915
 20
91.9354094966
 30
0.0
 11
195.0676027399
 21
91.9354094966
 31
0.0
  0
LINE
  5
1A1
330
1F
100
AcDbEntity
  8
0
  6
Continuous
 62
     7
370
    25
100
AcDbLine
 10
195.0676027399
 20
103.9354096009
 30
0.0
 11
200.3176026691
 21
103.9354096009
 31
0.0
  0
LINE
  5
1A2
330
1F
100
AcDbEntity
  8
0
  6
Continuous
 62
     7
370
    25
100
AcDbLine
 10
189.8176028107
 20
103.9354096009
 30
0.0
 11
195.0676027399
 21
103.9354096009
 31
0.0
  0
LINE
  5
1A3
330
1F
100
AcDbEntity
  8
0
  6
Continuous
 62
     7
370
    25
100
AcDbLine
 10
189.0676026877
 20
87.9354097722
 30
0.0
 11
189.3176027287
 21
87.9354097722
 31
0.0
  0
LINE
  5
1A4
330
1F
100
AcDbEntity
  8
0
  6
Continuous
 62
     7
370
    25
100
AcDbLine
 10
189.0676026877
 20
87.7042885712
 30
0.0
 11
189.0676026877
 21
87.9354097722
 31
0.0
  0
LINE
  5
1A5
330
1F
100
AcDbEntity
  8
0
  6
Continuous
 62
     7
370
    25
100
AcDbLine
 10
201.067602792
 20
87.9354097722
 30
0.0
 11
200.8176027511
 21
87.9354097722
 31
0.0
  0
LINE
  5
1A6
330
1F
100
AcDbEntity
  8
0
  6
Continuous
 62
     7
370
    25
100
AcDbLine
 10
201.067602792
 20
87.9354097722
 30
0.0
 11
201.067602792
 21
87.7046108088
 31
0.0
  0
SPLINE
  5
1A7
330
1F
100
AcDbEntity
  8
0
  6
Continuous
 62
     7
370
    25
100
AcDbSpline
210
0.0
220
0.0
230
1.0
 70
    24
 71
     3
 72
    14
 73
    10
 74
     0
 42
0.000000001
 43
0.00000001
 40
0.0
 40
0.0
 40
0.0
 40
0.0
 40
0.25
 40
0.25
 40
0.5
 40
0.5
 40
0.75
 40
0.75
 40
1.0
 40
1.0
 40
1.0
 40
1.0
 10
189.0676027398912
 20
88.68540972007062
 30
0.0
 10
189.0676027398912
 20
88.68540972007062
 30
0.0
 10
189.0774476536287
 20
88.68540972007062
 30
0.0
 10
189.1169397599378
 20
88.68540972007062
 30
0.0
 10
189.1465873991131
 20
88.68540972007062
 30
0.0
 10
189.2260165363167
 20
88.68540972007062
 30
0.0
 10
189.275798960386
 20
88.68540972007062
 30
0.0
 10
189.3960279467206
 20
88.68540972007062
 30
0.0
 10
189.4664759793278
 20
88.68540972007062
 30
0.0
 10
189.5476027398911
 20
88.68540972007062
 30
0.0
  0
SPLINE
  5
1A8
330
1F
100
AcDbEntity
  8
0
  6
Continuous
 62
     7
370
    25
100
AcDbSpline
210
0.0
220
0.0
230
1.0
 70
    24
 71
     3
 72
    14
 73
    10
 74
     0
 42
0.000000001
 43
0.00000001
 40
0.0
 40
0.0
 40
0.0
 40
0.0
 40
0.25
 40
0.25
 40
0.5
 40
0.5
 40
0.75
 40
0.75
 40
1.0
 40
1.0
 40
1.0
 40
1.0
 10
201.0676027398911
 20
88.68540972007062
 30
0.0
 10
201.0676027398911
 20
88.68540972007062
 30
0.0
 10
201.0577578261536
 20
88.68540972007062
 30
0.0
 10
201.0182657198445
 20
88.68540972007062
 30
0.0
 10
200.9886180806692
 20
88.68540972007062
 30
0.0
 10
200.9091889434656
 20
88.68540972007062
 30
0.0
 10
200.8594065193963
 20
88.68540972007062
 30
0.0
 10
200.7391775330617
 20
88.68540972007062
 30
0.0
 10
200.6687295004545
 20
88.68540972007062
 30
0.0
 10
200.5876027398911
 20
88.68540972007062
 30
0.0
  0
SPLINE
  5
1A9
330
1F
100
AcDbEntity
  8
0
  6
Continuous
 62
     7
370
    25
100
AcDbSpline
210
0.0
220
0.0
230
1.0
 70
     8
 71
     3
 72
    10
 73
     6
 74
     0
 42
0.000000001
 43
0.00000001
 40
0.0
 40
0.0
 40
0.0
 40
0.0
 40
0.5
 40
0.5
 40
1.0
 40
1.0
 40
1.0
 40
1.0
 10
200.6603904869967
 20
88.50862512433005
 30
0.0
 10
200.6328495401747
 20
88.53705238439733
 30
0.0
 10
200.6132364062851
 20
88.57127902256418
 30
0.0
 10
200.5909275329967
 20
88.63430106810175
 30
0.0
 10
200.5876027398911
 20
88.66288678739373
 30
0.0
 10
200.5876027398911
 20
88.68540972007062
 30
0.0
  0
SPLINE
  5
1AA
330
1F
100
AcDbEntity
  8
0
  6
Continuous
 62
     7
370
    25
100
AcDbSpline
210
0.0
220
0.0
230
1.0
 70
     8
 71
     3
 72
    12
 73
     8
 74
     0
 42
0.000000001
 43
0.00000001
 40
0.0
 40
0.0
 40
0.0
 40
0.0
 40
0.25
 40
0.25
 40
0.5
 40
0.5
 40
1.0
 40
1.0
 40
1.0
 40
1.0
 10
200.6603904869967
 20
88.50862512433005
 30
0.0
 10
200.6741609604078
 20
88.49441149429641
 30
0.0
 10
200.690224980259
 20
88.48170997054385
 30
0.0
 10
200.7236162844544
 20
88.46064254120141
 30
0.0
 10
200.7409435687985
 20
88.45227663561155
 30
0.0
 10
200.7898345759887
 20
88.43564945448688
 30
0.0
 10
200.8176027398911
 20
88.43540972007062
 30
0.0
 10
200.8176027398911
 20
88.43540972007062
 30
0.0
  0
LINE
  5
1AB
330
1F
100
AcDbEntity
  8
0
  6
Continuous
 62
     7
370
    25
100
AcDbLine
 10
189.3176027287
 20
88.1854098132
 30
0.0
 11
189.3176027287
 21
87.9354097722
 31
0.0
  0
LINE
  5
1AC
330
1F
100
AcDbEntity
  8
0
  6
Continuous
 62
     7
370
    25
100
AcDbLine
 10
189.3176027287
 20
88.4354098542
 30
0.0
 11
190.3259331074
 21
88.4354098542
 31
0.0
  0
LINE
  5
1AD
330
1F
100
AcDbEntity
  8
0
  6
Continuous
 62
     7
370
    25
100
AcDbLine
 10
189.3176027287
 20
88.1854098132
 30
0.0
 11
189.3176027287
 21
88.4354098542
 31
0.0
  0
LINE
  5
1AE
330
1F
100
AcDbEntity
  8
0
  6
Continuous
 62
     7
370
    25
100
AcDbLine
 10
189.0676026877
 20
88.1854098132
 30
0.0
 11
189.3176027287
 21
88.1854098132
 31
0.0
  0
LINE
  5
1AF
330
1F
100
AcDbEntity
  8
0
  6
Continuous
 62
     7
370
    25
100
AcDbLine
 10
189.0676026877
 20
87.9354097722
 30
0.0
 11
189.0676026877
 21
88.1854098132
 31
0.0
  0
ARC
  5
1B0
330
1F
100
AcDbEntity
  8
0
  6
Continuous
 62
     7
370
    25
100
AcDbCircle
 10
189.3176027399
 20
88.1854097201
 30
0.0
 40
0.25
100
AcDbArc
 50
90.0
 51
180.0
  0
LINE
  5
1B1
330
1F
100
AcDbEntity
  8
0
  6
Continuous
 62
     7
370
    25
100
AcDbLine
 10
200.8176027511
 20
87.9354097722
 30
0.0
 11
200.8176027511
 21
88.4354098542
 31
0.0
  0
LINE
  5
1B2
330
1F
100
AcDbEntity
  8
0
  6
Continuous
 62
     7
370
    25
100
AcDbLine
 10
199.8092723724
 20
88.4354098542
 30
0.0
 11
200.8176027511
 21
88.4354098542
 31
0.0
  0
ARC
  5
1B3
330
1F
100
AcDbEntity
  8
0
  6
Continuous
 62
     7
370
    25
100
AcDbCircle
 10
200.8176027399
 20
88.1854097201
 30
0.0
 40
0.25
100
AcDbArc
 50
0.0
 51
90.0
  0
LINE
  5
1B4
330
1F
100
AcDbEntity
  8
0
  6
Continuous
 62
     7
370
    25
100
AcDbLine
 10
201.067602792
 20
88.1854098132
 30
0.0
 11
201.067602792
 21
87.9354097722
 31
0.0
  0
SPLINE
  5
1B5
330
1F
100
AcDbEntity
  8
0
  6
Continuous
 62
     7
370
    25
100
AcDbSpline
210
0.0
220
0.0
230
1.0
 70
     8
 71
     3
 72
    12
 73
     8
 74
     0
 42
0.000000001
 43
0.00000001
 40
0.0
 40
0.0
 40
0.0
 40
0.0
 40
0.25
 40
0.25
 40
0.5
 40
0.5
 40
1.0
 40
1.0
 40
1.0
 40
1.0
 10
189.4748149927856
 20
88.50862512433005
 30
0.0
 10
189.4610445193745
 20
88.49441149429641
 30
0.0
 10
189.4449804995233
 20
88.48170997054385
 30
0.0
 10
189.4115891953279
 20
88.46064254120142
 30
0.0
 10
189.3942619109838
 20
88.45227663561155
 30
0.0
 10
189.3453709037935
 20
88.43564945448688
 30
0.0
 10
189.3176027398912
 20
88.43540972007062
 30
0.0
 10
189.3176027398912
 20
88.43540972007062
 30
0.0
  0
SPLINE
  5
1B6
330
1F
100
AcDbEntity
  8
0
  6
Continuous
 62
     7
370
    25
100
AcDbSpline
210
0.0
220
0.0
230
1.0
 70
     8
 71
     3
 72
    10
 73
     6
 74
     0
 42
0.000000001
 43
0.00000001
 40
0.0
 40
0.0
 40
0.0
 40
0.0
 40
0.5
 40
0.5
 40
1.0
 40
1.0
 40
1.0
 40
1.0
 10
189.4748149927856
 20
88.50862512433005
 30
0.0
 10
189.5023559396076
 20
88.53705238439733
 30
0.0
 10
189.5219690734972
 20
88.57127902256418
 30
0.0
 10
189.5442779467855
 20
88.63430106810175
 30
0.0
 10
189.5476027398911
 20
88.66288678739373
 30
0.0
 10
189.5476027398911
 20
88.68540972007062
 30
0.0
  0
LINE
  5
1B7
330
1F
100
AcDbEntity
  8
0
  6
Continuous
 62
     7
370
    25
100
AcDbLine
 10
197.2613437746
 20
81.4354096963
 30
0.0
 11
192.8738617052
 21
81.4354096963
 31
0.0
  0
SPLINE
  5
1B8
330
1F
100
AcDbEntity
  8
0
  6
Continuous
 62
     7
370
    25
100
AcDbSpline
210
0.0
220
0.0
230
1.0
 70
     8
 71
     3
 72
    13
 73
     9
 74
     0
 42
0.000000001
 43
0.00000001
 40
0.0
 40
0.0
 40
0.0
 40
0.0
 40
0.1670970931435952
 40
0.3571214687656389
 40
0.5468620444347992
 40
0.7366505876662154
 40
0.9267632412890556
 40
1.0
 40
1.0
 40
1.0
 40
1.0
 10
193.5312413324026
 20
80.30722607673701
 30
0.0
 10
193.6954501179254
 20
80.25574313542909
 30
0.0
 10
194.0463986686565
 20
80.14571331222648
 30
0.0
 10
194.615681555744
 20
80.04186313400169
 30
0.0
 10
195.2215853252791
 20
80.01194836721065
 30
0.0
 10
195.8201321311687
 20
80.09071777451418
 30
0.0
 10
196.2858811656384
 20
80.19725000689884
 30
0.0
 10
196.537866721964
 20
80.28783392949131
 30
0.0
 10
196.6079432230798
 20
80.31302507316317
 30
0.0
  0
SPLINE
  5
1B9
330
1F
100
AcDbEntity
  8
0
  6
Continuous
 62
     7
370
    25
100
AcDbSpline
210
0.0
220
0.0
230
1.0
 70
     8
 71
     3
 72
    12
 73
     8
 74
     0
 42
0.000000001
 43
0.00000001
 40
0.0
 40
0.0
 40
0.0
 40
0.0
 40
0.25
 40
0.25
 40
0.5
 40
0.5
 40
1.0
 40
1.0
 40
1.0
 40
1.0
 10
201.0663095225626
 20
88.43741732036031
 30
0.0
 10
201.0662993652055
 20
88.42715386107118
 30
0.0
 10
201.057742939094
 20
88.4195750812744
 30
0.0
 10
201.0363695828591
 20
88.40516162582533
 30
0.0
 10
201.0235526527356
 20
88.39832695017306
 30
0.0
 10
200.9979591565921
 20
88.37200119717261
 30
0.0
 10
200.9942316047434
 20
88.36233424581162
 30
0.0
 10
200.9943794351886
 20
88.36218641536647
 30
0.0
  0
LINE
  5
1BA
330
1F
100
AcDbEntity
  8
0
  6
Continuous
 62
     7
370
    25
100
AcDbLine
 10
201.0679040749
 20
88.2435140973
 30
0.0
 11
201.0682314348
 21
88.3066181867
 31
0.0
  0
SPLINE
  5
1BB
330
1F
100
AcDbEntity
  8
0
  6
Continuous
 62
     7
370
    25
100
AcDbSpline
210
0.0
220
0.0
230
1.0
 70
     8
 71
     3
 72
    12
 73
     8
 74
     0
 42
0.000000001
 43
0.00000001
 40
0.0
 40
0.0
 40
0.0
 40
0.0
 40
0.25
 40
0.25
 40
0.5
 40
0.5
 40
1.0
 40
1.0
 40
1.0
 40
1.0
 10
201.0663095225626
 20
88.43741732036031
 30
0.0
 10
201.0663196799198
 20
88.44768077964946
 30
0.0
 10
201.0577852675268
 20
88.46234567008021
 30
0.0
 10
201.0217397794215
 20
88.49408104826371
 30
0.0
 10
200.9942287037093
 20
88.51115153601647
 30
0.0
 10
200.8803991958656
 20
88.55637549781589
 30
0.0
 10
200.7793376448223
 20
88.54955207054918
 30
0.0
 10
200.6603904869967
 20
88.50862512433005
 30
0.0
  0
SPLINE
  5
1BC
330
1F
100
AcDbEntity
  8
0
  6
Continuous
 62
     7
370
    25
100
AcDbSpline
210
0.0
220
0.0
230
1.0
 70
     8
 71
     3
 72
    12
 73
     8
 74
     0
 42
0.000000001
 43
0.00000001
 40
0.0
 40
0.0
 40
0.0
 40
0.0
 40
0.25
 40
0.25
 40
0.5
 40
0.5
 40
1.0
 40
1.0
 40
1.0
 40
1.0
 10
189.0688959572197
 20
88.43741732036031
 30
0.0
 10
189.0689061145768
 20
88.42715386107118
 30
0.0
 10
189.0774625406883
 20
88.4195750812744
 30
0.0
 10
189.0988358969232
 20
88.40516162582533
 30
0.0
 10
189.1116528270467
 20
88.39832695017304
 30
0.0
 10
189.1372463231902
 20
88.37200119717261
 30
0.0
 10
189.1409738750389
 20
88.36233424581162
 30
0.0
 10
189.1408260445937
 20
88.36218641536647
 30
0.0
  0
LINE
  5
1BD
330
1F
100
AcDbEntity
  8
0
  6
Continuous
 62
     7
370
    25
100
AcDbLine
 10
189.0673014049
 20
88.2435140973
 30
0.0
 11
189.066974045
 21
88.3066181867
 31
0.0
  0
SPLINE
  5
1BE
330
1F
100
AcDbEntity
  8
0
  6
Continuous
 62
     7
370
    25
100
AcDbSpline
210
0.0
220
0.0
230
1.0
 70
     8
 71
     3
 72
    14
 73
    10
 74
     0
 42
0.000000001
 43
0.00000001
 40
0.0
 40
0.0
 40
0.0
 40
0.0
 40
0.25
 40
0.25
 40
0.5
 40
0.5
 40
0.75
 40
0.75
 40
1.0
 40
1.0
 40
1.0
 40
1.0
 10
189.0688959572197
 20
88.43741732036031
 30
0.0
 10
189.0688857998625
 20
88.44768077964945
 30
0.0
 10
189.0774202122555
 20
88.4623456700802
 30
0.0
 10
189.1134657003608
 20
88.4940810482637
 30
0.0
 10
189.140976776073
 20
88.51115153601647
 30
0.0
 10
189.2168631146355
 20
88.54130084388275
 30
0.0
 10
189.2611000870369
 20
88.54713231403264
 30
0.0
 10
189.3603392366555
 20
88.54102619081108
 30
0.0
 10
189.4153414138728
 20
88.52908859743961
 30
0.0
 10
189.4748149927856
 20
88.50862512433005
 30
0.0
  0
SPLINE
  5
1BF
330
1F
100
AcDbEntity
  8
0
  6
Continuous
 62
     7
370
    25
100
AcDbSpline
210
0.0
220
0.0
230
1.0
 70
     8
 71
     3
 72
    10
 73
     6
 74
     0
 42
0.000000001
 43
0.00000001
 40
0.0
 40
0.0
 40
0.0
 40
0.0
 40
0.5
 40
0.5
 40
1.0
 40
1.0
 40
1.0
 40
1.0
 10
201.0663095225626
 20
88.43741732036031
 30
0.0
 10
201.0663501519912
 20
88.47847115751685
 30
0.0
 10
201.0667953568394
 20
88.52194798789785
 30
0.0
 10
201.0632697558882
 20
88.61100668762221
 30
0.0
 10
201.0676027398911
 20
88.64311005714586
 30
0.0
 10
201.0676027398911
 20
88.68540972007062
 30
0.0
  0
SPLINE
  5
1C0
330
1F
100
AcDbEntity
  8
0
  6
Continuous
 62
     7
370
    25
100
AcDbSpline
210
0.0
220
0.0
230
1.0
 70
     8
 71
     3
 72
     9
 73
     5
 74
     0
 42
0.000000001
 43
0.00000001
 40
0.0
 40
0.0
 40
0.0
 40
0.0
 40
0.1237681934257705
 40
1.0
 40
1.0
 40
1.0
 40
1.0
 10
189.0693894300965
 20
88.56646556688096
 30
0.0
 10
189.0694764525111
 20
88.56114200203308
 30
0.0
 10
189.0701795605736
 20
88.51812961976806
 30
0.0
 10
189.0694953533039
 20
88.47511132133896
 30
0.0
 10
189.0688958291319
 20
88.43741731999066
 30
0.0
  0
LINE
  5
1C1
330
1F
100
AcDbEntity
  8
0
  6
Continuous
 62
     8
370
    25
100
AcDbLine
 10
195.0676027399
 20
91.4354094146
 30
0.0
 11
189.0676026877
 21
91.4354094146
 31
0.0
  0
LINE
  5
1C2
330
1F
100
AcDbEntity
  8
0
  6
Continuous
 62
     8
370
    25
100
AcDbLine
 10
201.067602792
 20
91.4354094146
 30
0.0
 11
195.0676027399
 21
91.4354094146
 31
0.0
  0
LINE
  5
1C3
330
1F
100
AcDbEntity
  8
0
  6
Continuous
 62
     8
370
    25
100
AcDbLine
 10
189.3176027287
 20
87.9354097722
 30
0.0
 11
189.3176027287
 21
87.8511101781
 31
0.0
  0
LINE
  5
1C4
330
1F
100
AcDbEntity
  8
0
  6
Continuous
 62
     8
370
    25
100
AcDbLine
 10
200.8176027511
 20
87.8514566301
 30
0.0
 11
200.8176027511
 21
87.9354097722
 31
0.0
  0
LINE
  5
1C5
330
1F
100
AcDbEntity
  8
0
  6
Continuous
 62
     8
370
    25
100
AcDbLine
 10
200.6752980586
 20
87.9354097722
 30
0.0
 11
200.8176027511
 21
87.9354097722
 31
0.0
  0
LINE
  5
1C6
330
1F
100
AcDbEntity
  8
0
  6
Continuous
 62
     8
370
    25
100
AcDbLine
 10
189.3176027287
 20
87.9354097722
 30
0.0
 11
189.4599074211
 21
87.9354097722
 31
0.0
  0
LINE
  5
1C7
330
1F
100
AcDbEntity
  8
0
  6
Continuous
 62
     8
370
    25
100
AcDbLine
 10
199.3909553338
 20
88.6854098952
 30
0.0
 11
200.5876028624
 21
88.6854098952
 31
0.0
  0
LINE
  5
1C8
330
1F
100
AcDbEntity
  8
0
  6
Continuous
 62
     8
370
    25
100
AcDbLine
 10
189.5476026174
 20
88.6854098952
 30
0.0
 11
190.7555750285
 21
88.6854098952
 31
0.0
  0
LINE
  5
1C9
330
1F
100
AcDbEntity
  8
0
  6
Continuous
 62
     8
370
    25
100
AcDbLine
 10
189.8929202643
 20
88.1854098132
 30
0.0
 11
189.3176027287
 21
88.1854098132
 31
0.0
  0
SPLINE
  5
1CA
330
1F
100
AcDbEntity
  8
0
  6
Continuous
 62
     8
370
    25
100
AcDbSpline
210
0.0
220
0.0
230
1.0
 70
     8
 71
     3
 72
     9
 73
     5
 74
     0
 42
0.000000001
 43
0.00000001
 40
0.0
 40
0.0
 40
0.0
 40
0.0
 40
0.1251159292884992
 40
1.0
 40
1.0
 40
1.0
 40
1.0
 10
201.0682314347831
 20
88.30661818666007
 30
0.0
 10
201.0682676021941
 20
88.31207392215784
 30
0.0
 10
201.068556673388
 20
88.35567936495626
 30
0.0
 10
201.0673581871601
 20
88.39927563648648
 30
0.0
 10
201.0663096506504
 20
88.43741731999066
 30
0.0
  0
SPLINE
  5
1CB
330
1F
100
AcDbEntity
  8
0
  6
Continuous
 62
     8
370
    25
100
AcDbSpline
210
0.0
220
0.0
230
1.0
 70
     8
 71
     3
 72
     9
 73
     5
 74
     0
 42
0.000000001
 43
0.00000001
 40
0.0
 40
0.0
 40
0.0
 40
0.0
 40
0.1251159292884992
 40
1.0
 40
1.0
 40
1.0
 40
1.0
 10
189.0669740449992
 20
88.30661818666007
 30
0.0
 10
189.0669378775881
 20
88.31207392215784
 30
0.0
 10
189.0666488063943
 20
88.35567936495626
 30
0.0
 10
189.0678472926222
 20
88.39927563648648
 30
0.0
 10
189.0688958291319
 20
88.43741731999066
 30
0.0
  0
LINE
  5
1CC
330
1F
100
AcDbEntity
  8
0
  6
Continuous
 62
     8
370
    25
100
AcDbLine
 10
189.0676026877
 20
88.6854098952
 30
0.0
 11
189.0693894301
 21
88.5664655669
 31
0.0
  0
INSERT
  5
1D8
330
1F
100
AcDbEntity
  8
0
  6
Continuous
 62
     7
370
    18
100
AcDbBlockReference
  2
SW_CENTERMARKSYMBOL_0
 10
195.0676027399
 20
81.9354097201
 30
0.0
  0
LINE
  5
1D9
330
1F
100
AcDbEntity
  8
0
  6
Continuous
 62
     7
370
     0
100
AcDbLine
 10
200.8171410437
 20
103.0701839975
 30
0.0
 11
201.1647902399
 21
91.9454097201
 31
0.0
  0
LINE
  5
1DA
330
1F
100
AcDbEntity
  8
0
  6
Continuous
 62
     7
370
     0
100
AcDbLine
 10
189.3180644361
 20
103.0701839975
 30
0.0
 11
188.9704152399
 21
91.9454097201
 31
0.0
  0
LINE
  5
1DB
330
1F
100
AcDbEntity
  8
0
  6
Continuous
 62
     7
370
     0
100
AcDbLine
 10
188.3019152399
 20
91.9454097201
 30
0.0
 11
201.8332902399
 21
91.9454097201
 31
0.0
  0
ARC
  5
1DC
330
1F
100
AcDbEntity
  8
0
  6
Continuous
 62
     7
370
     0
100
AcDbCircle
 10
195.0676027399
 20
81.9354097201
 30
0.0
 40
6.578500000000008
100
AcDbArc
 50
75.0
 51
345.0
  0
LINE
  5
1DD
330
1F
100
AcDbEntity
  8
0
  6
Continuous
 62
     7
370
    25
100
AcDbLine
 10
136.8465010758
 20
134.4794608577
 30
0.0
 11
137.3197079386
 21
134.4794608577
 31
0.0
  0
LINE
  5
1DE
330
1F
100
AcDbEntity
  8
0
  6
Continuous
 62
     7
370
    25
100
AcDbLine
 10
137.3197079386
 20
143.4794604703
 30
0.0
 11
136.8465010758
 21
143.4794604703
 31
0.0
  0
LINE
  5
1DF
330
1F
100
AcDbEntity
  8
0
  6
Continuous
 62
     7
370
    25
100
AcDbLine
 10
136.8465010758
 20
143.4794604703
 30
0.0
 11
136.8197069253
 21
143.3794606402
 31
0.0
  0
LINE
  5
1E0
330
1F
100
AcDbEntity
  8
0
  6
Continuous
 62
     7
370
    25
100
AcDbLine
 10
136.8197069253
 20
134.5794606878
 30
0.0
 11
136.8465010758
 21
134.4794608577
 31
0.0
  0
LINE
  5
1E1
330
1F
100
AcDbEntity
  8
0
  6
Continuous
 62
     7
370
    25
100
AcDbLine
 10
141.3197067316
 20
134.979460474
 30
0.0
 11
145.3197055246
 21
135.6294607668
 31
0.0
  0
LINE
  5
1E2
330
1F
100
AcDbEntity
  8
0
  6
Continuous
 62
     7
370
    25
100
AcDbLine
 10
145.3197055246
 20
142.3294605612
 30
0.0
 11
141.3197067316
 21
142.979460854
 31
0.0
  0
LINE
  5
1E3
330
1F
100
AcDbEntity
  8
0
  6
Continuous
 62
     7
370
    25
100
AcDbLine
 10
137.3197079386
 20
134.979460474
 30
0.0
 11
141.3197067316
 21
134.979460474
 31
0.0
  0
LINE
  5
1E4
330
1F
100
AcDbEntity
  8
0
  6
Continuous
 62
     7
370
    25
100
AcDbLine
 10
141.3197067316
 20
142.979460854
 30
0.0
 11
137.3197079386
 21
142.979460854
 31
0.0
  0
LINE
  5
1E5
330
1F
100
AcDbEntity
  8
0
  6
Continuous
 62
     7
370
    25
100
AcDbLine
 10
149.3197061803
 20
134.979460474
 30
0.0
 11
153.3197068359
 21
135.6294607668
 31
0.0
  0
LINE
  5
1E6
330
1F
100
AcDbEntity
  8
0
  6
Continuous
 62
     7
370
    25
100
AcDbLine
 10
153.3197068359
 20
142.3294605612
 30
0.0
 11
149.3197061803
 21
142.979460854
 31
0.0
  0
LINE
  5
1E7
330
1F
100
AcDbEntity
  8
0
  6
Continuous
 62
     7
370
    25
100
AcDbLine
 10
157.3197074916
 20
134.979460474
 30
0.0
 11
162.1135973122
 21
135.5460114702
 31
0.0
  0
LINE
  5
1E8
330
1F
100
AcDbEntity
  8
0
  6
Continuous
 62
     7
370
    25
100
AcDbLine
 10
162.1135973122
 20
142.4129098578
 30
0.0
 11
157.3197074916
 21
142.979460854
 31
0.0
  0
LINE
  5
1E9
330
1F
100
AcDbEntity
  8
0
  6
Continuous
 62
     7
370
    25
100
AcDbLine
 10
145.3197055246
 20
134.979460474
 30
0.0
 11
149.3197061803
 21
135.6294607668
 31
0.0
  0
LINE
  5
1EA
330
1F
100
AcDbEntity
  8
0
  6
Continuous
 62
     7
370
    25
100
AcDbLine
 10
149.3197061803
 20
142.3294605612
 30
0.0
 11
145.3197055246
 21
142.979460854
 31
0.0
  0
LINE
  5
1EB
330
1F
100
AcDbEntity
  8
0
  6
Continuous
 62
     7
370
    25
100
AcDbLine
 10
153.3197068359
 20
134.979460474
 30
0.0
 11
157.3197074916
 21
135.6294607668
 31
0.0
  0
LINE
  5
1EC
330
1F
100
AcDbEntity
  8
0
  6
Continuous
 62
     7
370
    25
100
AcDbLine
 10
157.3197074916
 20
142.3294605612
 30
0.0
 11
153.3197068359
 21
142.979460854
 31
0.0
  0
ARC
  5
1ED
330
1F
100
AcDbEntity
  8
0
  6
Continuous
 62
     7
370
    25
100
AcDbCircle
 10
162.0197070446
 20
136.3404826138
 30
0.0
 40
0.8000000000000135
100
AcDbArc
 50
276.7400560979
 51
0.0
  0
ARC
  5
1EE
330
1F
100
AcDbEntity
  8
0
  6
Continuous
 62
     7
370
    25
100
AcDbCircle
 10
162.0197070446
 20
141.6184387142
 30
0.0
 40
0.7999999999999853
100
AcDbArc
 50
0.0
 51
83.2599439021
  0
LINE
  5
1EF
330
1F
100
AcDbEntity
  8
0
  6
Continuous
 62
     7
370
    25
100
AcDbLine
 10
125.9063097398
 20
146.979461044
 30
0.0
 11
125.819706985
 21
146.8294603675
 31
0.0
  0
LINE
  5
1F0
330
1F
100
AcDbEntity
  8
0
  6
Continuous
 62
     7
370
    25
100
AcDbLine
 10
125.819706985
 20
131.1294609605
 30
0.0
 11
125.9063097398
 21
130.979460284
 31
0.0
  0
LINE
  5
1F1
330
1F
100
AcDbEntity
  8
0
  6
Continuous
 62
     7
370
    25
100
AcDbLine
 10
134.733104774
 20
130.979460284
 30
0.0
 11
134.8197065975
 21
131.1294609605
 31
0.0
  0
LINE
  5
1F2
330
1F
100
AcDbEntity
  8
0
  6
Continuous
 62
     7
370
    25
100
AcDbLine
 10
134.8197065975
 20
146.8294603675
 30
0.0
 11
134.733104774
 21
146.979461044
 31
0.0
  0
ARC
  5
1F3
330
1F
100
AcDbEntity
  8
0
  6
Continuous
 62
     7
370
    25
100
AcDbCircle
 10
136.5197070446
 20
146.529460664
 30
0.0
 40
0.3000000000000114
100
AcDbArc
 50
0.0
 51
90.0
  0
ARC
  5
1F4
330
1F
100
AcDbEntity
  8
0
  6
Continuous
 62
     7
370
    25
100
AcDbCircle
 10
136.5197070446
 20
131.429460664
 30
0.0
 40
0.2999999999999829
100
AcDbArc
 50
270.0
 51
0.0
  0
LINE
  5
1F5
330
1F
100
AcDbEntity
  8
0
  6
Continuous
 62
     7
370
    25
100
AcDbLine
 10
125.819706985
 20
146.8294603675
 30
0.0
 11
124.1197070788
 21
146.8294603675
 31
0.0
  0
LINE
  5
1F6
330
1F
100
AcDbEntity
  8
0
  6
Continuous
 62
     7
370
    25
100
AcDbLine
 10
124.1197070788
 20
131.1294609605
 30
0.0
 11
125.819706985
 21
131.1294609605
 31
0.0
  0
LINE
  5
1F7
330
1F
100
AcDbEntity
  8
0
  6
Continuous
 62
     7
370
    25
100
AcDbLine
 10
134.8197065975
 20
131.1294609605
 30
0.0
 11
136.519707435
 21
131.1294609605
 31
0.0
  0
LINE
  5
1F8
330
1F
100
AcDbEntity
  8
0
  6
Continuous
 62
     7
370
    25
100
AcDbLine
 10
136.519707435
 20
146.8294603675
 30
0.0
 11
134.8197065975
 21
146.8294603675
 31
0.0
  0
ARC
  5
1F9
330
1F
100
AcDbEntity
  8
0
  6
Continuous
 62
     7
370
    25
100
AcDbCircle
 10
124.1197070446
 20
131.429460664
 30
0.0
 40
0.2999999999999972
100
AcDbArc
 50
180.0
 51
270.0
  0
ARC
  5
1FA
330
1F
100
AcDbEntity
  8
0
  6
Continuous
 62
     7
370
    25
100
AcDbCircle
 10
124.1197070446
 20
146.529460664
 30
0.0
 40
0.3000000000000114
100
AcDbArc
 50
90.0
 51
180.0
  0
LINE
  5
1FB
330
1F
100
AcDbEntity
  8
0
  6
Continuous
 62
     7
370
    25
100
AcDbLine
 10
123.8197066571
 20
145.5579605809
 30
0.0
 11
122.5654219027
 21
145.5579605809
 31
0.0
  0
LINE
  5
1FC
330
1F
100
AcDbEntity
  8
0
  6
Continuous
 62
     7
370
    25
100
AcDbLine
 10
122.5654219027
 20
132.4009607471
 30
0.0
 11
123.8197066571
 21
132.4009607471
 31
0.0
  0
ARC
  5
1FD
330
1F
100
AcDbEntity
  8
0
  6
Continuous
 62
     7
370
    25
100
AcDbCircle
 10
122.0654221262
 20
145.479460664
 30
0.0
 40
0.5
100
AcDbArc
 50
270.0
 51
0.0
  0
ARC
  5
1FE
330
1F
100
AcDbEntity
  8
0
  6
Continuous
 62
     7
370
    25
100
AcDbCircle
 10
122.0654221262
 20
132.479460664
 30
0.0
 40
0.5
100
AcDbArc
 50
0.0
 51
90.0
  0
LINE
  5
1FF
330
1F
100
AcDbEntity
  8
0
  6
Continuous
 62
     7
370
    25
100
AcDbLine
 10
119.3154223013
 20
132.9794606118
 30
0.0
 11
122.0654218208
 21
132.9794606118
 31
0.0
  0
LINE
  5
200
330
1F
100
AcDbEntity
  8
0
  6
Continuous
 62
     7
370
    25
100
AcDbLine
 10
119.5654223423
 20
144.9794607162
 30
0.0
 11
119.3154223013
 21
144.9794607162
 31
0.0
  0
LINE
  5
201
330
1F
100
AcDbEntity
  8
0
  6
Continuous
 62
     7
370
    25
100
AcDbLine
 10
122.0654218208
 20
144.9794607162
 30
0.0
 11
120.5654225062
 21
144.9794607162
 31
0.0
  0
SPLINE
  5
202
330
1F
100
AcDbEntity
  8
0
  6
Continuous
 62
     7
370
    25
100
AcDbSpline
210
0.0
220
0.0
230
1.0
 70
     8
 71
     3
 72
    11
 73
     7
 74
     0
 42
0.000000001
 43
0.00000001
 40
0.0
 40
0.0
 40
0.0
 40
0.0
 40
0.2500002694667829
 40
0.5000005925037904
 40
0.7499999357165025
 40
1.0
 40
1.0
 40
1.0
 40
1.0
 10
119.8154223832933
 20
145.2794606721958
 30
0.0
 10
119.7826630633344
 20
145.2757027498493
 30
0.0
 10
119.7171444163968
 20
145.2681869043512
 30
0.0
 10
119.6345080568111
 20
145.2103747228603
 30
0.0
 10
119.5766954457055
 20
145.1277385473026
 30
0.0
 10
119.569180047058
 20
145.062219968075
 30
0.0
 10
119.5654223423151
 20
145.0294606312176
 30
0.0
  0
SPLINE
  5
203
330
1F
100
AcDbEntity
  8
0
  6
Continuous
 62
     7
370
    25
100
AcDbSpline
210
0.0
220
0.0
230
1.0
 70
     8
 71
     3
 72
    11
 73
     7
 74
     0
 42
0.000000001
 43
0.00000001
 40
0.0
 40
0.0
 40
0.0
 40
0.0
 40
0.250000564155491
 40
0.4999992895422198
 40
0.7499996699689473
 40
1.0
 40
1.0
 40
1.0
 40
1.0
 10
120.5654225062279
 20
145.0294606312176
 30
0.0
 10
120.5616643851876
 20
145.0622199319894
 30
0.0
 10
120.5541481707481
 20
145.1277382925865
 30
0.0
 10
120.4963364404576
 20
145.2103748724865
 30
0.0
 10
120.413699918619
 20
145.2681868802123
 30
0.0
 10
120.3481813037307
 20
145.2757027417871
 30
0.0
 10
120.3154219995884
 20
145.2794606721958
 30
0.0
  0
LINE
  5
204
330
1F
100
AcDbEntity
  8
0
  6
Continuous
 62
     7
370
    25
100
AcDbLine
 10
119.5654223423
 20
145.0297605171
 30
0.0
 11
119.5654223423
 21
144.9794607162
 31
0.0
  0
LINE
  5
205
330
1F
100
AcDbEntity
  8
0
  6
Continuous
 62
     7
370
    25
100
AcDbLine
 10
120.5654225062
 20
144.9794607162
 30
0.0
 11
120.5654225062
 21
145.0297605171
 31
0.0
  0
LINE
  5
206
330
1F
100
AcDbEntity
  8
0
  6
Continuous
 62
     7
370
    25
100
AcDbLine
 10
120.3307329427
 20
145.2794606722
 30
0.0
 11
119.8001109745
 21
145.2794606722
 31
0.0
  0
LINE
  5
207
330
1F
100
AcDbEntity
  8
0
  6
Continuous
 62
     7
370
    25
100
AcDbLine
 10
137.3197079386
 20
143.4794604703
 30
0.0
 11
137.3197079386
 21
134.4794608577
 31
0.0
  0
LINE
  5
208
330
1F
100
AcDbEntity
  8
0
  6
Continuous
 62
     7
370
    25
100
AcDbLine
 10
136.8465010758
 20
134.4794608577
 30
0.0
 11
136.8465010758
 21
143.4794604703
 31
0.0
  0
LINE
  5
209
330
1F
100
AcDbEntity
  8
0
  6
Continuous
 62
     7
370
    25
100
AcDbLine
 10
141.3197067316
 20
134.979460474
 30
0.0
 11
141.3197067316
 21
142.979460854
 31
0.0
  0
LINE
  5
20A
330
1F
100
AcDbEntity
  8
0
  6
Continuous
 62
     7
370
    25
100
AcDbLine
 10
149.3197061803
 20
134.979460474
 30
0.0
 11
149.3197061803
 21
142.979460854
 31
0.0
  0
LINE
  5
20B
330
1F
100
AcDbEntity
  8
0
  6
Continuous
 62
     7
370
    25
100
AcDbLine
 10
157.3197074916
 20
134.979460474
 30
0.0
 11
157.3197074916
 21
142.979460854
 31
0.0
  0
LINE
  5
20C
330
1F
100
AcDbEntity
  8
0
  6
Continuous
 62
     7
370
    25
100
AcDbLine
 10
145.3197055246
 20
134.979460474
 30
0.0
 11
145.3197055246
 21
142.979460854
 31
0.0
  0
LINE
  5
20D
330
1F
100
AcDbEntity
  8
0
  6
Continuous
 62
     7
370
    25
100
AcDbLine
 10
153.3197068359
 20
134.979460474
 30
0.0
 11
153.3197068359
 21
142.979460854
 31
0.0
  0
LINE
  5
20E
330
1F
100
AcDbEntity
  8
0
  6
Continuous
 62
     7
370
    25
100
AcDbLine
 10
162.8197074618
 20
141.6184386163
 30
0.0
 11
162.8197074618
 21
136.3404827117
 31
0.0
  0
SPLINE
  5
20F
330
1F
100
AcDbEntity
  8
0
  6
Continuous
 62
     7
370
    25
100
AcDbSpline
210
0.0
220
0.0
230
1.0
 70
    24
 71
     3
 72
    12
 73
     8
 74
     0
 42
0.000000001
 43
0.00000001
 40
0.0
 40
0.0
 40
0.0
 40
0.0
 40
0.2313820691220372
 40
0.4224524563612784
 40
0.6135436004137734
 40
0.8067617043110576
 40
1.0
 40
1.0
 40
1.0
 40
1.0
 10
125.9116583253889
 20
130.9794602840205
 30
0.0
 10
125.9174729372314
 20
130.9794602840205
 30
0.0
 10
125.9280891317575
 20
130.9794602840205
 30
0.0
 10
126.0374977381712
 20
130.9794602840205
 30
0.0
 10
126.1854354851648
 20
130.9794602840205
 30
0.0
 10
126.3790550706972
 20
130.9794602840205
 30
0.0
 10
126.5402428217459
 20
130.9794602840205
 30
0.0
 10
126.6208409081845
 20
130.9794602840205
 30
0.0
  0
SPLINE
  5
210
330
1F
100
AcDbEntity
  8
0
  6
Continuous
 62
     7
370
    25
100
AcDbSpline
210
0.0
220
0.0
230
1.0
 70
    24
 71
     3
 72
    12
 73
     8
 74
     0
 42
0.000000001
 43
0.00000001
 40
0.0
 40
0.0
 40
0.0
 40
0.0
 40
0.1912318339729968
 40
0.3824442703760744
 40
0.5755404537005614
 40
0.7686149100837236
 40
0.9999999999999999
 40
0.9999999999999999
 40
0.9999999999999999
 40
0.9999999999999999
 10
126.6208409081845
 20
146.9794610439797
 30
0.0
 10
126.5410455497174
 20
146.9794610439797
 30
0.0
 10
126.3814629268124
 20
146.9794610439797
 30
0.0
 10
126.1878776206664
 20
146.9794610439797
 30
0.0
 10
126.0385756570374
 20
146.9794610439797
 30
0.0
 10
125.9284253733809
 20
146.9794610439797
 30
0.0
 10
125.9167920556397
 20
146.9794610439797
 30
0.0
 10
125.9104504000096
 20
146.9794610439797
 30
0.0
  0
SPLINE
  5
211
330
1F
100
AcDbEntity
  8
0
  6
Continuous
 62
     7
370
    25
100
AcDbSpline
210
0.0
220
0.0
230
1.0
 70
     8
 71
     3
 72
    15
 73
    11
 74
     0
 42
0.000000001
 43
0.00000001
 40
0.0
 40
0.0
 40
0.0
 40
0.0
 40
0.1323049485469517
 40
0.2645724911618945
 40
0.3997989213359817
 40
0.5350009236706258
 40
0.6501920649287771
 40
0.7654011640741528
 40
0.8826892485822967
 40
1.0
 40
1.0
 40
1.0
 40
1.0
 10
126.6208409081845
 20
138.9794606640001
 30
0.0
 10
126.5120693826148
 20
139.3250917968441
 30
0.0
 10
126.2945570839177
 20
140.0162563439297
 30
0.0
 10
126.0605222378053
 20
141.0805883427309
 30
0.0
 10
125.9198028763361
 20
142.1649832117833
 30
0.0
 10
125.8919323940369
 20
143.2100985165047
 30
0.0
 10
125.9642353095162
 20
144.1987538378232
 30
0.0
 10
126.1123845614623
 20
145.1318021997113
 30
0.0
 10
126.3297045966664
 20
146.0606327428092
 30
0.0
 10
126.5237892202013
 20
146.6731652159865
 30
0.0
 10
126.6208409081845
 20
146.9794610439797
 30
0.0
  0
SPLINE
  5
212
330
1F
100
AcDbEntity
  8
0
  6
Continuous
 62
     7
370
    25
100
AcDbSpline
210
0.0
220
0.0
230
1.0
 70
     8
 71
     3
 72
    15
 73
    11
 74
     0
 42
0.000000001
 43
0.00000001
 40
0.0
 40
0.0
 40
0.0
 40
0.0
 40
0.1323050038970291
 40
0.2645725327670714
 40
0.3997989416533288
 40
0.5350009870694649
 40
0.6501921317206805
 40
0.7654011923842015
 40
0.882689240090312
 40
1.0
 40
1.0
 40
1.0
 40
1.0
 10
126.6208409081845
 20
130.9794602840205
 30
0.0
 10
126.512069392892
 20
131.325091495618
 30
0.0
 10
126.2945571715385
 20
132.0162560197266
 30
0.0
 10
126.0605222314762
 20
133.080588542873
 30
0.0
 10
125.9198028542643
 20
134.1649831012441
 30
0.0
 10
125.891932397628
 20
135.2100989384549
 30
0.0
 10
125.9642352853901
 20
136.1987535451701
 30
0.0
 10
126.1123845577231
 20
137.1318026157282
 30
0.0
 10
126.3297046554291
 20
138.0606326350462
 30
0.0
 10
126.5237892272991
 20
138.6731648873299
 30
0.0
 10
126.6208409081845
 20
138.9794606640001
 30
0.0
  0
LINE
  5
213
330
1F
100
AcDbEntity
  8
0
  6
Continuous
 62
     7
370
    25
100
AcDbLine
 10
125.819706985
 20
131.1294609605
 30
0.0
 11
125.819706985
 21
146.8294603675
 31
0.0
  0
SPLINE
  5
214
330
1F
100
AcDbEntity
  8
0
  6
Continuous
 62
     7
370
    25
100
AcDbSpline
210
0.0
220
0.0
230
1.0
 70
     8
 71
     3
 72
    15
 73
    11
 74
     0
 42
0.000000001
 43
0.00000001
 40
0.0
 40
0.0
 40
0.0
 40
0.0
 40
0.1323049836088744
 40
0.2645725542962953
 40
0.3997989460670495
 40
0.5350009961647513
 40
0.6501921448046264
 40
0.7654012094574273
 40
0.8826892612248055
 40
1.0
 40
1.0
 40
1.0
 40
1.0
 10
134.0185736056117
 20
130.9794602840205
 30
0.0
 10
134.1273444729024
 20
131.3250915522828
 30
0.0
 10
134.3448554494895
 20
132.0162563519335
 30
0.0
 10
134.5788945670573
 20
133.0805881987073
 30
0.0
 10
134.7196098555752
 20
134.1649832581707
 30
0.0
 10
134.7474813856277
 20
135.2100989176199
 30
0.0
 10
134.6751782321686
 20
136.1987535469968
 30
0.0
 10
134.5270290989826
 20
137.1318026280846
 30
0.0
 10
134.3097087071766
 20
138.0606325157667
 30
0.0
 10
134.1156248957947
 20
138.6731648694939
 30
0.0
 10
134.0185736056117
 20
138.9794606640001
 30
0.0
  0
SPLINE
  5
215
330
1F
100
AcDbEntity
  8
0
  6
Continuous
 62
     7
370
    25
100
AcDbSpline
210
0.0
220
0.0
230
1.0
 70
     8
 71
     3
 72
    15
 73
    11
 74
     0
 42
0.000000001
 43
0.00000001
 40
0.0
 40
0.0
 40
0.0
 40
0.0
 40
0.1323049282587865
 40
0.2645725126911059
 40
0.3997989257496958
 40
0.5350009327659058
 40
0.6501920780127179
 40
0.7654011811473762
 40
0.8826892697167907
 40
1.0
 40
1.0
 40
1.0
 40
1.0
 10
134.0185736056117
 20
138.9794606640001
 30
0.0
 10
134.1273444831798
 20
139.3250918535089
 30
0.0
 10
134.3448555371106
 20
140.0162566761366
 30
0.0
 10
134.5788945607284
 20
141.0805879985653
 30
0.0
 10
134.7196098335038
 20
142.1649833687098
 30
0.0
 10
134.7474813892187
 20
143.2100984956698
 30
0.0
 10
134.6751782080425
 20
144.19875383965
 30
0.0
 10
134.5270290952434
 20
145.1318022120677
 30
0.0
 10
134.3097087659393
 20
146.0606326235297
 30
0.0
 10
134.1156249028926
 20
146.6731651981505
 30
0.0
 10
134.0185736056117
 20
146.9794610439797
 30
0.0
  0
SPLINE
  5
216
330
1F
100
AcDbEntity
  8
0
  6
Continuous
 62
     7
370
    25
100
AcDbSpline
210
0.0
220
0.0
230
1.0
 70
    24
 71
     3
 72
    12
 73
     8
 74
     0
 42
0.000000001
 43
0.00000001
 40
0.0
 40
0.0
 40
0.0
 40
0.0
 40
0.1912317870580458
 40
0.3824442706712637
 40
0.575540458433218
 40
0.7686148977979078
 40
1.0
 40
1.0
 40
1.0
 40
1.0
 10
134.0185736056117
 20
146.9794610439797
 30
0.0
 10
134.0983684824272
 20
146.9794610439797
 30
0.0
 10
134.2579501813511
 20
146.9794610439797
 30
0.0
 10
134.4515371670677
 20
146.9794610439797
 30
0.0
 10
134.6008391226501
 20
146.9794610439797
 30
0.0
 10
134.7109876558397
 20
146.9794610439797
 30
0.0
 10
134.7226219341275
 20
146.9794610439797
 30
0.0
 10
134.7289641137866
 20
146.9794610439797
 30
0.0
  0
SPLINE
  5
217
330
1F
100
AcDbEntity
  8
0
  6
Continuous
 62
     7
370
    25
100
AcDbSpline
210
0.0
220
0.0
230
1.0
 70
    24
 71
     3
 72
    12
 73
     8
 74
     0
 42
0.000000001
 43
0.00000001
 40
0.0
 40
0.0
 40
0.0
 40
0.0
 40
0.2313820783801172
 40
0.4224524518708432
 40
0.6135436362183467
 40
0.806761747846691
 40
1.0
 40
1.0
 40
1.0
 40
1.0
 10
134.7277552570848
 20
130.9794602840205
 30
0.0
 10
134.7219404740306
 20
130.9794602840205
 30
0.0
 10
134.7113239674474
 20
130.9794602840205
 30
0.0
 10
134.6019173964657
 20
130.9794602840205
 30
0.0
 10
134.4539777488281
 20
130.9794602840205
 30
0.0
 10
134.2603584028035
 20
130.9794602840205
 30
0.0
 10
134.0991713381458
 20
130.9794602840205
 30
0.0
 10
134.0185736056117
 20
130.9794602840205
 30
0.0
  0
LINE
  5
218
330
1F
100
AcDbEntity
  8
0
  6
Continuous
 62
     7
370
    25
100
AcDbLine
 10
134.8197065975
 20
131.1294609605
 30
0.0
 11
134.8197065975
 21
146.8294603675
 31
0.0
  0
LINE
  5
219
330
1F
100
AcDbEntity
  8
0
  6
Continuous
 62
     7
370
    25
100
AcDbLine
 10
126.6208409082
 20
138.979460664
 30
0.0
 11
130.2661166276
 21
138.979460664
 31
0.0
  0
LINE
  5
21A
330
1F
100
AcDbEntity
  8
0
  6
Continuous
 62
     7
370
    25
100
AcDbLine
 10
126.6208409082
 20
146.979461044
 30
0.0
 11
130.2661166276
 21
146.979461044
 31
0.0
  0
LINE
  5
21B
330
1F
100
AcDbEntity
  8
0
  6
Continuous
 62
     7
370
    25
100
AcDbLine
 10
130.3197067912
 20
146.6207127943
 30
0.0
 11
130.2661166276
 21
146.979461044
 31
0.0
  0
LINE
  5
21C
330
1F
100
AcDbEntity
  8
0
  6
Continuous
 62
     7
370
    25
100
AcDbLine
 10
130.3732969548
 20
146.979461044
 30
0.0
 11
130.3197067912
 21
146.6207127943
 31
0.0
  0
LINE
  5
21D
330
1F
100
AcDbEntity
  8
0
  6
Continuous
 62
     7
370
    25
100
AcDbLine
 10
130.3732969548
 20
146.979461044
 30
0.0
 11
134.0185736056
 21
146.979461044
 31
0.0
  0
LINE
  5
21E
330
1F
100
AcDbEntity
  8
0
  6
Continuous
 62
     7
370
    25
100
AcDbLine
 10
130.3732969548
 20
138.979460664
 30
0.0
 11
134.0185736056
 21
138.979460664
 31
0.0
  0
LINE
  5
21F
330
1F
100
AcDbEntity
  8
0
  6
Continuous
 62
     7
370
    25
100
AcDbLine
 10
130.3197067912
 20
139.3382083025
 30
0.0
 11
130.3732969548
 21
138.979460664
 31
0.0
  0
LINE
  5
220
330
1F
100
AcDbEntity
  8
0
  6
Continuous
 62
     7
370
    25
100
AcDbLine
 10
130.2661166276
 20
138.979460664
 30
0.0
 11
130.3197067912
 21
139.3382083025
 31
0.0
  0
LINE
  5
221
330
1F
100
AcDbEntity
  8
0
  6
Continuous
 62
     7
370
    25
100
AcDbLine
 10
130.3197067912
 20
138.6207130255
 30
0.0
 11
130.2661166276
 21
138.979460664
 31
0.0
  0
LINE
  5
222
330
1F
100
AcDbEntity
  8
0
  6
Continuous
 62
     7
370
    25
100
AcDbLine
 10
130.3197067912
 20
138.6207130255
 30
0.0
 11
130.3197067912
 21
139.3382083025
 31
0.0
  0
LINE
  5
223
330
1F
100
AcDbEntity
  8
0
  6
Continuous
 62
     7
370
    25
100
AcDbLine
 10
130.3732969548
 20
138.979460664
 30
0.0
 11
130.3197067912
 21
138.6207130255
 31
0.0
  0
LINE
  5
224
330
1F
100
AcDbEntity
  8
0
  6
Continuous
 62
     7
370
    25
100
AcDbLine
 10
126.6208409082
 20
130.979460284
 30
0.0
 11
130.2661166276
 21
130.979460284
 31
0.0
  0
LINE
  5
225
330
1F
100
AcDbEntity
  8
0
  6
Continuous
 62
     7
370
    25
100
AcDbLine
 10
130.3732969548
 20
130.979460284
 30
0.0
 11
134.0185736056
 21
130.979460284
 31
0.0
  0
LINE
  5
226
330
1F
100
AcDbEntity
  8
0
  6
Continuous
 62
     7
370
    25
100
AcDbLine
 10
130.3197067912
 20
131.3382085337
 30
0.0
 11
130.3732969548
 21
130.979460284
 31
0.0
  0
LINE
  5
227
330
1F
100
AcDbEntity
  8
0
  6
Continuous
 62
     7
370
    25
100
AcDbLine
 10
130.2661166276
 20
130.979460284
 30
0.0
 11
130.3197067912
 21
131.3382085337
 31
0.0
  0
LINE
  5
228
330
1F
100
AcDbEntity
  8
0
  6
Continuous
 62
     7
370
    25
100
AcDbLine
 10
136.8197069253
 20
146.5294608771
 30
0.0
 11
136.8197069253
 21
131.4294604509
 31
0.0
  0
LINE
  5
229
330
1F
100
AcDbEntity
  8
0
  6
Continuous
 62
     7
370
    25
100
AcDbLine
 10
123.8197066571
 20
131.4294604509
 30
0.0
 11
123.8197066571
 21
146.5294608771
 31
0.0
  0
LINE
  5
22A
330
1F
100
AcDbEntity
  8
0
  6
Continuous
 62
     7
370
    25
100
AcDbLine
 10
130.3732969548
 20
130.979460284
 30
0.0
 11
130.3197067912
 21
130.979460284
 31
0.0
  0
LINE
  5
22B
330
1F
100
AcDbEntity
  8
0
  6
Continuous
 62
     7
370
    25
100
AcDbLine
 10
130.3197067912
 20
130.979460284
 30
0.0
 11
130.3197067912
 21
131.3382085337
 31
0.0
  0
LINE
  5
22C
330
1F
100
AcDbEntity
  8
0
  6
Continuous
 62
     7
370
    25
100
AcDbLine
 10
130.3197067912
 20
130.979460284
 30
0.0
 11
130.2661166276
 21
130.979460284
 31
0.0
  0
LINE
  5
22D
330
1F
100
AcDbEntity
  8
0
  6
Continuous
 62
     7
370
    25
100
AcDbLine
 10
130.3197067912
 20
146.6207127943
 30
0.0
 11
130.3197067912
 21
146.979461044
 31
0.0
  0
LINE
  5
22E
330
1F
100
AcDbEntity
  8
0
  6
Continuous
 62
     7
370
    25
100
AcDbLine
 10
130.3197067912
 20
146.979461044
 30
0.0
 11
130.3732969548
 21
146.979461044
 31
0.0
  0
LINE
  5
22F
330
1F
100
AcDbEntity
  8
0
  6
Continuous
 62
     7
370
    25
100
AcDbLine
 10
130.2661166276
 20
146.979461044
 30
0.0
 11
130.3197067912
 21
146.979461044
 31
0.0
  0
CIRCLE
  5
230
330
1F
100
AcDbEntity
  8
0
  6
Continuous
 62
     7
370
    25
100
AcDbCircle
 10
112.5654221262
 20
138.979460664
 30
0.0
 40
5.25
  0
CIRCLE
  5
231
330
1F
100
AcDbEntity
  8
0
  6
Continuous
 62
     7
370
    25
100
AcDbCircle
 10
112.5654221262
 20
138.979460664
 30
0.0
 40
6.456292496656189
  0
CIRCLE
  5
232
330
1F
100
AcDbEntity
  8
0
  6
Continuous
 62
     7
370
    25
100
AcDbCircle
 10
112.5654221262
 20
138.979460664
 30
0.0
 40
4.199999999999989
  0
CIRCLE
  5
233
330
1F
100
AcDbEntity
  8
0
  6
Continuous
 62
     7
370
    25
100
AcDbCircle
 10
112.5654221262
 20
138.979460664
 30
0.0
 40
3.999999999999986
  0
CIRCLE
  5
234
330
1F
100
AcDbEntity
  8
0
  6
Continuous
 62
     7
370
    25
100
AcDbCircle
 10
112.5654221262
 20
138.979460664
 30
0.0
 40
6.765992005947226
  0
LINE
  5
235
330
1F
100
AcDbEntity
  8
0
  6
Continuous
 62
     7
370
    25
100
AcDbLine
 10
122.5654219027
 20
145.5579605809
 30
0.0
 11
122.5654219027
 21
132.4009607471
 31
0.0
  0
LINE
  5
236
330
1F
100
AcDbEntity
  8
0
  6
Continuous
 62
     7
370
    25
100
AcDbLine
 10
107.815422279
 20
144.7294606752
 30
0.0
 11
107.815422279
 21
144.9794607162
 31
0.0
  0
LINE
  5
237
330
1F
100
AcDbEntity
  8
0
  6
Continuous
 62
     7
370
    25
100
AcDbLine
 10
107.815422279
 20
144.9794607162
 30
0.0
 11
109.4383391767
 21
144.9794607162
 31
0.0
  0
LINE
  5
238
330
1F
100
AcDbEntity
  8
0
  6
Continuous
 62
     7
370
    25
100
AcDbLine
 10
115.6925050758
 20
144.9794607162
 30
0.0
 11
117.3154219735
 21
144.9794607162
 31
0.0
  0
ARC
  5
239
330
1F
100
AcDbEntity
  8
0
  6
Continuous
 62
     7
370
    25
100
AcDbCircle
 10
117.3154221262
 20
144.729460664
 30
0.0
 40
0.25
100
AcDbArc
 50
0.0
 51
90.0
  0
LINE
  5
23A
330
1F
100
AcDbEntity
  8
0
  6
Continuous
 62
     7
370
    25
100
AcDbLine
 10
117.5654220145
 20
143.5378208681
 30
0.0
 11
117.5654220145
 21
144.7294606752
 31
0.0
  0
LINE
  5
23B
330
1F
100
AcDbEntity
  8
0
  6
Continuous
 62
     7
370
    25
100
AcDbLine
 10
117.3154219735
 20
132.9794606118
 30
0.0
 11
115.6925050758
 21
132.9794606118
 31
0.0
  0
LINE
  5
23C
330
1F
100
AcDbEntity
  8
0
  6
Continuous
 62
     7
370
    25
100
AcDbLine
 10
117.3154219735
 20
132.9794606118
 30
0.0
 11
117.3154219735
 21
133.2294606528
 31
0.0
  0
LINE
  5
23D
330
1F
100
AcDbEntity
  8
0
  6
Continuous
 62
     7
370
    25
100
AcDbLine
 10
109.4383391767
 20
132.9794606118
 30
0.0
 11
107.815422279
 21
132.9794606118
 31
0.0
  0
LINE
  5
23E
330
1F
100
AcDbEntity
  8
0
  6
Continuous
 62
     7
370
    25
100
AcDbLine
 10
107.815422279
 20
132.9794606118
 30
0.0
 11
107.815422279
 21
133.2294606528
 31
0.0
  0
ARC
  5
23F
330
1F
100
AcDbEntity
  8
0
  6
Continuous
 62
     7
370
    25
100
AcDbCircle
 10
107.8154221262
 20
144.729460664
 30
0.0
 40
0.25
100
AcDbArc
 50
90.0
 51
180.0
  0
LINE
  5
240
330
1F
100
AcDbEntity
  8
0
  6
Continuous
 62
     7
370
    25
100
AcDbLine
 10
107.565422238
 20
144.7294606752
 30
0.0
 11
107.815422279
 21
144.7294606752
 31
0.0
  0
LINE
  5
241
330
1F
100
AcDbEntity
  8
0
  6
Continuous
 62
     7
370
    25
100
AcDbLine
 10
107.565422238
 20
143.5378208681
 30
0.0
 11
107.565422238
 21
144.7294606752
 31
0.0
  0
LINE
  5
242
330
1F
100
AcDbEntity
  8
0
  6
Continuous
 62
     7
370
    25
100
AcDbLine
 10
107.565422238
 20
133.2294606528
 30
0.0
 11
107.565422238
 21
134.4211004599
 31
0.0
  0
LINE
  5
243
330
1F
100
AcDbEntity
  8
0
  6
Continuous
 62
     7
370
    25
100
AcDbLine
 10
107.565422238
 20
133.2294606528
 30
0.0
 11
107.815422279
 21
133.2294606528
 31
0.0
  0
LINE
  5
244
330
1F
100
AcDbEntity
  8
0
  6
Continuous
 62
     7
370
    25
100
AcDbLine
 10
117.5654220145
 20
134.4211004599
 30
0.0
 11
117.5654220145
 21
133.2294606528
 31
0.0
  0
LINE
  5
245
330
1F
100
AcDbEntity
  8
0
  6
Continuous
 62
     7
370
    25
100
AcDbLine
 10
117.5654220145
 20
133.2294606528
 30
0.0
 11
117.3154219735
 21
133.2294606528
 31
0.0
  0
ARC
  5
246
330
1F
100
AcDbEntity
  8
0
  6
Continuous
 62
     7
370
    25
100
AcDbCircle
 10
107.8154221262
 20
133.229460664
 30
0.0
 40
0.25
100
AcDbArc
 50
180.0
 51
270.0
  0
ARC
  5
247
330
1F
100
AcDbEntity
  8
0
  6
Continuous
 62
     7
370
    25
100
AcDbCircle
 10
117.3154221262
 20
133.229460664
 30
0.0
 40
0.25
100
AcDbArc
 50
270.0
 51
0.0
  0
LINE
  5
248
330
1F
100
AcDbEntity
  8
0
  6
Continuous
 62
     7
370
    25
100
AcDbLine
 10
118.5654221784
 20
144.9794607162
 30
0.0
 11
118.5654221784
 21
144.7294606752
 31
0.0
  0
LINE
  5
249
330
1F
100
AcDbEntity
  8
0
  6
Continuous
 62
     7
370
    25
100
AcDbLine
 10
118.5654221784
 20
144.7294606752
 30
0.0
 11
117.5654220145
 21
144.7294606752
 31
0.0
  0
LINE
  5
24A
330
1F
100
AcDbEntity
  8
0
  6
Continuous
 62
     7
370
    25
100
AcDbLine
 10
117.3154219735
 20
144.9794607162
 30
0.0
 11
118.5654221784
 21
144.9794607162
 31
0.0
  0
LINE
  5
24B
330
1F
100
AcDbEntity
  8
0
  6
Continuous
 62
     7
370
    25
100
AcDbLine
 10
118.5654221784
 20
142.3706257175
 30
0.0
 11
118.5654221784
 21
144.7294606752
 31
0.0
  0
SPLINE
  5
24C
330
1F
100
AcDbEntity
  8
0
  6
Continuous
 62
     7
370
    25
100
AcDbSpline
210
0.0
220
0.0
230
1.0
 70
     8
 71
     3
 72
    22
 73
    18
 74
     0
 42
0.000000001
 43
0.00000001
 40
0.0
 40
0.0
 40
0.0
 40
0.0
 40
0.0625000000121793
 40
0.0625000000121793
 40
0.1250000000121793
 40
0.1250000000121793
 40
0.1875000000121793
 40
0.1875000000121793
 40
0.2500000000121793
 40
0.2500000000121793
 40
0.3125000000121793
 40
0.3125000000121793
 40
0.3750000000121793
 40
0.3750000000121793
 40
0.4375000000121793
 40
0.4375000000121793
 40
0.5000000000121793
 40
0.5000000000121793
 40
0.5000000000121793
 40
0.5000000000121793
 10
120.5654221262315
 20
144.9794606640001
 30
0.0
 10
120.5654155037577
 20
144.9794606641395
 30
0.0
 10
120.552728752331
 20
144.9783620620663
 30
0.0
 10
120.5019950315378
 20
144.9744578409388
 30
0.0
 10
120.4658407239212
 20
144.9718064197494
 30
0.0
 10
120.3721103025729
 20
144.9662876019736
 30
0.0
 10
120.3179926006324
 20
144.9636372064955
 30
0.0
 10
120.1955350831863
 20
144.9597369607603
 30
0.0
 10
120.1315492546571
 20
144.9586338804298
 30
0.0
 10
119.9992950104591
 20
144.9586448880115
 30
0.0
 10
119.9351596671215
 20
144.9597406218569
 30
0.0
 10
119.8130011773362
 20
144.96363354465
 30
0.0
 10
119.7587245924028
 20
144.9662870493041
 30
0.0
 10
119.6650129040111
 20
144.9718069713721
 30
0.0
 10
119.6288369780552
 20
144.97445767901
 30
0.0
 10
119.5781277526841
 20
144.978362223251
 30
0.0
 10
119.5654221317285
 20
144.9794606640001
 30
0.0
 10
119.5654221262483
 20
144.9794606640001
 30
0.0
  0
SPLINE
  5
24D
330
1F
100
AcDbEntity
  8
0
  6
Continuous
 62
     7
370
    25
100
AcDbSpline
210
0.0
220
0.0
230
1.0
 70
    24
 71
     3
 72
    14
 73
    10
 74
     0
 42
0.000000001
 43
0.00000001
 40
0.0
 40
0.0
 40
0.0
 40
0.0
 40
0.25
 40
0.25
 40
0.5
 40
0.5
 40
0.75
 40
0.75
 40
1.0
 40
1.0
 40
1.0
 40
1.0
 10
119.3154221262483
 20
144.9794606640001
 30
0.0
 10
119.3154221262483
 20
144.9794606640001
 30
0.0
 10
119.3154221262483
 20
144.9696157502626
 30
0.0
 10
119.3154221262483
 20
144.9301236439535
 30
0.0
 10
119.3154221262483
 20
144.9004760047782
 30
0.0
 10
119.3154221262483
 20
144.8210468675746
 30
0.0
 10
119.3154221262483
 20
144.7712644435053
 30
0.0
 10
119.3154221262483
 20
144.6510354571707
 30
0.0
 10
119.3154221262483
 20
144.5805874245635
 30
0.0
 10
119.3154221262483
 20
144.4994606640001
 30
0.0
  0
SPLINE
  5
24E
330
1F
100
AcDbEntity
  8
0
  6
Continuous
 62
     7
370
    25
100
AcDbSpline
210
0.0
220
0.0
230
1.0
 70
    24
 71
     3
 72
    14
 73
    10
 74
     0
 42
0.000000001
 43
0.00000001
 40
0.0
 40
0.0
 40
0.0
 40
0.0
 40
0.25
 40
0.25
 40
0.5
 40
0.5
 40
0.75
 40
0.75
 40
1.0
 40
1.0
 40
1.0
 40
1.0
 10
119.3154221262483
 20
132.9794606640002
 30
0.0
 10
119.3154221262483
 20
132.9794606640002
 30
0.0
 10
119.3154221262483
 20
132.9893055777377
 30
0.0
 10
119.3154221262483
 20
133.0287976840468
 30
0.0
 10
119.3154221262483
 20
133.0584453232221
 30
0.0
 10
119.3154221262483
 20
133.1378744604257
 30
0.0
 10
119.3154221262483
 20
133.187656884495
 30
0.0
 10
119.3154221262483
 20
133.3078858708296
 30
0.0
 10
119.3154221262483
 20
133.3783339034368
 30
0.0
 10
119.3154221262483
 20
133.4594606640001
 30
0.0
  0
LINE
  5
24F
330
1F
100
AcDbEntity
  8
0
  6
Continuous
 62
     7
370
    25
100
AcDbLine
 10
119.3154223013
 20
135.0799222401
 30
0.0
 11
119.3154223013
 21
133.4594605415
 31
0.0
  0
SPLINE
  5
250
330
1F
100
AcDbEntity
  8
0
  6
Continuous
 62
     7
370
    25
100
AcDbSpline
210
0.0
220
0.0
230
1.0
 70
     8
 71
     3
 72
    14
 73
    10
 74
     0
 42
0.000000001
 43
0.00000001
 40
0.0
 40
0.0
 40
0.0
 40
0.0
 40
0.25
 40
0.25
 40
0.5
 40
0.5
 40
0.75
 40
0.75
 40
1.0
 40
1.0
 40
1.0
 40
1.0
 10
119.3154221262483
 20
135.0799222297749
 30
0.0
 10
119.3154221262483
 20
135.1455860974935
 30
0.0
 10
119.3054688196958
 20
135.2113109378014
 30
0.0
 10
119.2670972038798
 20
135.3428187373576
 30
0.0
 10
119.2385582719066
 20
135.4084498221973
 30
0.0
 10
119.1613707246265
 20
135.5321097340832
 30
0.0
 10
119.1119420394386
 20
135.592000380038
 30
0.0
 10
118.9844335522615
 20
135.688113055455
 30
0.0
 10
118.9028173422074
 20
135.7239422721
 30
0.0
 10
118.8154221262483
 20
135.7239422721
 30
0.0
  0
LINE
  5
251
330
1F
100
AcDbEntity
  8
0
  6
Continuous
 62
     7
370
    25
100
AcDbLine
 10
118.5654221784
 20
135.7239422779
 30
0.0
 11
118.8154222194
 21
135.7239422779
 31
0.0
  0
LINE
  5
252
330
1F
100
AcDbEntity
  8
0
  6
Continuous
 62
     7
370
    25
100
AcDbLine
 10
118.8154222194
 20
142.2349790501
 30
0.0
 11
118.5654221784
 21
142.2349790501
 31
0.0
  0
SPLINE
  5
253
330
1F
100
AcDbEntity
  8
0
  6
Continuous
 62
     7
370
    25
100
AcDbSpline
210
0.0
220
0.0
230
1.0
 70
     8
 71
     3
 72
    14
 73
    10
 74
     0
 42
0.000000001
 43
0.00000001
 40
0.0
 40
0.0
 40
0.0
 40
0.0
 40
0.25
 40
0.25
 40
0.5
 40
0.5
 40
0.75
 40
0.75
 40
1.0
 40
1.0
 40
1.0
 40
1.0
 10
118.8154221262483
 20
142.2349790559003
 30
0.0
 10
118.9027401552547
 20
142.2349790559003
 30
0.0
 10
118.9843682630763
 20
142.2707513587735
 30
0.0
 10
119.1120693812097
 20
142.367024639148
 30
0.0
 10
119.1614601740353
 20
142.4268934697668
 30
0.0
 10
119.2388188415933
 20
142.5509506638343
 30
0.0
 10
119.2673876511652
 20
142.6169421891841
 30
0.0
 10
119.3054550201323
 20
142.7477200582966
 30
0.0
 10
119.3154221262483
 20
142.8132800615733
 30
0.0
 10
119.3154221262483
 20
142.8789990982254
 30
0.0
  0
LINE
  5
254
330
1F
100
AcDbEntity
  8
0
  6
Continuous
 62
     7
370
    25
100
AcDbLine
 10
119.3154223013
 20
144.4994607865
 30
0.0
 11
119.3154223013
 21
142.8789990879
 31
0.0
  0
LINE
  5
255
330
1F
100
AcDbEntity
  8
0
  6
Continuous
 62
     7
370
    25
100
AcDbLine
 10
117.5654220145
 20
133.2294606528
 30
0.0
 11
118.5654221784
 21
133.2294606528
 31
0.0
  0
LINE
  5
256
330
1F
100
AcDbEntity
  8
0
  6
Continuous
 62
     7
370
    25
100
AcDbLine
 10
118.5654221784
 20
133.2294606528
 30
0.0
 11
118.5654221784
 21
135.5882956105
 31
0.0
  0
LINE
  5
257
330
1F
100
AcDbEntity
  8
0
  6
Continuous
 62
     7
370
    25
100
AcDbLine
 10
118.5654221784
 20
133.2294606528
 30
0.0
 11
118.5654221784
 21
132.9794606118
 31
0.0
  0
LINE
  5
258
330
1F
100
AcDbEntity
  8
0
  6
Continuous
 62
     7
370
    25
100
AcDbLine
 10
118.5654221784
 20
132.9794606118
 30
0.0
 11
117.3154219735
 21
132.9794606118
 31
0.0
  0
LINE
  5
259
330
1F
100
AcDbEntity
  8
0
  6
Continuous
 62
     7
370
    25
100
AcDbLine
 10
118.5654221784
 20
142.3706257175
 30
0.0
 11
118.5654221784
 21
142.2349790501
 31
0.0
  0
LINE
  5
25A
330
1F
100
AcDbEntity
  8
0
  6
Continuous
 62
     7
370
    25
100
AcDbLine
 10
118.5654221784
 20
135.7239422779
 30
0.0
 11
118.5654221784
 21
135.5882956105
 31
0.0
  0
SPLINE
  5
25B
330
1F
100
AcDbEntity
  8
0
  6
Continuous
 62
     7
370
    25
100
AcDbSpline
210
0.0
220
0.0
230
1.0
 70
     8
 71
     3
 72
    14
 73
    10
 74
     0
 42
0.000000001
 43
0.00000001
 40
0.0
 40
0.0
 40
0.0
 40
0.0
 40
0.4999999999999984
 40
0.4999999999999984
 40
0.7499999999999981
 40
0.7499999999999981
 40
0.874999999999999
 40
0.874999999999999
 40
1.0
 40
1.0
 40
1.0
 40
1.0
 10
119.0654221262483
 20
143.0414798663181
 30
0.0
 10
119.0654221262483
 20
142.9188068156902
 30
0.0
 10
119.0505184594144
 20
142.7953407866653
 30
0.0
 10
119.0027597058328
 20
142.6133439291828
 30
0.0
 10
118.9826896853795
 20
142.5529502834717
 30
0.0
 10
118.9390705815134
 20
142.4679395343381
 30
0.0
 10
118.9221311669171
 20
142.4401391853048
 30
0.0
 10
118.8786768703292
 20
142.3924252810449
 30
0.0
 10
118.8494438140036
 20
142.3706256555628
 30
0.0
 10
118.8154221262483
 20
142.3706256555628
 30
0.0
  0
LWPOLYLINE
  5
25C
330
1F
100
AcDbEntity
  8
0
  6
Continuous
 62
     7
370
    25
100
AcDbPolyline
 90
        9
 70
   128
 43
0.0
 10
119.0654222604
 20
143.0414799525
 10
119.0702260222
 20
143.0097814574
 10
119.0844524402
 20
142.9793011322
 10
119.107554828
 20
142.9512105807
 10
119.1386456351
 20
142.9265887401
 10
119.1765295092
 20
142.9063818342
 10
119.2197512585
 20
142.8913670517
 10
119.2666494038
 20
142.882121114
 10
119.3154223013
 20
142.8789990879
  0
LINE
  5
25D
330
1F
100
AcDbEntity
  8
0
  6
Continuous
 62
     7
370
    25
100
AcDbLine
 10
118.8154222194
 20
142.3706257175
 30
0.0
 11
118.8154222194
 21
142.2349790501
 31
0.0
  0
LWPOLYLINE
  5
25E
330
1F
100
AcDbEntity
  8
0
  6
Continuous
 62
     7
370
    25
100
AcDbPolyline
 90
        9
 70
   128
 43
0.0
 10
119.3154223013
 20
135.0799222401
 10
119.2666494038
 20
135.076800214
 10
119.2197512585
 20
135.0675542763
 10
119.1765295092
 20
135.0525394938
 10
119.1386456351
 20
135.0323325879
 10
119.107554828
 20
135.0077107473
 10
119.0844524402
 20
134.9796201958
 10
119.0702260222
 20
134.9491398706
 10
119.0654222604
 20
134.9174413755
  0
SPLINE
  5
25F
330
1F
100
AcDbEntity
  8
0
  6
Continuous
 62
     7
370
    25
100
AcDbSpline
210
0.0
220
0.0
230
1.0
 70
     8
 71
     3
 72
    14
 73
    10
 74
     0
 42
0.000000001
 43
0.00000001
 40
0.0
 40
0.0
 40
0.0
 40
0.0
 40
0.1250000000000003
 40
0.1250000000000003
 40
0.2500000000000006
 40
0.2500000000000006
 40
0.5000000000000008
 40
0.5000000000000008
 40
1.0
 40
1.0
 40
1.0
 40
1.0
 10
118.8154221262483
 20
135.5882956724375
 30
0.0
 10
118.8495256765451
 20
135.5882956724375
 30
0.0
 10
118.878626118804
 20
135.5665448074781
 30
0.0
 10
118.9221365413572
 20
135.518783200131
 30
0.0
 10
118.9390731269433
 20
135.4909729107811
 30
0.0
 10
118.982641353139
 20
135.4060730790481
 30
0.0
 10
119.0027458238239
 20
135.3456014409348
 30
0.0
 10
119.0504357484476
 20
135.1639533498834
 30
0.0
 10
119.0654221262483
 20
135.0400787715951
 30
0.0
 10
119.0654221262483
 20
134.9174414616822
 30
0.0
  0
LINE
  5
260
330
1F
100
AcDbEntity
  8
0
  6
Continuous
 62
     7
370
    25
100
AcDbLine
 10
118.8154222194
 20
135.7239422779
 30
0.0
 11
118.8154222194
 21
135.5882956105
 31
0.0
  0
LINE
  5
261
330
1F
100
AcDbEntity
  8
0
  6
Continuous
 62
     7
370
    25
100
AcDbLine
 10
118.5654221784
 20
142.3706257175
 30
0.0
 11
118.8154222194
 21
142.3706257175
 31
0.0
  0
LINE
  5
262
330
1F
100
AcDbEntity
  8
0
  6
Continuous
 62
     7
370
    25
100
AcDbLine
 10
118.8154222194
 20
135.5882956105
 30
0.0
 11
118.5654221784
 21
135.5882956105
 31
0.0
  0
LINE
  5
263
330
1F
100
AcDbEntity
  8
0
  6
Continuous
 62
     7
370
    25
100
AcDbLine
 10
118.8154222194
 20
144.9794607162
 30
0.0
 11
118.8154222194
 21
144.7294606752
 31
0.0
  0
LINE
  5
264
330
1F
100
AcDbEntity
  8
0
  6
Continuous
 62
     7
370
    25
100
AcDbLine
 10
118.8154222194
 20
144.7294606752
 30
0.0
 11
118.5654221784
 21
144.7294606752
 31
0.0
  0
LINE
  5
265
330
1F
100
AcDbEntity
  8
0
  6
Continuous
 62
     7
370
    25
100
AcDbLine
 10
118.5654221784
 20
144.9794607162
 30
0.0
 11
118.8154222194
 21
144.9794607162
 31
0.0
  0
ARC
  5
266
330
1F
100
AcDbEntity
  8
0
  6
Continuous
 62
     7
370
    25
100
AcDbCircle
 10
118.8154221262
 20
144.729460664
 30
0.0
 40
0.25
100
AcDbArc
 50
0.0
 51
90.0
  0
LINE
  5
267
330
1F
100
AcDbEntity
  8
0
  6
Continuous
 62
     7
370
    25
100
AcDbLine
 10
118.8154222194
 20
144.7294606752
 30
0.0
 11
119.0654222604
 21
144.7294606752
 31
0.0
  0
LINE
  5
268
330
1F
100
AcDbEntity
  8
0
  6
Continuous
 62
     7
370
    25
100
AcDbLine
 10
119.0654222604
 20
144.7294606752
 30
0.0
 11
119.0654222604
 21
143.0414799525
 31
0.0
  0
LINE
  5
269
330
1F
100
AcDbEntity
  8
0
  6
Continuous
 62
     7
370
    25
100
AcDbLine
 10
118.8154222194
 20
142.3706257175
 30
0.0
 11
118.8154222194
 21
144.7294606752
 31
0.0
  0
LINE
  5
26A
330
1F
100
AcDbEntity
  8
0
  6
Continuous
 62
     7
370
    25
100
AcDbLine
 10
118.5654221784
 20
133.2294606528
 30
0.0
 11
118.8154222194
 21
133.2294606528
 31
0.0
  0
LINE
  5
26B
330
1F
100
AcDbEntity
  8
0
  6
Continuous
 62
     7
370
    25
100
AcDbLine
 10
118.8154222194
 20
133.2294606528
 30
0.0
 11
118.8154222194
 21
135.5882956105
 31
0.0
  0
LINE
  5
26C
330
1F
100
AcDbEntity
  8
0
  6
Continuous
 62
     7
370
    25
100
AcDbLine
 10
119.0654222604
 20
134.9174413755
 30
0.0
 11
119.0654222604
 21
133.2294606528
 31
0.0
  0
LINE
  5
26D
330
1F
100
AcDbEntity
  8
0
  6
Continuous
 62
     7
370
    25
100
AcDbLine
 10
119.0654222604
 20
133.2294606528
 30
0.0
 11
118.8154222194
 21
133.2294606528
 31
0.0
  0
ARC
  5
26E
330
1F
100
AcDbEntity
  8
0
  6
Continuous
 62
     7
370
    25
100
AcDbCircle
 10
118.8154221262
 20
133.229460664
 30
0.0
 40
0.25
100
AcDbArc
 50
270.0
 51
0.0
  0
LINE
  5
26F
330
1F
100
AcDbEntity
  8
0
  6
Continuous
 62
     7
370
    25
100
AcDbLine
 10
118.8154222194
 20
133.2294606528
 30
0.0
 11
118.8154222194
 21
132.9794606118
 31
0.0
  0
LINE
  5
270
330
1F
100
AcDbEntity
  8
0
  6
Continuous
 62
     7
370
    25
100
AcDbLine
 10
118.8154222194
 20
132.9794606118
 30
0.0
 11
118.5654221784
 21
132.9794606118
 31
0.0
  0
SPLINE
  5
271
330
1F
100
AcDbEntity
  8
0
  6
Continuous
 62
     7
370
    25
100
AcDbSpline
210
0.0
220
0.0
230
1.0
 70
     8
 71
     3
 72
    12
 73
     8
 74
     0
 42
0.000000001
 43
0.00000001
 40
0.0
 40
0.0
 40
0.0
 40
0.0
 40
0.25
 40
0.25
 40
0.5
 40
0.5
 40
1.0
 40
1.0
 40
1.0
 40
1.0
 10
119.1386375305077
 20
144.5722484111058
 30
0.0
 10
119.1244239004741
 20
144.5860188845168
 30
0.0
 10
119.1117223767215
 20
144.602082904368
 30
0.0
 10
119.0906549473791
 20
144.6354742085634
 30
0.0
 10
119.0822890417892
 20
144.6528014929075
 30
0.0
 10
119.0656618606646
 20
144.7016925000977
 30
0.0
 10
119.0654221262483
 20
144.7294606640001
 30
0.0
 10
119.0654221262483
 20
144.7294606640001
 30
0.0
  0
SPLINE
  5
272
330
1F
100
AcDbEntity
  8
0
  6
Continuous
 62
     7
370
    25
100
AcDbSpline
210
0.0
220
0.0
230
1.0
 70
     8
 71
     3
 72
    10
 73
     6
 74
     0
 42
0.000000001
 43
0.00000001
 40
0.0
 40
0.0
 40
0.0
 40
0.0
 40
0.5
 40
0.5
 40
1.0
 40
1.0
 40
1.0
 40
1.0
 10
119.1386375305077
 20
144.5722484111058
 30
0.0
 10
119.167064790575
 20
144.5447074642837
 30
0.0
 10
119.2012914287419
 20
144.5250943303941
 30
0.0
 10
119.2643134742794
 20
144.5027854571057
 30
0.0
 10
119.2928991935714
 20
144.4994606640001
 30
0.0
 10
119.3154221262483
 20
144.4994606640001
 30
0.0
  0
SPLINE
  5
273
330
1F
100
AcDbEntity
  8
0
  6
Continuous
 62
     7
370
    25
100
AcDbSpline
210
0.0
220
0.0
230
1.0
 70
     8
 71
     3
 72
    10
 73
     6
 74
     0
 42
0.000000001
 43
0.00000001
 40
0.0
 40
0.0
 40
0.0
 40
0.0
 40
0.5
 40
0.5
 40
1.0
 40
1.0
 40
1.0
 40
1.0
 10
119.1386375305077
 20
133.3866729168946
 30
0.0
 10
119.167064790575
 20
133.4142138637166
 30
0.0
 10
119.2012914287419
 20
133.4338269976062
 30
0.0
 10
119.2643134742794
 20
133.4561358708945
 30
0.0
 10
119.2928991935714
 20
133.4594606640001
 30
0.0
 10
119.3154221262483
 20
133.4594606640001
 30
0.0
  0
SPLINE
  5
274
330
1F
100
AcDbEntity
  8
0
  6
Continuous
 62
     7
370
    25
100
AcDbSpline
210
0.0
220
0.0
230
1.0
 70
     8
 71
     3
 72
    12
 73
     8
 74
     0
 42
0.000000001
 43
0.00000001
 40
0.0
 40
0.0
 40
0.0
 40
0.0
 40
0.25
 40
0.25
 40
0.5
 40
0.5
 40
1.0
 40
1.0
 40
1.0
 40
1.0
 10
119.1386375305077
 20
133.3866729168946
 30
0.0
 10
119.1244239004741
 20
133.3729024434835
 30
0.0
 10
119.1117223767215
 20
133.3568384236323
 30
0.0
 10
119.0906549473791
 20
133.3234471194369
 30
0.0
 10
119.0822890417892
 20
133.3061198350928
 30
0.0
 10
119.0656618606646
 20
133.2572288279025
 30
0.0
 10
119.0654221262483
 20
133.2294606640002
 30
0.0
 10
119.0654221262483
 20
133.2294606640002
 30
0.0
  0
SPLINE
  5
275
330
1F
100
AcDbEntity
  8
0
  6
Continuous
 62
     7
370
    25
100
AcDbSpline
210
0.0
220
0.0
230
1.0
 70
     8
 71
     3
 72
    16
 73
    12
 74
     0
 42
0.000000001
 43
0.00000001
 40
0.0
 40
0.0
 40
0.0
 40
0.0
 40
0.1250000000000001
 40
0.1250000000000001
 40
0.2500000000000001
 40
0.2500000000000001
 40
0.5000000000000002
 40
0.5000000000000002
 40
0.7500000000000001
 40
0.7500000000000001
 40
1.0
 40
1.0
 40
1.0
 40
1.0
 10
111.5654221262483
 20
141.7591365251664
 30
0.0
 10
111.7194447955753
 20
141.7426295619351
 30
0.0
 10
111.874992151346
 20
141.7276942705497
 30
0.0
 10
112.1908592444829
 20
141.7055849641201
 30
0.0
 10
112.3526013774855
 20
141.698531146504
 30
0.0
 10
112.8375423063843
 20
141.6949673230918
 30
0.0
 10
113.1515637200905
 20
141.7169097519785
 30
0.0
 10
113.7692549993663
 20
141.7794518427026
 30
0.0
 10
114.0733645965814
 20
141.818310182117
 30
0.0
 10
114.6702413016821
 20
141.8861362088495
 30
0.0
 10
114.9647229742388
 20
141.9158214050467
 30
0.0
 10
115.2580045298156
 20
141.9375005555499
 30
0.0
  0
SPLINE
  5
276
330
1F
100
AcDbEntity
  8
0
  6
Continuous
 62
     7
370
    25
100
AcDbSpline
210
0.0
220
0.0
230
1.0
 70
     8
 71
     3
 72
    14
 73
    10
 74
     0
 42
0.000000001
 43
0.00000001
 40
0.0
 40
0.0
 40
0.0
 40
0.0
 40
0.25
 40
0.25
 40
0.5
 40
0.5
 40
0.75
 40
0.75
 40
1.0
 40
1.0
 40
1.0
 40
1.0
 10
115.2580045298161
 20
136.0214207724503
 30
0.0
 10
114.9647208636413
 20
136.0431000789674
 30
0.0
 10
114.670248398876
 20
136.0727845925784
 30
0.0
 10
114.073432376542
 20
136.1406031638325
 30
0.0
 10
113.7694151902166
 20
136.1794604534849
 30
0.0
 10
113.15066618753
 20
136.2420952561264
 30
0.0
 10
112.8354515291034
 20
136.2640825054059
 30
0.0
 10
112.1868259026217
 20
136.25902664834
 30
0.0
 10
111.8734304692802
 20
136.2327947643908
 30
0.0
 10
111.5654221262483
 20
136.1997848028339
 30
0.0
  0
LINE
  5
277
330
1F
100
AcDbEntity
  8
0
  6
Continuous
 62
     7
370
    25
100
AcDbLine
 10
111.5654220788
 20
136.1997847836
 30
0.0
 11
111.5654220788
 21
141.7591365444
 31
0.0
  0
SPLINE
  5
278
330
1F
100
AcDbEntity
  8
0
  6
Continuous
 62
     7
370
    25
100
AcDbSpline
210
0.0
220
0.0
230
1.0
 70
     8
 71
     3
 72
    12
 73
     8
 74
     0
 42
0.000000001
 43
0.00000001
 40
0.0
 40
0.0
 40
0.0
 40
0.0
 40
0.25
 40
0.25
 40
0.5
 40
0.5
 40
1.0
 40
1.0
 40
1.0
 40
1.0
 10
119.067429726538
 20
144.9781674466716
 30
0.0
 10
119.0571662672489
 20
144.9781572893145
 30
0.0
 10
119.0495874874521
 20
144.969600863203
 30
0.0
 10
119.035174032003
 20
144.9482275069681
 30
0.0
 10
119.0283393563507
 20
144.9354105768446
 30
0.0
 10
119.0020136033503
 20
144.9098170807011
 30
0.0
 10
118.9923466519893
 20
144.9060895288524
 30
0.0
 10
118.9921988215442
 20
144.9062373592976
 30
0.0
  0
SPLINE
  5
279
330
1F
100
AcDbEntity
  8
0
  6
Continuous
 62
     7
370
    25
100
AcDbSpline
210
0.0
220
0.0
230
1.0
 70
     8
 71
     3
 72
    10
 73
     6
 74
     0
 42
0.000000001
 43
0.00000001
 40
0.0
 40
0.0
 40
0.0
 40
0.0
 40
0.5
 40
0.5
 40
1.0
 40
1.0
 40
1.0
 40
1.0
 10
119.067429726538
 20
144.9781674466716
 30
0.0
 10
119.0263758893815
 20
144.978126817243
 30
0.0
 10
118.9823015370684
 20
144.9784853759998
 30
0.0
 10
118.8909502675565
 20
144.9834839305826
 30
0.0
 10
118.8582004860595
 20
144.9794606640001
 30
0.0
 10
118.8154221262483
 20
144.9794606640001
 30
0.0
  0
SPLINE
  5
27A
330
1F
100
AcDbEntity
  8
0
  6
Continuous
 62
     7
370
    25
100
AcDbSpline
210
0.0
220
0.0
230
1.0
 70
     8
 71
     3
 72
    14
 73
    10
 74
     0
 42
0.000000001
 43
0.00000001
 40
0.0
 40
0.0
 40
0.0
 40
0.0
 40
0.25
 40
0.25
 40
0.5
 40
0.5
 40
0.75
 40
0.75
 40
1.0
 40
1.0
 40
1.0
 40
1.0
 10
119.067429726538
 20
144.9781674466716
 30
0.0
 10
119.0776931858271
 20
144.9781776040288
 30
0.0
 10
119.0923580762579
 20
144.9696431916358
 30
0.0
 10
119.1240934544414
 20
144.9335977035305
 30
0.0
 10
119.1411639421942
 20
144.9060866278183
 30
0.0
 10
119.1713132500604
 20
144.8302002892558
 30
0.0
 10
119.1771447202103
 20
144.7859633168544
 30
0.0
 10
119.1710385969888
 20
144.6867241672358
 30
0.0
 10
119.1591010036173
 20
144.6317219900185
 30
0.0
 10
119.1386375305077
 20
144.5722484111058
 30
0.0
  0
SPLINE
  5
27B
330
1F
100
AcDbEntity
  8
0
  6
Continuous
 62
     7
370
    25
100
AcDbSpline
210
0.0
220
0.0
230
1.0
 70
     8
 71
     3
 72
    12
 73
     8
 74
     0
 42
0.000000001
 43
0.00000001
 40
0.0
 40
0.0
 40
0.0
 40
0.0
 40
0.25
 40
0.25
 40
0.5
 40
0.5
 40
1.0
 40
1.0
 40
1.0
 40
1.0
 10
119.067429726538
 20
132.9807538813287
 30
0.0
 10
119.0571662672489
 20
132.9807640386858
 30
0.0
 10
119.0495874874521
 20
132.9893204647973
 30
0.0
 10
119.035174032003
 20
133.0106938210322
 30
0.0
 10
119.0283393563507
 20
133.0235107511556
 30
0.0
 10
119.0020136033503
 20
133.0491042472992
 30
0.0
 10
118.9923466519893
 20
133.0528317991479
 30
0.0
 10
118.9921988215442
 20
133.0526839687027
 30
0.0
  0
SPLINE
  5
27C
330
1F
100
AcDbEntity
  8
0
  6
Continuous
 62
     7
370
    25
100
AcDbSpline
210
0.0
220
0.0
230
1.0
 70
     8
 71
     3
 72
    12
 73
     8
 74
     0
 42
0.000000001
 43
0.00000001
 40
0.0
 40
0.0
 40
0.0
 40
0.0
 40
0.25
 40
0.25
 40
0.5
 40
0.5
 40
1.0
 40
1.0
 40
1.0
 40
1.0
 10
119.067429726538
 20
132.9807538813287
 30
0.0
 10
119.0776931858271
 20
132.9807437239715
 30
0.0
 10
119.0923580762579
 20
132.9892781363646
 30
0.0
 10
119.1240934544414
 20
133.0253236244698
 30
0.0
 10
119.1411639421941
 20
133.052834700182
 30
0.0
 10
119.1863879039936
 20
133.1666642080257
 30
0.0
 10
119.1795644767269
 20
133.267725759069
 30
0.0
 10
119.1386375305077
 20
133.3866729168946
 30
0.0
  0
SPLINE
  5
27D
330
1F
100
AcDbEntity
  8
0
  6
Continuous
 62
     7
370
    25
100
AcDbSpline
210
0.0
220
0.0
230
1.0
 70
     8
 71
     3
 72
    10
 73
     6
 74
     0
 42
0.000000001
 43
0.00000001
 40
0.0
 40
0.0
 40
0.0
 40
0.0
 40
0.5
 40
0.5
 40
1.0
 40
1.0
 40
1.0
 40
1.0
 10
119.067429726538
 20
132.9807538813287
 30
0.0
 10
119.0263758893815
 20
132.9807945107573
 30
0.0
 10
118.9823015370684
 20
132.9804359520005
 30
0.0
 10
118.8909502675565
 20
132.9754373974177
 30
0.0
 10
118.8582004860595
 20
132.9794606640002
 30
0.0
 10
118.8154221262483
 20
132.9794606640002
 30
0.0
  0
SPLINE
  5
27E
330
1F
100
AcDbEntity
  8
0
  6
Continuous
 62
     7
370
    25
100
AcDbSpline
210
0.0
220
0.0
230
1.0
 70
     8
 71
     3
 72
    10
 73
     6
 74
     0
 42
0.000000001
 43
0.00000001
 40
0.0
 40
0.0
 40
0.0
 40
0.0
 40
0.5
 40
0.5
 40
1.0
 40
1.0
 40
1.0
 40
1.0
 10
119.067429726538
 20
144.9781674466716
 30
0.0
 10
119.1084835636945
 20
144.9782080761002
 30
0.0
 10
119.1519603940755
 20
144.9786532809484
 30
0.0
 10
119.2410190937999
 20
144.9751276799972
 30
0.0
 10
119.2731224633235
 20
144.9794606640001
 30
0.0
 10
119.3154221262483
 20
144.9794606640001
 30
0.0
  0
SPLINE
  5
27F
330
1F
100
AcDbEntity
  8
0
  6
Continuous
 62
     7
370
    25
100
AcDbSpline
210
0.0
220
0.0
230
1.0
 70
     8
 71
     3
 72
    10
 73
     6
 74
     0
 42
0.000000001
 43
0.00000001
 40
0.0
 40
0.0
 40
0.0
 40
0.0
 40
0.5
 40
0.5
 40
1.0
 40
1.0
 40
1.0
 40
1.0
 10
119.067429726538
 20
132.9807538813287
 30
0.0
 10
119.1084835636945
 20
132.9807132519001
 30
0.0
 10
119.1519603940755
 20
132.9802680470519
 30
0.0
 10
119.2410190937999
 20
132.9837936480031
 30
0.0
 10
119.2731224633235
 20
132.9794606640002
 30
0.0
 10
119.3154221262483
 20
132.9794606640002
 30
0.0
  0
SPLINE
  5
280
330
1F
100
AcDbEntity
  8
0
  6
Continuous
 62
     7
370
    25
100
AcDbSpline
210
0.0
220
0.0
230
1.0
 70
     8
 71
     3
 72
    18
 73
    14
 74
     0
 42
0.000000001
 43
0.00000001
 40
0.0
 40
0.0
 40
0.0
 40
0.0
 40
0.25
 40
0.25
 40
0.3749999999999999
 40
0.3749999999999999
 40
0.4999999999999999
 40
0.4999999999999999
 40
0.6249999999999999
 40
0.6249999999999999
 40
0.7499999999999999
 40
0.7499999999999999
 40
1.0
 40
1.0
 40
1.0
 40
1.0
 10
111.5654221262483
 20
136.1997848028339
 30
0.0
 10
111.3767565658195
 20
136.6193989228042
 30
0.0
 10
111.2094916433225
 20
137.0522349472226
 30
0.0
 10
111.0311647732755
 20
137.7456921599888
 30
0.0
 10
110.9842332218053
 20
137.9869925961982
 30
0.0
 10
110.9240004037558
 20
138.47511194151
 30
0.0
 10
110.9098217871557
 20
138.7223816516365
 30
0.0
 10
110.9093749286707
 20
139.2247968708892
 30
0.0
 10
110.923459861504
 20
139.4767039756136
 30
0.0
 10
110.9829527837557
 20
139.9641954205547
 30
0.0
 10
111.0291165594338
 20
140.2040772871353
 30
0.0
 10
111.2080888616827
 20
140.9035517093133
 30
0.0
 10
111.3761960739881
 20
141.3382758062619
 30
0.0
 10
111.5654221262483
 20
141.7591365251664
 30
0.0
  0
LINE
  5
281
330
1F
100
AcDbEntity
  8
0
  6
Continuous
 62
     8
370
    25
100
AcDbLine
 10
162.1135973122
 20
135.5460114702
 30
0.0
 11
162.1135973122
 21
142.4129098578
 31
0.0
  0
LINE
  5
282
330
1F
100
AcDbEntity
  8
0
  6
Continuous
 62
     8
370
    25
100
AcDbLine
 10
136.519707435
 20
131.1294609605
 30
0.0
 11
136.519707435
 21
146.8294603675
 31
0.0
  0
LINE
  5
283
330
1F
100
AcDbEntity
  8
0
  6
Continuous
 62
     8
370
    25
100
AcDbLine
 10
124.1197070788
 20
146.8294603675
 30
0.0
 11
124.1197070788
 21
131.1294609605
 31
0.0
  0
LINE
  5
284
330
1F
100
AcDbEntity
  8
0
  6
Continuous
 62
     8
370
    25
100
AcDbLine
 10
108.999451318
 20
144.7294606752
 30
0.0
 11
107.815422279
 21
144.7294606752
 31
0.0
  0
LINE
  5
285
330
1F
100
AcDbEntity
  8
0
  6
Continuous
 62
     8
370
    25
100
AcDbLine
 10
117.5654220145
 20
144.7294606752
 30
0.0
 11
116.1313929345
 21
144.7294606752
 31
0.0
  0
LINE
  5
286
330
1F
100
AcDbEntity
  8
0
  6
Continuous
 62
     8
370
    25
100
AcDbLine
 10
107.815422279
 20
144.7294606752
 30
0.0
 11
107.815422279
 21
143.7977744191
 31
0.0
  0
LINE
  5
287
330
1F
100
AcDbEntity
  8
0
  6
Continuous
 62
     8
370
    25
100
AcDbLine
 10
117.3154219735
 20
133.2294606528
 30
0.0
 11
117.3154219735
 21
134.1611469089
 31
0.0
  0
LINE
  5
288
330
1F
100
AcDbEntity
  8
0
  6
Continuous
 62
     8
370
    25
100
AcDbLine
 10
116.1313929345
 20
133.2294606528
 30
0.0
 11
117.3154219735
 21
133.2294606528
 31
0.0
  0
LINE
  5
289
330
1F
100
AcDbEntity
  8
0
  6
Continuous
 62
     8
370
    25
100
AcDbLine
 10
107.815422279
 20
133.2294606528
 30
0.0
 11
108.999451318
 21
133.2294606528
 31
0.0
  0
LINE
  5
28A
330
1F
100
AcDbEntity
  8
0
  6
Continuous
 62
     8
370
    25
100
AcDbLine
 10
107.815422279
 20
134.1611469089
 30
0.0
 11
107.815422279
 21
133.2294606528
 31
0.0
  0
LINE
  5
28B
330
1F
100
AcDbEntity
  8
0
  6
Continuous
 62
     8
370
    25
100
AcDbLine
 10
122.0654218208
 20
132.9794606118
 30
0.0
 11
122.0654218208
 21
144.9794607162
 31
0.0
  0
LINE
  5
28C
330
1F
100
AcDbEntity
  8
0
  6
Continuous
 62
     8
370
    25
100
AcDbLine
 10
118.4253792029
 20
142.3550912569
 30
0.0
 11
118.5654221784
 21
142.3706257175
 31
0.0
  0
LINE
  5
28D
330
1F
100
AcDbEntity
  8
0
  6
Continuous
 62
     8
370
    25
100
AcDbLine
 10
118.4974910441
 20
135.7335875201
 30
0.0
 11
118.5654221784
 21
135.7239422779
 31
0.0
  0
LINE
  5
28E
330
1F
100
AcDbEntity
  8
0
  6
Continuous
 62
     8
370
    25
100
AcDbLine
 10
118.5654221784
 20
142.2349790501
 30
0.0
 11
118.4881470848
 21
142.2240071389
 31
0.0
  0
LINE
  5
28F
330
1F
100
AcDbEntity
  8
0
  6
Continuous
 62
     8
370
    25
100
AcDbLine
 10
118.5654221784
 20
135.5882956105
 30
0.0
 11
118.4141302231
 21
135.6050778105
 31
0.0
  0
SPLINE
  5
290
330
1F
100
AcDbEntity
  8
0
  6
Continuous
 62
     8
370
    25
100
AcDbSpline
210
0.0
220
0.0
230
1.0
 70
     8
 71
     3
 72
    14
 73
    10
 74
     0
 42
0.000000001
 43
0.00000001
 40
0.0
 40
0.0
 40
0.0
 40
0.0
 40
0.25
 40
0.25
 40
0.5
 40
0.5
 40
0.75
 40
0.75
 40
1.0
 40
1.0
 40
1.0
 40
1.0
 10
119.8154221262483
 20
145.2794606640001
 30
0.0
 10
119.8154221319758
 20
145.2794606642125
 30
0.0
 10
119.8402205996592
 20
145.2782212360445
 30
0.0
 10
119.9322881070725
 20
145.2752940378761
 30
0.0
 10
119.9984800311987
 20
145.2739090100888
 30
0.0
 10
120.1326916904514
 20
145.2739011460069
 30
0.0
 10
120.199203171491
 20
145.2753140015496
 30
0.0
 10
120.2903614081652
 20
145.278213372568
 30
0.0
 10
120.3154130397407
 20
145.2794608163629
 30
0.0
 10
120.3154221261228
 20
145.2794606639843
 30
0.0
  0
LWPOLYLINE
  5
291
330
1F
100
AcDbEntity
  8
0
  6
Continuous
 62
     8
370
    25
100
AcDbPolyline
 90
       13
 70
   128
 43
0.0
 10
120.5654206436
 20
145.0294606312
 10
120.5654225062
 20
145.0294606312
 10
120.536472344
 20
145.0265204458
 10
120.452505232
 20
145.0189865119
 10
120.3241079796
 20
145.0103140361
 10
120.166497932
 20
145.004379183
 10
119.9979322713
 20
145.0037901214
 10
119.8391152296
 20
145.0086730457
 10
119.7055184032
 20
145.0168728753
 10
119.6118357341
 20
145.0248431339
 10
119.5679844107
 20
145.029190082
 10
119.5654223423
 20
145.0294606312
 10
119.5654223423
 20
145.0294606312
  0
INSERT
  5
29D
330
1F
100
AcDbEntity
  8
0
  6
Continuous
 62
     7
370
    18
100
AcDbBlockReference
  2
SW_CENTERMARKSYMBOL_1
 10
112.5654221262
 20
138.979460664
 30
0.0
  0
ENDSEC
  0
SECTION
  2
OBJECTS
  0
DICTIONARY
  5
C
330
0
100
AcDbDictionary
281
     1
  3
ACAD_GROUP
350
D
  3
ACAD_LAYOUT
350
1A
  3
ACAD_MLINESTYLE
350
17
  3
ACAD_PLOTSETTINGS
350
19
  3
ACAD_PLOTSTYLENAME
350
E
  3
ACAD_SCALELIST
350
47
  0
DICTIONARY
  5
D
102
{ACAD_REACTORS
330
C
102
}
330
C
100
AcDbDictionary
281
     1
  0
DICTIONARY
  5
1A
102
{ACAD_REACTORS
330
C
102
}
330
C
100
AcDbDictionary
281
     1
  3
Layout1
350
1E
  3
Layout2
350
26
  3
Model
350
22
  0
DICTIONARY
  5
17
102
{ACAD_REACTORS
330
C
102
}
330
C
100
AcDbDictionary
281
     1
  3
Standard
350
18
  0
DICTIONARY
  5
19
102
{ACAD_REACTORS
330
C
102
}
330
C
100
AcDbDictionary
281
     1
  0
ACDBDICTIONARYWDFLT
  5
E
102
{ACAD_REACTORS
330
C
102
}
330
C
100
AcDbDictionary
281
     1
  3
Normal
350
F
100
AcDbDictionaryWithDefault
340
F
  0
DICTIONARY
  5
47
102
{ACAD_REACTORS
330
C
102
}
330
C
100
AcDbDictionary
281
     1
  3
A0
350
48
  3
A1
350
49
  3
A2
350
4A
  3
A3
350
4B
  3
A4
350
4C
  3
A5
350
4D
  3
A6
350
4E
  3
A7
350
4F
  3
A8
350
50
  3
A9
350
51
  3
B0
350
52
  3
B1
350
53
  3
B2
350
54
  3
B3
350
55
  3
B4
350
56
  3
B5
350
57
  3
B6
350
58
  3
B7
350
59
  3
B8
350
5A
  3
B9
350
5B
  3
C0
350
5C
  3
C1
350
5D
  3
C2
350
5E
  3
C3
350
5F
  3
C4
350
60
  3
C5
350
61
  3
C6
350
62
  3
C7
350
63
  3
C8
350
64
  3
C9
350
65
  3
D0
350
66
  3
D1
350
67
  3
D2
350
68
  0
LAYOUT
  5
1E
102
{ACAD_REACTORS
330
1A
102
}
330
1A
100
AcDbPlotSettings
  1

  2
none_device
  4

  6

 40
0.0
 41
0.0
 42
0.0
 43
0.0
 44
0.0
 45
0.0
 46
0.0
 47
0.0
 48
0.0
 49
0.0
140
0.0
141
0.0
142
1.0
143
1.0
 70
   688
 72
     1
 73
     0
 74
     5
  7

 75
    16
147
1.0
148
0.0
149
0.0
100
AcDbLayout
  1
Layout1
 70
     1
 71
     1
 10
0.0
 20
0.0
 11
420.0
 21
297.0
 12
0.0
 22
0.0
 32
0.0
 14
1.0000000000E+20
 24
1.0000000000E+20
 34
1.0000000000E+20
 15
-1.0000000000E+20
 25
-1.0000000000E+20
 35
-1.0000000000E+20
146
0.0
 13
0.0
 23
0.0
 33
0.0
 16
1.0
 26
0.0
 36
0.0
 17
0.0
 27
1.0
 37
0.0
 76
     0
330
1B
  0
LAYOUT
  5
26
102
{ACAD_REACTORS
330
1A
102
}
330
1A
100
AcDbPlotSettings
  1

  2
none_device
  4

  6

 40
0.0
 41
0.0
 42
0.0
 43
0.0
 44
0.0
 45
0.0
 46
0.0
 47
0.0
 48
0.0
 49
0.0
140
0.0
141
0.0
142
1.0
143
1.0
 70
   688
 72
     1
 73
     0
 74
     5
  7

 75
    16
147
1.0
148
0.0
149
0.0
100
AcDbLayout
  1
Layout2
 70
     1
 71
     2
 10
0.0
 20
0.0
 11
0.0
 21
0.0
 12
0.0
 22
0.0
 32
0.0
 14
0.0
 24
0.0
 34
0.0
 15
0.0
 25
0.0
 35
0.0
146
0.0
 13
0.0
 23
0.0
 33
0.0
 16
1.0
 26
0.0
 36
0.0
 17
0.0
 27
1.0
 37
0.0
 76
     0
330
23
  0
LAYOUT
  5
22
102
{ACAD_REACTORS
330
1A
102
}
330
1A
100
AcDbPlotSettings
  1

  2
none_device
  4
Letter_(8.50_x_11.00_Inches)
  6

 40
6.35
 41
6.35
 42
6.35000508
 43
6.35000508
 44
215.9
 45
279.4
 46
0.0
 47
0.0
 48
0.0
 49
0.0
140
0.0
141
0.0
142
1.0
143
1.0
 70
  1712
 72
     1
 73
     0
 74
     0
  7

 75
     0
147
1.0
148
0.0
149
0.0
100
AcDbLayout
  1
Model
 70
     1
 71
     0
 10
0.0
 20
0.0
 11
431.8
 21
279.4
 12
0.0
 22
0.0
 32
0.0
 14
0.0
 24
0.0
 34
0.0
 15
431.8
 25
279.4
 35
0.0
146
0.0
 13
0.0
 23
0.0
 33
0.0
 16
1.0
 26
0.0
 36
0.0
 17
0.0
 27
1.0
 37
0.0
 76
     0
330
1F
331
29
  0
MLINESTYLE
  5
18
102
{ACAD_REACTORS
330
17
102
}
330
17
100
AcDbMlineStyle
  2
Standard
 70
     0
  3

 62
   256
 51
90.0
 52
90.0
 71
     2
 49
0.5
 62
   256
  6
BYLAYER
 49
-0.5
 62
   256
  6
BYLAYER
  0
ACDBPLACEHOLDER
  5
F
102
{ACAD_REACTORS
330
E
102
}
330
E
  0
SCALE
  5
48
102
{ACAD_REACTORS
330
47
102
}
330
47
100
AcDbScale
 70
     0
300
1:1
140
1.0
141
1.0
290
     1
  0
SCALE
  5
49
102
{ACAD_REACTORS
330
47
102
}
330
47
100
AcDbScale
 70
     0
300
1:2
140
1.0
141
2.0
290
     0
  0
SCALE
  5
4A
102
{ACAD_REACTORS
330
47
102
}
330
47
100
AcDbScale
 70
     0
300
1:4
140
1.0
141
4.0
290
     0
  0
SCALE
  5
4B
102
{ACAD_REACTORS
330
47
102
}
330
47
100
AcDbScale
 70
     0
300
1:5
140
1.0
141
5.0
290
     0
  0
SCALE
  5
4C
102
{ACAD_REACTORS
330
47
102
}
330
47
100
AcDbScale
 70
     0
300
1:8
140
1.0
141
8.0
290
     0
  0
SCALE
  5
4D
102
{ACAD_REACTORS
330
47
102
}
330
47
100
AcDbScale
 70
     0
300
1:10
140
1.0
141
10.0
290
     0
  0
SCALE
  5
4E
102
{ACAD_REACTORS
330
47
102
}
330
47
100
AcDbScale
 70
     0
300
1:16
140
1.0
141
16.0
290
     0
  0
SCALE
  5
4F
102
{ACAD_REACTORS
330
47
102
}
330
47
100
AcDbScale
 70
     0
300
1:20
140
1.0
141
20.0
290
     0
  0
SCALE
  5
50
102
{ACAD_REACTORS
330
47
102
}
330
47
100
AcDbScale
 70
     0
300
1:30
140
1.0
141
30.0
290
     0
  0
SCALE
  5
51
102
{ACAD_REACTORS
330
47
102
}
330
47
100
AcDbScale
 70
     0
300
1:40
140
1.0
141
40.0
290
     0
  0
SCALE
  5
52
102
{ACAD_REACTORS
330
47
102
}
330
47
100
AcDbScale
 70
     0
300
1:50
140
1.0
141
50.0
290
     0
  0
SCALE
  5
53
102
{ACAD_REACTORS
330
47
102
}
330
47
100
AcDbScale
 70
     0
300
1:100
140
1.0
141
100.0
290
     0
  0
SCALE
  5
54
102
{ACAD_REACTORS
330
47
102
}
330
47
100
AcDbScale
 70
     0
300
2:1
140
2.0
141
1.0
290
     0
  0
SCALE
  5
55
102
{ACAD_REACTORS
330
47
102
}
330
47
100
AcDbScale
 70
     0
300
4:1
140
4.0
141
1.0
290
     0
  0
SCALE
  5
56
102
{ACAD_REACTORS
330
47
102
}
330
47
100
AcDbScale
 70
     0
300
8:1
140
8.0
141
1.0
290
     0
  0
SCALE
  5
57
102
{ACAD_REACTORS
330
47
102
}
330
47
100
AcDbScale
 70
     0
300
10:1
140
10.0
141
1.0
290
     0
  0
SCALE
  5
58
102
{ACAD_REACTORS
330
47
102
}
330
47
100
AcDbScale
 70
     0
300
100:1
140
100.0
141
1.0
290
     0
  0
SCALE
  5
59
102
{ACAD_REACTORS
330
47
102
}
330
47
100
AcDbScale
 70
     0
300
1/128" = 1'-0"
140
0.0078125
141
12.0
290
     0
  0
SCALE
  5
5A
102
{ACAD_REACTORS
330
47
102
}
330
47
100
AcDbScale
 70
     0
300
1/64" = 1'-0"
140
0.015625
141
12.0
290
     0
  0
SCALE
  5
5B
102
{ACAD_REACTORS
330
47
102
}
330
47
100
AcDbScale
 70
     0
300
1/32" = 1'-0"
140
0.03125
141
12.0
290
     0
  0
SCALE
  5
5C
102
{ACAD_REACTORS
330
47
102
}
330
47
100
AcDbScale
 70
     0
300
1/16" = 1'-0"
140
0.0625
141
12.0
290
     0
  0
SCALE
  5
5D
102
{ACAD_REACTORS
330
47
102
}
330
47
100
AcDbScale
 70
     0
300
3/32" = 1'-0"
140
0.09375
141
12.0
290
     0
  0
SCALE
  5
5E
102
{ACAD_REACTORS
330
47
102
}
330
47
100
AcDbScale
 70
     0
300
1/8" = 1'-0"
140
0.125
141
12.0
290
     0
  0
SCALE
  5
5F
102
{ACAD_REACTORS
330
47
102
}
330
47
100
AcDbScale
 70
     0
300
3/16" = 1'-0"
140
0.1875
141
12.0
290
     0
  0
SCALE
  5
60
102
{ACAD_REACTORS
330
47
102
}
330
47
100
AcDbScale
 70
     0
300
1/4" = 1'-0"
140
0.25
141
12.0
290
     0
  0
SCALE
  5
61
102
{ACAD_REACTORS
330
47
102
}
330
47
100
AcDbScale
 70
     0
300
3/8" = 1'-0"
140
0.375
141
12.0
290
     0
  0
SCALE
  5
62
102
{ACAD_REACTORS
330
47
102
}
330
47
100
AcDbScale
 70
     0
300
1/2" = 1'-0"
140
0.5
141
12.0
290
     0
  0
SCALE
  5
63
102
{ACAD_REACTORS
330
47
102
}
330
47
100
AcDbScale
 70
     0
300
3/4" = 1'-0"
140
0.75
141
12.0
290
     0
  0
SCALE
  5
64
102
{ACAD_REACTORS
330
47
102
}
330
47
100
AcDbScale
 70
     0
300
1" = 1'-0"
140
1.0
141
12.0
290
     0
  0
SCALE
  5
65
102
{ACAD_REACTORS
330
47
102
}
330
47
100
AcDbScale
 70
     0
300
1-1/2" = 1'-0"
140
1.5
141
12.0
290
     0
  0
SCALE
  5
66
102
{ACAD_REACTORS
330
47
102
}
330
47
100
AcDbScale
 70
     0
300
3" = 1'-0"
140
3.0
141
12.0
290
     0
  0
SCALE
  5
67
102
{ACAD_REACTORS
330
47
102
}
330
47
100
AcDbScale
 70
     0
300
6" = 1'-0"
140
6.0
141
12.0
290
     0
  0
SCALE
  5
68
102
{ACAD_REACTORS
330
47
102
}
330
47
100
AcDbScale
 70
     0
300
1'-0" = 1'-0"
140
12.0
141
12.0
290
     0
  0
ENDSEC
  0
EOF
