  0
SECTION
  2
HEADER
  9
$ACADVER
  1
AC1015
  9
$ACADMAINTVER
 70
     6
  9
$DWGCODEPAGE
  3
DOS932
  9
$INSBASE
 10
0.0
 20
0.0
 30
0.0
  9
$EXTMIN
 10
0.0
 20
0.0
 30
0.0
  9
$EXTMAX
 10
431.8
 20
279.4
 30
0.0
  9
$LIMMIN
 10
0.0
 20
0.0
  9
$LIMMAX
 10
431.8
 20
279.4
  9
$ORTHOMODE
 70
     0
  9
$REGENMODE
 70
     1
  9
$FILLMODE
 70
     1
  9
$QTEXTMODE
 70
     0
  9
$MIRRTEXT
 70
     1
  9
$LTSCALE
 40
1.0
  9
$ATTMODE
 70
     1
  9
$TEXTSIZE
 40
3.5
  9
$TRACEWID
 40
1.0
  9
$TEXTSTYLE
  7
Standard
  9
$CLAYER
  8
0
  9
$CELTYPE
  6
ByLayer
  9
$CECOLOR
 62
   256
  9
$CELTSCALE
 40
1.0
  9
$DISPSILH
 70
     0
  9
$DIMSCALE
 40
1.0
  9
$DIMASZ
 40
3.302
  9
$DIMEXO
 40
1.0
  9
$DIMDLI
 40
3.75
  9
$DIMRND
 40
0.0
  9
$DIMDLE
 40
0.0
  9
$DIMEXE
 40
1.0
  9
$DIMTP
 40
0.0
  9
$DIMTM
 40
0.0
  9
$DIMTXT
 40
3.5
  9
$DIMCEN
 40
2.5
  9
$DIMTSZ
 40
0.0
  9
$DIMTOL
 70
     0
  9
$DIMLIM
 70
     0
  9
$DIMTIH
 70
     1
  9
$DIMTOH
 70
     1
  9
$DIMSE1
 70
     0
  9
$DIMSE2
 70
     0
  9
$DIMTAD
 70
     1
  9
$DIMZIN
 70
     1
  9
$DIMBLK
  1

  9
$DIMASO
 70
     1
  9
$DIMSHO
 70
     1
  9
$DIMPOST
  1

  9
$DIMAPOST
  1

  9
$DIMALT
 70
     0
  9
$DIMALTD
 70
     3
  9
$DIMALTF
 40
0.0393700787
  9
$DIMLFAC
 40
1.0
  9
$DIMTOFL
 70
     1
  9
$DIMTVP
 40
0.0
  9
$DIMTIX
 70
     0
  9
$DIMSOXD
 70
     0
  9
$DIMSAH
 70
     0
  9
$DIMBLK1
  1

  9
$DIMBLK2
  1

  9
$DIMSTYLE
  2
ISO-25
  9
$DIMCLRD
 70
     0
  9
$DIMCLRE
 70
     0
  9
$DIMCLRT
 70
     0
  9
$DIMTFAC
 40
1.0
  9
$DIMGAP
 40
1.524
  9
$DIMJUST
 70
     0
  9
$DIMSD1
 70
     0
  9
$DIMSD2
 70
     0
  9
$DIMTOLJ
 70
     0
  9
$DIMTZIN
 70
     1
  9
$DIMALTZ
 70
     0
  9
$DIMALTTZ
 70
     0
  9
$DIMUPT
 70
     0
  9
$DIMDEC
 70
     2
  9
$DIMTDEC
 70
     2
  9
$DIMALTU
 70
     2
  9
$DIMALTTD
 70
     3
  9
$DIMTXSTY
  7
Standard
  9
$DIMAUNIT
 70
     0
  9
$DIMADEC
 70
     2
  9
$DIMALTRND
 40
0.0
  9
$DIMAZIN
 70
     0
  9
$DIMDSEP
 70
    44
  9
$DIMATFIT
 70
     3
  9
$DIMFRAC
 70
     0
  9
$DIMLDRBLK
  1

  9
$DIMLUNIT
 70
     2
  9
$DIMLWD
 70
    -2
  9
$DIMLWE
 70
    -2
  9
$DIMTMOVE
 70
     0
  9
$LUNITS
 70
     2
  9
$LUPREC
 70
     2
  9
$SKETCHINC
 40
1.0
  9
$FILLETRAD
 40
10.0
  9
$AUNITS
 70
     0
  9
$AUPREC
 70
     2
  9
$MENU
  1
.
  9
$ELEVATION
 40
0.0
  9
$PELEVATION
 40
0.0
  9
$THICKNESS
 40
0.0
  9
$LIMCHECK
 70
     0
  9
$CHAMFERA
 40
0.0
  9
$CHAMFERB
 40
0.0
  9
$CHAMFERC
 40
0.0
  9
$CHAMFERD
 40
0.0
  9
$SKPOLY
 70
     0
  9
$TDCREATE
 40
2459296.608630521
  9
$TDUCREATE
 40
2459296.233630521
  9
$TDUPDATE
 40
2459296.60863125
  9
$TDUUPDATE
 40
2459296.23363125
  9
$TDINDWG
 40
0.0000000116
  9
$TDUSRTIMER
 40
0.0000000116
  9
$USRTIMER
 70
     1
  9
$ANGBASE
 50
0.0
  9
$ANGDIR
 70
     0
  9
$PDMODE
 70
     0
  9
$PDSIZE
 40
-1.0
  9
$PLINEWID
 40
0.0
  9
$SPLFRAME
 70
     0
  9
$SPLINETYPE
 70
     6
  9
$SPLINESEGS
 70
     8
  9
$HANDSEED
  5
296
  9
$SURFTAB1
 70
     6
  9
$SURFTAB2
 70
     6
  9
$SURFTYPE
 70
     6
  9
$SURFU
 70
     6
  9
$SURFV
 70
     6
  9
$UCSBASE
  2

  9
$UCSNAME
  2

  9
$UCSORG
 10
0.0
 20
0.0
 30
0.0
  9
$UCSXDIR
 10
1.0
 20
0.0
 30
0.0
  9
$UCSYDIR
 10
0.0
 20
1.0
 30
0.0
  9
$UCSORTHOREF
  2

  9
$UCSORTHOVIEW
 70
     0
  9
$UCSORGTOP
 10
0.0
 20
0.0
 30
0.0
  9
$UCSORGBOTTOM
 10
0.0
 20
0.0
 30
0.0
  9
$UCSORGLEFT
 10
0.0
 20
0.0
 30
0.0
  9
$UCSORGRIGHT
 10
0.0
 20
0.0
 30
0.0
  9
$UCSORGFRONT
 10
0.0
 20
0.0
 30
0.0
  9
$UCSORGBACK
 10
0.0
 20
0.0
 30
0.0
  9
$PUCSBASE
  2

  9
$PUCSNAME
  2

  9
$PUCSORG
 10
0.0
 20
0.0
 30
0.0
  9
$PUCSXDIR
 10
1.0
 20
0.0
 30
0.0
  9
$PUCSYDIR
 10
0.0
 20
1.0
 30
0.0
  9
$PUCSORTHOREF
  2

  9
$PUCSORTHOVIEW
 70
     0
  9
$PUCSORGTOP
 10
0.0
 20
0.0
 30
0.0
  9
$PUCSORGBOTTOM
 10
0.0
 20
0.0
 30
0.0
  9
$PUCSORGLEFT
 10
0.0
 20
0.0
 30
0.0
  9
$PUCSORGRIGHT
 10
0.0
 20
0.0
 30
0.0
  9
$PUCSORGFRONT
 10
0.0
 20
0.0
 30
0.0
  9
$PUCSORGBACK
 10
0.0
 20
0.0
 30
0.0
  9
$USERI1
 70
     0
  9
$USERI2
 70
     0
  9
$USERI3
 70
     0
  9
$USERI4
 70
     0
  9
$USERI5
 70
     0
  9
$USERR1
 40
0.0
  9
$USERR2
 40
0.0
  9
$USERR3
 40
0.0
  9
$USERR4
 40
0.0
  9
$USERR5
 40
0.0
  9
$WORLDVIEW
 70
     1
  9
$SHADEDGE
 70
     3
  9
$SHADEDIF
 70
    70
  9
$TILEMODE
 70
     1
  9
$MAXACTVP
 70
    64
  9
$PINSBASE
 10
0.0
 20
0.0
 30
0.0
  9
$PLIMCHECK
 70
     0
  9
$PEXTMIN
 10
1.0000000000E+20
 20
1.0000000000E+20
 30
1.0000000000E+20
  9
$PEXTMAX
 10
-1.0000000000E+20
 20
-1.0000000000E+20
 30
-1.0000000000E+20
  9
$PLIMMIN
 10
0.0
 20
0.0
  9
$PLIMMAX
 10
420.0
 20
297.0
  9
$UNITMODE
 70
     0
  9
$VISRETAIN
 70
     1
  9
$PLINEGEN
 70
     0
  9
$PSLTSCALE
 70
     1
  9
$TREEDEPTH
 70
  3020
  9
$CMLSTYLE
  2
Standard
  9
$CMLJUST
 70
     0
  9
$CMLSCALE
 40
20.0
  9
$PROXYGRAPHICS
 70
     1
  9
$MEASUREMENT
 70
     1
  9
$CELWEIGHT
370
    -1
  9
$ENDCAPS
280
     0
  9
$JOINSTYLE
280
     0
  9
$LWDISPLAY
290
     1
  9
$INSUNITS
 70
     4
  9
$HYPERLINKBASE
  1

  9
$STYLESHEET
  1

  9
$XEDIT
290
     1
  9
$CEPSNTYPE
380
     0
  9
$PSTYLEMODE
290
     1
  9
$FINGERPRINTGUID
  2
{04A7B042-6F13-4888-B66E-A6D25675F7AC}
  9
$VERSIONGUID
  2
{FAEB1C32-E019-11D5-929B-00C0DF256EC4}
  9
$EXTNAMES
290
     1
  9
$PSVPSCALE
 40
0.0
  9
$OLESTARTUP
290
     0
  0
ENDSEC
  0
SECTION
  2
CLASSES
  0
CLASS
  1
ACDBDICTIONARYWDFLT
  2
AcDbDictionaryWithDefault
  3
ObjectDBX Classes
 90
        0
280
     0
281
     0
  0
CLASS
  1
VISUALSTYLE
  2
AcDbVisualStyle
  3
ObjectDBX Classes
 90
     4095
280
     0
281
     0
  0
CLASS
  1
MATERIAL
  2
AcDbMaterial
  3
ObjectDBX Classes
 90
     1153
280
     0
281
     0
  0
CLASS
  1
SCALE
  2
AcDbScale
  3
ObjectDBX Classes
 90
     1153
280
     0
281
     0
  0
CLASS
  1
TABLESTYLE
  2
AcDbTableStyle
  3
ObjectDBX Classes
 90
     4095
280
     0
281
     0
  0
CLASS
  1
MLEADERSTYLE
  2
AcDbMLeaderStyle
  3
ACDB_MLEADERSTYLE_CLASS
 90
     4095
280
     0
281
     0
  0
CLASS
  1
SUN
  2
AcDbSun
  3
SCENEOE
 90
     1153
280
     0
281
     0
  0
CLASS
  1
ACDBPLACEHOLDER
  2
AcDbPlaceHolder
  3
ObjectDBX Classes
 90
        0
280
     0
281
     0
  0
CLASS
  1
LAYOUT
  2
AcDbLayout
  3
ObjectDBX Classes
 90
        0
280
     0
281
     0
  0
ENDSEC
  0
SECTION
  2
TABLES
  0
TABLE
  2
VPORT
  5
8
330
0
100
AcDbSymbolTable
 70
     1
  0
VPORT
  5
29
330
8
100
AcDbSymbolTableRecord
100
AcDbViewportTableRecord
  2
*Active
 70
     0
 10
0.0
 20
0.0
 11
1.0
 21
1.0
 12
215.9
 22
139.7
 13
0.0
 23
0.0
 14
10.0
 24
10.0
 15
10.0
 25
10.0
 16
0.0
 26
0.0
 36
1.0
 17
0.0
 27
0.0
 37
0.0
 40
279.4
 41
1.5454545455
 42
50.0
 43
0.0
 44
0.0
 50
0.0
 51
0.0
 71
     0
 72
  2000
 73
     1
 74
     3
 75
     0
 76
     0
 77
     0
 78
     0
281
     0
 65
     1
110
0.0
120
0.0
130
0.0
111
1.0
121
0.0
131
0.0
112
0.0
122
1.0
132
0.0
 79
     0
146
0.0
  0
ENDTAB
  0
TABLE
  2
LTYPE
  5
5
330
0
100
AcDbSymbolTable
 70
     6
  0
LTYPE
  5
14
330
5
100
AcDbSymbolTableRecord
100
AcDbLinetypeTableRecord
  2
ByBlock
 70
     0
  3

 72
    65
 73
     0
 40
0.0
  0
LTYPE
  5
15
330
5
100
AcDbSymbolTableRecord
100
AcDbLinetypeTableRecord
  2
ByLayer
 70
     0
  3

 72
    65
 73
     0
 40
0.0
  0
LTYPE
  5
16
330
5
100
AcDbSymbolTableRecord
100
AcDbLinetypeTableRecord
  2
Continuous
 70
     0
  3
Solid line
 72
    65
 73
     0
 40
0.0
  0
LTYPE
  5
6E
330
5
100
AcDbSymbolTableRecord
100
AcDbLinetypeTableRecord
  2
HIDDEN
 70
     0
  3
Hidden __ __ __ __ __ __ __ __ __ __ __ __ __ __
 72
    65
 73
     2
 40
1.905
 49
1.27
 74
     0
 49
-0.635
 74
     0
  0
LTYPE
  5
6F
330
5
100
AcDbSymbolTableRecord
100
AcDbLinetypeTableRecord
  2
PHANTOM
 70
     0
  3
Phantom ______  __  __  ______  __  __  ______
 72
    65
 73
     6
 40
12.7
 49
6.35
 74
     0
 49
-1.27
 74
     0
 49
1.27
 74
     0
 49
-1.27
 74
     0
 49
1.27
 74
     0
 49
-1.27
 74
     0
  0
LTYPE
  5
70
330
5
100
AcDbSymbolTableRecord
100
AcDbLinetypeTableRecord
  2
CENTER
 70
     0
  3
Center ____ _ ____ _ ____ _ ____ _ ____ _ ____
 72
    65
 73
     4
 40
10.16
 49
6.35
 74
     0
 49
-1.27
 74
     0
 49
1.27
 74
     0
 49
-1.27
 74
     0
  0
LTYPE
  5
71
330
5
100
AcDbSymbolTableRecord
100
AcDbLinetypeTableRecord
  2
CENTERX2
 70
     0
  3
Center (2x) ________  __  ________  __  _____
 72
    65
 73
     4
 40
20.32
 49
12.7
 74
     0
 49
-2.54
 74
     0
 49
2.54
 74
     0
 49
-2.54
 74
     0
  0
LTYPE
  5
72
330
5
100
AcDbSymbolTableRecord
100
AcDbLinetypeTableRecord
  2
DOT2
 70
     0
  3
Dot (.5x) ........................................
 72
    65
 73
     2
 40
0.635
 49
0.0
 74
     0
 49
-0.635
 74
     0
  0
ENDTAB
  0
TABLE
  2
LAYER
  5
2
330
0
100
AcDbSymbolTable
 70
     1
  0
LAYER
  5
10
330
2
100
AcDbSymbolTableRecord
100
AcDbLayerTableRecord
  2
0
 70
     0
 62
     7
  6
Continuous
370
    -3
390
F
  0
ENDTAB
  0
TABLE
  2
STYLE
  5
3
330
0
100
AcDbSymbolTable
 70
     2
  0
STYLE
  5
11
330
3
100
AcDbSymbolTableRecord
100
AcDbTextStyleTableRecord
  2
Standard
 70
     0
 40
0.0
 41
1.0
 50
0.0
 71
     0
 42
3.5
  3
txt
  4
bigfont
  0
STYLE
  5
73
330
3
100
AcDbSymbolTableRecord
100
AcDbTextStyleTableRecord
  2
SLDTEXTSTYLE0
 70
     0
 40
0.0
 41
0.7
 50
0.0
 71
     0
 42
3.5
  3
TXT
  4
bigfont
  0
ENDTAB
  0
TABLE
  2
VIEW
  5
6
330
0
100
AcDbSymbolTable
 70
     0
  0
ENDTAB
  0
TABLE
  2
UCS
  5
7
330
0
100
AcDbSymbolTable
 70
     0
  0
ENDTAB
  0
TABLE
  2
APPID
  5
9
330
0
100
AcDbSymbolTable
 70
     1
  0
APPID
  5
12
330
9
100
AcDbSymbolTableRecord
100
AcDbRegAppTableRecord
  2
ACAD
 70
     0
  0
ENDTAB
  0
TABLE
  2
DIMSTYLE
  5
A
330
0
100
AcDbSymbolTable
 70
     1
100
AcDbDimStyleTable
  0
DIMSTYLE
105
27
330
A
100
AcDbSymbolTableRecord
100
AcDbDimStyleTableRecord
  2
ISO-25
 70
     0
 41
2.5
 42
0.625
 43
3.75
 44
1.25
 73
     0
 74
     0
 77
     1
 78
     8
140
2.5
141
2.5
143
0.0393700787
147
0.625
171
     3
172
     1
178
     0
271
     2
272
     2
274
     3
278
    44
283
     0
284
     8
340
11
  0
ENDTAB
  0
TABLE
  2
BLOCK_RECORD
  5
1
330
0
100
AcDbSymbolTable
 70
     3
  0
BLOCK_RECORD
  5
1F
330
1
100
AcDbSymbolTableRecord
100
AcDbBlockTableRecord
  2
*Model_Space
340
22
  0
BLOCK_RECORD
  5
1B
330
1
100
AcDbSymbolTableRecord
100
AcDbBlockTableRecord
  2
*Paper_Space
340
1E
  0
BLOCK_RECORD
  5
23
330
1
100
AcDbSymbolTableRecord
100
AcDbBlockTableRecord
  2
*Paper_Space0
340
26
  0
BLOCK_RECORD
  5
1C8
330
1
100
AcDbSymbolTableRecord
100
AcDbBlockTableRecord
  2
SW_CENTERMARKSYMBOL_0
340
0
102
{BLKREFS
331
1D3
102
}
  0
BLOCK_RECORD
  5
28A
330
1
100
AcDbSymbolTableRecord
100
AcDbBlockTableRecord
  2
SW_CENTERMARKSYMBOL_1
340
0
102
{BLKREFS
331
295
102
}
  0
ENDTAB
  0
ENDSEC
  0
SECTION
  2
BLOCKS
  0
BLOCK
  5
20
330
1F
100
AcDbEntity
  8
0
100
AcDbBlockBegin
  2
*Model_Space
 70
     0
 10
0.0
 20
0.0
 30
0.0
  3
*Model_Space
  1

  0
ENDBLK
  5
21
330
1F
100
AcDbEntity
  8
0
100
AcDbBlockEnd
  0
BLOCK
  5
1C
330
1B
100
AcDbEntity
 67
     1
  8
0
100
AcDbBlockBegin
  2
*Paper_Space
 70
     0
 10
0.0
 20
0.0
 30
0.0
  3
*Paper_Space
  1

  0
ENDBLK
  5
1D
330
1B
100
AcDbEntity
 67
     1
  8
0
100
AcDbBlockEnd
  0
BLOCK
  5
24
330
23
100
AcDbEntity
  8
0
100
AcDbBlockBegin
  2
*Paper_Space0
 70
     0
 10
0.0
 20
0.0
 30
0.0
  3
*Paper_Space0
  1

  0
ENDBLK
  5
25
330
23
100
AcDbEntity
  8
0
100
AcDbBlockEnd
  0
BLOCK
  5
1C9
330
1C8
100
AcDbEntity
  8
0
100
AcDbBlockBegin
  2
SW_CENTERMARKSYMBOL_0
 70
     0
 10
0.0
 20
0.0
 30
0.0
  3
SW_CENTERMARKSYMBOL_0
  1

  0
LINE
  5
1CB
330
1C8
100
AcDbEntity
  8
0
  6
Continuous
 62
     0
370
    18
100
AcDbLine
 10
0.0
 20
0.0
 30
0.0
 11
0.0
 21
2.5
 31
0.0
  0
LINE
  5
1CC
330
1C8
100
AcDbEntity
  8
0
  6
Continuous
 62
     0
370
    18
100
AcDbLine
 10
0.0
 20
0.0
 30
0.0
 11
-2.5
 21
0.0
 31
0.0
  0
LINE
  5
1CD
330
1C8
100
AcDbEntity
  8
0
  6
Continuous
 62
     0
370
    18
100
AcDbLine
 10
0.0
 20
0.0
 30
0.0
 11
0.0
 21
-2.5
 31
0.0
  0
LINE
  5
1CE
330
1C8
100
AcDbEntity
  8
0
  6
Continuous
 62
     0
370
    18
100
AcDbLine
 10
0.0
 20
0.0
 30
0.0
 11
2.5
 21
0.0
 31
0.0
  0
LINE
  5
1CF
330
1C8
100
AcDbEntity
  8
0
  6
Continuous
 62
     0
370
    18
100
AcDbLine
 10
0.0
 20
5.0
 30
0.0
 11
0.0
 21
23.7720716891
 31
0.0
  0
LINE
  5
1D0
330
1C8
100
AcDbEntity
  8
0
  6
Continuous
 62
     0
370
    18
100
AcDbLine
 10
-5.0
 20
0.0
 30
0.0
 11
-10.35
 21
0.0
 31
0.0
  0
LINE
  5
1D1
330
1C8
100
AcDbEntity
  8
0
  6
Continuous
 62
     0
370
    18
100
AcDbLine
 10
0.0
 20
-5.0
 30
0.0
 11
0.0
 21
-10.35
 31
0.0
  0
LINE
  5
1D2
330
1C8
100
AcDbEntity
  8
0
  6
Continuous
 62
     0
370
    18
100
AcDbLine
 10
5.0
 20
0.0
 30
0.0
 11
10.35
 21
0.0
 31
0.0
  0
ENDBLK
  5
1CA
330
1C8
100
AcDbEntity
  8
0
100
AcDbBlockEnd
  0
BLOCK
  5
28B
330
28A
100
AcDbEntity
  8
0
100
AcDbBlockBegin
  2
SW_CENTERMARKSYMBOL_1
 70
     0
 10
0.0
 20
0.0
 30
0.0
  3
SW_CENTERMARKSYMBOL_1
  1

  0
LINE
  5
28D
330
28A
100
AcDbEntity
  8
0
  6
Continuous
 62
     0
370
    18
100
AcDbLine
 10
0.0
 20
0.0
 30
0.0
 11
0.0
 21
2.5
 31
0.0
  0
LINE
  5
28E
330
28A
100
AcDbEntity
  8
0
  6
Continuous
 62
     0
370
    18
100
AcDbLine
 10
0.0
 20
0.0
 30
0.0
 11
-2.5
 21
0.0
 31
0.0
  0
LINE
  5
28F
330
28A
100
AcDbEntity
  8
0
  6
Continuous
 62
     0
370
    18
100
AcDbLine
 10
0.0
 20
0.0
 30
0.0
 11
0.0
 21
-2.5
 31
0.0
  0
LINE
  5
290
330
28A
100
AcDbEntity
  8
0
  6
Continuous
 62
     0
370
    18
100
AcDbLine
 10
0.0
 20
0.0
 30
0.0
 11
2.5
 21
0.0
 31
0.0
  0
LINE
  5
291
330
28A
100
AcDbEntity
  8
0
  6
Continuous
 62
     0
370
    18
100
AcDbLine
 10
0.0
 20
5.0
 30
0.0
 11
0.0
 21
9.2659920059
 31
0.0
  0
LINE
  5
292
330
28A
100
AcDbEntity
  8
0
  6
Continuous
 62
     0
370
    18
100
AcDbLine
 10
-5.0
 20
0.0
 30
0.0
 11
-9.2659920059
 21
0.0
 31
0.0
  0
LINE
  5
293
330
28A
100
AcDbEntity
  8
0
  6
Continuous
 62
     0
370
    18
100
AcDbLine
 10
0.0
 20
-5.0
 30
0.0
 11
0.0
 21
-9.2659920059
 31
0.0
  0
LINE
  5
294
330
28A
100
AcDbEntity
  8
0
  6
Continuous
 62
     0
370
    18
100
AcDbLine
 10
5.0
 20
0.0
 30
0.0
 11
52.1901024872
 21
0.0
 31
0.0
  0
ENDBLK
  5
28C
330
28A
100
AcDbEntity
  8
0
100
AcDbBlockEnd
  0
ENDSEC
  0
SECTION
  2
ENTITIES
  0
MTEXT
  5
74
330
1F
100
AcDbEntity
  8
0
  6
Continuous
 62
     7
370
     0
100
AcDbMText
 10
166.8181748304
 20
114.0372695958
 30
0.0
 40
4.2333333333
 41
0.0
 71
     1
 72
     1
  1
HL-1207R
  7
SLDTEXTSTYLE0
 73
     1
 44
1.0
  0
LINE
  5
75
330
1F
100
AcDbEntity
  8
0
  6
Continuous
 62
     7
370
    25
100
AcDbLine
 10
126.6538863198
 20
70.0091399195
 30
0.0
 11
127.1538873331
 21
70.0091399195
 31
0.0
  0
LINE
  5
76
330
1F
100
AcDbEntity
  8
0
  6
Continuous
 62
     7
370
    25
100
AcDbLine
 10
127.1538873331
 20
79.0091395321
 30
0.0
 11
126.6538863198
 21
79.0091395321
 31
0.0
  0
LINE
  5
77
330
1F
100
AcDbEntity
  8
0
  6
Continuous
 62
     7
370
    25
100
AcDbLine
 10
127.1538873331
 20
71.0091396177
 30
0.0
 11
131.1538861261
 21
71.0091396177
 31
0.0
  0
LINE
  5
78
330
1F
100
AcDbEntity
  8
0
  6
Continuous
 62
     7
370
    25
100
AcDbLine
 10
131.1538861261
 20
78.0091398338
 30
0.0
 11
127.1538873331
 21
78.0091398338
 31
0.0
  0
LINE
  5
79
330
1F
100
AcDbEntity
  8
0
  6
Continuous
 62
     7
370
    25
100
AcDbLine
 10
131.1538861261
 20
71.0091396177
 30
0.0
 11
135.1538849191
 21
71.6591396777
 31
0.0
  0
LINE
  5
7A
330
1F
100
AcDbEntity
  8
0
  6
Continuous
 62
     7
370
    25
100
AcDbLine
 10
135.1538849191
 20
77.3591397738
 30
0.0
 11
131.1538861261
 21
78.0091398338
 31
0.0
  0
LINE
  5
7B
330
1F
100
AcDbEntity
  8
0
  6
Continuous
 62
     7
370
    25
100
AcDbLine
 10
135.1538849191
 20
71.0091396177
 30
0.0
 11
139.1538855747
 21
71.6591396777
 31
0.0
  0
LINE
  5
7C
330
1F
100
AcDbEntity
  8
0
  6
Continuous
 62
     7
370
    25
100
AcDbLine
 10
139.1538855747
 20
77.3591397738
 30
0.0
 11
135.1538849191
 21
78.0091398338
 31
0.0
  0
LINE
  5
7D
330
1F
100
AcDbEntity
  8
0
  6
Continuous
 62
     7
370
    25
100
AcDbLine
 10
139.1538855747
 20
71.0091396177
 30
0.0
 11
143.1538862304
 21
71.6591396777
 31
0.0
  0
LINE
  5
7E
330
1F
100
AcDbEntity
  8
0
  6
Continuous
 62
     7
370
    25
100
AcDbLine
 10
143.1538862304
 20
77.3591397738
 30
0.0
 11
139.1538855747
 21
78.0091398338
 31
0.0
  0
LINE
  5
7F
330
1F
100
AcDbEntity
  8
0
  6
Continuous
 62
     7
370
    25
100
AcDbLine
 10
143.1538862304
 20
71.0091396177
 30
0.0
 11
147.153886886
 21
71.6591396777
 31
0.0
  0
LINE
  5
80
330
1F
100
AcDbEntity
  8
0
  6
Continuous
 62
     7
370
    25
100
AcDbLine
 10
147.153886886
 20
77.3591397738
 30
0.0
 11
143.1538862304
 21
78.0091398338
 31
0.0
  0
LINE
  5
81
330
1F
100
AcDbEntity
  8
0
  6
Continuous
 62
     7
370
    25
100
AcDbLine
 10
147.153886886
 20
71.0091396177
 30
0.0
 11
151.9501310901
 21
71.5759686137
 31
0.0
  0
LINE
  5
82
330
1F
100
AcDbEntity
  8
0
  6
Continuous
 62
     7
370
    25
100
AcDbLine
 10
151.9501310901
 20
77.4423108379
 30
0.0
 11
147.153886886
 21
78.0091398338
 31
0.0
  0
ARC
  5
83
330
1F
100
AcDbEntity
  8
0
  6
Continuous
 62
     7
370
    25
100
AcDbCircle
 10
151.8562384462
 20
76.6478398115
 30
0.0
 40
0.8000000000000147
100
AcDbArc
 50
4.3945905239
 51
83.2599439021
  0
ARC
  5
84
330
1F
100
AcDbEntity
  8
0
  6
Continuous
 62
     7
370
    25
100
AcDbCircle
 10
151.8562384462
 20
72.3704396401
 30
0.0
 40
0.8000000000000157
100
AcDbArc
 50
276.7400560979
 51
355.6054094761
  0
LINE
  5
85
330
1F
100
AcDbEntity
  8
0
  6
Continuous
 62
     7
370
    25
100
AcDbLine
 10
116.4550203026
 20
83.7467439415
 30
0.0
 11
115.6538863794
 21
82.3591394292
 31
0.0
  0
LINE
  5
86
330
1F
100
AcDbEntity
  8
0
  6
Continuous
 62
     7
370
    25
100
AcDbLine
 10
115.6538863794
 20
66.6591400223
 30
0.0
 11
116.4550203026
 21
65.27153551
 31
0.0
  0
LINE
  5
87
330
1F
100
AcDbEntity
  8
0
  6
Continuous
 62
     7
370
    25
100
AcDbLine
 10
123.8527530001
 20
65.27153551
 30
0.0
 11
124.653885992
 21
66.6591400223
 31
0.0
  0
LINE
  5
88
330
1F
100
AcDbEntity
  8
0
  6
Continuous
 62
     7
370
    25
100
AcDbLine
 10
124.653885992
 20
82.3591394292
 30
0.0
 11
123.8527530001
 21
83.7467439415
 31
0.0
  0
ARC
  5
89
330
1F
100
AcDbEntity
  8
0
  6
Continuous
 62
     7
370
    25
100
AcDbCircle
 10
126.353886439
 20
82.0591397258
 30
0.0
 40
0.2999999999999972
100
AcDbArc
 50
0.0
 51
90.0
  0
ARC
  5
8A
330
1F
100
AcDbEntity
  8
0
  6
Continuous
 62
     7
370
    25
100
AcDbCircle
 10
126.353886439
 20
66.9591397258
 30
0.0
 40
0.3000000000000114
100
AcDbArc
 50
270.0
 51
0.0
  0
LINE
  5
8B
330
1F
100
AcDbEntity
  8
0
  6
Continuous
 62
     7
370
    25
100
AcDbLine
 10
115.6538863794
 20
82.3591394292
 30
0.0
 11
113.9538864733
 21
82.3591394292
 31
0.0
  0
LINE
  5
8C
330
1F
100
AcDbEntity
  8
0
  6
Continuous
 62
     7
370
    25
100
AcDbLine
 10
113.9538864733
 20
66.6591400223
 30
0.0
 11
115.6538863794
 21
66.6591400223
 31
0.0
  0
LINE
  5
8D
330
1F
100
AcDbEntity
  8
0
  6
Continuous
 62
     7
370
    25
100
AcDbLine
 10
124.653885992
 20
66.6591400223
 30
0.0
 11
126.3538868294
 21
66.6591400223
 31
0.0
  0
LINE
  5
8E
330
1F
100
AcDbEntity
  8
0
  6
Continuous
 62
     7
370
    25
100
AcDbLine
 10
126.3538868294
 20
82.3591394292
 30
0.0
 11
124.653885992
 21
82.3591394292
 31
0.0
  0
ARC
  5
8F
330
1F
100
AcDbEntity
  8
0
  6
Continuous
 62
     7
370
    25
100
AcDbCircle
 10
113.953886439
 20
66.9591397258
 30
0.0
 40
0.3000000000000114
100
AcDbArc
 50
180.0
 51
270.0
  0
ARC
  5
90
330
1F
100
AcDbEntity
  8
0
  6
Continuous
 62
     7
370
    25
100
AcDbCircle
 10
113.953886439
 20
82.0591397258
 30
0.0
 40
0.2999999999999972
100
AcDbArc
 50
90.0
 51
180.0
  0
LINE
  5
91
330
1F
100
AcDbEntity
  8
0
  6
Continuous
 62
     7
370
    25
100
AcDbLine
 10
120.1002960221
 20
65.27153551
 30
0.0
 11
120.1538861857
 21
65.4715351703
 31
0.0
  0
LINE
  5
92
330
1F
100
AcDbEntity
  8
0
  6
Continuous
 62
     7
370
    25
100
AcDbLine
 10
120.1538861857
 20
65.4715351703
 30
0.0
 11
120.2074763493
 21
65.27153551
 31
0.0
  0
LINE
  5
93
330
1F
100
AcDbEntity
  8
0
  6
Continuous
 62
     7
370
    25
100
AcDbLine
 10
120.2074763493
 20
83.7467439415
 30
0.0
 11
120.1538861857
 21
83.5467442813
 31
0.0
  0
LINE
  5
94
330
1F
100
AcDbEntity
  8
0
  6
Continuous
 62
     7
370
    25
100
AcDbLine
 10
120.1538861857
 20
83.5467442813
 30
0.0
 11
120.1002960221
 21
83.7467439415
 31
0.0
  0
ARC
  5
95
330
1F
100
AcDbEntity
  8
0
  6
Continuous
 62
     7
370
    25
100
AcDbCircle
 10
95.6496015207
 20
85.0091397258
 30
0.0
 40
0.5
100
AcDbArc
 50
268.1671385201
 51
270.0
  0
ARC
  5
96
330
1F
100
AcDbEntity
  8
0
  6
Continuous
 62
     7
370
    25
100
AcDbCircle
 10
109.1496015207
 20
85.0091397258
 30
0.0
 40
0.5
100
AcDbArc
 50
270.0
 51
271.8328614799
  0
LINE
  5
97
330
1F
100
AcDbEntity
  8
0
  6
Continuous
 62
     7
370
    25
100
AcDbLine
 10
109.1655934357
 20
84.509395616
 30
0.0
 11
108.8558942207
 21
94.4197807403
 31
0.0
  0
LINE
  5
98
330
1F
100
AcDbEntity
  8
0
  6
Continuous
 62
     7
370
    25
100
AcDbLine
 10
95.9433088207
 20
94.4197807403
 30
0.0
 11
95.6336096057
 21
84.509395616
 31
0.0
  0
LINE
  5
99
330
1F
100
AcDbEntity
  8
0
  6
Continuous
 62
     7
370
    25
100
AcDbLine
 10
113.6538860516
 20
81.0876396427
 30
0.0
 11
112.3996012972
 21
81.0876396427
 31
0.0
  0
LINE
  5
9A
330
1F
100
AcDbEntity
  8
0
  6
Continuous
 62
     7
370
    25
100
AcDbLine
 10
112.3996012972
 20
67.9306398088
 30
0.0
 11
113.6538860516
 21
67.9306398088
 31
0.0
  0
ARC
  5
9B
330
1F
100
AcDbEntity
  8
0
  6
Continuous
 62
     7
370
    25
100
AcDbCircle
 10
111.8996015207
 20
81.0091397258
 30
0.0
 40
0.5
100
AcDbArc
 50
270.0
 51
0.0
  0
ARC
  5
9C
330
1F
100
AcDbEntity
  8
0
  6
Continuous
 62
     7
370
    25
100
AcDbCircle
 10
111.8996015207
 20
68.0091397258
 30
0.0
 40
0.5
100
AcDbArc
 50
0.0
 51
90.0
  0
ARC
  5
9D
330
1F
100
AcDbEntity
  8
0
  6
Continuous
 62
     7
370
    25
100
AcDbCircle
 10
95.8996015207
 20
84.0091397258
 30
0.0
 40
0.5
100
AcDbArc
 50
0.0
 51
90.0
  0
ARC
  5
9E
330
1F
100
AcDbEntity
  8
0
  6
Continuous
 62
     7
370
    25
100
AcDbCircle
 10
108.8996015207
 20
84.0091397258
 30
0.0
 40
0.5
100
AcDbArc
 50
90.0
 51
180.0
  0
LINE
  5
9F
330
1F
100
AcDbEntity
  8
0
  6
Continuous
 62
     7
370
    25
100
AcDbLine
 10
108.8558942207
 20
94.4197807403
 30
0.0
 11
107.6496014499
 21
96.5091396066
 31
0.0
  0
LINE
  5
A0
330
1F
100
AcDbEntity
  8
0
  6
Continuous
 62
     7
370
    25
100
AcDbLine
 10
97.1496015915
 20
96.5091396066
 30
0.0
 11
95.9433088207
 21
94.4197807403
 31
0.0
  0
LINE
  5
A1
330
1F
100
AcDbEntity
  8
0
  6
Continuous
 62
     7
370
    25
100
AcDbLine
 10
108.3996015728
 20
80.5091397779
 30
0.0
 11
108.3996015728
 21
84.0091394203
 31
0.0
  0
LINE
  5
A2
330
1F
100
AcDbEntity
  8
0
  6
Continuous
 62
     7
370
    25
100
AcDbLine
 10
96.3996014685
 20
84.0091394203
 30
0.0
 11
96.3996014685
 21
70.5091395358
 31
0.0
  0
LINE
  5
A3
330
1F
100
AcDbEntity
  8
0
  6
Continuous
 62
     7
370
    25
100
AcDbLine
 10
98.3996013307
 20
68.5091396736
 30
0.0
 11
111.8996012152
 21
68.5091396736
 31
0.0
  0
LINE
  5
A4
330
1F
100
AcDbEntity
  8
0
  6
Continuous
 62
     7
370
    25
100
AcDbLine
 10
111.8996012152
 20
80.5091397779
 30
0.0
 11
108.3996015728
 21
80.5091397779
 31
0.0
  0
ARC
  5
A5
330
1F
100
AcDbEntity
  8
0
  6
Continuous
 62
     7
370
    25
100
AcDbCircle
 10
98.3996015207
 20
70.5091397258
 30
0.0
 40
2.000000000000009
100
AcDbArc
 50
179.699720089
 51
270.34007936
  0
LINE
  5
A6
330
1F
100
AcDbEntity
  8
0
  6
Continuous
 62
     7
370
    25
100
AcDbLine
 10
127.1538873331
 20
79.0091395321
 30
0.0
 11
127.1538873331
 21
70.0091399195
 31
0.0
  0
LINE
  5
A7
330
1F
100
AcDbEntity
  8
0
  6
Continuous
 62
     7
370
    25
100
AcDbLine
 10
131.1538861261
 20
74.5091397258
 30
0.0
 11
131.1538861261
 21
78.0091398338
 31
0.0
  0
LINE
  5
A8
330
1F
100
AcDbEntity
  8
0
  6
Continuous
 62
     7
370
    25
100
AcDbLine
 10
131.1538861261
 20
71.0091396177
 30
0.0
 11
131.1538861261
 21
74.5091397258
 31
0.0
  0
LINE
  5
A9
330
1F
100
AcDbEntity
  8
0
  6
Continuous
 62
     7
370
    25
100
AcDbLine
 10
135.1538849191
 20
74.5091397258
 30
0.0
 11
135.1538849191
 21
78.0091398338
 31
0.0
  0
LINE
  5
AA
330
1F
100
AcDbEntity
  8
0
  6
Continuous
 62
     7
370
    25
100
AcDbLine
 10
135.1538849191
 20
71.0091396177
 30
0.0
 11
135.1538849191
 21
74.5091397258
 31
0.0
  0
LINE
  5
AB
330
1F
100
AcDbEntity
  8
0
  6
Continuous
 62
     7
370
    25
100
AcDbLine
 10
139.1538855747
 20
74.5091397258
 30
0.0
 11
139.1538855747
 21
78.0091398338
 31
0.0
  0
LINE
  5
AC
330
1F
100
AcDbEntity
  8
0
  6
Continuous
 62
     7
370
    25
100
AcDbLine
 10
139.1538855747
 20
71.0091396177
 30
0.0
 11
139.1538855747
 21
74.5091397258
 31
0.0
  0
LINE
  5
AD
330
1F
100
AcDbEntity
  8
0
  6
Continuous
 62
     7
370
    25
100
AcDbLine
 10
143.1538862304
 20
74.5091397258
 30
0.0
 11
143.1538862304
 21
78.0091398338
 31
0.0
  0
LINE
  5
AE
330
1F
100
AcDbEntity
  8
0
  6
Continuous
 62
     7
370
    25
100
AcDbLine
 10
143.1538862304
 20
71.0091396177
 30
0.0
 11
143.1538862304
 21
74.5091397258
 31
0.0
  0
LINE
  5
AF
330
1F
100
AcDbEntity
  8
0
  6
Continuous
 62
     7
370
    25
100
AcDbLine
 10
147.153886886
 20
74.5091397258
 30
0.0
 11
147.153886886
 21
78.0091398338
 31
0.0
  0
LINE
  5
B0
330
1F
100
AcDbEntity
  8
0
  6
Continuous
 62
     7
370
    25
100
AcDbLine
 10
147.153886886
 20
71.0091396177
 30
0.0
 11
147.153886886
 21
74.5091397258
 31
0.0
  0
LINE
  5
B1
330
1F
100
AcDbEntity
  8
0
  6
Continuous
 62
     7
370
    25
100
AcDbLine
 10
152.6538868562
 20
74.5091397258
 30
0.0
 11
152.6538868562
 21
76.7091397139
 31
0.0
  0
LINE
  5
B2
330
1F
100
AcDbEntity
  8
0
  6
Continuous
 62
     7
370
    25
100
AcDbLine
 10
152.6538868562
 20
72.3091397377
 30
0.0
 11
152.6538868562
 21
74.5091397258
 31
0.0
  0
SPLINE
  5
B3
330
1F
100
AcDbEntity
  8
0
  6
Continuous
 62
     7
370
    25
100
AcDbSpline
210
0.0
220
0.0
230
1.0
 70
     8
 71
     3
 72
    16
 73
    12
 74
     0
 42
0.000000001
 43
0.00000001
 40
0.0
 40
0.0
 40
0.0
 40
0.0
 40
0.1051935678786939
 40
0.2312918811301986
 40
0.3573572470174911
 40
0.4865103199035579
 40
0.6156604419553359
 40
0.7112032405771035
 40
0.8067564184316626
 40
0.903373160866079
 40
1.0
 40
1.0
 40
1.0
 40
1.0
 10
116.4550203026262
 20
69.8903376179008
 30
0.0
 10
116.3675777736724
 20
70.20736540781346
 30
0.0
 10
116.1753155715209
 20
70.90442279809047
 30
0.0
 10
115.9492031896068
 20
71.99934067671754
 30
0.0
 10
115.7867222835437
 20
73.18120390358446
 30
0.0
 10
115.7241915631056
 20
74.38257365715758
 30
0.0
 10
115.7617631004175
 20
75.48939969746665
 30
0.0
 10
115.8706767389807
 20
76.48509031064036
 30
0.0
 10
116.0198849804796
 20
77.37234268424086
 30
0.0
 10
116.2131666205084
 20
78.25461323942567
 30
0.0
 10
116.3743996005231
 20
78.8368221623766
 30
0.0
 10
116.4550203026262
 20
79.12794183364196
 30
0.0
  0
SPLINE
  5
B4
330
1F
100
AcDbEntity
  8
0
  6
Continuous
 62
     7
370
    25
100
AcDbSpline
210
0.0
220
0.0
230
1.0
 70
     8
 71
     3
 72
    15
 73
    11
 74
     0
 42
0.000000001
 43
0.00000001
 40
0.0
 40
0.0
 40
0.0
 40
0.0
 40
0.1323049485469467
 40
0.2645724911618902
 40
0.3997989213359782
 40
0.535000923670623
 40
0.650192064928775
 40
0.7654011640741514
 40
0.8826892485822961
 40
1.0
 40
1.0
 40
1.0
 40
1.0
 10
116.4550203026262
 20
65.27153551003022
 30
0.0
 10
116.3462487770565
 20
65.47108562237528
 30
0.0
 10
116.1287364783594
 20
65.87012942923667
 30
0.0
 10
115.8947016322471
 20
66.48462208589011
 30
0.0
 10
115.7539822707779
 20
67.11069759941013
 30
0.0
 10
115.7261117884787
 20
67.71409589806024
 30
0.0
 10
115.798414703958
 20
68.28489529094487
 30
0.0
 10
115.946563955904
 20
68.82359203084643
 30
0.0
 10
116.1638839911082
 20
69.35985196885112
 30
0.0
 10
116.357968614643
 20
69.71349767848315
 30
0.0
 10
116.4550203026262
 20
69.8903376179008
 30
0.0
  0
SPLINE
  5
B5
330
1F
100
AcDbEntity
  8
0
  6
Continuous
 62
     7
370
    25
100
AcDbSpline
210
0.0
220
0.0
230
1.0
 70
     8
 71
     3
 72
    15
 73
    11
 74
     0
 42
0.000000001
 43
0.00000001
 40
0.0
 40
0.0
 40
0.0
 40
0.0
 40
0.1323050038970291
 40
0.2645725327670714
 40
0.3997989416533288
 40
0.5350009870694649
 40
0.6501921317206805
 40
0.7654011923842015
 40
0.882689240090312
 40
1.0
 40
1.0
 40
1.0
 40
1.0
 10
116.4550203026262
 20
79.12794183364196
 30
0.0
 10
116.3462487873338
 20
79.32749217168829
 30
0.0
 10
116.1287365659803
 20
79.72653632569877
 30
0.0
 10
115.894701625918
 20
80.34102815783677
 30
0.0
 10
115.7539822487061
 20
80.96710426165235
 30
0.0
 10
115.7261117920698
 20
81.57050179389459
 30
0.0
 10
115.7984146798318
 20
82.14130247656367
 30
0.0
 10
115.9465639521648
 20
82.67999753354025
 30
0.0
 10
116.1638840498709
 20
83.21625792121894
 30
0.0
 10
116.3579686217409
 20
83.5699038555788
 30
0.0
 10
116.4550203026262
 20
83.74674394151253
 30
0.0
  0
LINE
  5
B6
330
1F
100
AcDbEntity
  8
0
  6
Continuous
 62
     7
370
    25
100
AcDbLine
 10
115.6538863794
 20
74.5091397258
 30
0.0
 11
115.6538863794
 21
82.3591394292
 31
0.0
  0
LINE
  5
B7
330
1F
100
AcDbEntity
  8
0
  6
Continuous
 62
     7
370
    25
100
AcDbLine
 10
115.6538863794
 20
66.6591400223
 30
0.0
 11
115.6538863794
 21
74.5091397258
 31
0.0
  0
SPLINE
  5
B8
330
1F
100
AcDbEntity
  8
0
  6
Continuous
 62
     7
370
    25
100
AcDbSpline
210
0.0
220
0.0
230
1.0
 70
     8
 71
     3
 72
    15
 73
    11
 74
     0
 42
0.000000001
 43
0.00000001
 40
0.0
 40
0.0
 40
0.0
 40
0.0
 40
0.1323049836088744
 40
0.2645725542962953
 40
0.3997989460670495
 40
0.5350009961647513
 40
0.6501921448046264
 40
0.7654012094574273
 40
0.8826892612248055
 40
1.0
 40
1.0
 40
1.0
 40
1.0
 10
123.8527530000535
 20
79.12794183364196
 30
0.0
 10
123.9615238673441
 20
79.32749220440373
 30
0.0
 10
124.1790348439312
 20
79.72653651749849
 30
0.0
 10
124.4130739614991
 20
80.34102795913267
 30
0.0
 10
124.553789250017
 20
80.96710435225395
 30
0.0
 10
124.5816607800695
 20
81.57050178186553
 30
0.0
 10
124.5093576266104
 20
82.14130247761834
 30
0.0
 10
124.3612084934244
 20
82.67999754067424
 30
0.0
 10
124.1438881016184
 20
83.21625785235287
 30
0.0
 10
123.9498042902365
 20
83.56990384528117
 30
0.0
 10
123.8527530000535
 20
83.74674394151253
 30
0.0
  0
SPLINE
  5
B9
330
1F
100
AcDbEntity
  8
0
  6
Continuous
 62
     7
370
    25
100
AcDbSpline
210
0.0
220
0.0
230
1.0
 70
     8
 71
     3
 72
    15
 73
    11
 74
     0
 42
0.000000001
 43
0.00000001
 40
0.0
 40
0.0
 40
0.0
 40
0.0
 40
0.1323049282587815
 40
0.2645725126911017
 40
0.3997989257496923
 40
0.5350009327659031
 40
0.650192078012716
 40
0.7654011811473749
 40
0.8826892697167901
 40
1.0
 40
1.0
 40
1.0
 40
1.0
 10
123.8527530000535
 20
65.27153551003022
 30
0.0
 10
123.9615238776216
 20
65.47108565509075
 30
0.0
 10
124.1790349315524
 20
65.8701296210364
 30
0.0
 10
124.4130739551701
 20
66.48462188718597
 30
0.0
 10
124.5537892279456
 20
67.11069769001173
 30
0.0
 10
124.5816607836605
 20
67.71409588603119
 30
0.0
 10
124.5093576024842
 20
68.28489529199953
 30
0.0
 10
124.3612084896852
 20
68.8235920379804
 30
0.0
 10
124.143888160381
 20
69.3598518999851
 30
0.0
 10
123.9498042973343
 20
69.71349766818552
 30
0.0
 10
123.8527530000535
 20
69.8903376179008
 30
0.0
  0
SPLINE
  5
BA
330
1F
100
AcDbEntity
  8
0
  6
Continuous
 62
     7
370
    25
100
AcDbSpline
210
0.0
220
0.0
230
1.0
 70
     8
 71
     3
 72
    16
 73
    12
 74
     0
 42
0.000000001
 43
0.00000001
 40
0.0
 40
0.0
 40
0.0
 40
0.0
 40
0.1051935697998784
 40
0.2312919055104034
 40
0.3573572604453449
 40
0.4865103305331645
 40
0.6156604549436534
 40
0.7112032446126787
 40
0.8067564405381822
 40
0.9033731847371418
 40
1.0
 40
1.0
 40
1.0
 40
1.0
 10
123.8527530000535
 20
69.8903376179008
 30
0.0
 10
123.940195435077
 20
70.2073654263698
 30
0.0
 10
124.1324574474561
 20
70.90442291819257
 30
0.0
 10
124.3585716132652
 20
71.99934046675244
 30
0.0
 10
124.5210508730798
 20
73.18120397115783
 30
0.0
 10
124.5835807568872
 20
74.38257369430178
 30
0.0
 10
124.5460087342029
 20
75.48939959482412
 30
0.0
 10
124.4370971764503
 20
76.48509047955667
 30
0.0
 10
124.2878870445978
 20
77.3723425856336
 30
0.0
 10
124.0946056412972
 20
78.25461311551106
 30
0.0
 10
123.9333733480573
 20
78.83682214681389
 30
0.0
 10
123.8527530000535
 20
79.12794183364196
 30
0.0
  0
LINE
  5
BB
330
1F
100
AcDbEntity
  8
0
  6
Continuous
 62
     7
370
    25
100
AcDbLine
 10
124.653885992
 20
74.5091397258
 30
0.0
 11
124.653885992
 21
82.3591394292
 31
0.0
  0
LINE
  5
BC
330
1F
100
AcDbEntity
  8
0
  6
Continuous
 62
     7
370
    25
100
AcDbLine
 10
124.653885992
 20
66.6591400223
 30
0.0
 11
124.653885992
 21
74.5091397258
 31
0.0
  0
LINE
  5
BD
330
1F
100
AcDbEntity
  8
0
  6
Continuous
 62
     7
370
    25
100
AcDbLine
 10
120.1002960221
 20
79.1279418336
 30
0.0
 11
120.1538861857
 21
79.3350647146
 31
0.0
  0
LINE
  5
BE
330
1F
100
AcDbEntity
  8
0
  6
Continuous
 62
     7
370
    25
100
AcDbLine
 10
120.1538861857
 20
78.713695606
 30
0.0
 11
120.1538861857
 21
79.3350647146
 31
0.0
  0
LINE
  5
BF
330
1F
100
AcDbEntity
  8
0
  6
Continuous
 62
     7
370
    25
100
AcDbLine
 10
120.1538861857
 20
78.713695606
 30
0.0
 11
120.1002960221
 21
79.1279418336
 31
0.0
  0
LINE
  5
C0
330
1F
100
AcDbEntity
  8
0
  6
Continuous
 62
     7
370
    25
100
AcDbLine
 10
120.1538861857
 20
79.3350647146
 30
0.0
 11
120.2074763493
 21
79.1279418336
 31
0.0
  0
LINE
  5
C1
330
1F
100
AcDbEntity
  8
0
  6
Continuous
 62
     7
370
    25
100
AcDbLine
 10
120.2074763493
 20
79.1279418336
 30
0.0
 11
120.1538861857
 21
78.713695606
 31
0.0
  0
LINE
  5
C2
330
1F
100
AcDbEntity
  8
0
  6
Continuous
 62
     7
370
    25
100
AcDbLine
 10
120.1538861857
 20
69.6832147369
 30
0.0
 11
120.1002960221
 21
69.8903376179
 31
0.0
  0
LINE
  5
C3
330
1F
100
AcDbEntity
  8
0
  6
Continuous
 62
     7
370
    25
100
AcDbLine
 10
120.1002960221
 20
69.8903376179
 30
0.0
 11
120.1538861857
 21
70.3045838455
 31
0.0
  0
LINE
  5
C4
330
1F
100
AcDbEntity
  8
0
  6
Continuous
 62
     7
370
    25
100
AcDbLine
 10
120.1538861857
 20
69.6832147369
 30
0.0
 11
120.1538861857
 21
70.3045838455
 31
0.0
  0
LINE
  5
C5
330
1F
100
AcDbEntity
  8
0
  6
Continuous
 62
     7
370
    25
100
AcDbLine
 10
120.2074763493
 20
69.8903376179
 30
0.0
 11
120.1538861857
 21
69.6832147369
 31
0.0
  0
LINE
  5
C6
330
1F
100
AcDbEntity
  8
0
  6
Continuous
 62
     7
370
    25
100
AcDbLine
 10
120.1538861857
 20
70.3045838455
 30
0.0
 11
120.2074763493
 21
69.8903376179
 31
0.0
  0
LINE
  5
C7
330
1F
100
AcDbEntity
  8
0
  6
Continuous
 62
     7
370
    25
100
AcDbLine
 10
116.4550203026
 20
69.8903376179
 30
0.0
 11
120.1002960221
 21
69.8903376179
 31
0.0
  0
LINE
  5
C8
330
1F
100
AcDbEntity
  8
0
  6
Continuous
 62
     7
370
    25
100
AcDbLine
 10
116.4550203026
 20
79.1279418336
 30
0.0
 11
120.1002960221
 21
79.1279418336
 31
0.0
  0
LINE
  5
C9
330
1F
100
AcDbEntity
  8
0
  6
Continuous
 62
     7
370
    25
100
AcDbLine
 10
120.2074763493
 20
79.1279418336
 30
0.0
 11
123.8527530001
 21
79.1279418336
 31
0.0
  0
LINE
  5
CA
330
1F
100
AcDbEntity
  8
0
  6
Continuous
 62
     7
370
    25
100
AcDbLine
 10
120.2074763493
 20
69.8903376179
 30
0.0
 11
123.8527530001
 21
69.8903376179
 31
0.0
  0
LINE
  5
CB
330
1F
100
AcDbEntity
  8
0
  6
Continuous
 62
     7
370
    25
100
AcDbLine
 10
116.4550203026
 20
65.27153551
 30
0.0
 11
120.1002960221
 21
65.27153551
 31
0.0
  0
LINE
  5
CC
330
1F
100
AcDbEntity
  8
0
  6
Continuous
 62
     7
370
    25
100
AcDbLine
 10
120.2074763493
 20
65.27153551
 30
0.0
 11
123.8527530001
 21
65.27153551
 31
0.0
  0
LINE
  5
CD
330
1F
100
AcDbEntity
  8
0
  6
Continuous
 62
     7
370
    25
100
AcDbLine
 10
120.1538861857
 20
65.4786588567
 30
0.0
 11
120.2074763493
 21
65.27153551
 31
0.0
  0
LINE
  5
CE
330
1F
100
AcDbEntity
  8
0
  6
Continuous
 62
     7
370
    25
100
AcDbLine
 10
120.1002960221
 20
65.27153551
 30
0.0
 11
120.1538861857
 21
65.4786588567
 31
0.0
  0
LINE
  5
CF
330
1F
100
AcDbEntity
  8
0
  6
Continuous
 62
     7
370
    25
100
AcDbLine
 10
116.4550203026
 20
83.7467439415
 30
0.0
 11
120.1002960221
 21
83.7467439415
 31
0.0
  0
LINE
  5
D0
330
1F
100
AcDbEntity
  8
0
  6
Continuous
 62
     7
370
    25
100
AcDbLine
 10
120.1538861857
 20
83.5396205949
 30
0.0
 11
120.1002960221
 21
83.7467439415
 31
0.0
  0
LINE
  5
D1
330
1F
100
AcDbEntity
  8
0
  6
Continuous
 62
     7
370
    25
100
AcDbLine
 10
120.2074763493
 20
83.7467439415
 30
0.0
 11
120.1538861857
 21
83.5396205949
 31
0.0
  0
LINE
  5
D2
330
1F
100
AcDbEntity
  8
0
  6
Continuous
 62
     7
370
    25
100
AcDbLine
 10
120.2074763493
 20
83.7467439415
 30
0.0
 11
123.8527530001
 21
83.7467439415
 31
0.0
  0
LINE
  5
D3
330
1F
100
AcDbEntity
  8
0
  6
Continuous
 62
     7
370
    25
100
AcDbLine
 10
126.6538863198
 20
82.0591399389
 30
0.0
 11
126.6538863198
 21
66.9591395127
 31
0.0
  0
LINE
  5
D4
330
1F
100
AcDbEntity
  8
0
  6
Continuous
 62
     7
370
    25
100
AcDbLine
 10
113.6538860516
 20
74.5091397258
 30
0.0
 11
113.6538860516
 21
82.0591399389
 31
0.0
  0
LINE
  5
D5
330
1F
100
AcDbEntity
  8
0
  6
Continuous
 62
     7
370
    25
100
AcDbLine
 10
113.6538860516
 20
66.9591395127
 30
0.0
 11
113.6538860516
 21
74.5091397258
 31
0.0
  0
LINE
  5
D6
330
1F
100
AcDbEntity
  8
0
  6
Continuous
 62
     7
370
    25
100
AcDbLine
 10
120.1538861857
 20
65.4715351703
 30
0.0
 11
120.1538861857
 21
65.4786588567
 31
0.0
  0
LINE
  5
D7
330
1F
100
AcDbEntity
  8
0
  6
Continuous
 62
     7
370
    25
100
AcDbLine
 10
120.1538861857
 20
83.5396205949
 30
0.0
 11
120.1538861857
 21
83.5467442813
 31
0.0
  0
LINE
  5
D8
330
1F
100
AcDbEntity
  8
0
  6
Continuous
 62
     7
370
    25
100
AcDbLine
 10
109.1655934357
 20
84.509395616
 30
0.0
 11
95.6336096057
 21
84.509395616
 31
0.0
  0
LINE
  5
D9
330
1F
100
AcDbEntity
  8
0
  6
Continuous
 62
     7
370
    25
100
AcDbLine
 10
109.1496016958
 20
84.5091395023
 30
0.0
 11
95.6496013456
 21
84.5091395023
 31
0.0
  0
LINE
  5
DA
330
1F
100
AcDbEntity
  8
0
  6
Continuous
 62
     7
370
    25
100
AcDbLine
 10
108.8558942207
 20
94.4197807403
 30
0.0
 11
95.9433088207
 21
94.4197807403
 31
0.0
  0
LINE
  5
DB
330
1F
100
AcDbEntity
  8
0
  6
Continuous
 62
     7
370
    25
100
AcDbLine
 10
112.3996012972
 20
81.0876396427
 30
0.0
 11
112.3996012972
 21
67.9306398088
 31
0.0
  0
LINE
  5
DC
330
1F
100
AcDbEntity
  8
0
  6
Continuous
 62
     7
370
    25
100
AcDbLine
 10
97.1496015915
 20
96.5091396066
 30
0.0
 11
107.6496014499
 21
96.5091396066
 31
0.0
  0
SPLINE
  5
DD
330
1F
100
AcDbEntity
  8
0
  6
Continuous
 62
     7
370
    25
100
AcDbSpline
210
0.0
220
0.0
230
1.0
 70
    24
 71
     3
 72
    14
 73
    10
 74
     0
 42
0.000000001
 43
0.00000001
 40
0.0
 40
0.0
 40
0.0
 40
0.0
 40
0.25
 40
0.25
 40
0.5
 40
0.5
 40
0.75
 40
0.75
 40
1.0
 40
1.0
 40
1.0
 40
1.0
 10
102.3996015206901
 20
81.25913972577136
 30
0.0
 10
102.5981388352791
 20
81.25913972577136
 30
0.0
 10
102.7966775661125
 20
81.25913972577136
 30
0.0
 10
103.192846402386
 20
81.25913972577136
 30
0.0
 10
103.3904793477073
 20
81.25913972577136
 30
0.0
 10
103.7838457765975
 20
81.25913972577136
 30
0.0
 10
103.9795821172538
 20
81.25913972577136
 30
0.0
 10
104.3679940301456
 20
81.25913972577136
 30
0.0
 10
104.5606724712244
 20
81.25913972577136
 30
0.0
 10
104.7511116737619
 20
81.25913972577136
 30
0.0
  0
SPLINE
  5
DE
330
1F
100
AcDbEntity
  8
0
  6
Continuous
 62
     7
370
    25
100
AcDbSpline
210
0.0
220
0.0
230
1.0
 70
    24
 71
     3
 72
    14
 73
    10
 74
     0
 42
0.000000001
 43
0.00000001
 40
0.0
 40
0.0
 40
0.0
 40
0.0
 40
0.25
 40
0.25
 40
0.5
 40
0.5
 40
0.75
 40
0.75
 40
1.0
 40
1.0
 40
1.0
 40
1.0
 10
102.3996015206901
 20
81.25913972577136
 30
0.0
 10
102.201064206101
 20
81.25913972577136
 30
0.0
 10
102.0025254752677
 20
81.25913972577136
 30
0.0
 10
101.6063566389941
 20
81.25913972577136
 30
0.0
 10
101.4087236936728
 20
81.25913972577136
 30
0.0
 10
101.0153572647827
 20
81.25913972577136
 30
0.0
 10
100.8196209241264
 20
81.25913972577136
 30
0.0
 10
100.4312090112346
 20
81.25913972577136
 30
0.0
 10
100.2385305701557
 20
81.25913972577136
 30
0.0
 10
100.0480913676182
 20
81.25913972577136
 30
0.0
  0
LINE
  5
DF
330
1F
100
AcDbEntity
  8
0
  6
Continuous
 62
     7
370
    25
100
AcDbLine
 10
97.8396017232
 20
81.2591399009
 30
0.0
 11
100.048091415
 21
81.2591399009
 31
0.0
  0
SPLINE
  5
E0
330
1F
100
AcDbEntity
  8
0
  6
Continuous
 62
     7
370
    25
100
AcDbSpline
210
0.0
220
0.0
230
1.0
 70
     8
 71
     3
 72
    14
 73
    10
 74
     0
 42
0.000000001
 43
0.00000001
 40
0.0
 40
0.0
 40
0.0
 40
0.0
 40
0.25
 40
0.25
 40
0.5
 40
0.5
 40
0.75
 40
0.75
 40
1.0
 40
1.0
 40
1.0
 40
1.0
 10
97.83960152069007
 20
81.25913972577136
 30
0.0
 10
97.78344828035924
 20
81.25913972577136
 30
0.0
 10
97.72969468804068
 20
81.24918641921886
 30
0.0
 10
97.62657127963121
 20
81.21081480340287
 30
0.0
 10
97.57739330362355
 20
81.1822758714297
 30
0.0
 10
97.48822879129779
 20
81.10508832414959
 30
0.0
 10
97.44698012702592
 20
81.05565963896164
 30
0.0
 10
97.3825927740239
 20
80.92815115178459
 30
0.0
 10
97.35960152069006
 20
80.84653494173045
 30
0.0
 10
97.35960152069006
 20
80.75913972577136
 30
0.0
  0
LINE
  5
E1
330
1F
100
AcDbEntity
  8
0
  6
Continuous
 62
     7
370
    25
100
AcDbLine
 10
97.3596013279
 20
71.5091396997
 30
0.0
 11
97.3596013279
 21
80.7591398189
 31
0.0
  0
SPLINE
  5
E2
330
1F
100
AcDbEntity
  8
0
  6
Continuous
 62
     7
370
    25
100
AcDbSpline
210
0.0
220
0.0
230
1.0
 70
     8
 71
     3
 72
     8
 73
     4
 74
     0
 42
0.000000001
 43
0.00000001
 40
0.0
 40
0.0
 40
0.0
 40
0.0
 40
1.0
 40
1.0
 40
1.0
 40
1.0
 10
97.38487033824534
 20
71.16598560414155
 30
0.0
 10
97.36822234382025
 20
71.27836156808712
 30
0.0
 10
97.35960152069006
 20
71.39267313854917
 30
0.0
 10
97.35960152069006
 20
71.50913972577138
 30
0.0
  0
LINE
  5
E3
330
1F
100
AcDbEntity
  8
0
  6
Continuous
 62
     7
370
    25
100
AcDbLine
 10
107.7693350741
 20
79.8788732792
 30
0.0
 11
108.3996015728
 21
80.5091397779
 31
0.0
  0
SPLINE
  5
E4
330
1F
100
AcDbEntity
  8
0
  6
Continuous
 62
     7
370
    25
100
AcDbSpline
210
0.0
220
0.0
230
1.0
 70
     8
 71
     3
 72
    12
 73
     8
 74
     0
 42
0.000000001
 43
0.00000001
 40
0.0
 40
0.0
 40
0.0
 40
0.0
 40
0.2499999999999999
 40
0.2499999999999999
 40
0.4999999999999998
 40
0.4999999999999998
 40
1.0
 40
1.0
 40
1.0
 40
1.0
 10
107.4396015206901
 20
80.50913972577138
 30
0.0
 10
107.4396015206901
 20
80.42632077755691
 30
0.0
 10
107.4532511275345
 20
80.34588046873323
 30
0.0
 10
107.4977725527978
 20
80.2045929471681
 30
0.0
 10
107.5276996841505
 20
80.14443322744305
 30
0.0
 10
107.6258677844167
 20
79.99095987439108
 30
0.0
 10
107.6993110891793
 20
79.92592164318111
 30
0.0
 10
107.7693352835517
 20
79.8788734886327
 30
0.0
  0
LINE
  5
E5
330
1F
100
AcDbEntity
  8
0
  6
Continuous
 62
     7
370
    25
100
AcDbLine
 10
107.4396017135
 20
80.7591398189
 30
0.0
 11
107.4396017135
 21
80.5091397779
 31
0.0
  0
SPLINE
  5
E6
330
1F
100
AcDbEntity
  8
0
  6
Continuous
 62
     7
370
    25
100
AcDbSpline
210
0.0
220
0.0
230
1.0
 70
     8
 71
     3
 72
    14
 73
    10
 74
     0
 42
0.000000001
 43
0.00000001
 40
0.0
 40
0.0
 40
0.0
 40
0.0
 40
0.25
 40
0.25
 40
0.5
 40
0.5
 40
0.75
 40
0.75
 40
1.0
 40
1.0
 40
1.0
 40
1.0
 10
107.4396015206901
 20
80.75913972577136
 30
0.0
 10
107.4396015206901
 20
80.84645775477776
 30
0.0
 10
107.4166487219036
 20
80.92808586259935
 30
0.0
 10
107.3521531227419
 20
81.05578698073279
 30
0.0
 10
107.3109206359357
 20
81.10517777355837
 30
0.0
 10
107.2214587959666
 20
81.1825364411164
 30
0.0
 10
107.1719839586064
 20
81.21110525068826
 30
0.0
 10
107.0694117006742
 20
81.24917261965538
 30
0.0
 10
107.0158019393929
 20
81.25913972577136
 30
0.0
 10
106.9596015206901
 20
81.25913972577136
 30
0.0
  0
LINE
  5
E7
330
1F
100
AcDbEntity
  8
0
  6
Continuous
 62
     7
370
    25
100
AcDbLine
 10
104.7511116263
 20
81.2591399009
 30
0.0
 11
106.9596013182
 21
81.2591399009
 31
0.0
  0
SPLINE
  5
E8
330
1F
100
AcDbEntity
  8
0
  6
Continuous
 62
     7
370
    25
100
AcDbSpline
210
0.0
220
0.0
230
1.0
 70
     8
 71
     3
 72
     8
 73
     4
 74
     0
 42
0.000000001
 43
0.00000001
 40
0.0
 40
0.0
 40
0.0
 40
0.0
 40
1.0
 40
1.0
 40
1.0
 40
1.0
 10
99.39960152069007
 20
69.46913972577137
 30
0.0
 10
99.28313493346786
 20
69.46913972577137
 30
0.0
 10
99.16882336300581
 20
69.47776054890156
 30
0.0
 10
99.05644739906025
 20
69.49440854332664
 30
0.0
  0
LINE
  5
E9
330
1F
100
AcDbEntity
  8
0
  6
Continuous
 62
     7
370
    25
100
AcDbLine
 10
108.6496016138
 20
69.469139533
 30
0.0
 11
99.3996014946
 21
69.469139533
 31
0.0
  0
SPLINE
  5
EA
330
1F
100
AcDbEntity
  8
0
  6
Continuous
 62
     7
370
    25
100
AcDbSpline
210
0.0
220
0.0
230
1.0
 70
     8
 71
     3
 72
    14
 73
    10
 74
     0
 42
0.000000001
 43
0.00000001
 40
0.0
 40
0.0
 40
0.0
 40
0.0
 40
0.25
 40
0.25
 40
0.5
 40
0.5
 40
0.75
 40
0.75
 40
1.0
 40
1.0
 40
1.0
 40
1.0
 10
108.6496015206901
 20
69.46913972577137
 30
0.0
 10
108.7369195496964
 20
69.46913972577137
 30
0.0
 10
108.818547657518
 20
69.49209252455782
 30
0.0
 10
108.9462487756515
 20
69.55658812371951
 30
0.0
 10
108.9956395684771
 20
69.59782061052579
 30
0.0
 10
109.0729982360351
 20
69.68728245049485
 30
0.0
 10
109.101567045607
 20
69.73675728785503
 30
0.0
 10
109.1396344145741
 20
69.83932954578721
 30
0.0
 10
109.1496015206901
 20
69.8929393070685
 30
0.0
 10
109.1496015206901
 20
69.94913972577136
 30
0.0
  0
LINE
  5
EB
330
1F
100
AcDbEntity
  8
0
  6
Continuous
 62
     7
370
    25
100
AcDbLine
 10
109.1496016958
 20
72.1576296201
 30
0.0
 11
109.1496016958
 21
69.9491399283
 31
0.0
  0
SPLINE
  5
EC
330
1F
100
AcDbEntity
  8
0
  6
Continuous
 62
     7
370
    25
100
AcDbSpline
210
0.0
220
0.0
230
1.0
 70
    24
 71
     3
 72
    14
 73
    10
 74
     0
 42
0.000000001
 43
0.00000001
 40
0.0
 40
0.0
 40
0.0
 40
0.0
 40
0.25
 40
0.25
 40
0.5
 40
0.5
 40
0.75
 40
0.75
 40
1.0
 40
1.0
 40
1.0
 40
1.0
 10
109.1496015206901
 20
74.50913972577138
 30
0.0
 10
109.1496015206901
 20
74.31060241118234
 30
0.0
 10
109.1496015206901
 20
74.112063680349
 30
0.0
 10
109.1496015206901
 20
73.71589484407545
 30
0.0
 10
109.1496015206901
 20
73.51826189875415
 30
0.0
 10
109.1496015206901
 20
73.12489546986396
 30
0.0
 10
109.1496015206901
 20
72.92915912920766
 30
0.0
 10
109.1496015206901
 20
72.54074721631586
 30
0.0
 10
109.1496015206901
 20
72.34806877523702
 30
0.0
 10
109.1496015206901
 20
72.15762957269952
 30
0.0
  0
SPLINE
  5
ED
330
1F
100
AcDbEntity
  8
0
  6
Continuous
 62
     7
370
    25
100
AcDbSpline
210
0.0
220
0.0
230
1.0
 70
    24
 71
     3
 72
    14
 73
    10
 74
     0
 42
0.000000001
 43
0.00000001
 40
0.0
 40
0.0
 40
0.0
 40
0.0
 40
0.25
 40
0.25
 40
0.5
 40
0.5
 40
0.75
 40
0.75
 40
1.0
 40
1.0
 40
1.0
 40
1.0
 10
109.1496015206901
 20
74.50913972577138
 30
0.0
 10
109.1496015206901
 20
74.7076770403604
 30
0.0
 10
109.1496015206901
 20
74.90621577119374
 30
0.0
 10
109.1496015206901
 20
75.3023846074673
 30
0.0
 10
109.1496015206901
 20
75.50001755278859
 30
0.0
 10
109.1496015206901
 20
75.89338398167878
 30
0.0
 10
109.1496015206901
 20
76.08912032233508
 30
0.0
 10
109.1496015206901
 20
76.47753223522687
 30
0.0
 10
109.1496015206901
 20
76.67021067630573
 30
0.0
 10
109.1496015206901
 20
76.86064987884322
 30
0.0
  0
LINE
  5
EE
330
1F
100
AcDbEntity
  8
0
  6
Continuous
 62
     7
370
    25
100
AcDbLine
 10
109.1496016958
 20
79.0691395233
 30
0.0
 11
109.1496016958
 21
76.8606498314
 31
0.0
  0
SPLINE
  5
EF
330
1F
100
AcDbEntity
  8
0
  6
Continuous
 62
     7
370
    25
100
AcDbSpline
210
0.0
220
0.0
230
1.0
 70
     8
 71
     3
 72
    14
 73
    10
 74
     0
 42
0.000000001
 43
0.00000001
 40
0.0
 40
0.0
 40
0.0
 40
0.0
 40
0.25
 40
0.25
 40
0.5
 40
0.5
 40
0.75
 40
0.75
 40
1.0
 40
1.0
 40
1.0
 40
1.0
 10
109.1496015206901
 20
79.06913972577136
 30
0.0
 10
109.1496015206901
 20
79.1252929661022
 30
0.0
 10
109.1396482141376
 20
79.17904655842074
 30
0.0
 10
109.1012765983216
 20
79.28216996683024
 30
0.0
 10
109.0727376663484
 20
79.33134794283788
 30
0.0
 10
108.9955501190683
 20
79.42051245516365
 30
0.0
 10
108.9461214338803
 20
79.46176111943552
 30
0.0
 10
108.8186129467033
 20
79.52614847243753
 30
0.0
 10
108.7369967366491
 20
79.54913972577138
 30
0.0
 10
108.6496015206901
 20
79.54913972577138
 30
0.0
  0
LINE
  5
F0
330
1F
100
AcDbEntity
  8
0
  6
Continuous
 62
     7
370
    25
100
AcDbLine
 10
108.3996015728
 20
79.5491399186
 30
0.0
 11
108.6496016138
 21
79.5491399186
 31
0.0
  0
SPLINE
  5
F1
330
1F
100
AcDbEntity
  8
0
  6
Continuous
 62
     7
370
    25
100
AcDbSpline
210
0.0
220
0.0
230
1.0
 70
     8
 71
     3
 72
    12
 73
     8
 74
     0
 42
0.000000001
 43
0.00000001
 40
0.0
 40
0.0
 40
0.0
 40
0.0
 40
0.5000000000000009
 40
0.5000000000000009
 40
0.7500000000000004
 40
0.7500000000000004
 40
1.0
 40
1.0
 40
1.0
 40
1.0
 10
107.7693352835517
 20
79.87887348863303
 30
0.0
 10
107.8163834381001
 20
79.80884929426068
 30
0.0
 10
107.8814216693098
 20
79.73540598949799
 30
0.0
 10
108.0348950223617
 20
79.6372378892318
 30
0.0
 10
108.0950547420868
 20
79.60731075787906
 30
0.0
 10
108.2363422636519
 20
79.56278933261581
 30
0.0
 10
108.3167825724756
 20
79.54913972577138
 30
0.0
 10
108.3996015206901
 20
79.54913972577138
 30
0.0
  0
SPLINE
  5
F2
330
1F
100
AcDbEntity
  8
0
  6
Continuous
 62
     7
370
    25
100
AcDbSpline
210
0.0
220
0.0
230
1.0
 70
     8
 71
     3
 72
    12
 73
     8
 74
     0
 42
0.000000001
 43
0.00000001
 40
0.0
 40
0.0
 40
0.0
 40
0.0
 40
0.25
 40
0.25
 40
0.5
 40
0.5
 40
1.0
 40
1.0
 40
1.0
 40
1.0
 10
108.8263782159859
 20
72.07390607280053
 30
0.0
 10
108.8405923614148
 20
72.07570152000058
 30
0.0
 10
108.8522758906732
 20
72.07772877980736
 30
0.0
 10
108.8713355648411
 20
72.08078041021764
 30
0.0
 10
108.8787117097505
 20
72.08180478082114
 30
0.0
 10
108.8955098399429
 20
72.08117378720158
 30
0.0
 10
108.8996015206901
 20
72.07581431754845
 30
0.0
 10
108.8996015206901
 20
72.05964998298819
 30
0.0
  0
LINE
  5
F3
330
1F
100
AcDbEntity
  8
0
  6
Continuous
 62
     7
370
    25
100
AcDbLine
 10
108.8996016548
 20
72.0596500615
 30
0.0
 11
108.8996016548
 21
69.7591398785
 31
0.0
  0
LINE
  5
F4
330
1F
100
AcDbEntity
  8
0
  6
Continuous
 62
     7
370
    25
100
AcDbLine
 10
108.8996016548
 20
69.7591398785
 30
0.0
 11
108.6496016138
 21
69.7591398785
 31
0.0
  0
LINE
  5
F5
330
1F
100
AcDbEntity
  8
0
  6
Continuous
 62
     7
370
    25
100
AcDbLine
 10
108.6496016138
 20
69.7591398785
 30
0.0
 11
108.6496016138
 21
72.0596500615
 31
0.0
  0
SPLINE
  5
F6
330
1F
100
AcDbEntity
  8
0
  6
Continuous
 62
     7
370
    25
100
AcDbSpline
210
0.0
220
0.0
230
1.0
 70
     8
 71
     3
 72
    10
 73
     6
 74
     0
 42
0.000000001
 43
0.00000001
 40
0.0
 40
0.0
 40
0.0
 40
0.0
 40
0.5
 40
0.5
 40
1.0
 40
1.0
 40
1.0
 40
1.0
 10
108.8263782159859
 20
72.07390607280053
 30
0.0
 10
108.7979499251282
 20
72.07031517840043
 30
0.0
 10
108.7650159966914
 20
72.06675115594734
 30
0.0
 10
108.7021020398595
 20
72.06141855824121
 30
0.0
 10
108.6721220114644
 20
72.05964998298819
 30
0.0
 10
108.6496015206901
 20
72.05964998298819
 30
0.0
  0
LINE
  5
F7
330
1F
100
AcDbEntity
  8
0
  6
Continuous
 62
     7
370
    25
100
AcDbLine
 10
107.149601368
 20
80.7591398189
 30
0.0
 11
104.849091185
 21
80.7591398189
 31
0.0
  0
SPLINE
  5
F8
330
1F
100
AcDbEntity
  8
0
  6
Continuous
 62
     7
370
    25
100
AcDbSpline
210
0.0
220
0.0
230
1.0
 70
     8
 71
     3
 72
    10
 73
     6
 74
     0
 42
0.000000001
 43
0.00000001
 40
0.0
 40
0.0
 40
0.0
 40
0.0
 40
0.5
 40
0.5
 40
1.0
 40
1.0
 40
1.0
 40
1.0
 10
104.8348351736609
 20
80.93591642106722
 30
0.0
 10
104.838426068061
 20
80.90748813020949
 30
0.0
 10
104.8419900905141
 20
80.87455420177267
 30
0.0
 10
104.8473226882202
 20
80.81164024494076
 30
0.0
 10
104.8490912634733
 20
80.78166021654567
 30
0.0
 10
104.8490912634733
 20
80.75913972577136
 30
0.0
  0
SPLINE
  5
F9
330
1F
100
AcDbEntity
  8
0
  6
Continuous
 62
     7
370
    25
100
AcDbSpline
210
0.0
220
0.0
230
1.0
 70
     8
 71
     3
 72
    12
 73
     8
 74
     0
 42
0.000000001
 43
0.00000001
 40
0.0
 40
0.0
 40
0.0
 40
0.0
 40
0.25
 40
0.25
 40
0.5
 40
0.5
 40
1.0
 40
1.0
 40
1.0
 40
1.0
 10
104.8348351736609
 20
80.93591642106722
 30
0.0
 10
104.8330397264609
 20
80.9501305664961
 30
0.0
 10
104.8310124666541
 20
80.96181409575453
 30
0.0
 10
104.8279608362438
 20
80.98087376992238
 30
0.0
 10
104.8269364656403
 20
80.98824991483181
 30
0.0
 10
104.8275674592599
 20
81.0050480450242
 30
0.0
 10
104.832926928913
 20
81.00913972577136
 30
0.0
 10
104.8490912634733
 20
81.00913972577136
 30
0.0
  0
LINE
  5
FA
330
1F
100
AcDbEntity
  8
0
  6
Continuous
 62
     7
370
    25
100
AcDbLine
 10
104.849091185
 20
81.0091398599
 30
0.0
 11
107.149601368
 21
81.0091398599
 31
0.0
  0
LINE
  5
FB
330
1F
100
AcDbEntity
  8
0
  6
Continuous
 62
     7
370
    25
100
AcDbLine
 10
107.149601368
 20
80.7591398189
 30
0.0
 11
107.149601368
 21
81.0091398599
 31
0.0
  0
LINE
  5
FC
330
1F
100
AcDbEntity
  8
0
  6
Continuous
 62
     7
370
    25
100
AcDbLine
 10
107.149601368
 20
80.5091397779
 30
0.0
 11
107.149601368
 21
80.7591398189
 31
0.0
  0
ARC
  5
FD
330
1F
100
AcDbEntity
  8
0
  6
Continuous
 62
     7
370
    25
100
AcDbCircle
 10
108.3996015207
 20
80.5091397258
 30
0.0
 40
1.25
100
AcDbArc
 50
180.0
 51
270.0
  0
LINE
  5
FE
330
1F
100
AcDbEntity
  8
0
  6
Continuous
 62
     7
370
    25
100
AcDbLine
 10
108.6496016138
 20
79.259139573
 30
0.0
 11
108.3996015728
 21
79.259139573
 31
0.0
  0
LINE
  5
FF
330
1F
100
AcDbEntity
  8
0
  6
Continuous
 62
     7
370
    25
100
AcDbLine
 10
108.6496016138
 20
76.9586293901
 30
0.0
 11
108.6496016138
 21
79.259139573
 31
0.0
  0
LINE
  5
100
330
1F
100
AcDbEntity
  8
0
  6
Continuous
 62
     7
370
    25
100
AcDbLine
 10
108.6496016138
 20
76.9586293901
 30
0.0
 11
108.6496016138
 21
74.5091397258
 31
0.0
  0
LINE
  5
101
330
1F
100
AcDbEntity
  8
0
  6
Continuous
 62
     7
370
    25
100
AcDbLine
 10
108.6496016138
 20
74.5091397258
 30
0.0
 11
108.6496016138
 21
72.0596500615
 31
0.0
  0
LINE
  5
102
330
1F
100
AcDbEntity
  8
0
  6
Continuous
 62
     7
370
    25
100
AcDbLine
 10
99.3996014946
 20
69.7591398785
 30
0.0
 11
108.6496016138
 21
69.7591398785
 31
0.0
  0
ARC
  5
103
330
1F
100
AcDbEntity
  8
0
  6
Continuous
 62
     7
370
    25
100
AcDbCircle
 10
99.3996015207
 20
71.5091397258
 30
0.0
 40
1.75
100
AcDbArc
 50
180.0
 51
270.0
  0
LINE
  5
104
330
1F
100
AcDbEntity
  8
0
  6
Continuous
 62
     7
370
    25
100
AcDbLine
 10
97.6496016734
 20
80.7591398189
 30
0.0
 11
97.6496016734
 21
71.5091396997
 31
0.0
  0
LINE
  5
105
330
1F
100
AcDbEntity
  8
0
  6
Continuous
 62
     7
370
    25
100
AcDbLine
 10
99.9501118564
 20
80.7591398189
 30
0.0
 11
97.6496016734
 21
80.7591398189
 31
0.0
  0
LINE
  5
106
330
1F
100
AcDbEntity
  8
0
  6
Continuous
 62
     7
370
    25
100
AcDbLine
 10
99.9501118564
 20
80.7591398189
 30
0.0
 11
102.3996015207
 21
80.7591398189
 31
0.0
  0
LINE
  5
107
330
1F
100
AcDbEntity
  8
0
  6
Continuous
 62
     7
370
    25
100
AcDbLine
 10
102.3996015207
 20
80.7591398189
 30
0.0
 11
104.849091185
 21
80.7591398189
 31
0.0
  0
SPLINE
  5
108
330
1F
100
AcDbEntity
  8
0
  6
Continuous
 62
     7
370
    25
100
AcDbSpline
210
0.0
220
0.0
230
1.0
 70
     8
 71
     3
 72
    14
 73
    10
 74
     0
 42
0.000000001
 43
0.00000001
 40
0.0
 40
0.0
 40
0.0
 40
0.0
 40
0.25
 40
0.25
 40
0.5
 40
0.5
 40
0.75
 40
0.75
 40
1.0
 40
1.0
 40
1.0
 40
1.0
 10
105.1064645180524
 20
74.78978702971494
 30
0.0
 10
105.1632905075633
 20
74.91316390736225
 30
0.0
 10
105.2558896252461
 20
75.01645212350205
 30
0.0
 10
105.4856637402526
 20
75.1595519467681
 30
0.0
 10
105.6191885112117
 20
75.1972370093071
 30
0.0
 10
105.8906487407468
 20
75.19699788440684
 30
0.0
 10
106.0240233845853
 20
75.15883342587016
 30
0.0
 10
106.2514509514957
 20
75.01721256271549
 30
0.0
 10
106.3452522562605
 20
74.9131742050243
 30
0.0
 10
106.4020829887576
 20
74.78978702971548
 30
0.0
  0
LINE
  5
109
330
1F
100
AcDbEntity
  8
0
  6
Continuous
 62
     7
370
    25
100
AcDbLine
 10
104.2146701726
 20
72.2963692097
 30
0.0
 11
105.1064645068
 21
74.7897870315
 31
0.0
  0
SPLINE
  5
10A
330
1F
100
AcDbEntity
  8
0
  6
Continuous
 62
     7
370
    25
100
AcDbSpline
210
0.0
220
0.0
230
1.0
 70
     8
 71
     3
 72
    10
 73
     6
 74
     0
 42
0.000000001
 43
0.00000001
 40
0.0
 40
0.0
 40
0.0
 40
0.0
 40
0.5
 40
0.5
 40
1.0
 40
1.0
 40
1.0
 40
1.0
 10
103.8789118612209
 20
72.18355269682506
 30
0.0
 10
103.9379957410067
 20
72.15103818152582
 30
0.0
 10
104.009207110852
 20
72.1449333246799
 30
0.0
 10
104.136227769614
 20
72.18513373570562
 30
0.0
 10
104.1919170171598
 20
72.23275251269256
 30
0.0
 10
104.2146701428328
 20
72.29636924955956
 30
0.0
  0
LINE
  5
10B
330
1F
100
AcDbEntity
  8
0
  6
Continuous
 62
     7
370
    25
100
AcDbLine
 10
103.1147107493
 20
72.6041010058
 30
0.0
 11
103.8789118535
 21
72.1835527512
 31
0.0
  0
LINE
  5
10C
330
1F
100
AcDbEntity
  8
0
  6
Continuous
 62
     7
370
    25
100
AcDbLine
 10
104.0618812327
 20
70.7984781767
 30
0.0
 11
103.1147107493
 21
72.6041010058
 31
0.0
  0
SPLINE
  5
10D
330
1F
100
AcDbEntity
  8
0
  6
Continuous
 62
     7
370
    25
100
AcDbSpline
210
0.0
220
0.0
230
1.0
 70
     8
 71
     3
 72
    10
 73
     6
 74
     0
 42
0.000000001
 43
0.00000001
 40
0.0
 40
0.0
 40
0.0
 40
0.0
 40
0.5000000000000006
 40
0.5000000000000006
 40
1.0
 40
1.0
 40
1.0
 40
1.0
 10
104.5434222384437
 20
70.71142428997331
 30
0.0
 10
104.4725959911168
 20
70.64855886251512
 30
0.0
 10
104.3737220437619
 20
70.62153052918782
 30
0.0
 10
104.1896006210503
 20
70.65448125748586
 30
0.0
 10
104.1058763070241
 20
70.71460887748856
 30
0.0
 10
104.0618812438152
 20
70.7984781445013
 30
0.0
  0
SPLINE
  5
10E
330
1F
100
AcDbEntity
  8
0
  6
Continuous
 62
     7
370
    25
100
AcDbSpline
210
0.0
220
0.0
230
1.0
 70
     8
 71
     3
 72
    14
 73
    10
 74
     0
 42
0.000000001
 43
0.00000001
 40
0.0
 40
0.0
 40
0.0
 40
0.0
 40
0.2500000000000001
 40
0.2500000000000001
 40
0.3750000000000003
 40
0.3750000000000003
 40
0.5000000000000004
 40
0.5000000000000004
 40
1.0
 40
1.0
 40
1.0
 40
1.0
 10
106.9651252683669
 20
70.71142428997295
 30
0.0
 10
106.7988250466609
 20
70.85903248493578
 30
0.0
 10
106.608654311871
 20
70.97175018368955
 30
0.0
 10
106.2975774500836
 20
71.08739676825299
 30
0.0
 10
106.1916789505573
 20
71.11616672946228
 30
0.0
 10
105.975640113221
 20
71.15490496430402
 30
0.0
 10
105.8643927765861
 20
71.16481173794686
 30
0.0
 10
105.3134223879541
 20
71.16478961894842
 30
0.0
 10
104.8759853594591
 20
71.00660755251297
 30
0.0
 10
104.5434222384437
 20
70.71142428997331
 30
0.0
  0
SPLINE
  5
10F
330
1F
100
AcDbEntity
  8
0
  6
Continuous
 62
     7
370
    25
100
AcDbSpline
210
0.0
220
0.0
230
1.0
 70
     8
 71
     3
 72
    10
 73
     6
 74
     0
 42
0.000000001
 43
0.00000001
 40
0.0
 40
0.0
 40
0.0
 40
0.0
 40
0.5
 40
0.5
 40
1.0
 40
1.0
 40
1.0
 40
1.0
 10
107.4466662629952
 20
70.7984781445013
 30
0.0
 10
107.4026742529445
 20
70.71461469782675
 30
0.0
 10
107.3194202344406
 20
70.65470360500754
 30
0.0
 10
107.135240351497
 20
70.62146780440037
 30
0.0
 10
107.0359431995255
 20
70.64856624395186
 30
0.0
 10
106.965125268367
 20
70.71142428997301
 30
0.0
  0
LINE
  5
110
330
1F
100
AcDbEntity
  8
0
  6
Continuous
 62
     7
370
    25
100
AcDbLine
 10
108.4053962619
 20
72.6261374949
 30
0.0
 11
107.4466662609
 21
70.7984781767
 31
0.0
  0
LINE
  5
111
330
1F
100
AcDbEntity
  8
0
  6
Continuous
 62
     7
370
    25
100
AcDbLine
 10
107.6331268192
 20
72.1848163231
 30
0.0
 11
108.4053962619
 21
72.6261374949
 31
0.0
  0
SPLINE
  5
112
330
1F
100
AcDbEntity
  8
0
  6
Continuous
 62
     7
370
    25
100
AcDbSpline
210
0.0
220
0.0
230
1.0
 70
     8
 71
     3
 72
    10
 73
     6
 74
     0
 42
0.000000001
 43
0.00000001
 40
0.0
 40
0.0
 40
0.0
 40
0.0
 40
0.5
 40
0.5
 40
1.0
 40
1.0
 40
1.0
 40
1.0
 10
107.2940842684187
 20
72.29579075385593
 30
0.0
 10
107.3170003898325
 20
72.23171828807982
 30
0.0
 10
107.3731280406465
 20
72.18387671686037
 30
0.0
 10
107.5022096834151
 20
72.14401292498314
 30
0.0
 10
107.5741608481195
 20
72.15111940451045
 30
0.0
 10
107.6331270093298
 20
72.18481622651139
 30
0.0
  0
LINE
  5
113
330
1F
100
AcDbEntity
  8
0
  6
Continuous
 62
     7
370
    25
100
AcDbLine
 10
106.4020832197
 20
74.7897870315
 30
0.0
 11
107.2940844239
 21
72.2957908584
 31
0.0
  0
LINE
  5
114
330
1F
100
AcDbEntity
  8
0
  6
Continuous
 62
     7
370
    25
100
AcDbLine
 10
108.8996016548
 20
79.259139573
 30
0.0
 11
108.8996016548
 21
76.9586293901
 31
0.0
  0
SPLINE
  5
115
330
1F
100
AcDbEntity
  8
0
  6
Continuous
 62
     7
370
    25
100
AcDbSpline
210
0.0
220
0.0
230
1.0
 70
     8
 71
     3
 72
    12
 73
     8
 74
     0
 42
0.000000001
 43
0.00000001
 40
0.0
 40
0.0
 40
0.0
 40
0.0
 40
0.25
 40
0.25
 40
0.5
 40
0.5
 40
1.0
 40
1.0
 40
1.0
 40
1.0
 10
108.8263782159859
 20
76.94437337874221
 30
0.0
 10
108.8405923614148
 20
76.94257793154217
 30
0.0
 10
108.8522758906732
 20
76.94055067173538
 30
0.0
 10
108.8713355648411
 20
76.9374990413251
 30
0.0
 10
108.8787117097505
 20
76.9364746707216
 30
0.0
 10
108.8955098399429
 20
76.93710566434117
 30
0.0
 10
108.8996015206901
 20
76.9424651339943
 30
0.0
 10
108.8996015206901
 20
76.95862946855456
 30
0.0
  0
SPLINE
  5
116
330
1F
100
AcDbEntity
  8
0
  6
Continuous
 62
     7
370
    25
100
AcDbSpline
210
0.0
220
0.0
230
1.0
 70
     8
 71
     3
 72
    10
 73
     6
 74
     0
 42
0.000000001
 43
0.00000001
 40
0.0
 40
0.0
 40
0.0
 40
0.0
 40
0.5
 40
0.5
 40
1.0
 40
1.0
 40
1.0
 40
1.0
 10
108.8263782159859
 20
76.94437337874221
 30
0.0
 10
108.7979499251282
 20
76.9479642731423
 30
0.0
 10
108.7650159966914
 20
76.9515282955954
 30
0.0
 10
108.7021020398595
 20
76.95686089330152
 30
0.0
 10
108.6721220114644
 20
76.95862946855456
 30
0.0
 10
108.6496015206901
 20
76.95862946855456
 30
0.0
  0
LINE
  5
117
330
1F
100
AcDbEntity
  8
0
  6
Continuous
 62
     7
370
    25
100
AcDbLine
 10
108.8996016548
 20
79.259139573
 30
0.0
 11
108.6496016138
 21
79.259139573
 31
0.0
  0
LINE
  5
118
330
1F
100
AcDbEntity
  8
0
  6
Continuous
 62
     7
370
    25
100
AcDbLine
 10
97.6496016734
 20
81.0091398599
 30
0.0
 11
99.9501118564
 21
81.0091398599
 31
0.0
  0
SPLINE
  5
119
330
1F
100
AcDbEntity
  8
0
  6
Continuous
 62
     7
370
    25
100
AcDbSpline
210
0.0
220
0.0
230
1.0
 70
     8
 71
     3
 72
    12
 73
     8
 74
     0
 42
0.000000001
 43
0.00000001
 40
0.0
 40
0.0
 40
0.0
 40
0.0
 40
0.25
 40
0.25
 40
0.5
 40
0.5
 40
1.0
 40
1.0
 40
1.0
 40
1.0
 10
99.96436786771922
 20
80.93591642106722
 30
0.0
 10
99.96616331491927
 20
80.9501305664961
 30
0.0
 10
99.96819057472605
 20
80.96181409575453
 30
0.0
 10
99.97124220513633
 20
80.98087376992238
 30
0.0
 10
99.97226657573984
 20
80.98824991483181
 30
0.0
 10
99.97163558212027
 20
81.0050480450242
 30
0.0
 10
99.96627611246714
 20
81.00913972577136
 30
0.0
 10
99.95011177790688
 20
81.00913972577136
 30
0.0
  0
SPLINE
  5
11A
330
1F
100
AcDbEntity
  8
0
  6
Continuous
 62
     7
370
    25
100
AcDbSpline
210
0.0
220
0.0
230
1.0
 70
     8
 71
     3
 72
    10
 73
     6
 74
     0
 42
0.000000001
 43
0.00000001
 40
0.0
 40
0.0
 40
0.0
 40
0.0
 40
0.5
 40
0.5
 40
1.0
 40
1.0
 40
1.0
 40
1.0
 10
99.96436786771922
 20
80.93591642106722
 30
0.0
 10
99.96077697331913
 20
80.90748813020949
 30
0.0
 10
99.95721295086604
 20
80.87455420177267
 30
0.0
 10
99.95188035315991
 20
80.81164024494076
 30
0.0
 10
99.95011177790688
 20
80.78166021654567
 30
0.0
 10
99.95011177790688
 20
80.75913972577136
 30
0.0
  0
LINE
  5
11B
330
1F
100
AcDbEntity
  8
0
  6
Continuous
 62
     7
370
    25
100
AcDbLine
 10
97.6496016734
 20
80.7591398189
 30
0.0
 11
97.6496016734
 21
81.0091398599
 31
0.0
  0
SPLINE
  5
11C
330
1F
100
AcDbEntity
  8
0
  6
Continuous
 62
     7
370
    25
100
AcDbSpline
210
0.0
220
0.0
230
1.0
 70
     8
 71
     3
 72
    12
 73
     8
 74
     0
 42
0.000000001
 43
0.00000001
 40
0.0
 40
0.0
 40
0.0
 40
0.0
 40
0.25
 40
0.25
 40
0.5
 40
0.5
 40
1.0
 40
1.0
 40
1.0
 40
1.0
 10
108.9016091209798
 20
74.50913972577138
 30
0.0
 10
108.8913456616906
 20
74.30693230335108
 30
0.0
 10
108.8837668818938
 20
74.10504547924664
 30
0.0
 10
108.8693534264448
 20
73.69966829209841
 30
0.0
 10
108.8625187507925
 20
73.49617792905464
 30
0.0
 10
108.836192997792
 20
72.87993442815778
 30
0.0
 10
108.8265260464311
 20
72.47994290229403
 30
0.0
 10
108.8263782159859
 20
72.07390607280053
 30
0.0
  0
SPLINE
  5
11D
330
1F
100
AcDbEntity
  8
0
  6
Continuous
 62
     7
370
    25
100
AcDbSpline
210
0.0
220
0.0
230
1.0
 70
    24
 71
     3
 72
    10
 73
     6
 74
     0
 42
0.000000001
 43
0.00000001
 40
0.0
 40
0.0
 40
0.0
 40
0.0
 40
0.5
 40
0.5
 40
1.0
 40
1.0
 40
1.0
 40
1.0
 10
108.9016091209798
 20
74.50913972577138
 30
0.0
 10
108.8605552838232
 20
74.50913972577138
 30
0.0
 10
108.8164809315102
 20
74.50913972577138
 30
0.0
 10
108.7251296619983
 20
74.50913972577138
 30
0.0
 10
108.6923798805012
 20
74.50913972577138
 30
0.0
 10
108.6496015206901
 20
74.50913972577138
 30
0.0
  0
SPLINE
  5
11E
330
1F
100
AcDbEntity
  8
0
  6
Continuous
 62
     7
370
    25
100
AcDbSpline
210
0.0
220
0.0
230
1.0
 70
     8
 71
     3
 72
    12
 73
     8
 74
     0
 42
0.000000001
 43
0.00000001
 40
0.0
 40
0.0
 40
0.0
 40
0.0
 40
0.25
 40
0.25
 40
0.5
 40
0.5
 40
1.0
 40
1.0
 40
1.0
 40
1.0
 10
102.3996015206901
 20
81.01114732606106
 30
0.0
 10
102.6018089431104
 20
81.00088386677193
 30
0.0
 10
102.8036957672148
 20
80.99330508697514
 30
0.0
 10
103.209072954363
 20
80.97889163152608
 30
0.0
 10
103.4125633174068
 20
80.97205695587378
 30
0.0
 10
104.0288068183037
 20
80.94573120287335
 30
0.0
 10
104.4287983441674
 20
80.93606425151236
 30
0.0
 10
104.8348351736609
 20
80.93591642106722
 30
0.0
  0
SPLINE
  5
11F
330
1F
100
AcDbEntity
  8
0
  6
Continuous
 62
     7
370
    25
100
AcDbSpline
210
0.0
220
0.0
230
1.0
 70
    24
 71
     3
 72
    10
 73
     6
 74
     0
 42
0.000000001
 43
0.00000001
 40
0.0
 40
0.0
 40
0.0
 40
0.0
 40
0.5
 40
0.5
 40
1.0
 40
1.0
 40
1.0
 40
1.0
 10
102.3996015206901
 20
81.01114732606106
 30
0.0
 10
102.3996015206901
 20
80.97009348890452
 30
0.0
 10
102.3996015206901
 20
80.92601913659149
 30
0.0
 10
102.3996015206901
 20
80.83466786707956
 30
0.0
 10
102.3996015206901
 20
80.80191808558254
 30
0.0
 10
102.3996015206901
 20
80.75913972577136
 30
0.0
  0
SPLINE
  5
120
330
1F
100
AcDbEntity
  8
0
  6
Continuous
 62
     7
370
    25
100
AcDbSpline
210
0.0
220
0.0
230
1.0
 70
     8
 71
     3
 72
    12
 73
     8
 74
     0
 42
0.000000001
 43
0.00000001
 40
0.0
 40
0.0
 40
0.0
 40
0.0
 40
0.25
 40
0.25
 40
0.5
 40
0.5
 40
1.0
 40
1.0
 40
1.0
 40
1.0
 10
102.3996015206901
 20
81.01114732606106
 30
0.0
 10
102.1973940982698
 20
81.00088386677193
 30
0.0
 10
101.9955072741653
 20
80.99330508697516
 30
0.0
 10
101.5901300870171
 20
80.97889163152608
 30
0.0
 10
101.3866397239733
 20
80.97205695587378
 30
0.0
 10
100.7703962230765
 20
80.94573120287335
 30
0.0
 10
100.3704046972127
 20
80.93606425151236
 30
0.0
 10
99.96436786771922
 20
80.93591642106722
 30
0.0
  0
SPLINE
  5
121
330
1F
100
AcDbEntity
  8
0
  6
Continuous
 62
     7
370
    25
100
AcDbSpline
210
0.0
220
0.0
230
1.0
 70
     8
 71
     3
 72
    12
 73
     8
 74
     0
 42
0.000000001
 43
0.00000001
 40
0.0
 40
0.0
 40
0.0
 40
0.0
 40
0.25
 40
0.25
 40
0.5
 40
0.5
 40
1.0
 40
1.0
 40
1.0
 40
1.0
 10
108.9016091209798
 20
74.50913972577138
 30
0.0
 10
108.8913456616906
 20
74.71134714819166
 30
0.0
 10
108.8837668818938
 20
74.91323397229611
 30
0.0
 10
108.8693534264448
 20
75.31861115944433
 30
0.0
 10
108.8625187507925
 20
75.5221015224881
 30
0.0
 10
108.836192997792
 20
76.13834502338496
 30
0.0
 10
108.8265260464311
 20
76.53833654924873
 30
0.0
 10
108.8263782159859
 20
76.94437337874221
 30
0.0
  0
LWPOLYLINE
  5
122
330
1F
100
AcDbEntity
  8
0
  6
Continuous
 62
     7
370
    25
100
AcDbPolyline
 90
        9
 70
   128
 43
0.0
 10
107.2940844239
 20
72.2957908584
 10
107.2481604421
 20
72.2793658206
 10
107.2040017822
 20
72.2635719868
 10
107.1633048483
 20
72.2490161134
 10
107.1276333311
 20
72.2362581583
 10
107.0983590686
 20
72.2257877642
 10
107.0766057015
 20
72.2180074955
 10
107.0632104889
 20
72.2132165393
 10
107.0586875209
 20
72.211598832
  0
LINE
  5
123
330
1F
100
AcDbEntity
  8
0
  6
Continuous
 62
     7
370
    25
100
AcDbLine
 10
107.0586875209
 20
72.211598832
 30
0.0
 11
106.1708251142
 21
74.6940226819
 31
0.0
  0
SPLINE
  5
124
330
1F
100
AcDbEntity
  8
0
  6
Continuous
 62
     7
370
    25
100
AcDbSpline
210
0.0
220
0.0
230
1.0
 70
     8
 71
     3
 72
    10
 73
     6
 74
     0
 42
0.000000001
 43
0.00000001
 40
0.0
 40
0.0
 40
0.0
 40
0.0
 40
0.5
 40
0.5
 40
1.0
 40
1.0
 40
1.0
 40
1.0
 10
106.1708250317026
 20
74.69402268837113
 30
0.0
 10
106.1708250317026
 20
74.69402268837113
 30
0.0
 10
106.1958410790533
 20
74.70460535213206
 30
0.0
 10
106.2810673463525
 20
74.74011165135376
 30
0.0
 10
106.3417691661561
 20
74.76515478588468
 30
0.0
 10
106.4020829887576
 20
74.7897870297155
 30
0.0
  0
SPLINE
  5
125
330
1F
100
AcDbEntity
  8
0
  6
Continuous
 62
     7
370
    25
100
AcDbSpline
210
0.0
220
0.0
230
1.0
 70
     8
 71
     3
 72
    14
 73
    10
 74
     0
 42
0.000000001
 43
0.00000001
 40
0.0
 40
0.0
 40
0.0
 40
0.0
 40
0.25
 40
0.25
 40
0.5
 40
0.5
 40
0.75
 40
0.75
 40
1.0
 40
1.0
 40
1.0
 40
1.0
 10
106.1708250317026
 20
74.69402268837113
 30
0.0
 10
106.132923349954
 20
74.77160592114481
 30
0.0
 10
106.0718142379621
 20
74.83619538645769
 30
0.0
 10
105.9258805554094
 20
74.9236500910615
 30
0.0
 10
105.8410019352568
 20
74.94702980842285
 30
0.0
 10
105.6685257669751
 20
74.94720515509451
 30
0.0
 10
105.5838684125687
 20
74.92432490257248
 30
0.0
 10
105.4358888708671
 20
74.83573444577452
 30
0.0
 10
105.3756176924947
 20
74.77159268885411
 30
0.0
 10
105.3377224751077
 20
74.69402268837139
 30
0.0
  0
SPLINE
  5
126
330
1F
100
AcDbEntity
  8
0
  6
Continuous
 62
     7
370
    25
100
AcDbSpline
210
0.0
220
0.0
230
1.0
 70
     8
 71
     3
 72
    10
 73
     6
 74
     0
 42
0.000000001
 43
0.00000001
 40
0.0
 40
0.0
 40
0.0
 40
0.0
 40
0.5
 40
0.5
 40
1.0
 40
1.0
 40
1.0
 40
1.0
 10
105.3377224751075
 20
74.69402268837104
 30
0.0
 10
105.3377224751075
 20
74.69402268837104
 30
0.0
 10
105.3127064277567
 20
74.70460535213158
 30
0.0
 10
105.2274801604575
 20
74.74011165135323
 30
0.0
 10
105.1667783406539
 20
74.76515478588405
 30
0.0
 10
105.1064645180524
 20
74.78978702971494
 30
0.0
  0
LINE
  5
127
330
1F
100
AcDbEntity
  8
0
  6
Continuous
 62
     7
370
    25
100
AcDbLine
 10
105.3377223794
 20
74.6940226819
 30
0.0
 11
104.450067192
 21
72.2121774161
 31
0.0
  0
LWPOLYLINE
  5
128
330
1F
100
AcDbEntity
  8
0
  6
Continuous
 62
     7
370
    25
100
AcDbPolyline
 90
        9
 70
   128
 43
0.0
 10
104.2146701726
 20
72.2963692097
 10
104.2605938052
 20
72.279944172
 10
104.3047526979
 20
72.2641503381
 10
104.3454496318
 20
72.2495946976
 10
104.3811209162
 20
72.2368365096
 10
104.4103956443
 20
72.2263661156
 10
104.4321485457
 20
72.2185860796
 10
104.4455439911
 20
72.2137951235
 10
104.450067192
 20
72.2121774161
  0
SPLINE
  5
129
330
1F
100
AcDbEntity
  8
0
  6
Continuous
 62
     7
370
    25
100
AcDbSpline
210
0.0
220
0.0
230
1.0
 70
     8
 71
     3
 72
    14
 73
    10
 74
     0
 42
0.000000001
 43
0.00000001
 40
0.0
 40
0.0
 40
0.0
 40
0.0
 40
0.25
 40
0.25
 40
0.5
 40
0.5
 40
0.75
 40
0.75
 40
1.0
 40
1.0
 40
1.0
 40
1.0
 10
102.3996015206901
 20
81.01114732606106
 30
0.0
 10
102.1973940982698
 20
81.02141078535018
 30
0.0
 10
101.9968042657395
 20
81.03607567578095
 30
0.0
 10
101.5988302857856
 20
81.06781105396446
 30
0.0
 10
101.4014461383619
 20
81.08488154171721
 30
0.0
 10
101.0098540339479
 20
81.11503084958349
 30
0.0
 10
100.8129758585491
 20
81.12086231973339
 30
0.0
 10
100.4206187981086
 20
81.11475619651182
 30
0.0
 10
100.2251399130668
 20
81.10281860314036
 30
0.0
 10
100.032142441574
 20
81.0823551300308
 30
0.0
  0
SPLINE
  5
12A
330
1F
100
AcDbEntity
  8
0
  6
Continuous
 62
     7
370
    25
100
AcDbSpline
210
0.0
220
0.0
230
1.0
 70
     8
 71
     3
 72
     8
 73
     4
 74
     0
 42
0.000000001
 43
0.00000001
 40
0.0
 40
0.0
 40
0.0
 40
0.0
 40
1.0
 40
1.0
 40
1.0
 40
1.0
 10
100.032142441574
 20
81.0823551300308
 30
0.0
 10
100.0459324629171
 20
81.12863572563525
 30
0.0
 10
100.0522886542543
 20
81.19368615443337
 30
0.0
 10
100.0480913676182
 20
81.25913972577136
 30
0.0
  0
SPLINE
  5
12B
330
1F
100
AcDbEntity
  8
0
  6
Continuous
 62
     7
370
    25
100
AcDbSpline
210
0.0
220
0.0
230
1.0
 70
    24
 71
     3
 72
    10
 73
     6
 74
     0
 42
0.000000001
 43
0.00000001
 40
0.0
 40
0.0
 40
0.0
 40
0.0
 40
0.5
 40
0.5
 40
1.0
 40
1.0
 40
1.0
 40
1.0
 10
102.3996015206901
 20
81.01114732606106
 30
0.0
 10
102.3996015206901
 20
81.0522011632176
 30
0.0
 10
102.3996015206901
 20
81.0956779935986
 30
0.0
 10
102.3996015206901
 20
81.18473669332295
 30
0.0
 10
102.3996015206901
 20
81.2168400628466
 30
0.0
 10
102.3996015206901
 20
81.25913972577136
 30
0.0
  0
SPLINE
  5
12C
330
1F
100
AcDbEntity
  8
0
  6
Continuous
 62
     7
370
    25
100
AcDbSpline
210
0.0
220
0.0
230
1.0
 70
     8
 71
     3
 72
     8
 73
     4
 74
     0
 42
0.000000001
 43
0.00000001
 40
0.0
 40
0.0
 40
0.0
 40
0.0
 40
1.0
 40
1.0
 40
1.0
 40
1.0
 10
109.1496015206901
 20
72.15762957269952
 30
0.0
 10
109.0841479493521
 20
72.16182685933562
 30
0.0
 10
109.0190975205539
 20
72.15547066799836
 30
0.0
 10
108.9728169249495
 20
72.1416806466553
 30
0.0
  0
SPLINE
  5
12D
330
1F
100
AcDbEntity
  8
0
  6
Continuous
 62
     7
370
    25
100
AcDbSpline
210
0.0
220
0.0
230
1.0
 70
     8
 71
     3
 72
    12
 73
     8
 74
     0
 42
0.000000001
 43
0.00000001
 40
0.0
 40
0.0
 40
0.0
 40
0.0
 40
0.25
 40
0.25
 40
0.5
 40
0.5
 40
1.0
 40
1.0
 40
1.0
 40
1.0
 10
108.9016091209798
 20
74.50913972577138
 30
0.0
 10
108.9118725802689
 20
74.30693230335108
 30
0.0
 10
108.9265374706996
 20
74.10634247082079
 30
0.0
 10
108.9582728488831
 20
73.70836849086687
 30
0.0
 10
108.9753433366359
 20
73.51098434344324
 30
0.0
 10
109.0205672984353
 20
72.92359618682222
 30
0.0
 10
109.0137438711686
 20
72.527675589641
 30
0.0
 10
108.9728169249495
 20
72.1416806466553
 30
0.0
  0
SPLINE
  5
12E
330
1F
100
AcDbEntity
  8
0
  6
Continuous
 62
     7
370
    25
100
AcDbSpline
210
0.0
220
0.0
230
1.0
 70
    24
 71
     3
 72
    10
 73
     6
 74
     0
 42
0.000000001
 43
0.00000001
 40
0.0
 40
0.0
 40
0.0
 40
0.0
 40
0.5
 40
0.5
 40
1.0
 40
1.0
 40
1.0
 40
1.0
 10
108.9016091209798
 20
74.50913972577138
 30
0.0
 10
108.9426629581363
 20
74.50913972577138
 30
0.0
 10
108.9861397885173
 20
74.50913972577138
 30
0.0
 10
109.0751984882416
 20
74.50913972577138
 30
0.0
 10
109.1073018577653
 20
74.50913972577138
 30
0.0
 10
109.1496015206901
 20
74.50913972577138
 30
0.0
  0
SPLINE
  5
12F
330
1F
100
AcDbEntity
  8
0
  6
Continuous
 62
     7
370
    25
100
AcDbSpline
210
0.0
220
0.0
230
1.0
 70
     8
 71
     3
 72
    10
 73
     6
 74
     0
 42
0.000000001
 43
0.00000001
 40
0.0
 40
0.0
 40
0.0
 40
0.0
 40
0.5
 40
0.5
 40
1.0
 40
1.0
 40
1.0
 40
1.0
 10
104.7670605998061
 20
81.0823551300308
 30
0.0
 10
104.7591913674259
 20
81.11078239009807
 30
0.0
 10
104.754924520041
 20
81.14500902826494
 30
0.0
 10
104.750995683727
 20
81.20803107380249
 30
0.0
 10
104.7511116737619
 20
81.23661679309447
 30
0.0
 10
104.7511116737619
 20
81.25913972577136
 30
0.0
  0
SPLINE
  5
130
330
1F
100
AcDbEntity
  8
0
  6
Continuous
 62
     7
370
    25
100
AcDbSpline
210
0.0
220
0.0
230
1.0
 70
     8
 71
     3
 72
    14
 73
    10
 74
     0
 42
0.000000001
 43
0.00000001
 40
0.0
 40
0.0
 40
0.0
 40
0.0
 40
0.25
 40
0.25
 40
0.5
 40
0.5
 40
0.75
 40
0.75
 40
1.0
 40
1.0
 40
1.0
 40
1.0
 10
102.3996015206901
 20
81.01114732606106
 30
0.0
 10
102.6018089431104
 20
81.02141078535018
 30
0.0
 10
102.8023987756406
 20
81.03607567578095
 30
0.0
 10
103.2003727555946
 20
81.06781105396445
 30
0.0
 10
103.3977569030182
 20
81.08488154171721
 30
0.0
 10
103.7893490074322
 20
81.11503084958349
 30
0.0
 10
103.986227182831
 20
81.12086231973339
 30
0.0
 10
104.3785842432715
 20
81.11475619651183
 30
0.0
 10
104.5740631283133
 20
81.10281860314036
 30
0.0
 10
104.7670605998061
 20
81.0823551300308
 30
0.0
  0
SPLINE
  5
131
330
1F
100
AcDbEntity
  8
0
  6
Continuous
 62
     7
370
    25
100
AcDbSpline
210
0.0
220
0.0
230
1.0
 70
     8
 71
     3
 72
    12
 73
     8
 74
     0
 42
0.000000001
 43
0.00000001
 40
0.0
 40
0.0
 40
0.0
 40
0.0
 40
0.25
 40
0.25
 40
0.5
 40
0.5
 40
1.0
 40
1.0
 40
1.0
 40
1.0
 10
108.9016091209798
 20
74.50913972577138
 30
0.0
 10
108.9118725802689
 20
74.71134714819166
 30
0.0
 10
108.9265374706996
 20
74.91193698072195
 30
0.0
 10
108.9582728488832
 20
75.30991096067586
 30
0.0
 10
108.9753433366359
 20
75.5072951080995
 30
0.0
 10
109.0205672984353
 20
76.09468326472052
 30
0.0
 10
109.0137438711686
 20
76.49060386190175
 30
0.0
 10
108.9728169249495
 20
76.87659880488745
 30
0.0
  0
SPLINE
  5
132
330
1F
100
AcDbEntity
  8
0
  6
Continuous
 62
     7
370
    25
100
AcDbSpline
210
0.0
220
0.0
230
1.0
 70
     8
 71
     3
 72
    10
 73
     6
 74
     0
 42
0.000000001
 43
0.00000001
 40
0.0
 40
0.0
 40
0.0
 40
0.0
 40
0.5
 40
0.5
 40
1.0
 40
1.0
 40
1.0
 40
1.0
 10
108.9728169249495
 20
76.87659880488745
 30
0.0
 10
109.0012441850168
 20
76.8687295725072
 30
0.0
 10
109.0354708231836
 20
76.86446272512228
 30
0.0
 10
109.0984928687212
 20
76.86053388880832
 30
0.0
 10
109.1270785880132
 20
76.86064987884322
 30
0.0
 10
109.1496015206901
 20
76.86064987884322
 30
0.0
  0
SPLINE
  5
133
330
1F
100
AcDbEntity
  8
0
  6
Continuous
 62
     7
370
    25
100
AcDbSpline
210
0.0
220
0.0
230
1.0
 70
     8
 71
     3
 72
    14
 73
    10
 74
     0
 42
0.000000001
 43
0.00000001
 40
0.0
 40
0.0
 40
0.0
 40
0.0
 40
0.0526822267945598
 40
0.1287456339724992
 40
0.2353187193853958
 40
0.3749156516620482
 40
0.5485969096886099
 40
0.7568720674016369
 40
0.9999999999999999
 40
0.9999999999999999
 40
0.9999999999999999
 40
0.9999999999999999
 10
99.95011177790688
 20
81.00913972577136
 30
0.0
 10
99.95359246255052
 20
81.00915052677917
 30
0.0
 10
99.96209861307548
 20
81.0091769224477
 30
0.0
 10
99.97264827198454
 20
81.01000382891407
 30
0.0
 10
99.98429182923816
 20
81.01270732930813
 30
0.0
 10
99.99656742306148
 20
81.0190077700651
 30
0.0
 10
100.0093147880366
 20
81.03118194904027
 30
0.0
 10
100.0220595820323
 20
81.05128623832032
 30
0.0
 10
100.0286128299164
 20
81.07147913578356
 30
0.0
 10
100.032142441574
 20
81.0823551300308
 30
0.0
  0
SPLINE
  5
134
330
1F
100
AcDbEntity
  8
0
  6
Continuous
 62
     7
370
    25
100
AcDbSpline
210
0.0
220
0.0
230
1.0
 70
     8
 71
     3
 72
    12
 73
     8
 74
     0
 42
0.000000001
 43
0.00000001
 40
0.0
 40
0.0
 40
0.0
 40
0.0
 40
0.25
 40
0.25
 40
0.5
 40
0.5
 40
1.0
 40
1.0
 40
1.0
 40
1.0
 10
108.9728169249495
 20
76.87659880488745
 30
0.0
 10
108.9586032949159
 20
76.88053342107757
 30
0.0
 10
108.9459017711633
 20
76.88543095489914
 30
0.0
 10
108.9248343418208
 20
76.89681758866402
 30
0.0
 10
108.916468436231
 20
76.90330668860736
 30
0.0
 10
108.8998412551063
 20
76.92465993390842
 30
0.0
 10
108.8996015206901
 20
76.94106088989713
 30
0.0
 10
108.8996015206901
 20
76.95862946855456
 30
0.0
  0
SPLINE
  5
135
330
1F
100
AcDbEntity
  8
0
  6
Continuous
 62
     7
370
    25
100
AcDbSpline
210
0.0
220
0.0
230
1.0
 70
     8
 71
     3
 72
    14
 73
    10
 74
     0
 42
0.000000001
 43
0.00000001
 40
0.0
 40
0.0
 40
0.0
 40
0.0
 40
0.243127932598341
 40
0.4514030903113563
 40
0.6250843483379128
 40
0.7646812806145595
 40
0.8712543660274661
 40
0.9473177732054238
 40
1.0
 40
1.0
 40
1.0
 40
1.0
 10
108.9728169249495
 20
72.1416806466553
 30
0.0
 10
108.9619409307023
 20
72.13815103499766
 30
0.0
 10
108.941748033239
 20
72.13159778711365
 30
0.0
 10
108.921643743959
 20
72.11885299311793
 30
0.0
 10
108.9094695649838
 20
72.10610562814281
 30
0.0
 10
108.9031691242268
 20
72.0938300343195
 30
0.0
 10
108.9004656238327
 20
72.08218647706586
 30
0.0
 10
108.8996387173664
 20
72.07163681815679
 30
0.0
 10
108.8996123216979
 20
72.06313066763184
 30
0.0
 10
108.8996015206901
 20
72.05964998298819
 30
0.0
  0
SPLINE
  5
136
330
1F
100
AcDbEntity
  8
0
  6
Continuous
 62
     7
370
    25
100
AcDbSpline
210
0.0
220
0.0
230
1.0
 70
     8
 71
     3
 72
    12
 73
     8
 74
     0
 42
0.000000001
 43
0.00000001
 40
0.0
 40
0.0
 40
0.0
 40
0.0
 40
0.25
 40
0.25
 40
0.5
 40
0.5
 40
1.0
 40
1.0
 40
1.0
 40
1.0
 10
104.7670605998061
 20
81.0823551300308
 30
0.0
 10
104.7709952159963
 20
81.06814149999717
 30
0.0
 10
104.7758927498178
 20
81.05543997624459
 30
0.0
 10
104.7872793835827
 20
81.03437254690216
 30
0.0
 10
104.7937684835261
 20
81.02600664131229
 30
0.0
 10
104.8151217288271
 20
81.00937946018763
 30
0.0
 10
104.8315226848158
 20
81.00913972577136
 30
0.0
 10
104.8490912634733
 20
81.00913972577136
 30
0.0
  0
ARC
  5
137
330
1F
100
AcDbEntity
  8
0
  6
Continuous
 62
     7
370
    25
100
AcDbCircle
 10
99.3996015207
 20
71.5091397258
 30
0.0
 40
2.0
100
AcDbArc
 50
180.0
 51
270.0
  0
LINE
  5
138
330
1F
100
AcDbEntity
  8
0
  6
Continuous
 62
     7
370
    25
100
AcDbLine
 10
97.3996016324
 20
71.5091396997
 30
0.0
 11
97.6496016734
 21
71.5091396997
 31
0.0
  0
LINE
  5
139
330
1F
100
AcDbEntity
  8
0
  6
Continuous
 62
     7
370
    25
100
AcDbLine
 10
99.3996014946
 20
69.7591398785
 30
0.0
 11
99.3996014946
 21
69.5091398375
 31
0.0
  0
LINE
  5
13A
330
1F
100
AcDbEntity
  8
0
  6
Continuous
 62
     7
370
    25
100
AcDbLine
 10
107.149601368
 20
80.5091397779
 30
0.0
 11
107.3996014089
 21
80.5091397779
 31
0.0
  0
ARC
  5
13B
330
1F
100
AcDbEntity
  8
0
  6
Continuous
 62
     7
370
    25
100
AcDbCircle
 10
108.3996015207
 20
80.5091397258
 30
0.0
 40
1.0
100
AcDbArc
 50
180.0
 51
270.0
  0
LINE
  5
13C
330
1F
100
AcDbEntity
  8
0
  6
Continuous
 62
     7
370
    25
100
AcDbLine
 10
108.3996015728
 20
79.509139614
 30
0.0
 11
108.3996015728
 21
79.259139573
 31
0.0
  0
LINE
  5
13D
330
1F
100
AcDbEntity
  8
0
  6
Continuous
 62
     7
370
    25
100
AcDbLine
 10
107.7865240292
 20
71.9845347049
 30
0.0
 11
107.757166879
 21
71.9677583257
 31
0.0
  0
LWPOLYLINE
  5
13E
330
1F
100
AcDbEntity
  8
0
  6
Continuous
 62
     7
370
    25
100
AcDbPolyline
 90
        9
 70
   128
 43
0.0
 10
107.757166879
 20
71.9677583257
 10
107.7547836245
 20
71.971929021
 10
107.7477251307
 20
71.9842809195
 10
107.7362624125
 20
72.0043392794
 10
107.720836451
 20
72.0313331986
 10
107.7020400331
 20
72.0642254165
 10
107.6805949339
 20
72.1017518955
 10
107.6573258393
 20
72.1424702497
 10
107.6331268192
 20
72.1848163231
  0
LWPOLYLINE
  5
13F
330
1F
100
AcDbEntity
  8
0
  6
Continuous
 62
     7
370
    25
100
AcDbPolyline
 90
        9
 70
   128
 43
0.0
 10
107.7865240292
 20
71.9845347049
 10
107.7984156215
 20
71.9968630875
 10
107.8336326533
 20
72.0333739592
 10
107.8908228443
 20
72.0926642826
 10
107.9677873419
 20
72.1724558098
 10
108.0615691968
 20
72.2696821613
 10
108.1685641908
 20
72.3806068709
 10
108.2846605347
 20
72.5009670424
 10
108.4053962619
 20
72.6261374949
  0
LINE
  5
140
330
1F
100
AcDbEntity
  8
0
  6
Continuous
 62
     7
370
    25
100
AcDbLine
 10
107.149601368
 20
80.7591398189
 30
0.0
 11
107.3996014089
 21
80.7591398189
 31
0.0
  0
LINE
  5
141
330
1F
100
AcDbEntity
  8
0
  6
Continuous
 62
     7
370
    25
100
AcDbLine
 10
107.3996014089
 20
80.7591398189
 30
0.0
 11
107.3996014089
 21
80.5091397779
 31
0.0
  0
LINE
  5
142
330
1F
100
AcDbEntity
  8
0
  6
Continuous
 62
     7
370
    25
100
AcDbLine
 10
107.2252773807
 20
70.9146115406
 30
0.0
 11
107.7865240292
 21
71.9845347049
 31
0.0
  0
LWPOLYLINE
  5
143
330
1F
100
AcDbEntity
  8
0
  6
Continuous
 62
     7
370
    25
100
AcDbPolyline
 90
        9
 70
   128
 43
0.0
 10
107.2252773807
 20
70.9146115406
 10
107.2295311966
 20
70.9123800917
 10
107.2421296627
 20
70.9057714267
 10
107.2625880257
 20
70.8950395638
 10
107.290120715
 20
70.8805968462
 10
107.3236692824
 20
70.862998342
 10
107.3619443119
 20
70.8429204242
 10
107.4034752452
 20
70.8211346938
 10
107.4466662609
 20
70.7984781767
  0
SPLINE
  5
144
330
1F
100
AcDbEntity
  8
0
  6
Continuous
 62
     7
370
    25
100
AcDbSpline
210
0.0
220
0.0
230
1.0
 70
     8
 71
     3
 72
    23
 73
    19
 74
     0
 42
0.000000001
 43
0.00000001
 40
0.0
 40
0.0
 40
0.0
 40
0.0
 40
0.0000069464595966
 40
0.0000069464595966
 40
0.0000069464595966
 40
0.0000269173558753
 40
0.0000269173558753
 40
0.0000269173558753
 40
0.0000477420212559
 40
0.0000477420212559
 40
0.0000477420212559
 40
0.0000689844307043
 40
0.0000689844307043
 40
0.0000689844307043
 40
0.0000900350769267
 40
0.0000900350769267
 40
0.0000900350769267
 40
0.0001105259114901
 40
0.0001105259114901
 40
0.0001105259114901
 40
0.0001105259114901
 10
104.2832701451973
 20
70.91461149175701
 30
0.0
 10
104.2843457660033
 20
70.91256099967889
 30
0.0
 10
104.2855511709633
 20
70.91057371610368
 30
0.0
 10
104.2868708084496
 20
70.90867107720321
 30
0.0
 10
104.2906160969319
 20
70.90327116121571
 30
0.0
 10
104.2953744054901
 20
70.89846722842069
 30
0.0
 10
104.3007077432952
 20
70.89462772502252
 30
0.0
 10
104.3062673134394
 20
70.89062535554184
 30
0.0
 10
104.3126092328847
 20
70.8875529389315
 30
0.0
 10
104.3191837105593
 20
70.88562835457286
 30
0.0
 10
104.3258896785913
 20
70.88366527829176
 30
0.0
 10
104.3330272711241
 20
70.8828384492703
 30
0.0
 10
104.3400051373261
 20
70.88320322179842
 30
0.0
 10
104.3469211011969
 20
70.88356475834162
 30
0.0
 10
104.3538721175301
 20
70.88510700352428
 30
0.0
 10
104.3602829712329
 20
70.88772658741028
 30
0.0
 10
104.3665240506902
 20
70.89027679865134
 30
0.0
 10
104.3724236049568
 20
70.89392065156986
 30
0.0
 10
104.3774658673221
 20
70.89839616722801
 30
0.0
  0
LWPOLYLINE
  5
145
330
1F
100
AcDbEntity
  8
0
  6
Continuous
 62
     7
370
    25
100
AcDbPolyline
 90
        9
 70
   128
 43
0.0
 10
104.3774659407
 20
70.8983962832
 10
104.3806545564
 20
70.8948034736
 10
104.390098633
 20
70.8841638116
 10
104.405434489
 20
70.8668856824
 10
104.4260732957
 20
70.8436333517
 10
104.4512217992
 20
70.8153001907
 10
104.4799135194
 20
70.7829753811
 10
104.5110457704
 20
70.7479006088
 10
104.5434222684
 20
70.711424196
  0
LWPOLYLINE
  5
146
330
1F
100
AcDbEntity
  8
0
  6
Continuous
 62
     7
370
    25
100
AcDbPolyline
 90
        9
 70
   128
 43
0.0
 10
104.2832701129
 20
70.9146115406
 10
104.2790161806
 20
70.9123800917
 10
104.2664179473
 20
70.9057714267
 10
104.2459593515
 20
70.8950395638
 10
104.218426895
 20
70.8805968462
 10
104.1848783276
 20
70.862998342
 10
104.1466030653
 20
70.8429204242
 10
104.105072132
 20
70.8211346938
 10
104.0618812327
 20
70.7984781767
  0
SPLINE
  5
147
330
1F
100
AcDbEntity
  8
0
  6
Continuous
 62
     7
370
    25
100
AcDbSpline
210
0.0
220
0.0
230
1.0
 70
     8
 71
     3
 72
    14
 73
    10
 74
     0
 42
0.000000001
 43
0.00000001
 40
0.0
 40
0.0
 40
0.0
 40
0.0
 40
0.5000000000000003
 40
0.5000000000000003
 40
0.6250000000000006
 40
0.6250000000000006
 40
0.7500000000000008
 40
0.7500000000000008
 40
1.0
 40
1.0
 40
1.0
 40
1.0
 10
104.377465867324
 20
70.89839616722975
 30
0.0
 10
104.7556782130289
 20
71.23409771404327
 30
0.0
 10
105.2528799682864
 20
71.41478849450658
 30
0.0
 10
105.8795227375722
 20
71.41481201907357
 30
0.0
 10
106.0060451760416
 20
71.40350721854044
 30
0.0
 10
106.2517247046932
 20
71.3593195606802
 30
0.0
 10
106.3721451852971
 20
71.32650624323588
 30
0.0
 10
106.7258674655059
 20
71.19466138040178
 30
0.0
 10
106.9419569256806
 20
71.06626339759973
 30
0.0
 10
107.1310816394863
 20
70.89839616722966
 30
0.0
  0
LWPOLYLINE
  5
148
330
1F
100
AcDbEntity
  8
0
  6
Continuous
 62
     7
370
    25
100
AcDbPolyline
 90
        9
 70
   128
 43
0.0
 10
107.1310815529
 20
70.8983962832
 10
107.1278927044
 20
70.8948034736
 10
107.1184490935
 20
70.8841638116
 10
107.1031130047
 20
70.8668856824
 10
107.0824739651
 20
70.8436333517
 10
107.0573254616
 20
70.8153001907
 10
107.028634207
 20
70.7829753811
 10
106.997501956
 20
70.7479006088
 10
106.965125458
 20
70.711424196
  0
SPLINE
  5
149
330
1F
100
AcDbEntity
  8
0
  6
Continuous
 62
     7
370
    25
100
AcDbSpline
210
0.0
220
0.0
230
1.0
 70
     8
 71
     3
 72
    23
 73
    19
 74
     0
 42
0.000000001
 43
0.00000001
 40
0.0
 40
0.0
 40
0.0
 40
0.0
 40
0.0000076769896581
 40
0.0000076769896581
 40
0.0000076769896581
 40
0.0000285420058146
 40
0.0000285420058146
 40
0.0000285420058146
 40
0.0000497754494318
 40
0.0000497754494318
 40
0.0000497754494318
 40
0.00007072706396
 40
0.00007072706396
 40
0.00007072706396
 40
0.0000909558732107
 40
0.0000909558732107
 40
0.0000909558732107
 40
0.0001104364738497
 40
0.0001104364738497
 40
0.0001104364738497
 40
0.0001104364738497
 10
107.1310816394863
 20
70.8983961672297
 30
0.0
 10
107.1329954810437
 20
70.89669744010334
 30
0.0
 10
107.1350246698981
 20
70.89512076379486
 30
0.0
 10
107.137141933177
 20
70.89368352353507
 30
0.0
 10
107.1428247029667
 20
70.88982594681796
 30
0.0
 10
107.1492650579828
 20
70.88692072587254
 30
0.0
 10
107.1559072700197
 20
70.88517264410463
 30
0.0
 10
107.1626665280007
 20
70.88339375845993
 30
0.0
 10
107.1698257844308
 20
70.88276065807513
 30
0.0
 10
107.1767931381947
 20
70.88331562124579
 30
0.0
 10
107.183669578839
 20
70.88386334301106
 30
0.0
 10
107.190549003598
 20
70.8855836567513
 30
0.0
 10
107.1968632430725
 20
70.88836139232639
 30
0.0
 10
107.202961544028
 20
70.89104413307133
 30
0.0
 10
107.2086966300355
 20
70.89478797323044
 30
0.0
 10
107.2135735733638
 20
70.89932689339068
 30
0.0
 10
107.2182709234945
 20
70.90369866803985
 30
0.0
 10
107.222296464506
 20
70.9089289074589
 30
0.0
 10
107.2252773616118
 20
70.9146114917546
 30
0.0
  0
LINE
  5
14A
330
1F
100
AcDbEntity
  8
0
  6
Continuous
 62
     7
370
    25
100
AcDbLine
 10
97.3996016324
 20
71.5091396997
 30
0.0
 11
97.3996016324
 21
80.7591398189
 31
0.0
  0
LINE
  5
14B
330
1F
100
AcDbEntity
  8
0
  6
Continuous
 62
     7
370
    25
100
AcDbLine
 10
97.3996016324
 20
80.7591398189
 30
0.0
 11
97.6496016734
 21
80.7591398189
 31
0.0
  0
ARC
  5
14C
330
1F
100
AcDbEntity
  8
0
  6
Continuous
 62
     7
370
    25
100
AcDbCircle
 10
107.1496015207
 20
80.7591397258
 30
0.0
 40
0.25
100
AcDbArc
 50
0.0
 51
90.0
  0
ARC
  5
14D
330
1F
100
AcDbEntity
  8
0
  6
Continuous
 62
     7
370
    25
100
AcDbCircle
 10
97.6496015207
 20
80.7591397258
 30
0.0
 40
0.25
100
AcDbArc
 50
90.0
 51
180.0
  0
LINE
  5
14E
330
1F
100
AcDbEntity
  8
0
  6
Continuous
 62
     7
370
    25
100
AcDbLine
 10
108.6496016138
 20
69.7591398785
 30
0.0
 11
108.6496016138
 21
69.5091398375
 31
0.0
  0
LINE
  5
14F
330
1F
100
AcDbEntity
  8
0
  6
Continuous
 62
     7
370
    25
100
AcDbLine
 10
108.6496016138
 20
69.5091398375
 30
0.0
 11
99.3996014946
 21
69.5091398375
 31
0.0
  0
LINE
  5
150
330
1F
100
AcDbEntity
  8
0
  6
Continuous
 62
     7
370
    25
100
AcDbLine
 10
105.4839404893
 20
72.2885605356
 30
0.0
 11
105.6979837955
 21
72.8598141287
 31
0.0
  0
ELLIPSE
  5
151
330
1F
100
AcDbEntity
  8
0
  6
Continuous
 62
     7
370
    25
100
AcDbEllipse
 10
105.7542737548
 20
72.8406521178
 30
0.0
 11
0.05977206589648176
 21
0.0
 31
0.0
210
0.0
220
0.0
230
1.0
 40
0.9531667975
 41
0.3430239404218864
 42
2.798568713168692
  0
LINE
  5
152
330
1F
100
AcDbEntity
  8
0
  6
Continuous
 62
     7
370
    25
100
AcDbLine
 10
105.8105636981
 20
72.8598141287
 30
0.0
 11
106.0246070043
 21
72.2885605356
 31
0.0
  0
LINE
  5
153
330
1F
100
AcDbEntity
  8
0
  6
Continuous
 62
     7
370
    25
100
AcDbLine
 10
105.9683171694
 20
72.2124258464
 30
0.0
 11
105.5402303242
 21
72.2124258464
 31
0.0
  0
ELLIPSE
  5
154
330
1F
100
AcDbEntity
  8
0
  6
Continuous
 62
     7
370
    25
100
AcDbEllipse
 10
105.5402302791
 20
72.2693985451
 30
0.0
 11
-0.05977206589648176
 21
0.0
 31
0.0
210
0.0
220
0.0
230
1.0
 40
0.9531667975
 41
5.940161364897858
 42
7.853981633974483
  0
ELLIPSE
  5
155
330
1F
100
AcDbEntity
  8
0
  6
Continuous
 62
     7
370
    25
100
AcDbEllipse
 10
105.968317228
 20
72.2693985451
 30
0.0
 11
0.05977206589649597
 21
0.0
 31
0.0
210
0.0
220
0.0
230
1.0
 40
0.9531667975
 41
4.712388980384703
 42
6.626209245739644
  0
LWPOLYLINE
  5
156
330
1F
100
AcDbEntity
  8
0
  6
Continuous
 62
     7
370
    25
100
AcDbPolyline
 90
        9
 70
   128
 43
0.0
 10
103.8789118535
 20
72.1835527512
 10
103.855397239
 20
72.1408229729
 10
103.8327862403
 20
72.0997353492
 10
103.8119478977
 20
72.0618687047
 10
103.7936829158
 20
72.0286784636
 10
103.7786931626
 20
72.0014398394
 10
103.7675547774
 20
71.9811998716
 10
103.7606958195
 20
71.9687359816
 10
103.7583798531
 20
71.9645275677
  0
LINE
  5
157
330
1F
100
AcDbEntity
  8
0
  6
Continuous
 62
     7
370
    25
100
AcDbLine
 10
103.7583798531
 20
71.9645275677
 30
0.0
 11
103.7220234645
 21
71.9845347049
 31
0.0
  0
LWPOLYLINE
  5
158
330
1F
100
AcDbEntity
  8
0
  6
Continuous
 62
     7
370
    25
100
AcDbPolyline
 90
        9
 70
   128
 43
0.0
 10
103.1147107493
 20
72.6041010058
 10
103.2331916282
 20
72.4832297711
 10
103.347119271
 20
72.3670032749
 10
103.452115705
 20
72.2598883731
 10
103.5441457422
 20
72.1660015116
 10
103.6196728597
 20
72.0889506338
 10
103.6757945909
 20
72.0316964144
 10
103.7103542254
 20
71.9964395685
 10
103.7220234645
 20
71.9845347049
  0
SPLINE
  5
159
330
1F
100
AcDbEntity
  8
0
  6
Continuous
 62
     7
370
    25
100
AcDbSpline
210
0.0
220
0.0
230
1.0
 70
     8
 71
     3
 72
    10
 73
     6
 74
     0
 42
0.000000001
 43
0.00000001
 40
0.0
 40
0.0
 40
0.0
 40
0.0
 40
0.5
 40
0.5
 40
1.0
 40
1.0
 40
1.0
 40
1.0
 10
107.7571669406391
 20
71.96775841061714
 30
0.0
 10
107.6344849556664
 20
71.89765052288129
 30
0.0
 10
107.4834963268839
 20
71.88425452490246
 30
0.0
 10
107.2180771512362
 20
71.97439956049608
 30
0.0
 10
107.1063153308744
 20
72.07843303011013
 30
0.0
 10
107.0586873307486
 20
72.21159881994558
 30
0.0
  0
LINE
  5
15A
330
1F
100
AcDbEntity
  8
0
  6
Continuous
 62
     7
370
    25
100
AcDbLine
 10
103.7220234645
 20
71.9845347049
 30
0.0
 11
104.2832701129
 21
70.9146115406
 31
0.0
  0
LINE
  5
15B
330
1F
100
AcDbEntity
  8
0
  6
Continuous
 62
     7
370
    25
100
AcDbLine
 10
108.6496016138
 20
79.509139614
 30
0.0
 11
108.6496016138
 21
79.259139573
 31
0.0
  0
ARC
  5
15C
330
1F
100
AcDbEntity
  8
0
  6
Continuous
 62
     7
370
    25
100
AcDbCircle
 10
108.6496015207
 20
79.2591397258
 30
0.0
 40
0.25
100
AcDbArc
 50
0.0
 51
90.0
  0
LINE
  5
15D
330
1F
100
AcDbEntity
  8
0
  6
Continuous
 62
     7
370
    25
100
AcDbLine
 10
108.3996015728
 20
79.509139614
 30
0.0
 11
108.6496016138
 21
79.509139614
 31
0.0
  0
ARC
  5
15E
330
1F
100
AcDbEntity
  8
0
  6
Continuous
 62
     7
370
    25
100
AcDbCircle
 10
108.6496015207
 20
69.7591397258
 30
0.0
 40
0.25
100
AcDbArc
 50
270.0
 51
0.0
  0
SPLINE
  5
15F
330
1F
100
AcDbEntity
  8
0
  6
Continuous
 62
     7
370
    25
100
AcDbSpline
210
0.0
220
0.0
230
1.0
 70
     8
 71
     3
 72
    10
 73
     6
 74
     0
 42
0.000000001
 43
0.00000001
 40
0.0
 40
0.0
 40
0.0
 40
0.0
 40
0.5
 40
0.5
 40
1.0
 40
1.0
 40
1.0
 40
1.0
 10
104.4500670805028
 20
72.21217731564909
 30
0.0
 10
104.4028323351816
 20
72.08011104891968
 30
0.0
 10
104.2921608148002
 20
71.97665903292707
 30
0.0
 10
104.0312012704331
 20
71.88570738939046
 30
0.0
 10
103.88113586539
 20
71.89697350713651
 30
0.0
 10
103.7583798622015
 20
71.96452749915964
 30
0.0
  0
ARC
  5
160
330
1F
100
AcDbEntity
  8
0
  6
Continuous
 62
     7
370
    25
100
AcDbCircle
 10
109.1232018735
 20
69.7244028132
 30
0.0
 40
0.2262823933024017
100
AcDbArc
 50
83.3001813581
 51
171.1694920169
  0
ARC
  5
161
330
1F
100
AcDbEntity
  8
0
  6
Continuous
 62
     7
370
    25
100
AcDbCircle
 10
107.1843384333
 20
81.2327400786
 30
0.0
 40
0.2262823933024017
100
AcDbArc
 50
173.3001813581
 51
261.1694920169
  0
ARC
  5
162
330
1F
100
AcDbEntity
  8
0
  6
Continuous
 62
     7
370
    25
100
AcDbCircle
 10
109.1232018735
 20
79.2938766384
 30
0.0
 40
0.2262823933024017
100
AcDbArc
 50
188.8305079831
 51
276.6998186419
  0
ARC
  5
163
330
1F
100
AcDbEntity
  8
0
  6
Continuous
 62
     7
370
    25
100
AcDbCircle
 10
97.6148646081
 20
81.2327400786
 30
0.0
 40
0.2262823933024017
100
AcDbArc
 50
278.8305079831
 51
6.6998186419
  0
LINE
  5
164
330
1F
100
AcDbEntity
  8
0
  6
Continuous
 62
     7
370
    25
100
AcDbLine
 10
107.3996014089
 20
80.7591398189
 30
0.0
 11
107.4396017135
 21
80.7591398189
 31
0.0
  0
LINE
  5
165
330
1F
100
AcDbEntity
  8
0
  6
Continuous
 62
     7
370
    25
100
AcDbLine
 10
108.6496016138
 20
69.469139533
 30
0.0
 11
108.6496016138
 21
69.5091398375
 31
0.0
  0
LINE
  5
166
330
1F
100
AcDbEntity
  8
0
  6
Continuous
 62
     7
370
    25
100
AcDbLine
 10
97.3996016324
 20
80.7591398189
 30
0.0
 11
97.3596013279
 21
80.7591398189
 31
0.0
  0
LINE
  5
167
330
1F
100
AcDbEntity
  8
0
  6
Continuous
 62
     7
370
    25
100
AcDbLine
 10
108.6496016138
 20
79.5491399186
 30
0.0
 11
108.6496016138
 21
79.509139614
 31
0.0
  0
LWPOLYLINE
  5
168
330
1F
100
AcDbEntity
  8
0
  6
Continuous
 62
     7
370
    25
100
AcDbPolyline
 90
        9
 70
   128
 43
0.0
 10
99.0564473101
 20
69.4944086427
 10
99.0615060215
 20
69.5037051046
 10
99.0665360947
 20
69.5117796714
 10
99.0715098229
 20
69.5185867081
 10
99.0763990336
 20
69.5240884962
 10
99.0811767184
 20
69.5282538364
 10
99.085815869
 20
69.5310594456
 10
99.0902904083
 20
69.5324899571
 10
99.0945756563
 20
69.5325369889
  0
SPLINE
  5
169
330
1F
100
AcDbEntity
  8
0
  6
Continuous
 62
     7
370
    25
100
AcDbSpline
210
0.0
220
0.0
230
1.0
 70
     8
 71
     3
 72
    14
 73
    10
 74
     0
 42
0.000000001
 43
0.00000001
 40
0.0
 40
0.0
 40
0.0
 40
0.0
 40
0.2500000000000003
 40
0.2500000000000003
 40
0.5000000000000002
 40
0.5000000000000002
 40
0.7500000000000001
 40
0.7500000000000001
 40
1.0
 40
1.0
 40
1.0
 40
1.0
 10
99.05644739906025
 20
69.49440854332664
 30
0.0
 10
98.848435509395
 20
69.5241624420522
 30
0.0
 10
98.64847645231748
 20
69.585518181596
 30
0.0
 10
98.26592257291874
 20
69.77527242277773
 30
0.0
 10
98.09362160608833
 20
69.8986890723484
 30
0.0
 10
97.78994998332496
 20
70.2021641966179
 30
0.0
 10
97.66612155245465
 20
70.37488153756979
 30
0.0
 10
97.47632612355167
 20
70.75711594056956
 30
0.0
 10
97.4146259186104
 20
70.95796195799971
 30
0.0
 10
97.38487033824534
 20
71.16598560414155
 30
0.0
  0
LWPOLYLINE
  5
16A
330
1F
100
AcDbEntity
  8
0
  6
Continuous
 62
     7
370
    25
100
AcDbPolyline
 90
        9
 70
   128
 43
0.0
 10
97.4229987838
 20
71.2041138614
 10
97.422951752
 20
71.1998286134
 10
97.4215212406
 20
71.1953540741
 10
97.4187156313
 20
71.1907149235
 10
97.4145502911
 20
71.1859372387
 10
97.409048503
 20
71.181048028
 10
97.4022414663
 20
71.1760742998
 10
97.3941668996
 20
71.1710442266
 10
97.3848704376
 20
71.1659855152
  0
LINE
  5
16B
330
1F
100
AcDbEntity
  8
0
  6
Continuous
 62
     7
370
    25
100
AcDbLine
 10
99.3996014946
 20
69.469139533
 30
0.0
 11
99.3996014946
 21
69.5091398375
 31
0.0
  0
LINE
  5
16C
330
1F
100
AcDbEntity
  8
0
  6
Continuous
 62
     7
370
    25
100
AcDbLine
 10
97.3996016324
 20
71.5091396997
 30
0.0
 11
97.3596013279
 21
71.5091396997
 31
0.0
  0
SPLINE
  5
16D
330
1F
100
AcDbEntity
  8
0
  6
Continuous
 62
     7
370
    25
100
AcDbSpline
210
0.0
220
0.0
230
1.0
 70
    24
 71
     3
 72
    10
 73
     6
 74
     0
 42
0.000000001
 43
0.00000001
 40
0.0
 40
0.0
 40
0.0
 40
0.0
 40
0.5
 40
0.5
 40
1.0
 40
1.0
 40
1.0
 40
1.0
 10
107.7693352835517
 20
79.87887348863303
 30
0.0
 10
107.7440232625334
 20
79.8535614676147
 30
0.0
 10
107.7256772642128
 20
79.83521546929414
 30
0.0
 10
107.6995790279957
 20
79.80911723307703
 30
0.0
 10
107.6924947395043
 20
79.80203294458558
 30
0.0
 10
107.6924947395035
 20
79.80203294458482
 30
0.0
  0
LINE
  5
16E
330
1F
100
AcDbEntity
  8
0
  6
Continuous
 62
     7
370
    25
100
AcDbLine
 10
107.3996014089
 20
80.5091397779
 30
0.0
 11
107.4396017135
 21
80.5091397779
 31
0.0
  0
LINE
  5
16F
330
1F
100
AcDbEntity
  8
0
  6
Continuous
 62
     7
370
    25
100
AcDbLine
 10
108.3996015728
 20
79.5491399186
 30
0.0
 11
108.3996015728
 21
79.509139614
 31
0.0
  0
LINE
  5
170
330
1F
100
AcDbEntity
  8
0
  6
Continuous
 62
     8
370
    25
100
AcDbLine
 10
151.9501310901
 20
71.5759686137
 30
0.0
 11
151.9501310901
 21
77.4423108379
 31
0.0
  0
LINE
  5
171
330
1F
100
AcDbEntity
  8
0
  6
Continuous
 62
     8
370
    25
100
AcDbLine
 10
126.3538868294
 20
66.6591400223
 30
0.0
 11
126.3538868294
 21
82.3591394292
 31
0.0
  0
LINE
  5
172
330
1F
100
AcDbEntity
  8
0
  6
Continuous
 62
     8
370
    25
100
AcDbLine
 10
113.9538864733
 20
74.5091397258
 30
0.0
 11
113.9538864733
 21
66.6591400223
 31
0.0
  0
LINE
  5
173
330
1F
100
AcDbEntity
  8
0
  6
Continuous
 62
     8
370
    25
100
AcDbLine
 10
113.9538864733
 20
82.3591394292
 30
0.0
 11
113.9538864733
 21
74.5091397258
 31
0.0
  0
LINE
  5
174
330
1F
100
AcDbEntity
  8
0
  6
Continuous
 62
     8
370
    25
100
AcDbLine
 10
111.8996012152
 20
68.5091396736
 30
0.0
 11
111.8996012152
 21
80.5091397779
 31
0.0
  0
LINE
  5
175
330
1F
100
AcDbEntity
  8
0
  6
Continuous
 62
     8
370
    25
100
AcDbLine
 10
108.3996015728
 20
84.0091394203
 30
0.0
 11
96.3996014685
 21
84.0091394203
 31
0.0
  0
LWPOLYLINE
  5
176
330
1F
100
AcDbEntity
  8
0
  6
Continuous
 62
     8
370
    25
100
AcDbPolyline
 90
        8
 70
   128
 43
0.0
 10
96.3996014685
 20
70.5091395358
 10
96.4202731044
 20
70.5229207816
 10
96.4821445883
 20
70.5641685927
 10
96.5847907715
 20
70.6325991487
 10
96.7275033833
 20
70.7277409675
 10
96.9092994125
 20
70.8489381651
 10
97.1289262303
 20
70.9953560436
 10
97.3848704376
 20
71.1659855152
  0
LWPOLYLINE
  5
177
330
1F
100
AcDbEntity
  8
0
  6
Continuous
 62
     8
370
    25
100
AcDbPolyline
 90
        8
 70
   128
 43
0.0
 10
99.0564473101
 20
69.4944086427
 10
98.8858178386
 20
69.2384644354
 10
98.73939996
 20
69.0188376175
 10
98.6182027624
 20
68.8370415883
 10
98.5230609437
 20
68.6943289766
 10
98.4546303877
 20
68.5916827934
 10
98.4133825765
 20
68.5298113095
 10
98.3996013307
 20
68.5091396736
  0
LINE
  5
178
330
1F
100
AcDbEntity
  8
0
  6
Continuous
 62
     7
370
     0
100
AcDbLine
 10
108.1491398245
 20
95.6439140032
 30
0.0
 11
108.4967890207
 21
84.5191397258
 31
0.0
  0
LINE
  5
179
330
1F
100
AcDbEntity
  8
0
  6
Continuous
 62
     7
370
     0
100
AcDbLine
 10
96.6500632169
 20
95.6439140032
 30
0.0
 11
96.3024140207
 21
84.5191397258
 31
0.0
  0
LINE
  5
17A
330
1F
100
AcDbEntity
  8
0
  6
Continuous
 62
     7
370
     0
100
AcDbLine
 10
95.6339140207
 20
84.5191397258
 30
0.0
 11
109.1652890207
 21
84.5191397258
 31
0.0
  0
LINE
  5
17B
330
1F
100
AcDbEntity
  8
0
  6
CENTERX2
 62
     7
370
    18
100
AcDbLine
 10
94.5471790503
 20
74.5091397258
 30
0.0
 11
153.950130482
 21
74.5091397258
 31
0.0
  0
LINE
  5
17C
330
1F
100
AcDbEntity
  8
0
  6
CENTERX2
 62
     7
370
    18
100
AcDbLine
 10
102.3996015207
 20
94.4197798328
 30
0.0
 11
102.3996015207
 21
66.1824938662
 31
0.0
  0
LINE
  5
17D
330
1F
100
AcDbEntity
  8
0
  6
CENTERX2
 62
     7
370
    18
100
AcDbLine
 10
102.3996015207
 20
94.4197798328
 30
0.0
 11
102.3996015207
 21
98.5091397258
 31
0.0
  0
LINE
  5
17E
330
1F
100
AcDbEntity
  8
0
  6
Continuous
 62
     7
370
    25
100
AcDbLine
 10
197.6257433483
 20
84.509395616
 30
0.0
 11
197.3160441333
 21
94.4197807403
 31
0.0
  0
LINE
  5
17F
330
1F
100
AcDbEntity
  8
0
  6
Continuous
 62
     7
370
    25
100
AcDbLine
 10
184.4034587333
 20
94.4197807403
 30
0.0
 11
184.0937595183
 21
84.509395616
 31
0.0
  0
ARC
  5
180
330
1F
100
AcDbEntity
  8
0
  6
Continuous
 62
     7
370
    25
100
AcDbCircle
 10
184.1097514333
 20
85.0091397258
 30
0.0
 40
0.5
100
AcDbArc
 50
268.1671385201
 51
270.0
  0
ARC
  5
181
330
1F
100
AcDbEntity
  8
0
  6
Continuous
 62
     7
370
    25
100
AcDbCircle
 10
197.6097514333
 20
85.0091397258
 30
0.0
 40
0.5
100
AcDbArc
 50
270.0
 51
271.8328614799
  0
ARC
  5
182
330
1F
100
AcDbEntity
  8
0
  6
Continuous
 62
     7
370
    25
100
AcDbCircle
 10
184.3597514333
 20
84.0091397258
 30
0.0
 40
0.5
100
AcDbArc
 50
0.0
 51
90.0
  0
ARC
  5
183
330
1F
100
AcDbEntity
  8
0
  6
Continuous
 62
     7
370
    25
100
AcDbCircle
 10
197.3597514333
 20
84.0091397258
 30
0.0
 40
0.5
100
AcDbArc
 50
90.0
 51
180.0
  0
LINE
  5
184
330
1F
100
AcDbEntity
  8
0
  6
Continuous
 62
     7
370
    25
100
AcDbLine
 10
197.3160441333
 20
94.4197807403
 30
0.0
 11
196.1097513625
 21
96.5091396066
 31
0.0
  0
LINE
  5
185
330
1F
100
AcDbEntity
  8
0
  6
Continuous
 62
     7
370
    25
100
AcDbLine
 10
185.6097515041
 20
96.5091396066
 30
0.0
 11
184.4034587333
 21
94.4197807403
 31
0.0
  0
LINE
  5
186
330
1F
100
AcDbEntity
  8
0
  6
Continuous
 62
     7
370
    25
100
AcDbLine
 10
196.8597514854
 20
81.2591399009
 30
0.0
 11
196.8597514854
 21
84.0091394203
 31
0.0
  0
LINE
  5
187
330
1F
100
AcDbEntity
  8
0
  6
Continuous
 62
     7
370
    25
100
AcDbLine
 10
184.8597513811
 20
84.0091394203
 30
0.0
 11
184.8597513811
 21
81.2591399009
 31
0.0
  0
CIRCLE
  5
188
330
1F
100
AcDbEntity
  8
0
  6
Continuous
 62
     7
370
    25
100
AcDbCircle
 10
190.8597514333
 20
74.5091397258
 30
0.0
 40
2.933171158551374
  0
CIRCLE
  5
189
330
1F
100
AcDbEntity
  8
0
  6
Continuous
 62
     7
370
    25
100
AcDbCircle
 10
190.8597514333
 20
74.5091397258
 30
0.0
 40
2.199999999999989
  0
CIRCLE
  5
18A
330
1F
100
AcDbEntity
  8
0
  6
Continuous
 62
     7
370
    25
100
AcDbCircle
 10
190.8597514333
 20
74.5091397258
 30
0.0
 40
2.0
  0
CIRCLE
  5
18B
330
1F
100
AcDbEntity
  8
0
  6
Continuous
 62
     7
370
    25
100
AcDbCircle
 10
190.8597514333
 20
74.5091397258
 30
0.0
 40
3.5
  0
CIRCLE
  5
18C
330
1F
100
AcDbEntity
  8
0
  6
Continuous
 62
     7
370
    25
100
AcDbCircle
 10
190.8597514333
 20
74.5091397258
 30
0.0
 40
4.499999999999972
  0
CIRCLE
  5
18D
330
1F
100
AcDbEntity
  8
0
  6
Continuous
 62
     7
370
    25
100
AcDbCircle
 10
190.8597514333
 20
74.5091397258
 30
0.0
 40
7.849999999999994
  0
CIRCLE
  5
18E
330
1F
100
AcDbEntity
  8
0
  6
Continuous
 62
     7
370
    25
100
AcDbCircle
 10
190.8597514333
 20
74.5091397258
 30
0.0
 40
7.550000000000011
  0
CIRCLE
  5
18F
330
1F
100
AcDbEntity
  8
0
  6
Continuous
 62
     7
370
    25
100
AcDbCircle
 10
190.8597514333
 20
74.5091397258
 30
0.0
 40
4.849999999999966
  0
CIRCLE
  5
190
330
1F
100
AcDbEntity
  8
0
  6
Continuous
 62
     7
370
    25
100
AcDbCircle
 10
190.8597514333
 20
74.5091397258
 30
0.0
 40
4.749999999999972
  0
SPLINE
  5
191
330
1F
100
AcDbEntity
  8
0
  6
Continuous
 62
     7
370
    25
100
AcDbSpline
210
0.0
220
0.0
230
1.0
 70
     8
 71
     3
 72
    15
 73
    11
 74
     0
 42
0.000000001
 43
0.00000001
 40
0.0
 40
0.0
 40
0.0
 40
0.0
 40
0.1323049836088744
 40
0.2645725542962953
 40
0.3997989460670495
 40
0.5350009961647513
 40
0.6501921448046264
 40
0.7654012094574273
 40
0.8826892612248055
 40
1.0
 40
1.0
 40
1.0
 40
1.0
 10
182.8597510533105
 20
79.12794183364196
 30
0.0
 10
183.2053823215727
 20
79.32749220440373
 30
0.0
 10
183.8965471212235
 20
79.72653651749849
 30
0.0
 10
184.9608789679973
 20
80.34102795913267
 30
0.0
 10
186.0452740274607
 20
80.96710435225395
 30
0.0
 10
187.0903896869098
 20
81.57050178186553
 30
0.0
 10
188.0790443162867
 20
82.14130247761834
 30
0.0
 10
189.0120933973746
 20
82.67999754067424
 30
0.0
 10
189.9409232850567
 20
83.21625785235287
 30
0.0
 10
190.5534556387838
 20
83.56990384528117
 30
0.0
 10
190.8597514332901
 20
83.74674394151253
 30
0.0
  0
SPLINE
  5
192
330
1F
100
AcDbEntity
  8
0
  6
Continuous
 62
     7
370
    25
100
AcDbSpline
210
0.0
220
0.0
230
1.0
 70
     8
 71
     3
 72
    15
 73
    11
 74
     0
 42
0.000000001
 43
0.00000001
 40
0.0
 40
0.0
 40
0.0
 40
0.0
 40
0.1323049282587865
 40
0.2645725126911059
 40
0.3997989257496958
 40
0.5350009327659058
 40
0.6501920780127179
 40
0.7654011811473762
 40
0.8826892697167907
 40
1.0
 40
1.0
 40
1.0
 40
1.0
 10
190.8597514332901
 20
83.74674394151253
 30
0.0
 10
191.2053826227989
 20
83.547193796452
 30
0.0
 10
191.8965474454265
 20
83.14814983050637
 30
0.0
 10
192.9608787678553
 20
82.53365756435679
 30
0.0
 10
194.0452741379997
 20
81.907581761531
 30
0.0
 10
195.0903892649597
 20
81.30418356551155
 30
0.0
 10
196.0790446089399
 20
80.7333841595432
 30
0.0
 10
197.0120929813576
 20
80.19468741356233
 30
0.0
 10
197.9409233928196
 20
79.65842755155765
 30
0.0
 10
198.5534559674404
 20
79.30478178335721
 30
0.0
 10
198.8597518132697
 20
79.12794183364196
 30
0.0
  0
SPLINE
  5
193
330
1F
100
AcDbEntity
  8
0
  6
Continuous
 62
     7
370
    25
100
AcDbSpline
210
0.0
220
0.0
230
1.0
 70
    24
 71
     3
 72
    16
 73
    12
 74
     0
 42
0.000000001
 43
0.00000001
 40
0.0
 40
0.0
 40
0.0
 40
0.0
 40
0.0956237048719251
 40
0.1912377572329386
 40
0.2877937386129499
 40
0.384338844905961
 40
0.5102676226299211
 40
0.6361984342829863
 40
0.7654843057556924
 40
0.8948065565616085
 40
1.0
 40
1.0
 40
1.0
 40
1.0
 10
198.8597518132697
 20
79.12794183364196
 30
0.0
 10
198.8597518132697
 20
78.83985380706646
 30
0.0
 10
198.8597518132697
 20
78.26370683428655
 30
0.0
 10
198.8597518132697
 20
77.38465863743754
 30
0.0
 10
198.8597518132697
 20
76.49443717401523
 30
0.0
 10
198.8597518132697
 20
75.50254553276878
 30
0.0
 10
198.8597518132697
 20
74.41285591087079
 30
0.0
 10
198.8597518132697
 20
73.22143736137792
 30
0.0
 10
198.8597518132697
 20
72.02904180193957
 30
0.0
 10
198.8597518132697
 20
70.91414260507261
 30
0.0
 10
198.8597518132697
 20
70.20736639359005
 30
0.0
 10
198.8597518132697
 20
69.8903376179008
 30
0.0
  0
SPLINE
  5
194
330
1F
100
AcDbEntity
  8
0
  6
Continuous
 62
     7
370
    25
100
AcDbSpline
210
0.0
220
0.0
230
1.0
 70
     8
 71
     3
 72
    15
 73
    11
 74
     0
 42
0.000000001
 43
0.00000001
 40
0.0
 40
0.0
 40
0.0
 40
0.0
 40
0.1323049836088737
 40
0.2645725542962938
 40
0.3997989460670472
 40
0.5350009961647483
 40
0.6501921448046227
 40
0.765401209457423
 40
0.8826892612248005
 40
1.0
 40
1.0
 40
1.0
 40
1.0
 10
198.8597518132697
 20
69.8903376179008
 30
0.0
 10
198.5141205450074
 20
69.69078724713901
 30
0.0
 10
197.8229557453567
 20
69.29174293404427
 30
0.0
 10
196.7586238985829
 20
68.67725149241008
 30
0.0
 10
195.6742288391195
 20
68.05117509928878
 30
0.0
 10
194.6291131796703
 20
67.44777766967722
 30
0.0
 10
193.6404585502934
 20
66.87697697392441
 30
0.0
 10
192.7074094692056
 20
66.33828191086852
 30
0.0
 10
191.7785795815235
 20
65.80202159918987
 30
0.0
 10
191.1660472277963
 20
65.44837560626156
 30
0.0
 10
190.85975143329
 20
65.27153551003022
 30
0.0
  0
SPLINE
  5
195
330
1F
100
AcDbEntity
  8
0
  6
Continuous
 62
     7
370
    25
100
AcDbSpline
210
0.0
220
0.0
230
1.0
 70
     8
 71
     3
 72
    15
 73
    11
 74
     0
 42
0.000000001
 43
0.00000001
 40
0.0
 40
0.0
 40
0.0
 40
0.0
 40
0.1323049282587815
 40
0.2645725126911017
 40
0.3997989257496923
 40
0.5350009327659031
 40
0.650192078012716
 40
0.7654011811473749
 40
0.8826892697167901
 40
1.0
 40
1.0
 40
1.0
 40
1.0
 10
190.85975143329
 20
65.27153551003022
 30
0.0
 10
190.5141202437813
 20
65.47108565509075
 30
0.0
 10
189.8229554211536
 20
65.8701296210364
 30
0.0
 10
188.7586240987249
 20
66.48462188718597
 30
0.0
 10
187.6742287285804
 20
67.11069769001173
 30
0.0
 10
186.6291136016204
 20
67.71409588603119
 30
0.0
 10
185.6404582576403
 20
68.28489529199953
 30
0.0
 10
184.7074098852225
 20
68.8235920379804
 30
0.0
 10
183.7785794737605
 20
69.3598518999851
 30
0.0
 10
183.1660468991398
 20
69.71349766818552
 30
0.0
 10
182.8597510533105
 20
69.8903376179008
 30
0.0
  0
SPLINE
  5
196
330
1F
100
AcDbEntity
  8
0
  6
Continuous
 62
     7
370
    25
100
AcDbSpline
210
0.0
220
0.0
230
1.0
 70
    24
 71
     3
 72
    16
 73
    12
 74
     0
 42
0.000000001
 43
0.00000001
 40
0.0
 40
0.0
 40
0.0
 40
0.0
 40
0.1051935697998784
 40
0.2312919055104034
 40
0.3573572604453449
 40
0.4865103305331645
 40
0.6156604549436534
 40
0.7112032446126787
 40
0.8067564405381822
 40
0.9033731847371418
 40
1.0
 40
1.0
 40
1.0
 40
1.0
 10
182.8597510533105
 20
69.8903376179008
 30
0.0
 10
182.8597510533104
 20
70.2073654263698
 30
0.0
 10
182.8597510533104
 20
70.90442291819257
 30
0.0
 10
182.8597510533105
 20
71.99934046675244
 30
0.0
 10
182.8597510533105
 20
73.18120397115783
 30
0.0
 10
182.8597510533105
 20
74.38257369430178
 30
0.0
 10
182.8597510533105
 20
75.48939959482412
 30
0.0
 10
182.8597510533105
 20
76.48509047955667
 30
0.0
 10
182.8597510533105
 20
77.3723425856336
 30
0.0
 10
182.8597510533105
 20
78.25461311551106
 30
0.0
 10
182.8597510533105
 20
78.83682214681389
 30
0.0
 10
182.8597510533105
 20
79.12794183364196
 30
0.0
  0
LINE
  5
197
330
1F
100
AcDbEntity
  8
0
  6
Continuous
 62
     7
370
    25
100
AcDbLine
 10
197.3160441333
 20
94.4197807403
 30
0.0
 11
184.4034587333
 21
94.4197807403
 31
0.0
  0
LINE
  5
198
330
1F
100
AcDbEntity
  8
0
  6
Continuous
 62
     7
370
    25
100
AcDbLine
 10
190.8597514333
 20
84.509395616
 30
0.0
 11
184.0937595183
 21
84.509395616
 31
0.0
  0
LINE
  5
199
330
1F
100
AcDbEntity
  8
0
  6
Continuous
 62
     7
370
    25
100
AcDbLine
 10
197.6257433483
 20
84.509395616
 30
0.0
 11
190.8597514333
 21
84.509395616
 31
0.0
  0
LINE
  5
19A
330
1F
100
AcDbEntity
  8
0
  6
Continuous
 62
     7
370
    25
100
AcDbLine
 10
190.8597514333
 20
84.5091395023
 30
0.0
 11
184.1097512582
 21
84.5091395023
 31
0.0
  0
LINE
  5
19B
330
1F
100
AcDbEntity
  8
0
  6
Continuous
 62
     7
370
    25
100
AcDbLine
 10
197.6097516084
 20
84.5091395023
 30
0.0
 11
190.8597514333
 21
84.5091395023
 31
0.0
  0
LINE
  5
19C
330
1F
100
AcDbEntity
  8
0
  6
Continuous
 62
     7
370
    25
100
AcDbLine
 10
190.8597514333
 20
96.5091396066
 30
0.0
 11
196.1097513625
 21
96.5091396066
 31
0.0
  0
LINE
  5
19D
330
1F
100
AcDbEntity
  8
0
  6
Continuous
 62
     7
370
    25
100
AcDbLine
 10
185.6097515041
 20
96.5091396066
 30
0.0
 11
190.8597514333
 21
96.5091396066
 31
0.0
  0
LINE
  5
19E
330
1F
100
AcDbEntity
  8
0
  6
Continuous
 62
     7
370
    25
100
AcDbLine
 10
184.8597513811
 20
80.5091397779
 30
0.0
 11
185.1097514221
 21
80.5091397779
 31
0.0
  0
LINE
  5
19F
330
1F
100
AcDbEntity
  8
0
  6
Continuous
 62
     7
370
    25
100
AcDbLine
 10
184.8597513811
 20
80.2780185769
 30
0.0
 11
184.8597513811
 21
80.5091397779
 31
0.0
  0
LINE
  5
1A0
330
1F
100
AcDbEntity
  8
0
  6
Continuous
 62
     7
370
    25
100
AcDbLine
 10
196.8597514854
 20
80.5091397779
 30
0.0
 11
196.6097514445
 21
80.5091397779
 31
0.0
  0
LINE
  5
1A1
330
1F
100
AcDbEntity
  8
0
  6
Continuous
 62
     7
370
    25
100
AcDbLine
 10
196.8597514854
 20
80.5091397779
 30
0.0
 11
196.8597514854
 21
80.2783408145
 31
0.0
  0
SPLINE
  5
1A2
330
1F
100
AcDbEntity
  8
0
  6
Continuous
 62
     7
370
    25
100
AcDbSpline
210
0.0
220
0.0
230
1.0
 70
    24
 71
     3
 72
    14
 73
    10
 74
     0
 42
0.000000001
 43
0.00000001
 40
0.0
 40
0.0
 40
0.0
 40
0.0
 40
0.25
 40
0.25
 40
0.5
 40
0.5
 40
0.75
 40
0.75
 40
1.0
 40
1.0
 40
1.0
 40
1.0
 10
184.8597514332901
 20
81.25913972577136
 30
0.0
 10
184.8597514332901
 20
81.25913972577136
 30
0.0
 10
184.8695963470277
 20
81.25913972577136
 30
0.0
 10
184.9090884533368
 20
81.25913972577136
 30
0.0
 10
184.938736092512
 20
81.25913972577136
 30
0.0
 10
185.0181652297156
 20
81.25913972577136
 30
0.0
 10
185.0679476537849
 20
81.25913972577136
 30
0.0
 10
185.1881766401195
 20
81.25913972577136
 30
0.0
 10
185.2586246727267
 20
81.25913972577136
 30
0.0
 10
185.3397514332901
 20
81.25913972577136
 30
0.0
  0
SPLINE
  5
1A3
330
1F
100
AcDbEntity
  8
0
  6
Continuous
 62
     7
370
    25
100
AcDbSpline
210
0.0
220
0.0
230
1.0
 70
    24
 71
     3
 72
    14
 73
    10
 74
     0
 42
0.000000001
 43
0.00000001
 40
0.0
 40
0.0
 40
0.0
 40
0.0
 40
0.25
 40
0.25
 40
0.5
 40
0.5
 40
0.75
 40
0.75
 40
1.0
 40
1.0
 40
1.0
 40
1.0
 10
196.8597514332901
 20
81.25913972577136
 30
0.0
 10
196.8597514332901
 20
81.25913972577136
 30
0.0
 10
196.8499065195525
 20
81.25913972577136
 30
0.0
 10
196.8104144132434
 20
81.25913972577136
 30
0.0
 10
196.7807667740682
 20
81.25913972577136
 30
0.0
 10
196.7013376368645
 20
81.25913972577136
 30
0.0
 10
196.6515552127952
 20
81.25913972577136
 30
0.0
 10
196.5313262264606
 20
81.25913972577136
 30
0.0
 10
196.4608781938535
 20
81.25913972577136
 30
0.0
 10
196.3797514332901
 20
81.25913972577136
 30
0.0
  0
SPLINE
  5
1A4
330
1F
100
AcDbEntity
  8
0
  6
Continuous
 62
     7
370
    25
100
AcDbSpline
210
0.0
220
0.0
230
1.0
 70
     8
 71
     3
 72
    10
 73
     6
 74
     0
 42
0.000000001
 43
0.00000001
 40
0.0
 40
0.0
 40
0.0
 40
0.0
 40
0.5
 40
0.5
 40
1.0
 40
1.0
 40
1.0
 40
1.0
 10
196.4525391803957
 20
81.0823551300308
 30
0.0
 10
196.4249982335737
 20
81.11078239009807
 30
0.0
 10
196.405385099684
 20
81.14500902826494
 30
0.0
 10
196.3830762263957
 20
81.20803107380249
 30
0.0
 10
196.3797514332901
 20
81.23661679309447
 30
0.0
 10
196.3797514332901
 20
81.25913972577136
 30
0.0
  0
SPLINE
  5
1A5
330
1F
100
AcDbEntity
  8
0
  6
Continuous
 62
     7
370
    25
100
AcDbSpline
210
0.0
220
0.0
230
1.0
 70
     8
 71
     3
 72
    12
 73
     8
 74
     0
 42
0.000000001
 43
0.00000001
 40
0.0
 40
0.0
 40
0.0
 40
0.0
 40
0.25
 40
0.25
 40
0.5
 40
0.5
 40
1.0
 40
1.0
 40
1.0
 40
1.0
 10
196.4525391803957
 20
81.0823551300308
 30
0.0
 10
196.4663096538067
 20
81.06814149999717
 30
0.0
 10
196.4823736736579
 20
81.05543997624459
 30
0.0
 10
196.5157649778533
 20
81.03437254690216
 30
0.0
 10
196.5330922621974
 20
81.02600664131229
 30
0.0
 10
196.5819832693877
 20
81.00937946018763
 30
0.0
 10
196.6097514332901
 20
81.00913972577136
 30
0.0
 10
196.6097514332901
 20
81.00913972577136
 30
0.0
  0
LINE
  5
1A6
330
1F
100
AcDbEntity
  8
0
  6
Continuous
 62
     7
370
    25
100
AcDbLine
 10
185.1097514221
 20
80.7591398189
 30
0.0
 11
185.1097514221
 21
80.5091397779
 31
0.0
  0
LINE
  5
1A7
330
1F
100
AcDbEntity
  8
0
  6
Continuous
 62
     7
370
    25
100
AcDbLine
 10
185.1097514221
 20
81.0091398599
 30
0.0
 11
186.1180818008
 21
81.0091398599
 31
0.0
  0
LINE
  5
1A8
330
1F
100
AcDbEntity
  8
0
  6
Continuous
 62
     7
370
    25
100
AcDbLine
 10
185.1097514221
 20
80.7591398189
 30
0.0
 11
185.1097514221
 21
81.0091398599
 31
0.0
  0
LINE
  5
1A9
330
1F
100
AcDbEntity
  8
0
  6
Continuous
 62
     7
370
    25
100
AcDbLine
 10
184.8597513811
 20
80.7591398189
 30
0.0
 11
185.1097514221
 21
80.7591398189
 31
0.0
  0
LINE
  5
1AA
330
1F
100
AcDbEntity
  8
0
  6
Continuous
 62
     7
370
    25
100
AcDbLine
 10
184.8597513811
 20
80.5091397779
 30
0.0
 11
184.8597513811
 21
80.7591398189
 31
0.0
  0
ARC
  5
1AB
330
1F
100
AcDbEntity
  8
0
  6
Continuous
 62
     7
370
    25
100
AcDbCircle
 10
185.1097514333
 20
80.7591397258
 30
0.0
 40
0.25
100
AcDbArc
 50
90.0
 51
180.0
  0
LINE
  5
1AC
330
1F
100
AcDbEntity
  8
0
  6
Continuous
 62
     7
370
    25
100
AcDbLine
 10
196.6097514445
 20
80.5091397779
 30
0.0
 11
196.6097514445
 21
81.0091398599
 31
0.0
  0
LINE
  5
1AD
330
1F
100
AcDbEntity
  8
0
  6
Continuous
 62
     7
370
    25
100
AcDbLine
 10
195.6014210658
 20
81.0091398599
 30
0.0
 11
196.6097514445
 21
81.0091398599
 31
0.0
  0
ARC
  5
1AE
330
1F
100
AcDbEntity
  8
0
  6
Continuous
 62
     7
370
    25
100
AcDbCircle
 10
196.6097514333
 20
80.7591397258
 30
0.0
 40
0.25
100
AcDbArc
 50
0.0
 51
90.0
  0
LINE
  5
1AF
330
1F
100
AcDbEntity
  8
0
  6
Continuous
 62
     7
370
    25
100
AcDbLine
 10
196.8597514854
 20
80.7591398189
 30
0.0
 11
196.8597514854
 21
80.5091397779
 31
0.0
  0
SPLINE
  5
1B0
330
1F
100
AcDbEntity
  8
0
  6
Continuous
 62
     7
370
    25
100
AcDbSpline
210
0.0
220
0.0
230
1.0
 70
     8
 71
     3
 72
    12
 73
     8
 74
     0
 42
0.000000001
 43
0.00000001
 40
0.0
 40
0.0
 40
0.0
 40
0.0
 40
0.25
 40
0.25
 40
0.5
 40
0.5
 40
1.0
 40
1.0
 40
1.0
 40
1.0
 10
185.2669636861845
 20
81.0823551300308
 30
0.0
 10
185.2531932127735
 20
81.06814149999717
 30
0.0
 10
185.2371291929222
 20
81.05543997624459
 30
0.0
 10
185.2037378887269
 20
81.03437254690216
 30
0.0
 10
185.1864106043828
 20
81.02600664131229
 30
0.0
 10
185.1375195971925
 20
81.00937946018763
 30
0.0
 10
185.1097514332901
 20
81.00913972577136
 30
0.0
 10
185.1097514332901
 20
81.00913972577136
 30
0.0
  0
SPLINE
  5
1B1
330
1F
100
AcDbEntity
  8
0
  6
Continuous
 62
     7
370
    25
100
AcDbSpline
210
0.0
220
0.0
230
1.0
 70
     8
 71
     3
 72
    10
 73
     6
 74
     0
 42
0.000000001
 43
0.00000001
 40
0.0
 40
0.0
 40
0.0
 40
0.0
 40
0.5
 40
0.5
 40
1.0
 40
1.0
 40
1.0
 40
1.0
 10
185.2669636861845
 20
81.0823551300308
 30
0.0
 10
185.2945046330065
 20
81.11078239009807
 30
0.0
 10
185.3141177668961
 20
81.14500902826494
 30
0.0
 10
185.3364266401845
 20
81.20803107380249
 30
0.0
 10
185.3397514332901
 20
81.23661679309447
 30
0.0
 10
185.3397514332901
 20
81.25913972577136
 30
0.0
  0
LINE
  5
1B2
330
1F
100
AcDbEntity
  8
0
  6
Continuous
 62
     7
370
    25
100
AcDbLine
 10
192.7962431285
 20
74.009139702
 30
0.0
 11
188.9232597381
 21
74.009139702
 31
0.0
  0
SPLINE
  5
1B3
330
1F
100
AcDbEntity
  8
0
  6
Continuous
 62
     7
370
    25
100
AcDbSpline
210
0.0
220
0.0
230
1.0
 70
     8
 71
     3
 72
    10
 73
     6
 74
     0
 42
0.000000001
 43
0.00000001
 40
0.0
 40
0.0
 40
0.0
 40
0.0
 40
0.2343784527394781
 40
0.623772994530736
 40
1.0
 40
1.0
 40
1.0
 40
1.0
 10
190.0558691189322
 20
72.69299760816676
 30
0.0
 10
190.1734148390411
 20
72.66915319542483
 30
0.0
 10
190.4862501059762
 20
72.60569386046888
 30
0.0
 10
191.0080913110793
 20
72.5850038623942
 30
0.0
 10
191.3978805186896
 20
72.64280287838461
 30
0.0
 10
191.5894232291426
 20
72.67120535841269
 30
0.0
  0
SPLINE
  5
1B4
330
1F
100
AcDbEntity
  8
0
  6
Continuous
 62
     7
370
    25
100
AcDbSpline
210
0.0
220
0.0
230
1.0
 70
     8
 71
     3
 72
    12
 73
     8
 74
     0
 42
0.000000001
 43
0.00000001
 40
0.0
 40
0.0
 40
0.0
 40
0.0
 40
0.25
 40
0.25
 40
0.5
 40
0.5
 40
1.0
 40
1.0
 40
1.0
 40
1.0
 10
196.8584582159615
 20
81.01114732606106
 30
0.0
 10
196.8584480586044
 20
81.00088386677193
 30
0.0
 10
196.849891632493
 20
80.99330508697516
 30
0.0
 10
196.828518276258
 20
80.97889163152608
 30
0.0
 10
196.8157013461346
 20
80.9720569558738
 30
0.0
 10
196.790107849991
 20
80.94573120287335
 30
0.0
 10
196.7863802981423
 20
80.93606425151236
 30
0.0
 10
196.7865281285875
 20
80.93591642106722
 30
0.0
  0
LINE
  5
1B5
330
1F
100
AcDbEntity
  8
0
  6
Continuous
 62
     7
370
    25
100
AcDbLine
 10
196.8600527683
 20
80.817244103
 30
0.0
 11
196.8603801282
 21
80.8803481924
 31
0.0
  0
SPLINE
  5
1B6
330
1F
100
AcDbEntity
  8
0
  6
Continuous
 62
     7
370
    25
100
AcDbSpline
210
0.0
220
0.0
230
1.0
 70
     8
 71
     3
 72
    12
 73
     8
 74
     0
 42
0.000000001
 43
0.00000001
 40
0.0
 40
0.0
 40
0.0
 40
0.0
 40
0.25
 40
0.25
 40
0.5
 40
0.5
 40
1.0
 40
1.0
 40
1.0
 40
1.0
 10
196.8584582159615
 20
81.01114732606106
 30
0.0
 10
196.8584683733187
 20
81.0214107853502
 30
0.0
 10
196.8499339609257
 20
81.03607567578096
 30
0.0
 10
196.8138884728205
 20
81.06781105396446
 30
0.0
 10
196.7863773971083
 20
81.08488154171721
 30
0.0
 10
196.6725478892646
 20
81.13010550351665
 30
0.0
 10
196.5714863382212
 20
81.12328207624992
 30
0.0
 10
196.4525391803957
 20
81.0823551300308
 30
0.0
  0
SPLINE
  5
1B7
330
1F
100
AcDbEntity
  8
0
  6
Continuous
 62
     7
370
    25
100
AcDbSpline
210
0.0
220
0.0
230
1.0
 70
     8
 71
     3
 72
    12
 73
     8
 74
     0
 42
0.000000001
 43
0.00000001
 40
0.0
 40
0.0
 40
0.0
 40
0.0
 40
0.25
 40
0.25
 40
0.5
 40
0.5
 40
1.0
 40
1.0
 40
1.0
 40
1.0
 10
184.8610446506186
 20
81.01114732606106
 30
0.0
 10
184.8610548079758
 20
81.00088386677193
 30
0.0
 10
184.8696112340872
 20
80.99330508697514
 30
0.0
 10
184.8909845903221
 20
80.97889163152608
 30
0.0
 10
184.9038015204456
 20
80.97205695587378
 30
0.0
 10
184.9293950165892
 20
80.94573120287335
 30
0.0
 10
184.9331225684378
 20
80.93606425151236
 30
0.0
 10
184.9329747379927
 20
80.93591642106722
 30
0.0
  0
LINE
  5
1B8
330
1F
100
AcDbEntity
  8
0
  6
Continuous
 62
     7
370
    25
100
AcDbLine
 10
184.8594500983
 20
80.817244103
 30
0.0
 11
184.8591227384
 21
80.8803481924
 31
0.0
  0
SPLINE
  5
1B9
330
1F
100
AcDbEntity
  8
0
  6
Continuous
 62
     7
370
    25
100
AcDbSpline
210
0.0
220
0.0
230
1.0
 70
     8
 71
     3
 72
    14
 73
    10
 74
     0
 42
0.000000001
 43
0.00000001
 40
0.0
 40
0.0
 40
0.0
 40
0.0
 40
0.25
 40
0.25
 40
0.5
 40
0.5
 40
0.75
 40
0.75
 40
1.0
 40
1.0
 40
1.0
 40
1.0
 10
184.8610446506186
 20
81.01114732606106
 30
0.0
 10
184.8610344932615
 20
81.02141078535018
 30
0.0
 10
184.8695689056545
 20
81.03607567578095
 30
0.0
 10
184.9056143937597
 20
81.06781105396445
 30
0.0
 10
184.9331254694719
 20
81.08488154171721
 30
0.0
 10
185.0090118080344
 20
81.11503084958349
 30
0.0
 10
185.0532487804358
 20
81.12086231973339
 30
0.0
 10
185.1524879300545
 20
81.11475619651183
 30
0.0
 10
185.2074901072717
 20
81.10281860314036
 30
0.0
 10
185.2669636861845
 20
81.0823551300308
 30
0.0
  0
SPLINE
  5
1BA
330
1F
100
AcDbEntity
  8
0
  6
Continuous
 62
     7
370
    25
100
AcDbSpline
210
0.0
220
0.0
230
1.0
 70
     8
 71
     3
 72
    10
 73
     6
 74
     0
 42
0.000000001
 43
0.00000001
 40
0.0
 40
0.0
 40
0.0
 40
0.0
 40
0.5
 40
0.5
 40
1.0
 40
1.0
 40
1.0
 40
1.0
 10
196.8584582159615
 20
81.01114732606106
 30
0.0
 10
196.8584988453902
 20
81.0522011632176
 30
0.0
 10
196.8589440502384
 20
81.0956779935986
 30
0.0
 10
196.8554184492871
 20
81.18473669332295
 30
0.0
 10
196.8597514332901
 20
81.2168400628466
 30
0.0
 10
196.8597514332901
 20
81.25913972577136
 30
0.0
  0
SPLINE
  5
1BB
330
1F
100
AcDbEntity
  8
0
  6
Continuous
 62
     7
370
    25
100
AcDbSpline
210
0.0
220
0.0
230
1.0
 70
     8
 71
     3
 72
     9
 73
     5
 74
     0
 42
0.000000001
 43
0.00000001
 40
0.0
 40
0.0
 40
0.0
 40
0.0
 40
0.1237681934257705
 40
1.0
 40
1.0
 40
1.0
 40
1.0
 10
184.8615381234954
 20
81.14019557258172
 30
0.0
 10
184.8616251459101
 20
81.13487200773383
 30
0.0
 10
184.8623282539726
 20
81.0918596254688
 30
0.0
 10
184.8616440467029
 20
81.0488413270397
 30
0.0
 10
184.8610445225309
 20
81.01114732569141
 30
0.0
  0
LINE
  5
1BC
330
1F
100
AcDbEntity
  8
0
  6
Continuous
 62
     8
370
    25
100
AcDbLine
 10
190.8597514333
 20
84.0091394203
 30
0.0
 11
184.8597513811
 21
84.0091394203
 31
0.0
  0
LINE
  5
1BD
330
1F
100
AcDbEntity
  8
0
  6
Continuous
 62
     8
370
    25
100
AcDbLine
 10
196.8597514854
 20
84.0091394203
 30
0.0
 11
190.8597514333
 21
84.0091394203
 31
0.0
  0
LINE
  5
1BE
330
1F
100
AcDbEntity
  8
0
  6
Continuous
 62
     8
370
    25
100
AcDbLine
 10
185.1097514221
 20
80.5091397779
 30
0.0
 11
185.1097514221
 21
80.4248401838
 31
0.0
  0
LINE
  5
1BF
330
1F
100
AcDbEntity
  8
0
  6
Continuous
 62
     8
370
    25
100
AcDbLine
 10
196.6097514445
 20
80.4251866358
 30
0.0
 11
196.6097514445
 21
80.5091397779
 31
0.0
  0
LINE
  5
1C0
330
1F
100
AcDbEntity
  8
0
  6
Continuous
 62
     8
370
    25
100
AcDbLine
 10
196.467446752
 20
80.5091397779
 30
0.0
 11
196.6097514445
 21
80.5091397779
 31
0.0
  0
LINE
  5
1C1
330
1F
100
AcDbEntity
  8
0
  6
Continuous
 62
     8
370
    25
100
AcDbLine
 10
185.1097514221
 20
80.5091397779
 30
0.0
 11
185.2520561145
 21
80.5091397779
 31
0.0
  0
LINE
  5
1C2
330
1F
100
AcDbEntity
  8
0
  6
Continuous
 62
     8
370
    25
100
AcDbLine
 10
195.1831040272
 20
81.2591399009
 30
0.0
 11
196.3797515558
 21
81.2591399009
 31
0.0
  0
LINE
  5
1C3
330
1F
100
AcDbEntity
  8
0
  6
Continuous
 62
     8
370
    25
100
AcDbLine
 10
185.3397513108
 20
81.2591399009
 30
0.0
 11
186.5477237219
 21
81.2591399009
 31
0.0
  0
LINE
  5
1C4
330
1F
100
AcDbEntity
  8
0
  6
Continuous
 62
     8
370
    25
100
AcDbLine
 10
185.6850689577
 20
80.7591398189
 30
0.0
 11
185.1097514221
 21
80.7591398189
 31
0.0
  0
SPLINE
  5
1C5
330
1F
100
AcDbEntity
  8
0
  6
Continuous
 62
     8
370
    25
100
AcDbSpline
210
0.0
220
0.0
230
1.0
 70
     8
 71
     3
 72
     9
 73
     5
 74
     0
 42
0.000000001
 43
0.00000001
 40
0.0
 40
0.0
 40
0.0
 40
0.0
 40
0.1251159292884992
 40
1.0
 40
1.0
 40
1.0
 40
1.0
 10
196.860380128182
 20
80.88034819236083
 30
0.0
 10
196.8604162955931
 20
80.88580392785859
 30
0.0
 10
196.8607053667869
 20
80.92940937065701
 30
0.0
 10
196.859506880559
 20
80.97300564218722
 30
0.0
 10
196.8584583440493
 20
81.01114732569141
 30
0.0
  0
SPLINE
  5
1C6
330
1F
100
AcDbEntity
  8
0
  6
Continuous
 62
     8
370
    25
100
AcDbSpline
210
0.0
220
0.0
230
1.0
 70
     8
 71
     3
 72
     9
 73
     5
 74
     0
 42
0.000000001
 43
0.00000001
 40
0.0
 40
0.0
 40
0.0
 40
0.0
 40
0.1251159292884992
 40
1.0
 40
1.0
 40
1.0
 40
1.0
 10
184.8591227383982
 20
80.88034819236083
 30
0.0
 10
184.8590865709871
 20
80.88580392785859
 30
0.0
 10
184.8587974997932
 20
80.92940937065701
 30
0.0
 10
184.8599959860211
 20
80.97300564218722
 30
0.0
 10
184.8610445225309
 20
81.01114732569141
 30
0.0
  0
LINE
  5
1C7
330
1F
100
AcDbEntity
  8
0
  6
Continuous
 62
     8
370
    25
100
AcDbLine
 10
184.8597513811
 20
81.2591399009
 30
0.0
 11
184.8615381235
 21
81.1401955726
 31
0.0
  0
INSERT
  5
1D3
330
1F
100
AcDbEntity
  8
0
  6
Continuous
 62
     7
370
    18
100
AcDbBlockReference
  2
SW_CENTERMARKSYMBOL_0
 10
190.8597514333
 20
74.5091397258
 30
0.0
  0
LINE
  5
1D4
330
1F
100
AcDbEntity
  8
0
  6
Continuous
 62
     7
370
     0
100
AcDbLine
 10
196.6092897371
 20
95.6439140032
 30
0.0
 11
196.9569389333
 21
84.5191397258
 31
0.0
  0
LINE
  5
1D5
330
1F
100
AcDbEntity
  8
0
  6
Continuous
 62
     7
370
     0
100
AcDbLine
 10
185.1102131295
 20
95.6439140032
 30
0.0
 11
184.7625639333
 21
84.5191397258
 31
0.0
  0
LINE
  5
1D6
330
1F
100
AcDbEntity
  8
0
  6
Continuous
 62
     7
370
     0
100
AcDbLine
 10
184.0940639333
 20
84.5191397258
 30
0.0
 11
197.6254389333
 21
84.5191397258
 31
0.0
  0
ARC
  5
1D7
330
1F
100
AcDbEntity
  8
0
  6
Continuous
 62
     7
370
     0
100
AcDbCircle
 10
190.8597514333
 20
74.5091397258
 30
0.0
 40
6.578500000000004
100
AcDbArc
 50
75.0
 51
345.0
  0
LINE
  5
1D8
330
1F
100
AcDbEntity
  8
0
  6
Continuous
 62
     7
370
    25
100
AcDbLine
 10
126.6538863198
 20
124.1586903081
 30
0.0
 11
127.1538873331
 21
124.1586903081
 31
0.0
  0
LINE
  5
1D9
330
1F
100
AcDbEntity
  8
0
  6
Continuous
 62
     7
370
    25
100
AcDbLine
 10
127.1538873331
 20
133.1586899207
 30
0.0
 11
126.6538863198
 21
133.1586899207
 31
0.0
  0
LINE
  5
1DA
330
1F
100
AcDbEntity
  8
0
  6
Continuous
 62
     7
370
    25
100
AcDbLine
 10
127.1538873331
 20
125.1586900064
 30
0.0
 11
131.1538861261
 21
125.1586900064
 31
0.0
  0
LINE
  5
1DB
330
1F
100
AcDbEntity
  8
0
  6
Continuous
 62
     7
370
    25
100
AcDbLine
 10
131.1538861261
 20
132.1586902225
 30
0.0
 11
127.1538873331
 21
132.1586902225
 31
0.0
  0
LINE
  5
1DC
330
1F
100
AcDbEntity
  8
0
  6
Continuous
 62
     7
370
    25
100
AcDbLine
 10
131.1538861261
 20
125.1586900064
 30
0.0
 11
135.1538849191
 21
125.8086900664
 31
0.0
  0
LINE
  5
1DD
330
1F
100
AcDbEntity
  8
0
  6
Continuous
 62
     7
370
    25
100
AcDbLine
 10
135.1538849191
 20
131.5086901625
 30
0.0
 11
131.1538861261
 21
132.1586902225
 31
0.0
  0
LINE
  5
1DE
330
1F
100
AcDbEntity
  8
0
  6
Continuous
 62
     7
370
    25
100
AcDbLine
 10
147.153886886
 20
125.1586900064
 30
0.0
 11
151.9501310901
 21
125.7255190023
 31
0.0
  0
LINE
  5
1DF
330
1F
100
AcDbEntity
  8
0
  6
Continuous
 62
     7
370
    25
100
AcDbLine
 10
151.9501310901
 20
131.5918612265
 30
0.0
 11
147.153886886
 21
132.1586902225
 31
0.0
  0
LINE
  5
1E0
330
1F
100
AcDbEntity
  8
0
  6
Continuous
 62
     7
370
    25
100
AcDbLine
 10
139.1538855747
 20
125.1586900064
 30
0.0
 11
143.1538862304
 21
125.8086900664
 31
0.0
  0
LINE
  5
1E1
330
1F
100
AcDbEntity
  8
0
  6
Continuous
 62
     7
370
    25
100
AcDbLine
 10
143.1538862304
 20
131.5086901625
 30
0.0
 11
139.1538855747
 21
132.1586902225
 31
0.0
  0
LINE
  5
1E2
330
1F
100
AcDbEntity
  8
0
  6
Continuous
 62
     7
370
    25
100
AcDbLine
 10
135.1538849191
 20
125.1586900064
 30
0.0
 11
139.1538855747
 21
125.8086900664
 31
0.0
  0
LINE
  5
1E3
330
1F
100
AcDbEntity
  8
0
  6
Continuous
 62
     7
370
    25
100
AcDbLine
 10
139.1538855747
 20
131.5086901625
 30
0.0
 11
135.1538849191
 21
132.1586902225
 31
0.0
  0
LINE
  5
1E4
330
1F
100
AcDbEntity
  8
0
  6
Continuous
 62
     7
370
    25
100
AcDbLine
 10
143.1538862304
 20
125.1586900064
 30
0.0
 11
147.153886886
 21
125.8086900664
 31
0.0
  0
LINE
  5
1E5
330
1F
100
AcDbEntity
  8
0
  6
Continuous
 62
     7
370
    25
100
AcDbLine
 10
147.153886886
 20
131.5086901625
 30
0.0
 11
143.1538862304
 21
132.1586902225
 31
0.0
  0
ARC
  5
1E6
330
1F
100
AcDbEntity
  8
0
  6
Continuous
 62
     7
370
    25
100
AcDbCircle
 10
151.8562384462
 20
130.7973902001
 30
0.0
 40
0.8000000000000157
100
AcDbArc
 50
4.3945905239
 51
83.2599439021
  0
ARC
  5
1E7
330
1F
100
AcDbEntity
  8
0
  6
Continuous
 62
     7
370
    25
100
AcDbCircle
 10
151.8562384462
 20
126.5199900287
 30
0.0
 40
0.8000000000000276
100
AcDbArc
 50
276.7400560979
 51
355.6054094761
  0
LINE
  5
1E8
330
1F
100
AcDbEntity
  8
0
  6
Continuous
 62
     7
370
    25
100
AcDbLine
 10
115.7404891343
 20
136.6586904944
 30
0.0
 11
115.6538863794
 21
136.5086898179
 31
0.0
  0
LINE
  5
1E9
330
1F
100
AcDbEntity
  8
0
  6
Continuous
 62
     7
370
    25
100
AcDbLine
 10
115.6538863794
 20
120.808690411
 30
0.0
 11
115.7404891343
 21
120.6586897344
 31
0.0
  0
LINE
  5
1EA
330
1F
100
AcDbEntity
  8
0
  6
Continuous
 62
     7
370
    25
100
AcDbLine
 10
124.5672841684
 20
120.6586897344
 30
0.0
 11
124.653885992
 21
120.808690411
 31
0.0
  0
LINE
  5
1EB
330
1F
100
AcDbEntity
  8
0
  6
Continuous
 62
     7
370
    25
100
AcDbLine
 10
124.653885992
 20
136.5086898179
 30
0.0
 11
124.5672841684
 21
136.6586904944
 31
0.0
  0
ARC
  5
1EC
330
1F
100
AcDbEntity
  8
0
  6
Continuous
 62
     7
370
    25
100
AcDbCircle
 10
126.353886439
 20
136.2086901144
 30
0.0
 40
0.2999999999999972
100
AcDbArc
 50
0.0
 51
90.0
  0
ARC
  5
1ED
330
1F
100
AcDbEntity
  8
0
  6
Continuous
 62
     7
370
    25
100
AcDbCircle
 10
126.353886439
 20
121.1086901144
 30
0.0
 40
0.3000000000000114
100
AcDbArc
 50
270.0
 51
0.0
  0
LINE
  5
1EE
330
1F
100
AcDbEntity
  8
0
  6
Continuous
 62
     7
370
    25
100
AcDbLine
 10
115.6538863794
 20
136.5086898179
 30
0.0
 11
113.9538864733
 21
136.5086898179
 31
0.0
  0
LINE
  5
1EF
330
1F
100
AcDbEntity
  8
0
  6
Continuous
 62
     7
370
    25
100
AcDbLine
 10
113.9538864733
 20
120.808690411
 30
0.0
 11
115.6538863794
 21
120.808690411
 31
0.0
  0
LINE
  5
1F0
330
1F
100
AcDbEntity
  8
0
  6
Continuous
 62
     7
370
    25
100
AcDbLine
 10
124.653885992
 20
120.808690411
 30
0.0
 11
126.3538868294
 21
120.808690411
 31
0.0
  0
LINE
  5
1F1
330
1F
100
AcDbEntity
  8
0
  6
Continuous
 62
     7
370
    25
100
AcDbLine
 10
126.3538868294
 20
136.5086898179
 30
0.0
 11
124.653885992
 21
136.5086898179
 31
0.0
  0
ARC
  5
1F2
330
1F
100
AcDbEntity
  8
0
  6
Continuous
 62
     7
370
    25
100
AcDbCircle
 10
113.953886439
 20
121.1086901144
 30
0.0
 40
0.3000000000000114
100
AcDbArc
 50
180.0
 51
270.0
  0
ARC
  5
1F3
330
1F
100
AcDbEntity
  8
0
  6
Continuous
 62
     7
370
    25
100
AcDbCircle
 10
113.953886439
 20
136.2086901144
 30
0.0
 40
0.2999999999999972
100
AcDbArc
 50
90.0
 51
180.0
  0
LINE
  5
1F4
330
1F
100
AcDbEntity
  8
0
  6
Continuous
 62
     7
370
    25
100
AcDbLine
 10
113.6538860516
 20
135.2371900314
 30
0.0
 11
112.3996012972
 21
135.2371900314
 31
0.0
  0
LINE
  5
1F5
330
1F
100
AcDbEntity
  8
0
  6
Continuous
 62
     7
370
    25
100
AcDbLine
 10
112.3996012972
 20
122.0801901975
 30
0.0
 11
113.6538860516
 21
122.0801901975
 31
0.0
  0
ARC
  5
1F6
330
1F
100
AcDbEntity
  8
0
  6
Continuous
 62
     7
370
    25
100
AcDbCircle
 10
111.8996015207
 20
135.1586901144
 30
0.0
 40
0.5
100
AcDbArc
 50
270.0
 51
0.0
  0
ARC
  5
1F7
330
1F
100
AcDbEntity
  8
0
  6
Continuous
 62
     7
370
    25
100
AcDbCircle
 10
111.8996015207
 20
122.1586901144
 30
0.0
 40
0.5
100
AcDbArc
 50
0.0
 51
90.0
  0
LINE
  5
1F8
330
1F
100
AcDbEntity
  8
0
  6
Continuous
 62
     7
370
    25
100
AcDbLine
 10
109.1496016958
 20
122.6586900623
 30
0.0
 11
111.8996012152
 21
122.6586900623
 31
0.0
  0
LINE
  5
1F9
330
1F
100
AcDbEntity
  8
0
  6
Continuous
 62
     7
370
    25
100
AcDbLine
 10
109.3996017368
 20
134.6586901666
 30
0.0
 11
109.1496016958
 21
134.6586901666
 31
0.0
  0
LINE
  5
1FA
330
1F
100
AcDbEntity
  8
0
  6
Continuous
 62
     7
370
    25
100
AcDbLine
 10
111.8996012152
 20
134.6586901666
 30
0.0
 11
110.3996019007
 21
134.6586901666
 31
0.0
  0
SPLINE
  5
1FB
330
1F
100
AcDbEntity
  8
0
  6
Continuous
 62
     7
370
    25
100
AcDbSpline
210
0.0
220
0.0
230
1.0
 70
     8
 71
     3
 72
    11
 73
     7
 74
     0
 42
0.000000001
 43
0.00000001
 40
0.0
 40
0.0
 40
0.0
 40
0.0
 40
0.2500002694667829
 40
0.5000005925037904
 40
0.7499999357165025
 40
1.0
 40
1.0
 40
1.0
 40
1.0
 10
109.6496017777351
 20
134.958690122623
 30
0.0
 10
109.6168424577761
 20
134.9549322002765
 30
0.0
 10
109.5513238108385
 20
134.9474163547784
 30
0.0
 10
109.4686874512529
 20
134.8896041732875
 30
0.0
 10
109.4108748401473
 20
134.8069679977298
 30
0.0
 10
109.4033594414998
 20
134.7414494185022
 30
0.0
 10
109.3996017367569
 20
134.7086900816448
 30
0.0
  0
SPLINE
  5
1FC
330
1F
100
AcDbEntity
  8
0
  6
Continuous
 62
     7
370
    25
100
AcDbSpline
210
0.0
220
0.0
230
1.0
 70
     8
 71
     3
 72
    11
 73
     7
 74
     0
 42
0.000000001
 43
0.00000001
 40
0.0
 40
0.0
 40
0.0
 40
0.0
 40
0.250000564155491
 40
0.4999992895422198
 40
0.7499996699689473
 40
1.0
 40
1.0
 40
1.0
 40
1.0
 10
110.3996019006697
 20
134.7086900816448
 30
0.0
 10
110.3958437796293
 20
134.7414493824166
 30
0.0
 10
110.3883275651899
 20
134.8069677430137
 30
0.0
 10
110.3305158348994
 20
134.8896043229138
 30
0.0
 10
110.2478793130607
 20
134.9474163306396
 30
0.0
 10
110.1823606981725
 20
134.9549321922144
 30
0.0
 10
110.1496013940302
 20
134.958690122623
 30
0.0
  0
LINE
  5
1FD
330
1F
100
AcDbEntity
  8
0
  6
Continuous
 62
     7
370
    25
100
AcDbLine
 10
109.3996017368
 20
134.7089899675
 30
0.0
 11
109.3996017368
 21
134.6586901666
 31
0.0
  0
LINE
  5
1FE
330
1F
100
AcDbEntity
  8
0
  6
Continuous
 62
     7
370
    25
100
AcDbLine
 10
110.3996019007
 20
134.6586901666
 30
0.0
 11
110.3996019007
 21
134.7089899675
 31
0.0
  0
LINE
  5
1FF
330
1F
100
AcDbEntity
  8
0
  6
Continuous
 62
     7
370
    25
100
AcDbLine
 10
110.1649123372
 20
134.9586901226
 30
0.0
 11
109.6342903689
 21
134.9586901226
 31
0.0
  0
LINE
  5
200
330
1F
100
AcDbEntity
  8
0
  6
Continuous
 62
     7
370
    25
100
AcDbLine
 10
127.1538873331
 20
133.1586899207
 30
0.0
 11
127.1538873331
 21
124.1586903081
 31
0.0
  0
LINE
  5
201
330
1F
100
AcDbEntity
  8
0
  6
Continuous
 62
     7
370
    25
100
AcDbLine
 10
131.1538861261
 20
125.1586900064
 30
0.0
 11
131.1538861261
 21
132.1586902225
 31
0.0
  0
LINE
  5
202
330
1F
100
AcDbEntity
  8
0
  6
Continuous
 62
     7
370
    25
100
AcDbLine
 10
147.153886886
 20
125.1586900064
 30
0.0
 11
147.153886886
 21
132.1586902225
 31
0.0
  0
LINE
  5
203
330
1F
100
AcDbEntity
  8
0
  6
Continuous
 62
     7
370
    25
100
AcDbLine
 10
139.1538855747
 20
125.1586900064
 30
0.0
 11
139.1538855747
 21
132.1586902225
 31
0.0
  0
LINE
  5
204
330
1F
100
AcDbEntity
  8
0
  6
Continuous
 62
     7
370
    25
100
AcDbLine
 10
135.1538849191
 20
125.1586900064
 30
0.0
 11
135.1538849191
 21
132.1586902225
 31
0.0
  0
LINE
  5
205
330
1F
100
AcDbEntity
  8
0
  6
Continuous
 62
     7
370
    25
100
AcDbLine
 10
143.1538862304
 20
125.1586900064
 30
0.0
 11
143.1538862304
 21
132.1586902225
 31
0.0
  0
LINE
  5
206
330
1F
100
AcDbEntity
  8
0
  6
Continuous
 62
     7
370
    25
100
AcDbLine
 10
152.6538868562
 20
126.4586901263
 30
0.0
 11
152.6538868562
 21
130.8586901025
 31
0.0
  0
SPLINE
  5
207
330
1F
100
AcDbEntity
  8
0
  6
Continuous
 62
     7
370
    25
100
AcDbSpline
210
0.0
220
0.0
230
1.0
 70
    24
 71
     3
 72
    12
 73
     8
 74
     0
 42
0.000000001
 43
0.00000001
 40
0.0
 40
0.0
 40
0.0
 40
0.0
 40
0.2313820691220372
 40
0.4224524563612784
 40
0.6135436004137734
 40
0.8067617043110576
 40
1.0
 40
1.0
 40
1.0
 40
1.0
 10
115.7458377198306
 20
120.6586897344477
 30
0.0
 10
115.7516523316731
 20
120.6586897344477
 30
0.0
 10
115.7622685261992
 20
120.6586897344477
 30
0.0
 10
115.871677132613
 20
120.6586897344477
 30
0.0
 10
116.0196148796065
 20
120.6586897344477
 30
0.0
 10
116.213234465139
 20
120.6586897344477
 30
0.0
 10
116.3744222161877
 20
120.6586897344477
 30
0.0
 10
116.4550203026262
 20
120.6586897344477
 30
0.0
  0
SPLINE
  5
208
330
1F
100
AcDbEntity
  8
0
  6
Continuous
 62
     7
370
    25
100
AcDbSpline
210
0.0
220
0.0
230
1.0
 70
    24
 71
     3
 72
    12
 73
     8
 74
     0
 42
0.000000001
 43
0.00000001
 40
0.0
 40
0.0
 40
0.0
 40
0.0
 40
0.1912318339729968
 40
0.3824442703760744
 40
0.5755404537005614
 40
0.7686149100837236
 40
0.9999999999999999
 40
0.9999999999999999
 40
0.9999999999999999
 40
0.9999999999999999
 10
116.4550203026262
 20
136.658690494407
 30
0.0
 10
116.3752249441591
 20
136.658690494407
 30
0.0
 10
116.2156423212542
 20
136.658690494407
 30
0.0
 10
116.0220570151081
 20
136.658690494407
 30
0.0
 10
115.8727550514792
 20
136.658690494407
 30
0.0
 10
115.7626047678227
 20
136.658690494407
 30
0.0
 10
115.7509714500815
 20
136.658690494407
 30
0.0
 10
115.7446297944513
 20
136.658690494407
 30
0.0
  0
SPLINE
  5
209
330
1F
100
AcDbEntity
  8
0
  6
Continuous
 62
     7
370
    25
100
AcDbSpline
210
0.0
220
0.0
230
1.0
 70
     8
 71
     3
 72
    15
 73
    11
 74
     0
 42
0.000000001
 43
0.00000001
 40
0.0
 40
0.0
 40
0.0
 40
0.0
 40
0.1323049485469517
 40
0.2645724911618945
 40
0.3997989213359817
 40
0.5350009236706258
 40
0.6501920649287771
 40
0.7654011640741528
 40
0.8826892485822967
 40
1.0
 40
1.0
 40
1.0
 40
1.0
 10
116.4550203026262
 20
128.6586901144273
 30
0.0
 10
116.3462487770566
 20
129.0043212472713
 30
0.0
 10
116.1287364783594
 20
129.6954857943569
 30
0.0
 10
115.8947016322471
 20
130.7598177931582
 30
0.0
 10
115.7539822707779
 20
131.8442126622105
 30
0.0
 10
115.7261117884787
 20
132.8893279669319
 30
0.0
 10
115.798414703958
 20
133.8779832882504
 30
0.0
 10
115.946563955904
 20
134.8110316501385
 30
0.0
 10
116.1638839911082
 20
135.7398621932364
 30
0.0
 10
116.357968614643
 20
136.3523946664137
 30
0.0
 10
116.4550203026262
 20
136.658690494407
 30
0.0
  0
SPLINE
  5
20A
330
1F
100
AcDbEntity
  8
0
  6
Continuous
 62
     7
370
    25
100
AcDbSpline
210
0.0
220
0.0
230
1.0
 70
     8
 71
     3
 72
    15
 73
    11
 74
     0
 42
0.000000001
 43
0.00000001
 40
0.0
 40
0.0
 40
0.0
 40
0.0
 40
0.1323050038970291
 40
0.2645725327670714
 40
0.3997989416533288
 40
0.5350009870694649
 40
0.6501921317206805
 40
0.7654011923842015
 40
0.882689240090312
 40
1.0
 40
1.0
 40
1.0
 40
1.0
 10
116.4550203026262
 20
120.6586897344477
 30
0.0
 10
116.3462487873338
 20
121.0043209460452
 30
0.0
 10
116.1287365659803
 20
121.6954854701538
 30
0.0
 10
115.894701625918
 20
122.7598179933003
 30
0.0
 10
115.7539822487061
 20
123.8442125516713
 30
0.0
 10
115.7261117920698
 20
124.8893283888821
 30
0.0
 10
115.7984146798318
 20
125.8779829955973
 30
0.0
 10
115.9465639521648
 20
126.8110320661554
 30
0.0
 10
116.1638840498709
 20
127.7398620854734
 30
0.0
 10
116.3579686217409
 20
128.3523943377571
 30
0.0
 10
116.4550203026262
 20
128.6586901144273
 30
0.0
  0
LINE
  5
20B
330
1F
100
AcDbEntity
  8
0
  6
Continuous
 62
     7
370
    25
100
AcDbLine
 10
115.6538863794
 20
120.808690411
 30
0.0
 11
115.6538863794
 21
136.5086898179
 31
0.0
  0
LINE
  5
20C
330
1F
100
AcDbEntity
  8
0
  6
Continuous
 62
     7
370
    25
100
AcDbLine
 10
116.4550203026
 20
128.6586901144
 30
0.0
 11
120.1002960221
 21
128.6586901144
 31
0.0
  0
LINE
  5
20D
330
1F
100
AcDbEntity
  8
0
  6
Continuous
 62
     7
370
    25
100
AcDbLine
 10
116.4550203026
 20
136.6586904944
 30
0.0
 11
120.1002960221
 21
136.6586904944
 31
0.0
  0
LINE
  5
20E
330
1F
100
AcDbEntity
  8
0
  6
Continuous
 62
     7
370
    25
100
AcDbLine
 10
120.1538861857
 20
136.2999422447
 30
0.0
 11
120.1002960221
 21
136.6586904944
 31
0.0
  0
LINE
  5
20F
330
1F
100
AcDbEntity
  8
0
  6
Continuous
 62
     7
370
    25
100
AcDbLine
 10
120.2074763493
 20
136.6586904944
 30
0.0
 11
120.1538861857
 21
136.2999422447
 31
0.0
  0
LINE
  5
210
330
1F
100
AcDbEntity
  8
0
  6
Continuous
 62
     7
370
    25
100
AcDbLine
 10
120.2074763493
 20
136.6586904944
 30
0.0
 11
123.8527530001
 21
136.6586904944
 31
0.0
  0
SPLINE
  5
211
330
1F
100
AcDbEntity
  8
0
  6
Continuous
 62
     7
370
    25
100
AcDbSpline
210
0.0
220
0.0
230
1.0
 70
     8
 71
     3
 72
    15
 73
    11
 74
     0
 42
0.000000001
 43
0.00000001
 40
0.0
 40
0.0
 40
0.0
 40
0.0
 40
0.1323049282587865
 40
0.2645725126911059
 40
0.3997989257496958
 40
0.5350009327659058
 40
0.6501920780127179
 40
0.7654011811473762
 40
0.8826892697167907
 40
1.0
 40
1.0
 40
1.0
 40
1.0
 10
123.8527530000535
 20
128.6586901144273
 30
0.0
 10
123.9615238776216
 20
129.0043213039361
 30
0.0
 10
124.1790349315524
 20
129.6954861265638
 30
0.0
 10
124.4130739551701
 20
130.7598174489925
 30
0.0
 10
124.5537892279456
 20
131.844212819137
 30
0.0
 10
124.5816607836605
 20
132.889327946097
 30
0.0
 10
124.5093576024842
 20
133.8779832900772
 30
0.0
 10
124.3612084896852
 20
134.8110316624949
 30
0.0
 10
124.143888160381
 20
135.7398620739569
 30
0.0
 10
123.9498042973343
 20
136.3523946485777
 30
0.0
 10
123.8527530000535
 20
136.658690494407
 30
0.0
  0
LINE
  5
212
330
1F
100
AcDbEntity
  8
0
  6
Continuous
 62
     7
370
    25
100
AcDbLine
 10
120.2074763493
 20
128.6586901144
 30
0.0
 11
123.8527530001
 21
128.6586901144
 31
0.0
  0
LINE
  5
213
330
1F
100
AcDbEntity
  8
0
  6
Continuous
 62
     7
370
    25
100
AcDbLine
 10
120.1538861857
 20
129.017437753
 30
0.0
 11
120.2074763493
 21
128.6586901144
 31
0.0
  0
LINE
  5
214
330
1F
100
AcDbEntity
  8
0
  6
Continuous
 62
     7
370
    25
100
AcDbLine
 10
120.1002960221
 20
128.6586901144
 30
0.0
 11
120.1538861857
 21
129.017437753
 31
0.0
  0
SPLINE
  5
215
330
1F
100
AcDbEntity
  8
0
  6
Continuous
 62
     7
370
    25
100
AcDbSpline
210
0.0
220
0.0
230
1.0
 70
     8
 71
     3
 72
    15
 73
    11
 74
     0
 42
0.000000001
 43
0.00000001
 40
0.0
 40
0.0
 40
0.0
 40
0.0
 40
0.1323049836088744
 40
0.2645725542962953
 40
0.3997989460670495
 40
0.5350009961647513
 40
0.6501921448046264
 40
0.7654012094574273
 40
0.8826892612248055
 40
1.0
 40
1.0
 40
1.0
 40
1.0
 10
123.8527530000535
 20
120.6586897344477
 30
0.0
 10
123.9615238673441
 20
121.00432100271
 30
0.0
 10
124.1790348439312
 20
121.6954858023607
 30
0.0
 10
124.4130739614991
 20
122.7598176491346
 30
0.0
 10
124.553789250017
 20
123.8442127085979
 30
0.0
 10
124.5816607800695
 20
124.8893283680471
 30
0.0
 10
124.5093576266104
 20
125.877982997424
 30
0.0
 10
124.3612084934244
 20
126.8110320785119
 30
0.0
 10
124.1438881016184
 20
127.739861966194
 30
0.0
 10
123.9498042902365
 20
128.3523943199211
 30
0.0
 10
123.8527530000535
 20
128.6586901144273
 30
0.0
  0
SPLINE
  5
216
330
1F
100
AcDbEntity
  8
0
  6
Continuous
 62
     7
370
    25
100
AcDbSpline
210
0.0
220
0.0
230
1.0
 70
    24
 71
     3
 72
    12
 73
     8
 74
     0
 42
0.000000001
 43
0.00000001
 40
0.0
 40
0.0
 40
0.0
 40
0.0
 40
0.1912317870580458
 40
0.3824442706712637
 40
0.575540458433218
 40
0.7686148977979078
 40
1.0
 40
1.0
 40
1.0
 40
1.0
 10
123.8527530000535
 20
136.658690494407
 30
0.0
 10
123.9325478768689
 20
136.658690494407
 30
0.0
 10
124.0921295757929
 20
136.658690494407
 30
0.0
 10
124.2857165615095
 20
136.658690494407
 30
0.0
 10
124.4350185170919
 20
136.658690494407
 30
0.0
 10
124.5451670502814
 20
136.658690494407
 30
0.0
 10
124.5568013285692
 20
136.658690494407
 30
0.0
 10
124.5631435082284
 20
136.658690494407
 30
0.0
  0
SPLINE
  5
217
330
1F
100
AcDbEntity
  8
0
  6
Continuous
 62
     7
370
    25
100
AcDbSpline
210
0.0
220
0.0
230
1.0
 70
    24
 71
     3
 72
    12
 73
     8
 74
     0
 42
0.000000001
 43
0.00000001
 40
0.0
 40
0.0
 40
0.0
 40
0.0
 40
0.2313820783801172
 40
0.4224524518708432
 40
0.6135436362183467
 40
0.806761747846691
 40
1.0
 40
1.0
 40
1.0
 40
1.0
 10
124.5619346515266
 20
120.6586897344477
 30
0.0
 10
124.5561198684723
 20
120.6586897344477
 30
0.0
 10
124.5455033618892
 20
120.6586897344477
 30
0.0
 10
124.4360967909075
 20
120.6586897344477
 30
0.0
 10
124.2881571432698
 20
120.6586897344477
 30
0.0
 10
124.0945377972452
 20
120.6586897344477
 30
0.0
 10
123.9333507325876
 20
120.6586897344477
 30
0.0
 10
123.8527530000535
 20
120.6586897344477
 30
0.0
  0
LINE
  5
218
330
1F
100
AcDbEntity
  8
0
  6
Continuous
 62
     7
370
    25
100
AcDbLine
 10
124.653885992
 20
120.808690411
 30
0.0
 11
124.653885992
 21
136.5086898179
 31
0.0
  0
LINE
  5
219
330
1F
100
AcDbEntity
  8
0
  6
Continuous
 62
     7
370
    25
100
AcDbLine
 10
120.2074763493
 20
128.6586901144
 30
0.0
 11
120.1538861857
 21
128.2999424759
 31
0.0
  0
LINE
  5
21A
330
1F
100
AcDbEntity
  8
0
  6
Continuous
 62
     7
370
    25
100
AcDbLine
 10
120.1538861857
 20
128.2999424759
 30
0.0
 11
120.1538861857
 21
129.017437753
 31
0.0
  0
LINE
  5
21B
330
1F
100
AcDbEntity
  8
0
  6
Continuous
 62
     7
370
    25
100
AcDbLine
 10
120.1538861857
 20
128.2999424759
 30
0.0
 11
120.1002960221
 21
128.6586901144
 31
0.0
  0
LINE
  5
21C
330
1F
100
AcDbEntity
  8
0
  6
Continuous
 62
     7
370
    25
100
AcDbLine
 10
116.4550203026
 20
120.6586897344
 30
0.0
 11
120.1002960221
 21
120.6586897344
 31
0.0
  0
LINE
  5
21D
330
1F
100
AcDbEntity
  8
0
  6
Continuous
 62
     7
370
    25
100
AcDbLine
 10
120.2074763493
 20
120.6586897344
 30
0.0
 11
123.8527530001
 21
120.6586897344
 31
0.0
  0
LINE
  5
21E
330
1F
100
AcDbEntity
  8
0
  6
Continuous
 62
     7
370
    25
100
AcDbLine
 10
120.1538861857
 20
121.0174379842
 30
0.0
 11
120.2074763493
 21
120.6586897344
 31
0.0
  0
LINE
  5
21F
330
1F
100
AcDbEntity
  8
0
  6
Continuous
 62
     7
370
    25
100
AcDbLine
 10
120.1002960221
 20
120.6586897344
 30
0.0
 11
120.1538861857
 21
121.0174379842
 31
0.0
  0
LINE
  5
220
330
1F
100
AcDbEntity
  8
0
  6
Continuous
 62
     7
370
    25
100
AcDbLine
 10
126.6538863198
 20
136.2086903275
 30
0.0
 11
126.6538863198
 21
121.1086899013
 31
0.0
  0
LINE
  5
221
330
1F
100
AcDbEntity
  8
0
  6
Continuous
 62
     7
370
    25
100
AcDbLine
 10
113.6538860516
 20
121.1086899013
 30
0.0
 11
113.6538860516
 21
136.2086903275
 31
0.0
  0
LINE
  5
222
330
1F
100
AcDbEntity
  8
0
  6
Continuous
 62
     7
370
    25
100
AcDbLine
 10
120.2074763493
 20
120.6586897344
 30
0.0
 11
120.1538861857
 21
120.6586897344
 31
0.0
  0
LINE
  5
223
330
1F
100
AcDbEntity
  8
0
  6
Continuous
 62
     7
370
    25
100
AcDbLine
 10
120.1538861857
 20
120.6586897344
 30
0.0
 11
120.1538861857
 21
121.0174379842
 31
0.0
  0
LINE
  5
224
330
1F
100
AcDbEntity
  8
0
  6
Continuous
 62
     7
370
    25
100
AcDbLine
 10
120.1538861857
 20
120.6586897344
 30
0.0
 11
120.1002960221
 21
120.6586897344
 31
0.0
  0
LINE
  5
225
330
1F
100
AcDbEntity
  8
0
  6
Continuous
 62
     7
370
    25
100
AcDbLine
 10
120.1538861857
 20
136.2999422447
 30
0.0
 11
120.1538861857
 21
136.6586904944
 31
0.0
  0
LINE
  5
226
330
1F
100
AcDbEntity
  8
0
  6
Continuous
 62
     7
370
    25
100
AcDbLine
 10
120.1538861857
 20
136.6586904944
 30
0.0
 11
120.2074763493
 21
136.6586904944
 31
0.0
  0
LINE
  5
227
330
1F
100
AcDbEntity
  8
0
  6
Continuous
 62
     7
370
    25
100
AcDbLine
 10
120.1002960221
 20
136.6586904944
 30
0.0
 11
120.1538861857
 21
136.6586904944
 31
0.0
  0
CIRCLE
  5
228
330
1F
100
AcDbEntity
  8
0
  6
Continuous
 62
     7
370
    25
100
AcDbCircle
 10
102.3996015207
 20
128.6586901144
 30
0.0
 40
5.249999999999986
  0
CIRCLE
  5
229
330
1F
100
AcDbEntity
  8
0
  6
Continuous
 62
     7
370
    25
100
AcDbCircle
 10
102.3996015207
 20
128.6586901144
 30
0.0
 40
6.456292496656175
  0
CIRCLE
  5
22A
330
1F
100
AcDbEntity
  8
0
  6
Continuous
 62
     7
370
    25
100
AcDbCircle
 10
102.3996015207
 20
128.6586901144
 30
0.0
 40
4.199999999999989
  0
CIRCLE
  5
22B
330
1F
100
AcDbEntity
  8
0
  6
Continuous
 62
     7
370
    25
100
AcDbCircle
 10
102.3996015207
 20
128.6586901144
 30
0.0
 40
3.999999999999986
  0
CIRCLE
  5
22C
330
1F
100
AcDbEntity
  8
0
  6
Continuous
 62
     7
370
    25
100
AcDbCircle
 10
102.3996015207
 20
128.6586901144
 30
0.0
 40
6.765992005947226
  0
LINE
  5
22D
330
1F
100
AcDbEntity
  8
0
  6
Continuous
 62
     7
370
    25
100
AcDbLine
 10
112.3996012972
 20
135.2371900314
 30
0.0
 11
112.3996012972
 21
122.0801901975
 31
0.0
  0
LINE
  5
22E
330
1F
100
AcDbEntity
  8
0
  6
Continuous
 62
     7
370
    25
100
AcDbLine
 10
97.6496016734
 20
134.4086901256
 30
0.0
 11
97.6496016734
 21
134.6586901666
 31
0.0
  0
LINE
  5
22F
330
1F
100
AcDbEntity
  8
0
  6
Continuous
 62
     7
370
    25
100
AcDbLine
 10
97.6496016734
 20
134.6586901666
 30
0.0
 11
99.2725185712
 21
134.6586901666
 31
0.0
  0
LINE
  5
230
330
1F
100
AcDbEntity
  8
0
  6
Continuous
 62
     7
370
    25
100
AcDbLine
 10
105.5266844702
 20
134.6586901666
 30
0.0
 11
107.149601368
 21
134.6586901666
 31
0.0
  0
ARC
  5
231
330
1F
100
AcDbEntity
  8
0
  6
Continuous
 62
     7
370
    25
100
AcDbCircle
 10
107.1496015207
 20
134.4086901144
 30
0.0
 40
0.25
100
AcDbArc
 50
0.0
 51
90.0
  0
LINE
  5
232
330
1F
100
AcDbEntity
  8
0
  6
Continuous
 62
     7
370
    25
100
AcDbLine
 10
107.3996014089
 20
133.2170503185
 30
0.0
 11
107.3996014089
 21
134.4086901256
 31
0.0
  0
LINE
  5
233
330
1F
100
AcDbEntity
  8
0
  6
Continuous
 62
     7
370
    25
100
AcDbLine
 10
107.149601368
 20
122.6586900623
 30
0.0
 11
105.5266844702
 21
122.6586900623
 31
0.0
  0
LINE
  5
234
330
1F
100
AcDbEntity
  8
0
  6
Continuous
 62
     7
370
    25
100
AcDbLine
 10
107.149601368
 20
122.6586900623
 30
0.0
 11
107.149601368
 21
122.9086901033
 31
0.0
  0
LINE
  5
235
330
1F
100
AcDbEntity
  8
0
  6
Continuous
 62
     7
370
    25
100
AcDbLine
 10
99.2725185712
 20
122.6586900623
 30
0.0
 11
97.6496016734
 21
122.6586900623
 31
0.0
  0
LINE
  5
236
330
1F
100
AcDbEntity
  8
0
  6
Continuous
 62
     7
370
    25
100
AcDbLine
 10
97.6496016734
 20
122.6586900623
 30
0.0
 11
97.6496016734
 21
122.9086901033
 31
0.0
  0
ARC
  5
237
330
1F
100
AcDbEntity
  8
0
  6
Continuous
 62
     7
370
    25
100
AcDbCircle
 10
97.6496015207
 20
134.4086901144
 30
0.0
 40
0.25
100
AcDbArc
 50
90.0
 51
180.0
  0
LINE
  5
238
330
1F
100
AcDbEntity
  8
0
  6
Continuous
 62
     7
370
    25
100
AcDbLine
 10
97.3996016324
 20
134.4086901256
 30
0.0
 11
97.6496016734
 21
134.4086901256
 31
0.0
  0
LINE
  5
239
330
1F
100
AcDbEntity
  8
0
  6
Continuous
 62
     7
370
    25
100
AcDbLine
 10
97.3996016324
 20
133.2170503185
 30
0.0
 11
97.3996016324
 21
134.4086901256
 31
0.0
  0
LINE
  5
23A
330
1F
100
AcDbEntity
  8
0
  6
Continuous
 62
     7
370
    25
100
AcDbLine
 10
97.3996016324
 20
122.9086901033
 30
0.0
 11
97.3996016324
 21
124.1003299103
 31
0.0
  0
LINE
  5
23B
330
1F
100
AcDbEntity
  8
0
  6
Continuous
 62
     7
370
    25
100
AcDbLine
 10
97.3996016324
 20
122.9086901033
 30
0.0
 11
97.6496016734
 21
122.9086901033
 31
0.0
  0
LINE
  5
23C
330
1F
100
AcDbEntity
  8
0
  6
Continuous
 62
     7
370
    25
100
AcDbLine
 10
107.3996014089
 20
124.1003299103
 30
0.0
 11
107.3996014089
 21
122.9086901033
 31
0.0
  0
LINE
  5
23D
330
1F
100
AcDbEntity
  8
0
  6
Continuous
 62
     7
370
    25
100
AcDbLine
 10
107.3996014089
 20
122.9086901033
 30
0.0
 11
107.149601368
 21
122.9086901033
 31
0.0
  0
ARC
  5
23E
330
1F
100
AcDbEntity
  8
0
  6
Continuous
 62
     7
370
    25
100
AcDbCircle
 10
97.6496015207
 20
122.9086901144
 30
0.0
 40
0.25
100
AcDbArc
 50
180.0
 51
270.0
  0
ARC
  5
23F
330
1F
100
AcDbEntity
  8
0
  6
Continuous
 62
     7
370
    25
100
AcDbCircle
 10
107.1496015207
 20
122.9086901144
 30
0.0
 40
0.25
100
AcDbArc
 50
270.0
 51
0.0
  0
LINE
  5
240
330
1F
100
AcDbEntity
  8
0
  6
Continuous
 62
     7
370
    25
100
AcDbLine
 10
108.3996015728
 20
134.6586901666
 30
0.0
 11
108.3996015728
 21
134.4086901256
 31
0.0
  0
LINE
  5
241
330
1F
100
AcDbEntity
  8
0
  6
Continuous
 62
     7
370
    25
100
AcDbLine
 10
108.3996015728
 20
134.4086901256
 30
0.0
 11
107.3996014089
 21
134.4086901256
 31
0.0
  0
LINE
  5
242
330
1F
100
AcDbEntity
  8
0
  6
Continuous
 62
     7
370
    25
100
AcDbLine
 10
107.149601368
 20
134.6586901666
 30
0.0
 11
108.3996015728
 21
134.6586901666
 31
0.0
  0
LINE
  5
243
330
1F
100
AcDbEntity
  8
0
  6
Continuous
 62
     7
370
    25
100
AcDbLine
 10
108.3996015728
 20
132.0498551679
 30
0.0
 11
108.3996015728
 21
134.4086901256
 31
0.0
  0
SPLINE
  5
244
330
1F
100
AcDbEntity
  8
0
  6
Continuous
 62
     7
370
    25
100
AcDbSpline
210
0.0
220
0.0
230
1.0
 70
     8
 71
     3
 72
    22
 73
    18
 74
     0
 42
0.000000001
 43
0.00000001
 40
0.0
 40
0.0
 40
0.0
 40
0.0
 40
0.0625000000121793
 40
0.0625000000121793
 40
0.1250000000121793
 40
0.1250000000121793
 40
0.1875000000121793
 40
0.1875000000121793
 40
0.2500000000121793
 40
0.2500000000121793
 40
0.3125000000121793
 40
0.3125000000121793
 40
0.3750000000121793
 40
0.3750000000121793
 40
0.4375000000121793
 40
0.4375000000121793
 40
0.5000000000121793
 40
0.5000000000121793
 40
0.5000000000121793
 40
0.5000000000121793
 10
110.3996015206732
 20
134.6586901144273
 30
0.0
 10
110.3995948981995
 20
134.6586901145668
 30
0.0
 10
110.3869081467728
 20
134.6575915124935
 30
0.0
 10
110.3361744259796
 20
134.653687291366
 30
0.0
 10
110.300020118363
 20
134.6510358701766
 30
0.0
 10
110.2062896970147
 20
134.6455170524009
 30
0.0
 10
110.1521719950742
 20
134.6428666569227
 30
0.0
 10
110.0297144776281
 20
134.6389664111876
 30
0.0
 10
109.9657286490989
 20
134.637863330857
 30
0.0
 10
109.8334744049009
 20
134.6378743384387
 30
0.0
 10
109.7693390615632
 20
134.6389700722841
 30
0.0
 10
109.647180571778
 20
134.6428629950772
 30
0.0
 10
109.5929039868446
 20
134.6455164997313
 30
0.0
 10
109.4991922984529
 20
134.6510364217993
 30
0.0
 10
109.463016372497
 20
134.6536871294372
 30
0.0
 10
109.4123071471259
 20
134.6575916736782
 30
0.0
 10
109.3996015261702
 20
134.6586901144273
 30
0.0
 10
109.3996015206901
 20
134.6586901144273
 30
0.0
  0
SPLINE
  5
245
330
1F
100
AcDbEntity
  8
0
  6
Continuous
 62
     7
370
    25
100
AcDbSpline
210
0.0
220
0.0
230
1.0
 70
    24
 71
     3
 72
    14
 73
    10
 74
     0
 42
0.000000001
 43
0.00000001
 40
0.0
 40
0.0
 40
0.0
 40
0.0
 40
0.25
 40
0.25
 40
0.5
 40
0.5
 40
0.75
 40
0.75
 40
1.0
 40
1.0
 40
1.0
 40
1.0
 10
109.1496015206901
 20
134.6586901144273
 30
0.0
 10
109.1496015206901
 20
134.6586901144273
 30
0.0
 10
109.1496015206901
 20
134.6488452006898
 30
0.0
 10
109.1496015206901
 20
134.6093530943807
 30
0.0
 10
109.1496015206901
 20
134.5797054552054
 30
0.0
 10
109.1496015206901
 20
134.5002763180018
 30
0.0
 10
109.1496015206901
 20
134.4504938939325
 30
0.0
 10
109.1496015206901
 20
134.3302649075979
 30
0.0
 10
109.1496015206901
 20
134.2598168749907
 30
0.0
 10
109.1496015206901
 20
134.1786901144274
 30
0.0
  0
SPLINE
  5
246
330
1F
100
AcDbEntity
  8
0
  6
Continuous
 62
     7
370
    25
100
AcDbSpline
210
0.0
220
0.0
230
1.0
 70
    24
 71
     3
 72
    14
 73
    10
 74
     0
 42
0.000000001
 43
0.00000001
 40
0.0
 40
0.0
 40
0.0
 40
0.0
 40
0.25
 40
0.25
 40
0.5
 40
0.5
 40
0.75
 40
0.75
 40
1.0
 40
1.0
 40
1.0
 40
1.0
 10
109.1496015206901
 20
122.6586901144274
 30
0.0
 10
109.1496015206901
 20
122.6586901144274
 30
0.0
 10
109.1496015206901
 20
122.6685350281649
 30
0.0
 10
109.1496015206901
 20
122.708027134474
 30
0.0
 10
109.1496015206901
 20
122.7376747736493
 30
0.0
 10
109.1496015206901
 20
122.8171039108529
 30
0.0
 10
109.1496015206901
 20
122.8668863349222
 30
0.0
 10
109.1496015206901
 20
122.9871153212568
 30
0.0
 10
109.1496015206901
 20
123.057563353864
 30
0.0
 10
109.1496015206901
 20
123.1386901144274
 30
0.0
  0
LINE
  5
247
330
1F
100
AcDbEntity
  8
0
  6
Continuous
 62
     7
370
    25
100
AcDbLine
 10
109.1496016958
 20
124.7591516906
 30
0.0
 11
109.1496016958
 21
123.1386899919
 31
0.0
  0
SPLINE
  5
248
330
1F
100
AcDbEntity
  8
0
  6
Continuous
 62
     7
370
    25
100
AcDbSpline
210
0.0
220
0.0
230
1.0
 70
     8
 71
     3
 72
    14
 73
    10
 74
     0
 42
0.000000001
 43
0.00000001
 40
0.0
 40
0.0
 40
0.0
 40
0.0
 40
0.25
 40
0.25
 40
0.5
 40
0.5
 40
0.75
 40
0.75
 40
1.0
 40
1.0
 40
1.0
 40
1.0
 10
109.1496015206901
 20
124.7591516802021
 30
0.0
 10
109.1496015206901
 20
124.8248155479207
 30
0.0
 10
109.1396482141376
 20
124.8905403882287
 30
0.0
 10
109.1012765983216
 20
125.0220481877849
 30
0.0
 10
109.0727376663484
 20
125.0876792726245
 30
0.0
 10
108.9955501190683
 20
125.2113391845104
 30
0.0
 10
108.9461214338803
 20
125.2712298304652
 30
0.0
 10
108.8186129467033
 20
125.3673425058822
 30
0.0
 10
108.7369967366491
 20
125.4031717225272
 30
0.0
 10
108.6496015206901
 20
125.4031717225272
 30
0.0
  0
LINE
  5
249
330
1F
100
AcDbEntity
  8
0
  6
Continuous
 62
     7
370
    25
100
AcDbLine
 10
108.3996015728
 20
125.4031717283
 30
0.0
 11
108.6496016138
 21
125.4031717283
 31
0.0
  0
LINE
  5
24A
330
1F
100
AcDbEntity
  8
0
  6
Continuous
 62
     7
370
    25
100
AcDbLine
 10
108.6496016138
 20
131.9142085006
 30
0.0
 11
108.3996015728
 21
131.9142085006
 31
0.0
  0
SPLINE
  5
24B
330
1F
100
AcDbEntity
  8
0
  6
Continuous
 62
     7
370
    25
100
AcDbSpline
210
0.0
220
0.0
230
1.0
 70
     8
 71
     3
 72
    14
 73
    10
 74
     0
 42
0.000000001
 43
0.00000001
 40
0.0
 40
0.0
 40
0.0
 40
0.0
 40
0.25
 40
0.25
 40
0.5
 40
0.5
 40
0.75
 40
0.75
 40
1.0
 40
1.0
 40
1.0
 40
1.0
 10
108.6496015206901
 20
131.9142085063275
 30
0.0
 10
108.7369195496964
 20
131.9142085063275
 30
0.0
 10
108.818547657518
 20
131.9499808092007
 30
0.0
 10
108.9462487756515
 20
132.0462540895753
 30
0.0
 10
108.995639568477
 20
132.106122920194
 30
0.0
 10
109.0729982360351
 20
132.2301801142615
 30
0.0
 10
109.101567045607
 20
132.2961716396113
 30
0.0
 10
109.1396344145741
 20
132.4269495087238
 30
0.0
 10
109.1496015206901
 20
132.4925095120005
 30
0.0
 10
109.1496015206901
 20
132.5582285486526
 30
0.0
  0
LINE
  5
24C
330
1F
100
AcDbEntity
  8
0
  6
Continuous
 62
     7
370
    25
100
AcDbLine
 10
109.1496016958
 20
134.1786902369
 30
0.0
 11
109.1496016958
 21
132.5582285383
 31
0.0
  0
LINE
  5
24D
330
1F
100
AcDbEntity
  8
0
  6
Continuous
 62
     7
370
    25
100
AcDbLine
 10
107.3996014089
 20
122.9086901033
 30
0.0
 11
108.3996015728
 21
122.9086901033
 31
0.0
  0
LINE
  5
24E
330
1F
100
AcDbEntity
  8
0
  6
Continuous
 62
     7
370
    25
100
AcDbLine
 10
108.3996015728
 20
122.9086901033
 30
0.0
 11
108.3996015728
 21
125.267525061
 31
0.0
  0
LINE
  5
24F
330
1F
100
AcDbEntity
  8
0
  6
Continuous
 62
     7
370
    25
100
AcDbLine
 10
108.3996015728
 20
122.9086901033
 30
0.0
 11
108.3996015728
 21
122.6586900623
 31
0.0
  0
LINE
  5
250
330
1F
100
AcDbEntity
  8
0
  6
Continuous
 62
     7
370
    25
100
AcDbLine
 10
108.3996015728
 20
122.6586900623
 30
0.0
 11
107.149601368
 21
122.6586900623
 31
0.0
  0
LINE
  5
251
330
1F
100
AcDbEntity
  8
0
  6
Continuous
 62
     7
370
    25
100
AcDbLine
 10
108.3996015728
 20
132.0498551679
 30
0.0
 11
108.3996015728
 21
131.9142085006
 31
0.0
  0
LINE
  5
252
330
1F
100
AcDbEntity
  8
0
  6
Continuous
 62
     7
370
    25
100
AcDbLine
 10
108.3996015728
 20
125.4031717283
 30
0.0
 11
108.3996015728
 21
125.267525061
 31
0.0
  0
SPLINE
  5
253
330
1F
100
AcDbEntity
  8
0
  6
Continuous
 62
     7
370
    25
100
AcDbSpline
210
0.0
220
0.0
230
1.0
 70
     8
 71
     3
 72
    14
 73
    10
 74
     0
 42
0.000000001
 43
0.00000001
 40
0.0
 40
0.0
 40
0.0
 40
0.0
 40
0.4999999999999984
 40
0.4999999999999984
 40
0.7499999999999981
 40
0.7499999999999981
 40
0.874999999999999
 40
0.874999999999999
 40
1.0
 40
1.0
 40
1.0
 40
1.0
 10
108.8996015206901
 20
132.7207093167453
 30
0.0
 10
108.8996015206901
 20
132.5980362661174
 30
0.0
 10
108.8846978538562
 20
132.4745702370926
 30
0.0
 10
108.8369391002746
 20
132.29257337961
 30
0.0
 10
108.8168690798213
 20
132.2321797338989
 30
0.0
 10
108.7732499759552
 20
132.1471689847653
 30
0.0
 10
108.7563105613588
 20
132.1193686357321
 30
0.0
 10
108.712856264771
 20
132.0716547314721
 30
0.0
 10
108.6836232084454
 20
132.04985510599
 30
0.0
 10
108.6496015206901
 20
132.04985510599
 30
0.0
  0
LWPOLYLINE
  5
254
330
1F
100
AcDbEntity
  8
0
  6
Continuous
 62
     7
370
    25
100
AcDbPolyline
 90
        9
 70
   128
 43
0.0
 10
108.8996016548
 20
132.720709403
 10
108.9044054166
 20
132.6890109078
 10
108.9186318346
 20
132.6585305826
 10
108.9417342224
 20
132.6304400311
 10
108.9728250296
 20
132.6058181905
 10
109.0107089036
 20
132.5856112846
 10
109.053930653
 20
132.5705965021
 10
109.1008287982
 20
132.5613505644
 10
109.1496016958
 20
132.5582285383
  0
LINE
  5
255
330
1F
100
AcDbEntity
  8
0
  6
Continuous
 62
     7
370
    25
100
AcDbLine
 10
108.6496016138
 20
132.0498551679
 30
0.0
 11
108.6496016138
 21
131.9142085006
 31
0.0
  0
LWPOLYLINE
  5
256
330
1F
100
AcDbEntity
  8
0
  6
Continuous
 62
     7
370
    25
100
AcDbPolyline
 90
        9
 70
   128
 43
0.0
 10
109.1496016958
 20
124.7591516906
 10
109.1008287982
 20
124.7560296645
 10
109.053930653
 20
124.7467837268
 10
109.0107089036
 20
124.7317689442
 10
108.9728250296
 20
124.7115620383
 10
108.9417342224
 20
124.6869401978
 10
108.9186318346
 20
124.6588496463
 10
108.9044054166
 20
124.628369321
 10
108.8996016548
 20
124.5966708259
  0
SPLINE
  5
257
330
1F
100
AcDbEntity
  8
0
  6
Continuous
 62
     7
370
    25
100
AcDbSpline
210
0.0
220
0.0
230
1.0
 70
     8
 71
     3
 72
    14
 73
    10
 74
     0
 42
0.000000001
 43
0.00000001
 40
0.0
 40
0.0
 40
0.0
 40
0.0
 40
0.1250000000000003
 40
0.1250000000000003
 40
0.2500000000000006
 40
0.2500000000000006
 40
0.5000000000000008
 40
0.5000000000000008
 40
1.0
 40
1.0
 40
1.0
 40
1.0
 10
108.6496015206901
 20
125.2675251228647
 30
0.0
 10
108.6837050709868
 20
125.2675251228647
 30
0.0
 10
108.7128055132458
 20
125.2457742579053
 30
0.0
 10
108.7563159357989
 20
125.1980126505582
 30
0.0
 10
108.773252521385
 20
125.1702023612084
 30
0.0
 10
108.8168207475807
 20
125.0853025294753
 30
0.0
 10
108.8369252182657
 20
125.024830891362
 30
0.0
 10
108.8846151428893
 20
124.8431828003106
 30
0.0
 10
108.8996015206901
 20
124.7193082220223
 30
0.0
 10
108.8996015206901
 20
124.5966709121094
 30
0.0
  0
LINE
  5
258
330
1F
100
AcDbEntity
  8
0
  6
Continuous
 62
     7
370
    25
100
AcDbLine
 10
108.6496016138
 20
125.4031717283
 30
0.0
 11
108.6496016138
 21
125.267525061
 31
0.0
  0
LINE
  5
259
330
1F
100
AcDbEntity
  8
0
  6
Continuous
 62
     7
370
    25
100
AcDbLine
 10
108.3996015728
 20
132.0498551679
 30
0.0
 11
108.6496016138
 21
132.0498551679
 31
0.0
  0
LINE
  5
25A
330
1F
100
AcDbEntity
  8
0
  6
Continuous
 62
     7
370
    25
100
AcDbLine
 10
108.6496016138
 20
125.267525061
 30
0.0
 11
108.3996015728
 21
125.267525061
 31
0.0
  0
LINE
  5
25B
330
1F
100
AcDbEntity
  8
0
  6
Continuous
 62
     7
370
    25
100
AcDbLine
 10
108.6496016138
 20
134.6586901666
 30
0.0
 11
108.6496016138
 21
134.4086901256
 31
0.0
  0
LINE
  5
25C
330
1F
100
AcDbEntity
  8
0
  6
Continuous
 62
     7
370
    25
100
AcDbLine
 10
108.6496016138
 20
134.4086901256
 30
0.0
 11
108.3996015728
 21
134.4086901256
 31
0.0
  0
LINE
  5
25D
330
1F
100
AcDbEntity
  8
0
  6
Continuous
 62
     7
370
    25
100
AcDbLine
 10
108.3996015728
 20
134.6586901666
 30
0.0
 11
108.6496016138
 21
134.6586901666
 31
0.0
  0
ARC
  5
25E
330
1F
100
AcDbEntity
  8
0
  6
Continuous
 62
     7
370
    25
100
AcDbCircle
 10
108.6496015207
 20
134.4086901144
 30
0.0
 40
0.25
100
AcDbArc
 50
0.0
 51
90.0
  0
LINE
  5
25F
330
1F
100
AcDbEntity
  8
0
  6
Continuous
 62
     7
370
    25
100
AcDbLine
 10
108.6496016138
 20
134.4086901256
 30
0.0
 11
108.8996016548
 21
134.4086901256
 31
0.0
  0
LINE
  5
260
330
1F
100
AcDbEntity
  8
0
  6
Continuous
 62
     7
370
    25
100
AcDbLine
 10
108.6496016138
 20
132.0498551679
 30
0.0
 11
108.6496016138
 21
134.4086901256
 31
0.0
  0
LINE
  5
261
330
1F
100
AcDbEntity
  8
0
  6
Continuous
 62
     7
370
    25
100
AcDbLine
 10
108.8996016548
 20
134.4086901256
 30
0.0
 11
108.8996016548
 21
132.720709403
 31
0.0
  0
LINE
  5
262
330
1F
100
AcDbEntity
  8
0
  6
Continuous
 62
     7
370
    25
100
AcDbLine
 10
108.3996015728
 20
122.9086901033
 30
0.0
 11
108.6496016138
 21
122.9086901033
 31
0.0
  0
LINE
  5
263
330
1F
100
AcDbEntity
  8
0
  6
Continuous
 62
     7
370
    25
100
AcDbLine
 10
108.6496016138
 20
122.9086901033
 30
0.0
 11
108.6496016138
 21
125.267525061
 31
0.0
  0
LINE
  5
264
330
1F
100
AcDbEntity
  8
0
  6
Continuous
 62
     7
370
    25
100
AcDbLine
 10
108.8996016548
 20
124.5966708259
 30
0.0
 11
108.8996016548
 21
122.9086901033
 31
0.0
  0
LINE
  5
265
330
1F
100
AcDbEntity
  8
0
  6
Continuous
 62
     7
370
    25
100
AcDbLine
 10
108.8996016548
 20
122.9086901033
 30
0.0
 11
108.6496016138
 21
122.9086901033
 31
0.0
  0
ARC
  5
266
330
1F
100
AcDbEntity
  8
0
  6
Continuous
 62
     7
370
    25
100
AcDbCircle
 10
108.6496015207
 20
122.9086901144
 30
0.0
 40
0.25
100
AcDbArc
 50
270.0
 51
0.0
  0
LINE
  5
267
330
1F
100
AcDbEntity
  8
0
  6
Continuous
 62
     7
370
    25
100
AcDbLine
 10
108.6496016138
 20
122.9086901033
 30
0.0
 11
108.6496016138
 21
122.6586900623
 31
0.0
  0
LINE
  5
268
330
1F
100
AcDbEntity
  8
0
  6
Continuous
 62
     7
370
    25
100
AcDbLine
 10
108.6496016138
 20
122.6586900623
 30
0.0
 11
108.3996015728
 21
122.6586900623
 31
0.0
  0
SPLINE
  5
269
330
1F
100
AcDbEntity
  8
0
  6
Continuous
 62
     7
370
    25
100
AcDbSpline
210
0.0
220
0.0
230
1.0
 70
     8
 71
     3
 72
    12
 73
     8
 74
     0
 42
0.000000001
 43
0.00000001
 40
0.0
 40
0.0
 40
0.0
 40
0.0
 40
0.25
 40
0.25
 40
0.5
 40
0.5
 40
1.0
 40
1.0
 40
1.0
 40
1.0
 10
108.9728169249495
 20
134.251477861533
 30
0.0
 10
108.9586032949159
 20
134.265248334944
 30
0.0
 10
108.9459017711633
 20
134.2813123547952
 30
0.0
 10
108.9248343418208
 20
134.3147036589906
 30
0.0
 10
108.916468436231
 20
134.3320309433347
 30
0.0
 10
108.8998412551063
 20
134.380921950525
 30
0.0
 10
108.8996015206901
 20
134.4086901144273
 30
0.0
 10
108.8996015206901
 20
134.4086901144273
 30
0.0
  0
SPLINE
  5
26A
330
1F
100
AcDbEntity
  8
0
  6
Continuous
 62
     7
370
    25
100
AcDbSpline
210
0.0
220
0.0
230
1.0
 70
     8
 71
     3
 72
    10
 73
     6
 74
     0
 42
0.000000001
 43
0.00000001
 40
0.0
 40
0.0
 40
0.0
 40
0.0
 40
0.5
 40
0.5
 40
1.0
 40
1.0
 40
1.0
 40
1.0
 10
108.9728169249495
 20
134.251477861533
 30
0.0
 10
109.0012441850168
 20
134.223936914711
 30
0.0
 10
109.0354708231836
 20
134.2043237808213
 30
0.0
 10
109.0984928687212
 20
134.182014907533
 30
0.0
 10
109.1270785880132
 20
134.1786901144274
 30
0.0
 10
109.1496015206901
 20
134.1786901144274
 30
0.0
  0
SPLINE
  5
26B
330
1F
100
AcDbEntity
  8
0
  6
Continuous
 62
     7
370
    25
100
AcDbSpline
210
0.0
220
0.0
230
1.0
 70
     8
 71
     3
 72
    10
 73
     6
 74
     0
 42
0.000000001
 43
0.00000001
 40
0.0
 40
0.0
 40
0.0
 40
0.0
 40
0.5
 40
0.5
 40
1.0
 40
1.0
 40
1.0
 40
1.0
 10
108.9728169249495
 20
123.0659023673217
 30
0.0
 10
109.0012441850168
 20
123.0934433141438
 30
0.0
 10
109.0354708231836
 20
123.1130564480334
 30
0.0
 10
109.0984928687212
 20
123.1353653213218
 30
0.0
 10
109.1270785880132
 20
123.1386901144274
 30
0.0
 10
109.1496015206901
 20
123.1386901144274
 30
0.0
  0
SPLINE
  5
26C
330
1F
100
AcDbEntity
  8
0
  6
Continuous
 62
     7
370
    25
100
AcDbSpline
210
0.0
220
0.0
230
1.0
 70
     8
 71
     3
 72
    12
 73
     8
 74
     0
 42
0.000000001
 43
0.00000001
 40
0.0
 40
0.0
 40
0.0
 40
0.0
 40
0.25
 40
0.25
 40
0.5
 40
0.5
 40
1.0
 40
1.0
 40
1.0
 40
1.0
 10
108.9728169249495
 20
123.0659023673217
 30
0.0
 10
108.9586032949159
 20
123.0521318939107
 30
0.0
 10
108.9459017711633
 20
123.0360678740595
 30
0.0
 10
108.9248343418208
 20
123.0026765698642
 30
0.0
 10
108.916468436231
 20
122.98534928552
 30
0.0
 10
108.8998412551063
 20
122.9364582783297
 30
0.0
 10
108.8996015206901
 20
122.9086901144274
 30
0.0
 10
108.8996015206901
 20
122.9086901144274
 30
0.0
  0
SPLINE
  5
26D
330
1F
100
AcDbEntity
  8
0
  6
Continuous
 62
     7
370
    25
100
AcDbSpline
210
0.0
220
0.0
230
1.0
 70
     8
 71
     3
 72
    16
 73
    12
 74
     0
 42
0.000000001
 43
0.00000001
 40
0.0
 40
0.0
 40
0.0
 40
0.0
 40
0.1250000000000001
 40
0.1250000000000001
 40
0.2500000000000001
 40
0.2500000000000001
 40
0.5000000000000002
 40
0.5000000000000002
 40
0.7500000000000001
 40
0.7500000000000001
 40
1.0
 40
1.0
 40
1.0
 40
1.0
 10
101.3996015206901
 20
131.4383659755936
 30
0.0
 10
101.5536241900171
 20
131.4218590123623
 30
0.0
 10
101.7091715457878
 20
131.4069237209769
 30
0.0
 10
102.0250386389247
 20
131.3848144145473
 30
0.0
 10
102.1867807719273
 20
131.3777605969312
 30
0.0
 10
102.671721700826
 20
131.374196773519
 30
0.0
 10
102.9857431145323
 20
131.3961392024057
 30
0.0
 10
103.6034343938081
 20
131.4586812931298
 30
0.0
 10
103.9075439910232
 20
131.4975396325442
 30
0.0
 10
104.5044206961238
 20
131.5653656592768
 30
0.0
 10
104.7989023686806
 20
131.5950508554739
 30
0.0
 10
105.0921839242573
 20
131.6167300059772
 30
0.0
  0
SPLINE
  5
26E
330
1F
100
AcDbEntity
  8
0
  6
Continuous
 62
     7
370
    25
100
AcDbSpline
210
0.0
220
0.0
230
1.0
 70
     8
 71
     3
 72
    14
 73
    10
 74
     0
 42
0.000000001
 43
0.00000001
 40
0.0
 40
0.0
 40
0.0
 40
0.0
 40
0.25
 40
0.25
 40
0.5
 40
0.5
 40
0.75
 40
0.75
 40
1.0
 40
1.0
 40
1.0
 40
1.0
 10
105.0921839242578
 20
125.7006502228775
 30
0.0
 10
104.798900258083
 20
125.7223295293946
 30
0.0
 10
104.5044277933177
 20
125.7520140430056
 30
0.0
 10
103.9076117709838
 20
125.8198326142598
 30
0.0
 10
103.6035945846584
 20
125.8586899039121
 30
0.0
 10
102.9848455819718
 20
125.9213247065536
 30
0.0
 10
102.6696309235451
 20
125.9433119558331
 30
0.0
 10
102.0210052970635
 20
125.9382560987673
 30
0.0
 10
101.7076098637219
 20
125.912024214818
 30
0.0
 10
101.3996015206901
 20
125.8790142532611
 30
0.0
  0
LINE
  5
26F
330
1F
100
AcDbEntity
  8
0
  6
Continuous
 62
     7
370
    25
100
AcDbLine
 10
101.3996014732
 20
125.879014234
 30
0.0
 11
101.3996014732
 21
131.4383659949
 31
0.0
  0
SPLINE
  5
270
330
1F
100
AcDbEntity
  8
0
  6
Continuous
 62
     7
370
    25
100
AcDbSpline
210
0.0
220
0.0
230
1.0
 70
     8
 71
     3
 72
    12
 73
     8
 74
     0
 42
0.000000001
 43
0.00000001
 40
0.0
 40
0.0
 40
0.0
 40
0.0
 40
0.25
 40
0.25
 40
0.5
 40
0.5
 40
1.0
 40
1.0
 40
1.0
 40
1.0
 10
108.9016091209798
 20
134.6573968970988
 30
0.0
 10
108.8913456616906
 20
134.6573867397417
 30
0.0
 10
108.8837668818938
 20
134.6488303136302
 30
0.0
 10
108.8693534264448
 20
134.6274569573953
 30
0.0
 10
108.8625187507925
 20
134.6146400272718
 30
0.0
 10
108.836192997792
 20
134.5890465311283
 30
0.0
 10
108.8265260464311
 20
134.5853189792796
 30
0.0
 10
108.8263782159859
 20
134.5854668097248
 30
0.0
  0
SPLINE
  5
271
330
1F
100
AcDbEntity
  8
0
  6
Continuous
 62
     7
370
    25
100
AcDbSpline
210
0.0
220
0.0
230
1.0
 70
     8
 71
     3
 72
    10
 73
     6
 74
     0
 42
0.000000001
 43
0.00000001
 40
0.0
 40
0.0
 40
0.0
 40
0.0
 40
0.5
 40
0.5
 40
1.0
 40
1.0
 40
1.0
 40
1.0
 10
108.9016091209798
 20
134.6573968970988
 30
0.0
 10
108.8605552838232
 20
134.6573562676702
 30
0.0
 10
108.8164809315102
 20
134.657714826427
 30
0.0
 10
108.7251296619983
 20
134.6627133810098
 30
0.0
 10
108.6923798805012
 20
134.6586901144273
 30
0.0
 10
108.6496015206901
 20
134.6586901144273
 30
0.0
  0
SPLINE
  5
272
330
1F
100
AcDbEntity
  8
0
  6
Continuous
 62
     7
370
    25
100
AcDbSpline
210
0.0
220
0.0
230
1.0
 70
     8
 71
     3
 72
    14
 73
    10
 74
     0
 42
0.000000001
 43
0.00000001
 40
0.0
 40
0.0
 40
0.0
 40
0.0
 40
0.25
 40
0.25
 40
0.5
 40
0.5
 40
0.75
 40
0.75
 40
1.0
 40
1.0
 40
1.0
 40
1.0
 10
108.9016091209798
 20
134.6573968970988
 30
0.0
 10
108.9118725802689
 20
134.657407054456
 30
0.0
 10
108.9265374706996
 20
134.648872642063
 30
0.0
 10
108.9582728488832
 20
134.6128271539577
 30
0.0
 10
108.9753433366359
 20
134.5853160782455
 30
0.0
 10
109.0054926445022
 20
134.509429739683
 30
0.0
 10
109.0113241146521
 20
134.4651927672816
 30
0.0
 10
109.0052179914305
 20
134.365953617663
 30
0.0
 10
108.9932803980591
 20
134.3109514404457
 30
0.0
 10
108.9728169249495
 20
134.251477861533
 30
0.0
  0
SPLINE
  5
273
330
1F
100
AcDbEntity
  8
0
  6
Continuous
 62
     7
370
    25
100
AcDbSpline
210
0.0
220
0.0
230
1.0
 70
     8
 71
     3
 72
    12
 73
     8
 74
     0
 42
0.000000001
 43
0.00000001
 40
0.0
 40
0.0
 40
0.0
 40
0.0
 40
0.25
 40
0.25
 40
0.5
 40
0.5
 40
1.0
 40
1.0
 40
1.0
 40
1.0
 10
108.9016091209798
 20
122.6599833317559
 30
0.0
 10
108.8913456616906
 20
122.659993489113
 30
0.0
 10
108.8837668818938
 20
122.6685499152245
 30
0.0
 10
108.8693534264448
 20
122.6899232714594
 30
0.0
 10
108.8625187507925
 20
122.7027402015829
 30
0.0
 10
108.836192997792
 20
122.7283336977265
 30
0.0
 10
108.8265260464311
 20
122.7320612495751
 30
0.0
 10
108.8263782159859
 20
122.7319134191299
 30
0.0
  0
SPLINE
  5
274
330
1F
100
AcDbEntity
  8
0
  6
Continuous
 62
     7
370
    25
100
AcDbSpline
210
0.0
220
0.0
230
1.0
 70
     8
 71
     3
 72
    12
 73
     8
 74
     0
 42
0.000000001
 43
0.00000001
 40
0.0
 40
0.0
 40
0.0
 40
0.0
 40
0.25
 40
0.25
 40
0.5
 40
0.5
 40
1.0
 40
1.0
 40
1.0
 40
1.0
 10
108.9016091209798
 20
122.6599833317559
 30
0.0
 10
108.9118725802689
 20
122.6599731743988
 30
0.0
 10
108.9265374706996
 20
122.6685075867918
 30
0.0
 10
108.9582728488832
 20
122.704553074897
 30
0.0
 10
108.9753433366359
 20
122.7320641506092
 30
0.0
 10
109.0205672984353
 20
122.8458936584529
 30
0.0
 10
109.0137438711686
 20
122.9469552094962
 30
0.0
 10
108.9728169249495
 20
123.0659023673217
 30
0.0
  0
SPLINE
  5
275
330
1F
100
AcDbEntity
  8
0
  6
Continuous
 62
     7
370
    25
100
AcDbSpline
210
0.0
220
0.0
230
1.0
 70
     8
 71
     3
 72
    10
 73
     6
 74
     0
 42
0.000000001
 43
0.00000001
 40
0.0
 40
0.0
 40
0.0
 40
0.0
 40
0.5
 40
0.5
 40
1.0
 40
1.0
 40
1.0
 40
1.0
 10
108.9016091209798
 20
122.6599833317559
 30
0.0
 10
108.8605552838232
 20
122.6600239611845
 30
0.0
 10
108.8164809315102
 20
122.6596654024277
 30
0.0
 10
108.7251296619983
 20
122.6546668478449
 30
0.0
 10
108.6923798805012
 20
122.6586901144274
 30
0.0
 10
108.6496015206901
 20
122.6586901144274
 30
0.0
  0
SPLINE
  5
276
330
1F
100
AcDbEntity
  8
0
  6
Continuous
 62
     7
370
    25
100
AcDbSpline
210
0.0
220
0.0
230
1.0
 70
     8
 71
     3
 72
    10
 73
     6
 74
     0
 42
0.000000001
 43
0.00000001
 40
0.0
 40
0.0
 40
0.0
 40
0.0
 40
0.5
 40
0.5
 40
1.0
 40
1.0
 40
1.0
 40
1.0
 10
108.9016091209798
 20
134.6573968970988
 30
0.0
 10
108.9426629581363
 20
134.6574375265274
 30
0.0
 10
108.9861397885173
 20
134.6578827313757
 30
0.0
 10
109.0751984882416
 20
134.6543571304244
 30
0.0
 10
109.1073018577653
 20
134.6586901144273
 30
0.0
 10
109.1496015206901
 20
134.6586901144273
 30
0.0
  0
SPLINE
  5
277
330
1F
100
AcDbEntity
  8
0
  6
Continuous
 62
     7
370
    25
100
AcDbSpline
210
0.0
220
0.0
230
1.0
 70
     8
 71
     3
 72
    10
 73
     6
 74
     0
 42
0.000000001
 43
0.00000001
 40
0.0
 40
0.0
 40
0.0
 40
0.0
 40
0.5
 40
0.5
 40
1.0
 40
1.0
 40
1.0
 40
1.0
 10
108.9016091209798
 20
122.6599833317559
 30
0.0
 10
108.9426629581363
 20
122.6599427023273
 30
0.0
 10
108.9861397885173
 20
122.6594974974791
 30
0.0
 10
109.0751984882416
 20
122.6630230984303
 30
0.0
 10
109.1073018577653
 20
122.6586901144274
 30
0.0
 10
109.1496015206901
 20
122.6586901144274
 30
0.0
  0
SPLINE
  5
278
330
1F
100
AcDbEntity
  8
0
  6
Continuous
 62
     7
370
    25
100
AcDbSpline
210
0.0
220
0.0
230
1.0
 70
     8
 71
     3
 72
    18
 73
    14
 74
     0
 42
0.000000001
 43
0.00000001
 40
0.0
 40
0.0
 40
0.0
 40
0.0
 40
0.25
 40
0.25
 40
0.3749999999999999
 40
0.3749999999999999
 40
0.4999999999999999
 40
0.4999999999999999
 40
0.6249999999999999
 40
0.6249999999999999
 40
0.7499999999999999
 40
0.7499999999999999
 40
1.0
 40
1.0
 40
1.0
 40
1.0
 10
101.3996015206901
 20
125.8790142532611
 30
0.0
 10
101.2109359602613
 20
126.2986283732314
 30
0.0
 10
101.0436710377642
 20
126.7314643976498
 30
0.0
 10
100.8653441677173
 20
127.424921610416
 30
0.0
 10
100.8184126162471
 20
127.6662220466254
 30
0.0
 10
100.7581797981976
 20
128.1543413919372
 30
0.0
 10
100.7440011815975
 20
128.4016111020637
 30
0.0
 10
100.7435543231124
 20
128.9040263213165
 30
0.0
 10
100.7576392559457
 20
129.1559334260408
 30
0.0
 10
100.8171321781974
 20
129.643424870982
 30
0.0
 10
100.8632959538755
 20
129.8833067375625
 30
0.0
 10
101.0422682561244
 20
130.5827811597405
 30
0.0
 10
101.2103754684299
 20
131.0175052566892
 30
0.0
 10
101.3996015206901
 20
131.4383659755936
 30
0.0
  0
LINE
  5
279
330
1F
100
AcDbEntity
  8
0
  6
Continuous
 62
     8
370
    25
100
AcDbLine
 10
151.9501310901
 20
125.7255190023
 30
0.0
 11
151.9501310901
 21
131.5918612265
 31
0.0
  0
LINE
  5
27A
330
1F
100
AcDbEntity
  8
0
  6
Continuous
 62
     8
370
    25
100
AcDbLine
 10
126.3538868294
 20
120.808690411
 30
0.0
 11
126.3538868294
 21
136.5086898179
 31
0.0
  0
LINE
  5
27B
330
1F
100
AcDbEntity
  8
0
  6
Continuous
 62
     8
370
    25
100
AcDbLine
 10
113.9538864733
 20
136.5086898179
 30
0.0
 11
113.9538864733
 21
120.808690411
 31
0.0
  0
LINE
  5
27C
330
1F
100
AcDbEntity
  8
0
  6
Continuous
 62
     8
370
    25
100
AcDbLine
 10
98.8336307124
 20
134.4086901256
 30
0.0
 11
97.6496016734
 21
134.4086901256
 31
0.0
  0
LINE
  5
27D
330
1F
100
AcDbEntity
  8
0
  6
Continuous
 62
     8
370
    25
100
AcDbLine
 10
107.3996014089
 20
134.4086901256
 30
0.0
 11
105.965572329
 21
134.4086901256
 31
0.0
  0
LINE
  5
27E
330
1F
100
AcDbEntity
  8
0
  6
Continuous
 62
     8
370
    25
100
AcDbLine
 10
97.6496016734
 20
134.4086901256
 30
0.0
 11
97.6496016734
 21
133.4770038695
 31
0.0
  0
LINE
  5
27F
330
1F
100
AcDbEntity
  8
0
  6
Continuous
 62
     8
370
    25
100
AcDbLine
 10
107.149601368
 20
122.9086901033
 30
0.0
 11
107.149601368
 21
123.8403763593
 31
0.0
  0
LINE
  5
280
330
1F
100
AcDbEntity
  8
0
  6
Continuous
 62
     8
370
    25
100
AcDbLine
 10
105.965572329
 20
122.9086901033
 30
0.0
 11
107.149601368
 21
122.9086901033
 31
0.0
  0
LINE
  5
281
330
1F
100
AcDbEntity
  8
0
  6
Continuous
 62
     8
370
    25
100
AcDbLine
 10
97.6496016734
 20
122.9086901033
 30
0.0
 11
98.8336307124
 21
122.9086901033
 31
0.0
  0
LINE
  5
282
330
1F
100
AcDbEntity
  8
0
  6
Continuous
 62
     8
370
    25
100
AcDbLine
 10
97.6496016734
 20
123.8403763593
 30
0.0
 11
97.6496016734
 21
122.9086901033
 31
0.0
  0
LINE
  5
283
330
1F
100
AcDbEntity
  8
0
  6
Continuous
 62
     8
370
    25
100
AcDbLine
 10
111.8996012152
 20
122.6586900623
 30
0.0
 11
111.8996012152
 21
134.6586901666
 31
0.0
  0
LINE
  5
284
330
1F
100
AcDbEntity
  8
0
  6
Continuous
 62
     8
370
    25
100
AcDbLine
 10
108.2595585973
 20
132.0343207074
 30
0.0
 11
108.3996015728
 21
132.0498551679
 31
0.0
  0
LINE
  5
285
330
1F
100
AcDbEntity
  8
0
  6
Continuous
 62
     8
370
    25
100
AcDbLine
 10
108.3316704386
 20
125.4128169705
 30
0.0
 11
108.3996015728
 21
125.4031717283
 31
0.0
  0
LINE
  5
286
330
1F
100
AcDbEntity
  8
0
  6
Continuous
 62
     8
370
    25
100
AcDbLine
 10
108.3996015728
 20
131.9142085006
 30
0.0
 11
108.3223264792
 21
131.9032365893
 31
0.0
  0
LINE
  5
287
330
1F
100
AcDbEntity
  8
0
  6
Continuous
 62
     8
370
    25
100
AcDbLine
 10
108.3996015728
 20
125.267525061
 30
0.0
 11
108.2483096176
 21
125.2843072609
 31
0.0
  0
SPLINE
  5
288
330
1F
100
AcDbEntity
  8
0
  6
Continuous
 62
     8
370
    25
100
AcDbSpline
210
0.0
220
0.0
230
1.0
 70
     8
 71
     3
 72
    14
 73
    10
 74
     0
 42
0.000000001
 43
0.00000001
 40
0.0
 40
0.0
 40
0.0
 40
0.0
 40
0.25
 40
0.25
 40
0.5
 40
0.5
 40
0.75
 40
0.75
 40
1.0
 40
1.0
 40
1.0
 40
1.0
 10
109.6496015206901
 20
134.9586901144274
 30
0.0
 10
109.6496015264176
 20
134.9586901146398
 30
0.0
 10
109.674399994101
 20
134.9574506864718
 30
0.0
 10
109.7664675015143
 20
134.9545234883033
 30
0.0
 10
109.8326594256405
 20
134.953138460516
 30
0.0
 10
109.9668710848931
 20
134.9531305964341
 30
0.0
 10
110.0333825659328
 20
134.9545434519768
 30
0.0
 10
110.1245408026069
 20
134.9574428229952
 30
0.0
 10
110.1495924341824
 20
134.9586902667901
 30
0.0
 10
110.1496015205646
 20
134.9586901144115
 30
0.0
  0
LWPOLYLINE
  5
289
330
1F
100
AcDbEntity
  8
0
  6
Continuous
 62
     8
370
    25
100
AcDbPolyline
 90
       13
 70
   128
 43
0.0
 10
110.399600038
 20
134.7086900816
 10
110.3996019007
 20
134.7086900816
 10
110.3706517384
 20
134.7057498963
 10
110.2866846264
 20
134.6982159623
 10
110.158287374
 20
134.6895434865
 10
110.0006773264
 20
134.6836086334
 10
109.8321116657
 20
134.6830195719
 10
109.673294624
 20
134.6879024961
 10
109.5396977977
 20
134.6961023257
 10
109.4460151286
 20
134.7040725843
 10
109.4021638052
 20
134.7084195324
 10
109.3996017368
 20
134.7086900816
 10
109.3996017368
 20
134.7086900816
  0
INSERT
  5
295
330
1F
100
AcDbEntity
  8
0
  6
Continuous
 62
     7
370
    18
100
AcDbBlockReference
  2
SW_CENTERMARKSYMBOL_1
 10
102.3996015207
 20
128.6586901144
 30
0.0
  0
ENDSEC
  0
SECTION
  2
OBJECTS
  0
DICTIONARY
  5
C
330
0
100
AcDbDictionary
281
     1
  3
ACAD_GROUP
350
D
  3
ACAD_LAYOUT
350
1A
  3
ACAD_MLINESTYLE
350
17
  3
ACAD_PLOTSETTINGS
350
19
  3
ACAD_PLOTSTYLENAME
350
E
  3
ACAD_SCALELIST
350
47
  0
DICTIONARY
  5
D
102
{ACAD_REACTORS
330
C
102
}
330
C
100
AcDbDictionary
281
     1
  0
DICTIONARY
  5
1A
102
{ACAD_REACTORS
330
C
102
}
330
C
100
AcDbDictionary
281
     1
  3
Layout1
350
1E
  3
Layout2
350
26
  3
Model
350
22
  0
DICTIONARY
  5
17
102
{ACAD_REACTORS
330
C
102
}
330
C
100
AcDbDictionary
281
     1
  3
Standard
350
18
  0
DICTIONARY
  5
19
102
{ACAD_REACTORS
330
C
102
}
330
C
100
AcDbDictionary
281
     1
  0
ACDBDICTIONARYWDFLT
  5
E
102
{ACAD_REACTORS
330
C
102
}
330
C
100
AcDbDictionary
281
     1
  3
Normal
350
F
100
AcDbDictionaryWithDefault
340
F
  0
DICTIONARY
  5
47
102
{ACAD_REACTORS
330
C
102
}
330
C
100
AcDbDictionary
281
     1
  3
A0
350
48
  3
A1
350
49
  3
A2
350
4A
  3
A3
350
4B
  3
A4
350
4C
  3
A5
350
4D
  3
A6
350
4E
  3
A7
350
4F
  3
A8
350
50
  3
A9
350
51
  3
B0
350
52
  3
B1
350
53
  3
B2
350
54
  3
B3
350
55
  3
B4
350
56
  3
B5
350
57
  3
B6
350
58
  3
B7
350
59
  3
B8
350
5A
  3
B9
350
5B
  3
C0
350
5C
  3
C1
350
5D
  3
C2
350
5E
  3
C3
350
5F
  3
C4
350
60
  3
C5
350
61
  3
C6
350
62
  3
C7
350
63
  3
C8
350
64
  3
C9
350
65
  3
D0
350
66
  3
D1
350
67
  3
D2
350
68
  0
LAYOUT
  5
1E
102
{ACAD_REACTORS
330
1A
102
}
330
1A
100
AcDbPlotSettings
  1

  2
none_device
  4

  6

 40
0.0
 41
0.0
 42
0.0
 43
0.0
 44
0.0
 45
0.0
 46
0.0
 47
0.0
 48
0.0
 49
0.0
140
0.0
141
0.0
142
1.0
143
1.0
 70
   688
 72
     1
 73
     0
 74
     5
  7

 75
    16
147
1.0
148
0.0
149
0.0
100
AcDbLayout
  1
Layout1
 70
     1
 71
     1
 10
0.0
 20
0.0
 11
420.0
 21
297.0
 12
0.0
 22
0.0
 32
0.0
 14
1.0000000000E+20
 24
1.0000000000E+20
 34
1.0000000000E+20
 15
-1.0000000000E+20
 25
-1.0000000000E+20
 35
-1.0000000000E+20
146
0.0
 13
0.0
 23
0.0
 33
0.0
 16
1.0
 26
0.0
 36
0.0
 17
0.0
 27
1.0
 37
0.0
 76
     0
330
1B
  0
LAYOUT
  5
26
102
{ACAD_REACTORS
330
1A
102
}
330
1A
100
AcDbPlotSettings
  1

  2
none_device
  4

  6

 40
0.0
 41
0.0
 42
0.0
 43
0.0
 44
0.0
 45
0.0
 46
0.0
 47
0.0
 48
0.0
 49
0.0
140
0.0
141
0.0
142
1.0
143
1.0
 70
   688
 72
     1
 73
     0
 74
     5
  7

 75
    16
147
1.0
148
0.0
149
0.0
100
AcDbLayout
  1
Layout2
 70
     1
 71
     2
 10
0.0
 20
0.0
 11
0.0
 21
0.0
 12
0.0
 22
0.0
 32
0.0
 14
0.0
 24
0.0
 34
0.0
 15
0.0
 25
0.0
 35
0.0
146
0.0
 13
0.0
 23
0.0
 33
0.0
 16
1.0
 26
0.0
 36
0.0
 17
0.0
 27
1.0
 37
0.0
 76
     0
330
23
  0
LAYOUT
  5
22
102
{ACAD_REACTORS
330
1A
102
}
330
1A
100
AcDbPlotSettings
  1

  2
none_device
  4
Letter_(8.50_x_11.00_Inches)
  6

 40
6.35
 41
6.35
 42
6.35000508
 43
6.35000508
 44
215.9
 45
279.4
 46
0.0
 47
0.0
 48
0.0
 49
0.0
140
0.0
141
0.0
142
1.0
143
1.0
 70
  1712
 72
     1
 73
     0
 74
     0
  7

 75
     0
147
1.0
148
0.0
149
0.0
100
AcDbLayout
  1
Model
 70
     1
 71
     0
 10
0.0
 20
0.0
 11
431.8
 21
279.4
 12
0.0
 22
0.0
 32
0.0
 14
0.0
 24
0.0
 34
0.0
 15
431.8
 25
279.4
 35
0.0
146
0.0
 13
0.0
 23
0.0
 33
0.0
 16
1.0
 26
0.0
 36
0.0
 17
0.0
 27
1.0
 37
0.0
 76
     0
330
1F
331
29
  0
MLINESTYLE
  5
18
102
{ACAD_REACTORS
330
17
102
}
330
17
100
AcDbMlineStyle
  2
Standard
 70
     0
  3

 62
   256
 51
90.0
 52
90.0
 71
     2
 49
0.5
 62
   256
  6
BYLAYER
 49
-0.5
 62
   256
  6
BYLAYER
  0
ACDBPLACEHOLDER
  5
F
102
{ACAD_REACTORS
330
E
102
}
330
E
  0
SCALE
  5
48
102
{ACAD_REACTORS
330
47
102
}
330
47
100
AcDbScale
 70
     0
300
1:1
140
1.0
141
1.0
290
     1
  0
SCALE
  5
49
102
{ACAD_REACTORS
330
47
102
}
330
47
100
AcDbScale
 70
     0
300
1:2
140
1.0
141
2.0
290
     0
  0
SCALE
  5
4A
102
{ACAD_REACTORS
330
47
102
}
330
47
100
AcDbScale
 70
     0
300
1:4
140
1.0
141
4.0
290
     0
  0
SCALE
  5
4B
102
{ACAD_REACTORS
330
47
102
}
330
47
100
AcDbScale
 70
     0
300
1:5
140
1.0
141
5.0
290
     0
  0
SCALE
  5
4C
102
{ACAD_REACTORS
330
47
102
}
330
47
100
AcDbScale
 70
     0
300
1:8
140
1.0
141
8.0
290
     0
  0
SCALE
  5
4D
102
{ACAD_REACTORS
330
47
102
}
330
47
100
AcDbScale
 70
     0
300
1:10
140
1.0
141
10.0
290
     0
  0
SCALE
  5
4E
102
{ACAD_REACTORS
330
47
102
}
330
47
100
AcDbScale
 70
     0
300
1:16
140
1.0
141
16.0
290
     0
  0
SCALE
  5
4F
102
{ACAD_REACTORS
330
47
102
}
330
47
100
AcDbScale
 70
     0
300
1:20
140
1.0
141
20.0
290
     0
  0
SCALE
  5
50
102
{ACAD_REACTORS
330
47
102
}
330
47
100
AcDbScale
 70
     0
300
1:30
140
1.0
141
30.0
290
     0
  0
SCALE
  5
51
102
{ACAD_REACTORS
330
47
102
}
330
47
100
AcDbScale
 70
     0
300
1:40
140
1.0
141
40.0
290
     0
  0
SCALE
  5
52
102
{ACAD_REACTORS
330
47
102
}
330
47
100
AcDbScale
 70
     0
300
1:50
140
1.0
141
50.0
290
     0
  0
SCALE
  5
53
102
{ACAD_REACTORS
330
47
102
}
330
47
100
AcDbScale
 70
     0
300
1:100
140
1.0
141
100.0
290
     0
  0
SCALE
  5
54
102
{ACAD_REACTORS
330
47
102
}
330
47
100
AcDbScale
 70
     0
300
2:1
140
2.0
141
1.0
290
     0
  0
SCALE
  5
55
102
{ACAD_REACTORS
330
47
102
}
330
47
100
AcDbScale
 70
     0
300
4:1
140
4.0
141
1.0
290
     0
  0
SCALE
  5
56
102
{ACAD_REACTORS
330
47
102
}
330
47
100
AcDbScale
 70
     0
300
8:1
140
8.0
141
1.0
290
     0
  0
SCALE
  5
57
102
{ACAD_REACTORS
330
47
102
}
330
47
100
AcDbScale
 70
     0
300
10:1
140
10.0
141
1.0
290
     0
  0
SCALE
  5
58
102
{ACAD_REACTORS
330
47
102
}
330
47
100
AcDbScale
 70
     0
300
100:1
140
100.0
141
1.0
290
     0
  0
SCALE
  5
59
102
{ACAD_REACTORS
330
47
102
}
330
47
100
AcDbScale
 70
     0
300
1/128" = 1'-0"
140
0.0078125
141
12.0
290
     0
  0
SCALE
  5
5A
102
{ACAD_REACTORS
330
47
102
}
330
47
100
AcDbScale
 70
     0
300
1/64" = 1'-0"
140
0.015625
141
12.0
290
     0
  0
SCALE
  5
5B
102
{ACAD_REACTORS
330
47
102
}
330
47
100
AcDbScale
 70
     0
300
1/32" = 1'-0"
140
0.03125
141
12.0
290
     0
  0
SCALE
  5
5C
102
{ACAD_REACTORS
330
47
102
}
330
47
100
AcDbScale
 70
     0
300
1/16" = 1'-0"
140
0.0625
141
12.0
290
     0
  0
SCALE
  5
5D
102
{ACAD_REACTORS
330
47
102
}
330
47
100
AcDbScale
 70
     0
300
3/32" = 1'-0"
140
0.09375
141
12.0
290
     0
  0
SCALE
  5
5E
102
{ACAD_REACTORS
330
47
102
}
330
47
100
AcDbScale
 70
     0
300
1/8" = 1'-0"
140
0.125
141
12.0
290
     0
  0
SCALE
  5
5F
102
{ACAD_REACTORS
330
47
102
}
330
47
100
AcDbScale
 70
     0
300
3/16" = 1'-0"
140
0.1875
141
12.0
290
     0
  0
SCALE
  5
60
102
{ACAD_REACTORS
330
47
102
}
330
47
100
AcDbScale
 70
     0
300
1/4" = 1'-0"
140
0.25
141
12.0
290
     0
  0
SCALE
  5
61
102
{ACAD_REACTORS
330
47
102
}
330
47
100
AcDbScale
 70
     0
300
3/8" = 1'-0"
140
0.375
141
12.0
290
     0
  0
SCALE
  5
62
102
{ACAD_REACTORS
330
47
102
}
330
47
100
AcDbScale
 70
     0
300
1/2" = 1'-0"
140
0.5
141
12.0
290
     0
  0
SCALE
  5
63
102
{ACAD_REACTORS
330
47
102
}
330
47
100
AcDbScale
 70
     0
300
3/4" = 1'-0"
140
0.75
141
12.0
290
     0
  0
SCALE
  5
64
102
{ACAD_REACTORS
330
47
102
}
330
47
100
AcDbScale
 70
     0
300
1" = 1'-0"
140
1.0
141
12.0
290
     0
  0
SCALE
  5
65
102
{ACAD_REACTORS
330
47
102
}
330
47
100
AcDbScale
 70
     0
300
1-1/2" = 1'-0"
140
1.5
141
12.0
290
     0
  0
SCALE
  5
66
102
{ACAD_REACTORS
330
47
102
}
330
47
100
AcDbScale
 70
     0
300
3" = 1'-0"
140
3.0
141
12.0
290
     0
  0
SCALE
  5
67
102
{ACAD_REACTORS
330
47
102
}
330
47
100
AcDbScale
 70
     0
300
6" = 1'-0"
140
6.0
141
12.0
290
     0
  0
SCALE
  5
68
102
{ACAD_REACTORS
330
47
102
}
330
47
100
AcDbScale
 70
     0
300
1'-0" = 1'-0"
140
12.0
141
12.0
290
     0
  0
ENDSEC
  0
EOF
