  0
SECTION
  2
HEADER
  9
$ACADVER
  1
AC1015
  9
$ACADMAINTVER
 70
     6
  9
$DWGCODEPAGE
  3
DOS932
  9
$INSBASE
 10
0.0
 20
0.0
 30
0.0
  9
$EXTMIN
 10
0.0
 20
0.0
 30
0.0
  9
$EXTMAX
 10
431.8
 20
279.4
 30
0.0
  9
$LIMMIN
 10
0.0
 20
0.0
  9
$LIMMAX
 10
431.8
 20
279.4
  9
$ORTHOMODE
 70
     0
  9
$REGENMODE
 70
     1
  9
$FILLMODE
 70
     1
  9
$QTEXTMODE
 70
     0
  9
$MIRRTEXT
 70
     1
  9
$LTSCALE
 40
1.0
  9
$ATTMODE
 70
     1
  9
$TEXTSIZE
 40
3.5
  9
$TRACEWID
 40
1.0
  9
$TEXTSTYLE
  7
Standard
  9
$CLAYER
  8
0
  9
$CELTYPE
  6
ByLayer
  9
$CECOLOR
 62
   256
  9
$CELTSCALE
 40
1.0
  9
$DISPSILH
 70
     0
  9
$DIMSCALE
 40
1.0
  9
$DIMASZ
 40
3.302
  9
$DIMEXO
 40
1.0
  9
$DIMDLI
 40
3.75
  9
$DIMRND
 40
0.0
  9
$DIMDLE
 40
0.0
  9
$DIMEXE
 40
1.0
  9
$DIMTP
 40
0.0
  9
$DIMTM
 40
0.0
  9
$DIMTXT
 40
3.5
  9
$DIMCEN
 40
2.5
  9
$DIMTSZ
 40
0.0
  9
$DIMTOL
 70
     0
  9
$DIMLIM
 70
     0
  9
$DIMTIH
 70
     1
  9
$DIMTOH
 70
     1
  9
$DIMSE1
 70
     0
  9
$DIMSE2
 70
     0
  9
$DIMTAD
 70
     1
  9
$DIMZIN
 70
     1
  9
$DIMBLK
  1

  9
$DIMASO
 70
     1
  9
$DIMSHO
 70
     1
  9
$DIMPOST
  1

  9
$DIMAPOST
  1

  9
$DIMALT
 70
     0
  9
$DIMALTD
 70
     3
  9
$DIMALTF
 40
0.0393700787
  9
$DIMLFAC
 40
1.0
  9
$DIMTOFL
 70
     1
  9
$DIMTVP
 40
0.0
  9
$DIMTIX
 70
     0
  9
$DIMSOXD
 70
     0
  9
$DIMSAH
 70
     0
  9
$DIMBLK1
  1

  9
$DIMBLK2
  1

  9
$DIMSTYLE
  2
ISO-25
  9
$DIMCLRD
 70
     0
  9
$DIMCLRE
 70
     0
  9
$DIMCLRT
 70
     0
  9
$DIMTFAC
 40
1.0
  9
$DIMGAP
 40
1.524
  9
$DIMJUST
 70
     0
  9
$DIMSD1
 70
     0
  9
$DIMSD2
 70
     0
  9
$DIMTOLJ
 70
     0
  9
$DIMTZIN
 70
     1
  9
$DIMALTZ
 70
     0
  9
$DIMALTTZ
 70
     0
  9
$DIMUPT
 70
     0
  9
$DIMDEC
 70
     2
  9
$DIMTDEC
 70
     2
  9
$DIMALTU
 70
     2
  9
$DIMALTTD
 70
     3
  9
$DIMTXSTY
  7
Standard
  9
$DIMAUNIT
 70
     0
  9
$DIMADEC
 70
     2
  9
$DIMALTRND
 40
0.0
  9
$DIMAZIN
 70
     0
  9
$DIMDSEP
 70
    44
  9
$DIMATFIT
 70
     3
  9
$DIMFRAC
 70
     0
  9
$DIMLDRBLK
  1

  9
$DIMLUNIT
 70
     2
  9
$DIMLWD
 70
    -2
  9
$DIMLWE
 70
    -2
  9
$DIMTMOVE
 70
     0
  9
$LUNITS
 70
     2
  9
$LUPREC
 70
     2
  9
$SKETCHINC
 40
1.0
  9
$FILLETRAD
 40
10.0
  9
$AUNITS
 70
     0
  9
$AUPREC
 70
     2
  9
$MENU
  1
.
  9
$ELEVATION
 40
0.0
  9
$PELEVATION
 40
0.0
  9
$THICKNESS
 40
0.0
  9
$LIMCHECK
 70
     0
  9
$CHAMFERA
 40
0.0
  9
$CHAMFERB
 40
0.0
  9
$CHAMFERC
 40
0.0
  9
$CHAMFERD
 40
0.0
  9
$SKPOLY
 70
     0
  9
$TDCREATE
 40
2459291.656062222
  9
$TDUCREATE
 40
2459291.281062222
  9
$TDUPDATE
 40
2459291.656063137
  9
$TDUUPDATE
 40
2459291.281063137
  9
$TDINDWG
 40
0.0000000116
  9
$TDUSRTIMER
 40
0.0000000116
  9
$USRTIMER
 70
     1
  9
$ANGBASE
 50
0.0
  9
$ANGDIR
 70
     0
  9
$PDMODE
 70
     0
  9
$PDSIZE
 40
-1.0
  9
$PLINEWID
 40
0.0
  9
$SPLFRAME
 70
     0
  9
$SPLINETYPE
 70
     6
  9
$SPLINESEGS
 70
     8
  9
$HANDSEED
  5
272
  9
$SURFTAB1
 70
     6
  9
$SURFTAB2
 70
     6
  9
$SURFTYPE
 70
     6
  9
$SURFU
 70
     6
  9
$SURFV
 70
     6
  9
$UCSBASE
  2

  9
$UCSNAME
  2

  9
$UCSORG
 10
0.0
 20
0.0
 30
0.0
  9
$UCSXDIR
 10
1.0
 20
0.0
 30
0.0
  9
$UCSYDIR
 10
0.0
 20
1.0
 30
0.0
  9
$UCSORTHOREF
  2

  9
$UCSORTHOVIEW
 70
     0
  9
$UCSORGTOP
 10
0.0
 20
0.0
 30
0.0
  9
$UCSORGBOTTOM
 10
0.0
 20
0.0
 30
0.0
  9
$UCSORGLEFT
 10
0.0
 20
0.0
 30
0.0
  9
$UCSORGRIGHT
 10
0.0
 20
0.0
 30
0.0
  9
$UCSORGFRONT
 10
0.0
 20
0.0
 30
0.0
  9
$UCSORGBACK
 10
0.0
 20
0.0
 30
0.0
  9
$PUCSBASE
  2

  9
$PUCSNAME
  2

  9
$PUCSORG
 10
0.0
 20
0.0
 30
0.0
  9
$PUCSXDIR
 10
1.0
 20
0.0
 30
0.0
  9
$PUCSYDIR
 10
0.0
 20
1.0
 30
0.0
  9
$PUCSORTHOREF
  2

  9
$PUCSORTHOVIEW
 70
     0
  9
$PUCSORGTOP
 10
0.0
 20
0.0
 30
0.0
  9
$PUCSORGBOTTOM
 10
0.0
 20
0.0
 30
0.0
  9
$PUCSORGLEFT
 10
0.0
 20
0.0
 30
0.0
  9
$PUCSORGRIGHT
 10
0.0
 20
0.0
 30
0.0
  9
$PUCSORGFRONT
 10
0.0
 20
0.0
 30
0.0
  9
$PUCSORGBACK
 10
0.0
 20
0.0
 30
0.0
  9
$USERI1
 70
     0
  9
$USERI2
 70
     0
  9
$USERI3
 70
     0
  9
$USERI4
 70
     0
  9
$USERI5
 70
     0
  9
$USERR1
 40
0.0
  9
$USERR2
 40
0.0
  9
$USERR3
 40
0.0
  9
$USERR4
 40
0.0
  9
$USERR5
 40
0.0
  9
$WORLDVIEW
 70
     1
  9
$SHADEDGE
 70
     3
  9
$SHADEDIF
 70
    70
  9
$TILEMODE
 70
     1
  9
$MAXACTVP
 70
    64
  9
$PINSBASE
 10
0.0
 20
0.0
 30
0.0
  9
$PLIMCHECK
 70
     0
  9
$PEXTMIN
 10
1.0000000000E+20
 20
1.0000000000E+20
 30
1.0000000000E+20
  9
$PEXTMAX
 10
-1.0000000000E+20
 20
-1.0000000000E+20
 30
-1.0000000000E+20
  9
$PLIMMIN
 10
0.0
 20
0.0
  9
$PLIMMAX
 10
420.0
 20
297.0
  9
$UNITMODE
 70
     0
  9
$VISRETAIN
 70
     1
  9
$PLINEGEN
 70
     0
  9
$PSLTSCALE
 70
     1
  9
$TREEDEPTH
 70
  3020
  9
$CMLSTYLE
  2
Standard
  9
$CMLJUST
 70
     0
  9
$CMLSCALE
 40
20.0
  9
$PROXYGRAPHICS
 70
     1
  9
$MEASUREMENT
 70
     1
  9
$CELWEIGHT
370
    -1
  9
$ENDCAPS
280
     0
  9
$JOINSTYLE
280
     0
  9
$LWDISPLAY
290
     1
  9
$INSUNITS
 70
     4
  9
$HYPERLINKBASE
  1

  9
$STYLESHEET
  1

  9
$XEDIT
290
     1
  9
$CEPSNTYPE
380
     0
  9
$PSTYLEMODE
290
     1
  9
$FINGERPRINTGUID
  2
{479D2B6A-E03D-4C94-B4C9-9476AE96A05B}
  9
$VERSIONGUID
  2
{FAEB1C32-E019-11D5-929B-00C0DF256EC4}
  9
$EXTNAMES
290
     1
  9
$PSVPSCALE
 40
0.0
  9
$OLESTARTUP
290
     0
  0
ENDSEC
  0
SECTION
  2
CLASSES
  0
CLASS
  1
ACDBDICTIONARYWDFLT
  2
AcDbDictionaryWithDefault
  3
ObjectDBX Classes
 90
        0
280
     0
281
     0
  0
CLASS
  1
VISUALSTYLE
  2
AcDbVisualStyle
  3
ObjectDBX Classes
 90
     4095
280
     0
281
     0
  0
CLASS
  1
MATERIAL
  2
AcDbMaterial
  3
ObjectDBX Classes
 90
     1153
280
     0
281
     0
  0
CLASS
  1
SCALE
  2
AcDbScale
  3
ObjectDBX Classes
 90
     1153
280
     0
281
     0
  0
CLASS
  1
TABLESTYLE
  2
AcDbTableStyle
  3
ObjectDBX Classes
 90
     4095
280
     0
281
     0
  0
CLASS
  1
MLEADERSTYLE
  2
AcDbMLeaderStyle
  3
ACDB_MLEADERSTYLE_CLASS
 90
     4095
280
     0
281
     0
  0
CLASS
  1
SUN
  2
AcDbSun
  3
SCENEOE
 90
     1153
280
     0
281
     0
  0
CLASS
  1
ACDBPLACEHOLDER
  2
AcDbPlaceHolder
  3
ObjectDBX Classes
 90
        0
280
     0
281
     0
  0
CLASS
  1
LAYOUT
  2
AcDbLayout
  3
ObjectDBX Classes
 90
        0
280
     0
281
     0
  0
ENDSEC
  0
SECTION
  2
TABLES
  0
TABLE
  2
VPORT
  5
8
330
0
100
AcDbSymbolTable
 70
     1
  0
VPORT
  5
29
330
8
100
AcDbSymbolTableRecord
100
AcDbViewportTableRecord
  2
*Active
 70
     0
 10
0.0
 20
0.0
 11
1.0
 21
1.0
 12
215.9
 22
139.7
 13
0.0
 23
0.0
 14
10.0
 24
10.0
 15
10.0
 25
10.0
 16
0.0
 26
0.0
 36
1.0
 17
0.0
 27
0.0
 37
0.0
 40
279.4
 41
1.5454545455
 42
50.0
 43
0.0
 44
0.0
 50
0.0
 51
0.0
 71
     0
 72
  2000
 73
     1
 74
     3
 75
     0
 76
     0
 77
     0
 78
     0
281
     0
 65
     1
110
0.0
120
0.0
130
0.0
111
1.0
121
0.0
131
0.0
112
0.0
122
1.0
132
0.0
 79
     0
146
0.0
  0
ENDTAB
  0
TABLE
  2
LTYPE
  5
5
330
0
100
AcDbSymbolTable
 70
     6
  0
LTYPE
  5
14
330
5
100
AcDbSymbolTableRecord
100
AcDbLinetypeTableRecord
  2
ByBlock
 70
     0
  3

 72
    65
 73
     0
 40
0.0
  0
LTYPE
  5
15
330
5
100
AcDbSymbolTableRecord
100
AcDbLinetypeTableRecord
  2
ByLayer
 70
     0
  3

 72
    65
 73
     0
 40
0.0
  0
LTYPE
  5
16
330
5
100
AcDbSymbolTableRecord
100
AcDbLinetypeTableRecord
  2
Continuous
 70
     0
  3
Solid line
 72
    65
 73
     0
 40
0.0
  0
LTYPE
  5
6E
330
5
100
AcDbSymbolTableRecord
100
AcDbLinetypeTableRecord
  2
HIDDEN
 70
     0
  3
Hidden __ __ __ __ __ __ __ __ __ __ __ __ __ __
 72
    65
 73
     2
 40
1.905
 49
1.27
 74
     0
 49
-0.635
 74
     0
  0
LTYPE
  5
6F
330
5
100
AcDbSymbolTableRecord
100
AcDbLinetypeTableRecord
  2
PHANTOM
 70
     0
  3
Phantom ______  __  __  ______  __  __  ______
 72
    65
 73
     6
 40
12.7
 49
6.35
 74
     0
 49
-1.27
 74
     0
 49
1.27
 74
     0
 49
-1.27
 74
     0
 49
1.27
 74
     0
 49
-1.27
 74
     0
  0
LTYPE
  5
70
330
5
100
AcDbSymbolTableRecord
100
AcDbLinetypeTableRecord
  2
CENTER
 70
     0
  3
Center ____ _ ____ _ ____ _ ____ _ ____ _ ____
 72
    65
 73
     4
 40
10.16
 49
6.35
 74
     0
 49
-1.27
 74
     0
 49
1.27
 74
     0
 49
-1.27
 74
     0
  0
LTYPE
  5
71
330
5
100
AcDbSymbolTableRecord
100
AcDbLinetypeTableRecord
  2
CENTERX2
 70
     0
  3
Center (2x) ________  __  ________  __  _____
 72
    65
 73
     4
 40
20.32
 49
12.7
 74
     0
 49
-2.54
 74
     0
 49
2.54
 74
     0
 49
-2.54
 74
     0
  0
LTYPE
  5
72
330
5
100
AcDbSymbolTableRecord
100
AcDbLinetypeTableRecord
  2
DOT2
 70
     0
  3
Dot (.5x) ........................................
 72
    65
 73
     2
 40
0.635
 49
0.0
 74
     0
 49
-0.635
 74
     0
  0
ENDTAB
  0
TABLE
  2
LAYER
  5
2
330
0
100
AcDbSymbolTable
 70
     1
  0
LAYER
  5
10
330
2
100
AcDbSymbolTableRecord
100
AcDbLayerTableRecord
  2
0
 70
     0
 62
     7
  6
Continuous
370
    -3
390
F
  0
ENDTAB
  0
TABLE
  2
STYLE
  5
3
330
0
100
AcDbSymbolTable
 70
     2
  0
STYLE
  5
11
330
3
100
AcDbSymbolTableRecord
100
AcDbTextStyleTableRecord
  2
Standard
 70
     0
 40
0.0
 41
1.0
 50
0.0
 71
     0
 42
3.5
  3
txt
  4
bigfont
  0
STYLE
  5
73
330
3
100
AcDbSymbolTableRecord
100
AcDbTextStyleTableRecord
  2
SLDTEXTSTYLE0
 70
     0
 40
0.0
 41
0.7
 50
0.0
 71
     0
 42
3.5
  3
TXT
  4
bigfont
  0
ENDTAB
  0
TABLE
  2
VIEW
  5
6
330
0
100
AcDbSymbolTable
 70
     0
  0
ENDTAB
  0
TABLE
  2
UCS
  5
7
330
0
100
AcDbSymbolTable
 70
     0
  0
ENDTAB
  0
TABLE
  2
APPID
  5
9
330
0
100
AcDbSymbolTable
 70
     1
  0
APPID
  5
12
330
9
100
AcDbSymbolTableRecord
100
AcDbRegAppTableRecord
  2
ACAD
 70
     0
  0
ENDTAB
  0
TABLE
  2
DIMSTYLE
  5
A
330
0
100
AcDbSymbolTable
 70
     1
100
AcDbDimStyleTable
  0
DIMSTYLE
105
27
330
A
100
AcDbSymbolTableRecord
100
AcDbDimStyleTableRecord
  2
ISO-25
 70
     0
 41
2.5
 42
0.625
 43
3.75
 44
1.25
 73
     0
 74
     0
 77
     1
 78
     8
140
2.5
141
2.5
143
0.0393700787
147
0.625
171
     3
172
     1
178
     0
271
     2
272
     2
274
     3
278
    44
283
     0
284
     8
340
11
  0
ENDTAB
  0
TABLE
  2
BLOCK_RECORD
  5
1
330
0
100
AcDbSymbolTable
 70
     3
  0
BLOCK_RECORD
  5
1F
330
1
100
AcDbSymbolTableRecord
100
AcDbBlockTableRecord
  2
*Model_Space
340
22
  0
BLOCK_RECORD
  5
1B
330
1
100
AcDbSymbolTableRecord
100
AcDbBlockTableRecord
  2
*Paper_Space
340
1E
  0
BLOCK_RECORD
  5
23
330
1
100
AcDbSymbolTableRecord
100
AcDbBlockTableRecord
  2
*Paper_Space0
340
26
  0
BLOCK_RECORD
  5
215
330
1
100
AcDbSymbolTableRecord
100
AcDbBlockTableRecord
  2
SW_CENTERMARKSYMBOL_0
340
0
102
{BLKREFS
331
220
102
}
  0
BLOCK_RECORD
  5
262
330
1
100
AcDbSymbolTableRecord
100
AcDbBlockTableRecord
  2
SW_CENTERMARKSYMBOL_1
340
0
102
{BLKREFS
331
26D
102
}
  0
ENDTAB
  0
ENDSEC
  0
SECTION
  2
BLOCKS
  0
BLOCK
  5
20
330
1F
100
AcDbEntity
  8
0
100
AcDbBlockBegin
  2
*Model_Space
 70
     0
 10
0.0
 20
0.0
 30
0.0
  3
*Model_Space
  1

  0
ENDBLK
  5
21
330
1F
100
AcDbEntity
  8
0
100
AcDbBlockEnd
  0
BLOCK
  5
1C
330
1B
100
AcDbEntity
 67
     1
  8
0
100
AcDbBlockBegin
  2
*Paper_Space
 70
     0
 10
0.0
 20
0.0
 30
0.0
  3
*Paper_Space
  1

  0
ENDBLK
  5
1D
330
1B
100
AcDbEntity
 67
     1
  8
0
100
AcDbBlockEnd
  0
BLOCK
  5
24
330
23
100
AcDbEntity
  8
0
100
AcDbBlockBegin
  2
*Paper_Space0
 70
     0
 10
0.0
 20
0.0
 30
0.0
  3
*Paper_Space0
  1

  0
ENDBLK
  5
25
330
23
100
AcDbEntity
  8
0
100
AcDbBlockEnd
  0
BLOCK
  5
216
330
215
100
AcDbEntity
  8
0
100
AcDbBlockBegin
  2
SW_CENTERMARKSYMBOL_0
 70
     0
 10
0.0
 20
0.0
 30
0.0
  3
SW_CENTERMARKSYMBOL_0
  1

  0
LINE
  5
218
330
215
100
AcDbEntity
  8
0
  6
Continuous
 62
     0
370
    18
100
AcDbLine
 10
0.0
 20
0.0
 30
0.0
 11
0.0
 21
2.5
 31
0.0
  0
LINE
  5
219
330
215
100
AcDbEntity
  8
0
  6
Continuous
 62
     0
370
    18
100
AcDbLine
 10
0.0
 20
0.0
 30
0.0
 11
-2.5
 21
0.0
 31
0.0
  0
LINE
  5
21A
330
215
100
AcDbEntity
  8
0
  6
Continuous
 62
     0
370
    18
100
AcDbLine
 10
0.0
 20
0.0
 30
0.0
 11
0.0
 21
-2.5
 31
0.0
  0
LINE
  5
21B
330
215
100
AcDbEntity
  8
0
  6
Continuous
 62
     0
370
    18
100
AcDbLine
 10
0.0
 20
0.0
 30
0.0
 11
2.5
 21
0.0
 31
0.0
  0
LINE
  5
21C
330
215
100
AcDbEntity
  8
0
  6
Continuous
 62
     0
370
    18
100
AcDbLine
 10
0.0
 20
5.0
 30
0.0
 11
0.0
 21
7.52092176
 31
0.0
  0
LINE
  5
21D
330
215
100
AcDbEntity
  8
0
  6
Continuous
 62
     0
370
    18
100
AcDbLine
 10
-5.0
 20
0.0
 30
0.0
 11
-7.52092176
 21
0.0
 31
0.0
  0
LINE
  5
21E
330
215
100
AcDbEntity
  8
0
  6
Continuous
 62
     0
370
    18
100
AcDbLine
 10
0.0
 20
-5.0
 30
0.0
 11
0.0
 21
-7.52092176
 31
0.0
  0
LINE
  5
21F
330
215
100
AcDbEntity
  8
0
  6
Continuous
 62
     0
370
    18
100
AcDbLine
 10
5.0
 20
0.0
 30
0.0
 11
37.0890718698
 21
0.0
 31
0.0
  0
ENDBLK
  5
217
330
215
100
AcDbEntity
  8
0
100
AcDbBlockEnd
  0
BLOCK
  5
263
330
262
100
AcDbEntity
  8
0
100
AcDbBlockBegin
  2
SW_CENTERMARKSYMBOL_1
 70
     0
 10
0.0
 20
0.0
 30
0.0
  3
SW_CENTERMARKSYMBOL_1
  1

  0
LINE
  5
265
330
262
100
AcDbEntity
  8
0
  6
Continuous
 62
     0
370
    18
100
AcDbLine
 10
0.0
 20
0.0
 30
0.0
 11
0.0
 21
2.5
 31
0.0
  0
LINE
  5
266
330
262
100
AcDbEntity
  8
0
  6
Continuous
 62
     0
370
    18
100
AcDbLine
 10
0.0
 20
0.0
 30
0.0
 11
-2.5
 21
0.0
 31
0.0
  0
LINE
  5
267
330
262
100
AcDbEntity
  8
0
  6
Continuous
 62
     0
370
    18
100
AcDbLine
 10
0.0
 20
0.0
 30
0.0
 11
0.0
 21
-2.5
 31
0.0
  0
LINE
  5
268
330
262
100
AcDbEntity
  8
0
  6
Continuous
 62
     0
370
    18
100
AcDbLine
 10
0.0
 20
0.0
 30
0.0
 11
2.5
 21
0.0
 31
0.0
  0
LINE
  5
269
330
262
100
AcDbEntity
  8
0
  6
Continuous
 62
     0
370
    18
100
AcDbLine
 10
0.0
 20
5.0
 30
0.0
 11
0.0
 21
18.7442806396
 31
0.0
  0
LINE
  5
26A
330
262
100
AcDbEntity
  8
0
  6
Continuous
 62
     0
370
    18
100
AcDbLine
 10
-5.0
 20
0.0
 30
0.0
 11
-8.35
 21
0.0
 31
0.0
  0
LINE
  5
26B
330
262
100
AcDbEntity
  8
0
  6
Continuous
 62
     0
370
    18
100
AcDbLine
 10
0.0
 20
-5.0
 30
0.0
 11
0.0
 21
-8.35
 31
0.0
  0
LINE
  5
26C
330
262
100
AcDbEntity
  8
0
  6
Continuous
 62
     0
370
    18
100
AcDbLine
 10
5.0
 20
0.0
 30
0.0
 11
8.35
 21
0.0
 31
0.0
  0
ENDBLK
  5
264
330
262
100
AcDbEntity
  8
0
100
AcDbBlockEnd
  0
ENDSEC
  0
SECTION
  2
ENTITIES
  0
MTEXT
  5
74
330
1F
100
AcDbEntity
  8
0
  6
Continuous
 62
     7
370
     0
100
AcDbMText
 10
178.0983256132
 20
104.0512473511
 30
0.0
 40
3.7041666667
 41
0.0
 71
     1
 72
     1
  1
HL-1117R
  7
SLDTEXTSTYLE0
 73
     1
 44
1.0
  0
LINE
  5
75
330
1F
100
AcDbEntity
  8
0
  6
Continuous
 62
     7
370
    25
100
AcDbLine
 10
155.6507979508
 20
76.0597803359
 30
0.0
 11
152.6507974591
 21
76.0597803359
 31
0.0
  0
LINE
  5
76
330
1F
100
AcDbEntity
  8
0
  6
Continuous
 62
     7
370
    25
100
AcDbLine
 10
152.6507974591
 20
69.0597801198
 30
0.0
 11
155.6507979508
 21
69.0597801198
 31
0.0
  0
LINE
  5
77
330
1F
100
AcDbEntity
  8
0
  6
Continuous
 62
     7
370
    25
100
AcDbLine
 10
159.6507967438
 20
69.0597801198
 30
0.0
 11
163.6507973995
 21
69.7097801798
 31
0.0
  0
LINE
  5
78
330
1F
100
AcDbEntity
  8
0
  6
Continuous
 62
     7
370
    25
100
AcDbLine
 10
163.6507973995
 20
75.4097802759
 30
0.0
 11
159.6507967438
 21
76.0597803359
 31
0.0
  0
LINE
  5
79
330
1F
100
AcDbEntity
  8
0
  6
Continuous
 62
     7
370
    25
100
AcDbLine
 10
167.6507980551
 20
69.0597801198
 30
0.0
 11
171.3546828355
 21
69.6616613035
 31
0.0
  0
LINE
  5
7A
330
1F
100
AcDbEntity
  8
0
  6
Continuous
 62
     7
370
    25
100
AcDbLine
 10
171.3546828355
 20
75.4578991522
 30
0.0
 11
167.6507980551
 21
76.0597803359
 31
0.0
  0
LINE
  5
7B
330
1F
100
AcDbEntity
  8
0
  6
Continuous
 62
     7
370
    25
100
AcDbLine
 10
155.6507979508
 20
69.0597801198
 30
0.0
 11
159.6507967438
 21
69.7097801798
 31
0.0
  0
LINE
  5
7C
330
1F
100
AcDbEntity
  8
0
  6
Continuous
 62
     7
370
    25
100
AcDbLine
 10
159.6507967438
 20
75.4097802759
 30
0.0
 11
155.6507979508
 21
76.0597803359
 31
0.0
  0
LINE
  5
7D
330
1F
100
AcDbEntity
  8
0
  6
Continuous
 62
     7
370
    25
100
AcDbLine
 10
163.6507973995
 20
69.0597801198
 30
0.0
 11
167.6507980551
 21
69.7097801798
 31
0.0
  0
LINE
  5
7E
330
1F
100
AcDbEntity
  8
0
  6
Continuous
 62
     7
370
    25
100
AcDbLine
 10
167.6507980551
 20
75.4097802759
 30
0.0
 11
163.6507973995
 21
76.0597803359
 31
0.0
  0
LINE
  5
7F
330
1F
100
AcDbEntity
  8
0
  6
Continuous
 62
     7
370
    25
100
AcDbLine
 10
171.3546828355
 20
69.6616613035
 30
0.0
 11
171.6507987108
 21
70.072687949
 31
0.0
  0
LINE
  5
80
330
1F
100
AcDbEntity
  8
0
  6
Continuous
 62
     7
370
    25
100
AcDbLine
 10
171.6507987108
 20
75.0468725068
 30
0.0
 11
171.3546828355
 21
75.4578991522
 31
0.0
  0
LINE
  5
81
330
1F
100
AcDbEntity
  8
0
  6
Continuous
 62
     7
370
    25
100
AcDbLine
 10
150.5282965477
 20
65.631577066
 30
0.0
 11
151.1507972132
 21
66.7097803866
 31
0.0
  0
LINE
  5
82
330
1F
100
AcDbEntity
  8
0
  6
Continuous
 62
     7
370
    25
100
AcDbLine
 10
151.1507972132
 20
78.4097800692
 30
0.0
 11
150.5282965477
 21
79.4879833897
 31
0.0
  0
LINE
  5
83
330
1F
100
AcDbEntity
  8
0
  6
Continuous
 62
     7
370
    25
100
AcDbLine
 10
144.7732976626
 20
79.4879833897
 30
0.0
 11
144.1507969971
 21
78.4097800692
 31
0.0
  0
LINE
  5
84
330
1F
100
AcDbEntity
  8
0
  6
Continuous
 62
     7
370
    25
100
AcDbLine
 10
144.1507969971
 20
66.7097803866
 30
0.0
 11
144.7732976626
 21
65.631577066
 31
0.0
  0
LINE
  5
85
330
1F
100
AcDbEntity
  8
0
  6
Continuous
 62
     7
370
    25
100
AcDbLine
 10
144.1507969971
 20
78.4097800692
 30
0.0
 11
142.950797173
 21
78.4097800692
 31
0.0
  0
LINE
  5
86
330
1F
100
AcDbEntity
  8
0
  6
Continuous
 62
     7
370
    25
100
AcDbLine
 10
142.950797173
 20
66.7097803866
 30
0.0
 11
144.1507969971
 21
66.7097803866
 31
0.0
  0
ARC
  5
87
330
1F
100
AcDbEntity
  8
0
  6
Continuous
 62
     7
370
    25
100
AcDbCircle
 10
142.9507970828
 20
67.0097802279
 30
0.0
 40
0.2999999999999972
100
AcDbArc
 50
180.0
 51
270.0
  0
ARC
  5
88
330
1F
100
AcDbEntity
  8
0
  6
Continuous
 62
     7
370
    25
100
AcDbCircle
 10
142.9507970828
 20
78.1097802279
 30
0.0
 40
0.2999999999999972
100
AcDbArc
 50
90.0
 51
180.0
  0
LINE
  5
89
330
1F
100
AcDbEntity
  8
0
  6
Continuous
 62
     7
370
    25
100
AcDbLine
 10
151.1507972132
 20
66.7097803866
 30
0.0
 11
152.3507979687
 21
66.7097803866
 31
0.0
  0
LINE
  5
8A
330
1F
100
AcDbEntity
  8
0
  6
Continuous
 62
     7
370
    25
100
AcDbLine
 10
152.3507979687
 20
78.4097800692
 30
0.0
 11
151.1507972132
 21
78.4097800692
 31
0.0
  0
ARC
  5
8B
330
1F
100
AcDbEntity
  8
0
  6
Continuous
 62
     7
370
    25
100
AcDbCircle
 10
152.3507970828
 20
78.1097802279
 30
0.0
 40
0.3000000000000114
100
AcDbArc
 50
0.0
 51
90.0
  0
ARC
  5
8C
330
1F
100
AcDbEntity
  8
0
  6
Continuous
 62
     7
370
    25
100
AcDbCircle
 10
152.3507970828
 20
67.0097802279
 30
0.0
 40
0.3000000000000114
100
AcDbArc
 50
270.0
 51
0.0
  0
LINE
  5
8D
330
1F
100
AcDbEntity
  8
0
  6
Continuous
 62
     7
370
    25
100
AcDbLine
 10
147.5972074073
 20
65.631577066
 30
0.0
 11
147.6507966395
 21
65.831577192
 31
0.0
  0
LINE
  5
8E
330
1F
100
AcDbEntity
  8
0
  6
Continuous
 62
     7
370
    25
100
AcDbLine
 10
147.6507966395
 20
65.831577192
 30
0.0
 11
147.7043868031
 21
65.631577066
 31
0.0
  0
LINE
  5
8F
330
1F
100
AcDbEntity
  8
0
  6
Continuous
 62
     7
370
    25
100
AcDbLine
 10
147.7043868031
 20
79.4879833897
 30
0.0
 11
147.6507966395
 21
79.2879832637
 31
0.0
  0
LINE
  5
90
330
1F
100
AcDbEntity
  8
0
  6
Continuous
 62
     7
370
    25
100
AcDbLine
 10
147.6507966395
 20
79.2879832637
 30
0.0
 11
147.5972074073
 21
79.4879833897
 31
0.0
  0
LINE
  5
91
330
1F
100
AcDbEntity
  8
0
  6
Continuous
 62
     7
370
    25
100
AcDbLine
 10
140.7109491516
 20
80.5682835829
 30
0.0
 11
140.472307055
 21
88.2048316029
 31
0.0
  0
LINE
  5
92
330
1F
100
AcDbEntity
  8
0
  6
Continuous
 62
     7
370
    25
100
AcDbLine
 10
130.9077480796
 20
88.2048316029
 30
0.0
 11
130.6691059831
 21
80.5682835829
 31
0.0
  0
ARC
  5
93
330
1F
100
AcDbEntity
  8
0
  6
Continuous
 62
     7
370
    25
100
AcDbCircle
 10
130.7400275673
 20
80.8597802279
 30
0.0
 40
0.3000000000000114
100
AcDbArc
 50
256.3254917117
 51
270.0
  0
ARC
  5
94
330
1F
100
AcDbEntity
  8
0
  6
Continuous
 62
     7
370
    25
100
AcDbCircle
 10
140.6400275673
 20
80.8597802279
 30
0.0
 40
0.3000000000000114
100
AcDbArc
 50
270.0
 51
283.6745082883
  0
ARC
  5
95
330
1F
100
AcDbEntity
  8
0
  6
Continuous
 62
     7
370
    25
100
AcDbCircle
 10
130.8900275673
 20
80.2597802279
 30
0.0
 40
0.3000000000000114
100
AcDbArc
 50
0.0
 51
90.0
  0
ARC
  5
96
330
1F
100
AcDbEntity
  8
0
  6
Continuous
 62
     7
370
    25
100
AcDbCircle
 10
140.4900275673
 20
80.2597802279
 30
0.0
 40
0.3000000000000398
100
AcDbArc
 50
90.0
 51
180.0
  0
LINE
  5
97
330
1F
100
AcDbEntity
  8
0
  6
Continuous
 62
     7
370
    25
100
AcDbLine
 10
140.472307055
 20
88.2048316029
 30
0.0
 11
139.6900277573
 21
89.5597811517
 31
0.0
  0
LINE
  5
98
330
1F
100
AcDbEntity
  8
0
  6
Continuous
 62
     7
370
    25
100
AcDbLine
 10
131.6900273774
 20
89.5597811517
 30
0.0
 11
130.9077480796
 21
88.2048316029
 31
0.0
  0
LINE
  5
99
330
1F
100
AcDbEntity
  8
0
  6
Continuous
 62
     7
370
    25
100
AcDbLine
 10
140.1900273736
 20
77.0597800341
 30
0.0
 11
140.1900273736
 21
80.2597801861
 31
0.0
  0
LINE
  5
9A
330
1F
100
AcDbEntity
  8
0
  6
Continuous
 62
     7
370
    25
100
AcDbLine
 10
131.1900277611
 20
80.2597801861
 30
0.0
 11
131.1900277611
 21
70.0597802837
 31
0.0
  0
LINE
  5
9B
330
1F
100
AcDbEntity
  8
0
  6
Continuous
 62
     7
370
    25
100
AcDbLine
 10
133.1900276232
 20
68.0597804216
 30
0.0
 11
142.6507972169
 21
68.0597804216
 31
0.0
  0
LINE
  5
9C
330
1F
100
AcDbEntity
  8
0
  6
Continuous
 62
     7
370
    25
100
AcDbLine
 10
142.6507972169
 20
77.0597800341
 30
0.0
 11
140.1900273736
 21
77.0597800341
 31
0.0
  0
ARC
  5
9D
330
1F
100
AcDbEntity
  8
0
  6
Continuous
 62
     7
370
    25
100
AcDbCircle
 10
133.1900275673
 20
70.0597802279
 30
0.0
 40
2.000000000000012
100
AcDbArc
 50
179.7921813128
 51
270.1440336281
  0
LINE
  5
9E
330
1F
100
AcDbEntity
  8
0
  6
Continuous
 62
     7
370
    25
100
AcDbLine
 10
155.6507979508
 20
71.3125604865
 30
0.0
 11
155.6507979508
 21
69.0597801198
 31
0.0
  0
LINE
  5
9F
330
1F
100
AcDbEntity
  8
0
  6
Continuous
 62
     7
370
    25
100
AcDbLine
 10
155.6507979508
 20
76.0597803359
 30
0.0
 11
155.6507979508
 21
71.3125604865
 31
0.0
  0
LINE
  5
A0
330
1F
100
AcDbEntity
  8
0
  6
Continuous
 62
     7
370
    25
100
AcDbLine
 10
159.6507967438
 20
71.3125604865
 30
0.0
 11
159.6507967438
 21
69.0597801198
 31
0.0
  0
LINE
  5
A1
330
1F
100
AcDbEntity
  8
0
  6
Continuous
 62
     7
370
    25
100
AcDbLine
 10
159.6507967438
 20
76.0597803359
 30
0.0
 11
159.6507967438
 21
71.3125604865
 31
0.0
  0
LINE
  5
A2
330
1F
100
AcDbEntity
  8
0
  6
Continuous
 62
     7
370
    25
100
AcDbLine
 10
171.3546828355
 20
71.5270398845
 30
0.0
 11
171.3546828355
 21
75.4578991522
 31
0.0
  0
LINE
  5
A3
330
1F
100
AcDbEntity
  8
0
  6
Continuous
 62
     7
370
    25
100
AcDbLine
 10
171.3546828355
 20
69.6616613035
 30
0.0
 11
171.3546828355
 21
71.5270398845
 31
0.0
  0
LINE
  5
A4
330
1F
100
AcDbEntity
  8
0
  6
Continuous
 62
     7
370
    25
100
AcDbLine
 10
167.6507980551
 20
71.3125604865
 30
0.0
 11
167.6507980551
 21
69.0597801198
 31
0.0
  0
LINE
  5
A5
330
1F
100
AcDbEntity
  8
0
  6
Continuous
 62
     7
370
    25
100
AcDbLine
 10
167.6507980551
 20
76.0597803359
 30
0.0
 11
167.6507980551
 21
71.3125604865
 31
0.0
  0
LINE
  5
A6
330
1F
100
AcDbEntity
  8
0
  6
Continuous
 62
     7
370
    25
100
AcDbLine
 10
163.6507973995
 20
71.3125604865
 30
0.0
 11
163.6507973995
 21
69.0597801198
 31
0.0
  0
LINE
  5
A7
330
1F
100
AcDbEntity
  8
0
  6
Continuous
 62
     7
370
    25
100
AcDbLine
 10
163.6507973995
 20
76.0597803359
 30
0.0
 11
163.6507973995
 21
71.3125604865
 31
0.0
  0
LINE
  5
A8
330
1F
100
AcDbEntity
  8
0
  6
Continuous
 62
     7
370
    25
100
AcDbLine
 10
171.6507987108
 20
71.6735085783
 30
0.0
 11
171.6507987108
 21
70.072687949
 31
0.0
  0
LINE
  5
A9
330
1F
100
AcDbEntity
  8
0
  6
Continuous
 62
     7
370
    25
100
AcDbLine
 10
171.6507987108
 20
75.0468725068
 30
0.0
 11
171.6507987108
 21
71.6735085783
 31
0.0
  0
LINE
  5
AA
330
1F
100
AcDbEntity
  8
0
  6
Continuous
 62
     7
370
    25
100
AcDbLine
 10
144.7732976626
 20
69.095678647
 30
0.0
 11
147.5972074073
 21
69.095678647
 31
0.0
  0
SPLINE
  5
AB
330
1F
100
AcDbEntity
  8
0
  6
Continuous
 62
     7
370
    25
100
AcDbSpline
210
0.0
220
0.0
230
1.0
 70
     8
 71
     3
 72
    15
 73
    11
 74
     0
 42
0.000000001
 43
0.00000001
 40
0.0
 40
0.0
 40
0.0
 40
0.0
 40
0.1208268626113046
 40
0.2461021415051922
 40
0.3713454778940315
 40
0.4996840359460464
 40
0.6280225296663987
 40
0.7205443478855924
 40
0.8130754758583989
 40
1.0
 40
1.0
 40
1.0
 40
1.0
 10
144.7732976626301
 20
69.09567864695163
 30
0.0
 10
144.6984096252166
 20
69.36891601781294
 30
0.0
 10
144.5458764386199
 20
69.9254503898469
 30
0.0
 10
144.376619294548
 20
70.78019880757267
 30
0.0
 10
144.2632733239213
 20
71.66187943055345
 30
0.0
 10
144.2249430012842
 20
72.55750380033749
 30
0.0
 10
144.2596304780596
 20
73.37645308933476
 30
0.0
 10
144.3450630911788
 20
74.10644371777323
 30
0.0
 10
144.4908547273137
 20
74.96683797673764
 30
0.0
 10
144.6600949281035
 20
75.60022011523674
 30
0.0
 10
144.7732976626301
 20
76.0238818087575
 30
0.0
  0
LINE
  5
AC
330
1F
100
AcDbEntity
  8
0
  6
Continuous
 62
     7
370
    25
100
AcDbLine
 10
144.7732976626
 20
76.0238818088
 30
0.0
 11
147.5972074073
 21
76.0238818088
 31
0.0
  0
LINE
  5
AD
330
1F
100
AcDbEntity
  8
0
  6
Continuous
 62
     7
370
    25
100
AcDbLine
 10
147.6507966395
 20
75.6042371699
 30
0.0
 11
147.5972074073
 21
76.0238818088
 31
0.0
  0
LINE
  5
AE
330
1F
100
AcDbEntity
  8
0
  6
Continuous
 62
     7
370
    25
100
AcDbLine
 10
147.7043868031
 20
76.0238818088
 30
0.0
 11
147.6507966395
 21
75.6042371699
 31
0.0
  0
LINE
  5
AF
330
1F
100
AcDbEntity
  8
0
  6
Continuous
 62
     7
370
    25
100
AcDbLine
 10
147.7043868031
 20
76.0238818088
 30
0.0
 11
150.5282965477
 21
76.0238818088
 31
0.0
  0
SPLINE
  5
B0
330
1F
100
AcDbEntity
  8
0
  6
Continuous
 62
     7
370
    25
100
AcDbSpline
210
0.0
220
0.0
230
1.0
 70
     8
 71
     3
 72
    15
 73
    11
 74
     0
 42
0.000000001
 43
0.00000001
 40
0.0
 40
0.0
 40
0.0
 40
0.0
 40
0.1208268626113046
 40
0.2461021415051922
 40
0.3713454778940315
 40
0.4996840359460464
 40
0.6280225296663987
 40
0.7205443478855924
 40
0.8130754758583989
 40
1.0
 40
1.0
 40
1.0
 40
1.0
 10
150.5282965477252
 20
69.09567864695163
 30
0.0
 10
150.6031845851387
 20
69.36891601781294
 30
0.0
 10
150.7557177717354
 20
69.9254503898469
 30
0.0
 10
150.9249749158073
 20
70.78019880757267
 30
0.0
 10
151.0383208864341
 20
71.66187943055345
 30
0.0
 10
151.0766512090711
 20
72.55750380033749
 30
0.0
 10
151.0419637322957
 20
73.37645308933476
 30
0.0
 10
150.9565311191766
 20
74.10644371777323
 30
0.0
 10
150.8107394830416
 20
74.96683797673764
 30
0.0
 10
150.6414992822518
 20
75.60022011523674
 30
0.0
 10
150.5282965477252
 20
76.0238818087575
 30
0.0
  0
LINE
  5
B1
330
1F
100
AcDbEntity
  8
0
  6
Continuous
 62
     7
370
    25
100
AcDbLine
 10
147.7043868031
 20
69.095678647
 30
0.0
 11
150.5282965477
 21
69.095678647
 31
0.0
  0
LINE
  5
B2
330
1F
100
AcDbEntity
  8
0
  6
Continuous
 62
     7
370
    25
100
AcDbLine
 10
147.6507966395
 20
69.5153232858
 30
0.0
 11
147.7043868031
 21
69.095678647
 31
0.0
  0
LINE
  5
B3
330
1F
100
AcDbEntity
  8
0
  6
Continuous
 62
     7
370
    25
100
AcDbLine
 10
147.5972074073
 20
69.095678647
 30
0.0
 11
147.6507966395
 21
69.5153232858
 31
0.0
  0
LINE
  5
B4
330
1F
100
AcDbEntity
  8
0
  6
Continuous
 62
     7
370
    25
100
AcDbLine
 10
147.7043868031
 20
69.095678647
 30
0.0
 11
147.6507966395
 21
68.8858563275
 31
0.0
  0
LINE
  5
B5
330
1F
100
AcDbEntity
  8
0
  6
Continuous
 62
     7
370
    25
100
AcDbLine
 10
147.6507966395
 20
68.8858563275
 30
0.0
 11
147.6507966395
 21
69.5153232858
 31
0.0
  0
LINE
  5
B6
330
1F
100
AcDbEntity
  8
0
  6
Continuous
 62
     7
370
    25
100
AcDbLine
 10
144.7732976626
 20
65.631577066
 30
0.0
 11
147.5972074073
 21
65.631577066
 31
0.0
  0
SPLINE
  5
B7
330
1F
100
AcDbEntity
  8
0
  6
Continuous
 62
     7
370
    25
100
AcDbSpline
210
0.0
220
0.0
230
1.0
 70
     8
 71
     3
 72
    15
 73
    11
 74
     0
 42
0.000000001
 43
0.00000001
 40
0.0
 40
0.0
 40
0.0
 40
0.0
 40
0.1323034029548258
 40
0.2645694346746505
 40
0.399794222157288
 40
0.5349945614998083
 40
0.6501872198437368
 40
0.7653979239273305
 40
0.8826876536126987
 40
0.9999999999999999
 40
0.9999999999999999
 40
0.9999999999999999
 40
0.9999999999999999
 10
144.7732976626301
 20
65.63157706604869
 30
0.0
 10
144.6917202071842
 20
65.78123800408785
 30
0.0
 10
144.5285883391636
 20
66.08051760601478
 30
0.0
 10
144.3530625590529
 20
66.54138098244087
 30
0.0
 10
144.2475211411432
 20
67.01093226872614
 30
0.0
 10
144.2266168810785
 20
67.4634780995456
 30
0.0
 10
144.2808399787976
 20
67.89158022823099
 30
0.0
 10
144.3919514279288
 20
68.29560786559747
 30
0.0
 10
144.554943935154
 20
68.69780866322839
 30
0.0
 10
144.7005084091134
 20
68.9630467956584
 30
0.0
 10
144.7732976626301
 20
69.09567864695163
 30
0.0
  0
LINE
  5
B8
330
1F
100
AcDbEntity
  8
0
  6
Continuous
 62
     7
370
    25
100
AcDbLine
 10
147.6507966395
 20
68.8858563275
 30
0.0
 11
147.5972074073
 21
69.095678647
 31
0.0
  0
SPLINE
  5
B9
330
1F
100
AcDbEntity
  8
0
  6
Continuous
 62
     7
370
    25
100
AcDbSpline
210
0.0
220
0.0
230
1.0
 70
     8
 71
     3
 72
    15
 73
    11
 74
     0
 42
0.000000001
 43
0.00000001
 40
0.0
 40
0.0
 40
0.0
 40
0.0
 40
0.1323034044858494
 40
0.2645694377362653
 40
0.3997942122513891
 40
0.534994556118735
 40
0.6501872157956806
 40
0.7653979212125
 40
0.8826876522551527
 40
1.0
 40
1.0
 40
1.0
 40
1.0
 10
150.5282965477252
 20
65.63157706604869
 30
0.0
 10
150.6098739685528
 20
65.78123800567005
 30
0.0
 10
150.7730057673467
 20
66.08051761076094
 30
0.0
 10
150.9485320640356
 20
66.54138094653345
 30
0.0
 10
151.0540714527897
 20
67.01093231181397
 30
0.0
 10
151.0749776920736
 20
67.46347808868546
 30
0.0
 10
151.0207541411723
 20
67.89158023007529
 30
0.0
 10
150.9096428070169
 20
68.29560786509572
 30
0.0
 10
150.7466502690066
 20
68.6978086633548
 30
0.0
 10
150.6010857991769
 20
68.96304679570055
 30
0.0
 10
150.5282965477252
 20
69.09567864695163
 30
0.0
  0
LINE
  5
BA
330
1F
100
AcDbEntity
  8
0
  6
Continuous
 62
     7
370
    25
100
AcDbLine
 10
147.7043868031
 20
65.631577066
 30
0.0
 11
150.5282965477
 21
65.631577066
 31
0.0
  0
LINE
  5
BB
330
1F
100
AcDbEntity
  8
0
  6
Continuous
 62
     7
370
    25
100
AcDbLine
 10
147.6507966395
 20
65.8413993855
 30
0.0
 11
147.7043868031
 21
65.631577066
 31
0.0
  0
LINE
  5
BC
330
1F
100
AcDbEntity
  8
0
  6
Continuous
 62
     7
370
    25
100
AcDbLine
 10
147.5972074073
 20
65.631577066
 30
0.0
 11
147.6507966395
 21
65.8413993855
 31
0.0
  0
LINE
  5
BD
330
1F
100
AcDbEntity
  8
0
  6
Continuous
 62
     7
370
    25
100
AcDbLine
 10
147.5972074073
 20
76.0238818088
 30
0.0
 11
147.6507966395
 21
76.2337041282
 31
0.0
  0
LINE
  5
BE
330
1F
100
AcDbEntity
  8
0
  6
Continuous
 62
     7
370
    25
100
AcDbLine
 10
147.6507966395
 20
75.6042371699
 30
0.0
 11
147.6507966395
 21
76.2337041282
 31
0.0
  0
SPLINE
  5
BF
330
1F
100
AcDbEntity
  8
0
  6
Continuous
 62
     7
370
    25
100
AcDbSpline
210
0.0
220
0.0
230
1.0
 70
     8
 71
     3
 72
    15
 73
    11
 74
     0
 42
0.000000001
 43
0.00000001
 40
0.0
 40
0.0
 40
0.0
 40
0.0
 40
0.1323034065789983
 40
0.2645694397755009
 40
0.3997942284844695
 40
0.5349945722967061
 40
0.6501872605422856
 40
0.7653979375014015
 40
0.8826876544481312
 40
1.0
 40
1.0
 40
1.0
 40
1.0
 10
150.5282965477252
 20
76.0238818087575
 30
0.0
 10
150.6098739681157
 20
76.17354284431816
 30
0.0
 10
150.773005764712
 20
76.47282263883253
 30
0.0
 10
150.9485320729296
 20
76.93368594359163
 30
0.0
 10
151.0540714499376
 20
77.40323724186167
 30
0.0
 10
151.0749776843641
 20
77.85578315320873
 30
0.0
 10
151.0207541664079
 20
78.28388507520042
 30
0.0
 10
150.9096427962855
 20
78.68791287093417
 30
0.0
 10
150.7466502586699
 20
79.09011371754289
 30
0.0
 10
150.6010857981932
 20
79.35535163775623
 30
0.0
 10
150.5282965477252
 20
79.48798338966043
 30
0.0
  0
LINE
  5
C0
330
1F
100
AcDbEntity
  8
0
  6
Continuous
 62
     7
370
    25
100
AcDbLine
 10
151.1507972132
 20
72.5597802279
 30
0.0
 11
151.1507972132
 21
78.4097800692
 31
0.0
  0
LINE
  5
C1
330
1F
100
AcDbEntity
  8
0
  6
Continuous
 62
     7
370
    25
100
AcDbLine
 10
151.1507972132
 20
66.7097803866
 30
0.0
 11
151.1507972132
 21
72.5597802279
 31
0.0
  0
LINE
  5
C2
330
1F
100
AcDbEntity
  8
0
  6
Continuous
 62
     7
370
    25
100
AcDbLine
 10
147.6507966395
 20
76.2337041282
 30
0.0
 11
147.7043868031
 21
76.0238818088
 31
0.0
  0
SPLINE
  5
C3
330
1F
100
AcDbEntity
  8
0
  6
Continuous
 62
     7
370
    25
100
AcDbSpline
210
0.0
220
0.0
230
1.0
 70
     8
 71
     3
 72
    15
 73
    11
 74
     0
 42
0.000000001
 43
0.00000001
 40
0.0
 40
0.0
 40
0.0
 40
0.0
 40
0.1323034050479748
 40
0.2645694367138865
 40
0.3997942383903674
 40
0.5349945776777785
 40
0.6501872645903409
 40
0.7653979402162315
 40
0.8826876558056772
 40
1.0
 40
1.0
 40
1.0
 40
1.0
 10
144.7732976626301
 20
76.0238818087575
 30
0.0
 10
144.6917202076213
 20
76.17354284273597
 30
0.0
 10
144.5285883417982
 20
76.47282263408637
 30
0.0
 10
144.3530625501589
 20
76.93368597949905
 30
0.0
 10
144.2475211439952
 20
77.40323719877384
 30
0.0
 10
144.2266168887881
 20
77.85578316406887
 30
0.0
 10
144.2808399535621
 20
78.28388507335612
 30
0.0
 10
144.3919514386602
 20
78.68791287143594
 30
0.0
 10
144.5549439454907
 20
79.09011371741649
 30
0.0
 10
144.7005084100971
 20
79.3553516377141
 30
0.0
 10
144.7732976626301
 20
79.48798338966043
 30
0.0
  0
LINE
  5
C4
330
1F
100
AcDbEntity
  8
0
  6
Continuous
 62
     7
370
    25
100
AcDbLine
 10
144.1507969971
 20
72.5597802279
 30
0.0
 11
144.1507969971
 21
78.4097800692
 31
0.0
  0
LINE
  5
C5
330
1F
100
AcDbEntity
  8
0
  6
Continuous
 62
     7
370
    25
100
AcDbLine
 10
144.1507969971
 20
66.7097803866
 30
0.0
 11
144.1507969971
 21
72.5597802279
 31
0.0
  0
LINE
  5
C6
330
1F
100
AcDbEntity
  8
0
  6
Continuous
 62
     7
370
    25
100
AcDbLine
 10
144.7732976626
 20
79.4879833897
 30
0.0
 11
147.5972074073
 21
79.4879833897
 31
0.0
  0
LINE
  5
C7
330
1F
100
AcDbEntity
  8
0
  6
Continuous
 62
     7
370
    25
100
AcDbLine
 10
147.6507966395
 20
79.2781610702
 30
0.0
 11
147.5972074073
 21
79.4879833897
 31
0.0
  0
LINE
  5
C8
330
1F
100
AcDbEntity
  8
0
  6
Continuous
 62
     7
370
    25
100
AcDbLine
 10
147.7043868031
 20
79.4879833897
 30
0.0
 11
147.6507966395
 21
79.2781610702
 31
0.0
  0
LINE
  5
C9
330
1F
100
AcDbEntity
  8
0
  6
Continuous
 62
     7
370
    25
100
AcDbLine
 10
147.7043868031
 20
79.4879833897
 30
0.0
 11
150.5282965477
 21
79.4879833897
 31
0.0
  0
LINE
  5
CA
330
1F
100
AcDbEntity
  8
0
  6
Continuous
 62
     7
370
    25
100
AcDbLine
 10
142.6507972169
 20
72.5597802279
 30
0.0
 11
142.6507972169
 21
78.1097801131
 31
0.0
  0
LINE
  5
CB
330
1F
100
AcDbEntity
  8
0
  6
Continuous
 62
     7
370
    25
100
AcDbLine
 10
142.6507972169
 20
67.0097803426
 30
0.0
 11
142.6507972169
 21
72.5597802279
 31
0.0
  0
LINE
  5
CC
330
1F
100
AcDbEntity
  8
0
  6
Continuous
 62
     7
370
    25
100
AcDbLine
 10
152.6507974591
 20
72.5597802279
 30
0.0
 11
152.6507974591
 21
78.1097801131
 31
0.0
  0
LINE
  5
CD
330
1F
100
AcDbEntity
  8
0
  6
Continuous
 62
     7
370
    25
100
AcDbLine
 10
152.6507974591
 20
67.0097803426
 30
0.0
 11
152.6507974591
 21
72.5597802279
 31
0.0
  0
LINE
  5
CE
330
1F
100
AcDbEntity
  8
0
  6
Continuous
 62
     7
370
    25
100
AcDbLine
 10
147.6507966395
 20
65.831577192
 30
0.0
 11
147.6507966395
 21
65.8413993855
 31
0.0
  0
LINE
  5
CF
330
1F
100
AcDbEntity
  8
0
  6
Continuous
 62
     7
370
    25
100
AcDbLine
 10
147.6507966395
 20
79.2781610702
 30
0.0
 11
147.6507966395
 21
79.2879832637
 31
0.0
  0
LINE
  5
D0
330
1F
100
AcDbEntity
  8
0
  6
Continuous
 62
     7
370
    25
100
AcDbLine
 10
140.472307055
 20
88.2048316029
 30
0.0
 11
130.9077480796
 21
88.2048316029
 31
0.0
  0
LINE
  5
D1
330
1F
100
AcDbEntity
  8
0
  6
Continuous
 62
     7
370
    25
100
AcDbLine
 10
140.7109491516
 20
80.5682835829
 30
0.0
 11
130.6691059831
 21
80.5682835829
 31
0.0
  0
LINE
  5
D2
330
1F
100
AcDbEntity
  8
0
  6
Continuous
 62
     7
370
    25
100
AcDbLine
 10
140.6400275405
 20
80.5597806078
 30
0.0
 11
130.7400275942
 21
80.5597806078
 31
0.0
  0
LINE
  5
D3
330
1F
100
AcDbEntity
  8
0
  6
Continuous
 62
     7
370
    25
100
AcDbLine
 10
131.6900273774
 20
89.5597811517
 30
0.0
 11
139.6900277573
 21
89.5597811517
 31
0.0
  0
LINE
  5
D4
330
1F
100
AcDbEntity
  8
0
  6
Continuous
 62
     7
370
    25
100
AcDbLine
 10
139.0900276124
 20
76.959780204
 30
0.0
 11
137.0316684002
 21
76.959780204
 31
0.0
  0
SPLINE
  5
D5
330
1F
100
AcDbEntity
  8
0
  6
Continuous
 62
     7
370
    25
100
AcDbSpline
210
0.0
220
0.0
230
1.0
 70
     8
 71
     3
 72
    10
 73
     6
 74
     0
 42
0.000000001
 43
0.00000001
 40
0.0
 40
0.0
 40
0.0
 40
0.0
 40
0.5
 40
0.5
 40
1.0
 40
1.0
 40
1.0
 40
1.0
 10
137.0273300919256
 20
77.03049090597113
 30
0.0
 10
137.0284460772455
 20
77.01895067023838
 30
0.0
 10
137.0295306427244
 20
77.0056614954715
 30
0.0
 10
137.0311417810223
 20
76.98046476904187
 30
0.0
 10
137.0316683538413
 20
76.96855721737911
 30
0.0
 10
137.0316683538413
 20
76.95978022785457
 30
0.0
  0
SPLINE
  5
D6
330
1F
100
AcDbEntity
  8
0
  6
Continuous
 62
     7
370
    25
100
AcDbSpline
210
0.0
220
0.0
230
1.0
 70
     8
 71
     3
 72
    12
 73
     8
 74
     0
 42
0.000000001
 43
0.00000001
 40
0.0
 40
0.0
 40
0.0
 40
0.0
 40
0.25
 40
0.25
 40
0.5
 40
0.5
 40
1.0
 40
1.0
 40
1.0
 40
1.0
 10
137.0273300919256
 20
77.03049090597113
 30
0.0
 10
137.0267720992656
 20
77.03626102383753
 30
0.0
 10
137.0261274000483
 20
77.04097666538843
 30
0.0
 10
137.0251394662673
 20
77.04863220744146
 30
0.0
 10
137.0247962317036
 20
77.05157210794358
 30
0.0
 10
137.0249310416458
 20
77.05822801525008
 30
0.0
 10
137.0265735997847
 20
77.05978022785455
 30
0.0
 10
137.0316683538413
 20
77.05978022785455
 30
0.0
  0
LINE
  5
D7
330
1F
100
AcDbEntity
  8
0
  6
Continuous
 62
     7
370
    25
100
AcDbLine
 10
137.0316684002
 20
77.0597800341
 30
0.0
 11
139.0900276124
 21
77.0597800341
 31
0.0
  0
LINE
  5
D8
330
1F
100
AcDbEntity
  8
0
  6
Continuous
 62
     7
370
    25
100
AcDbLine
 10
139.0900276124
 20
76.959780204
 30
0.0
 11
139.0900276124
 21
77.0597800341
 31
0.0
  0
SPLINE
  5
D9
330
1F
100
AcDbEntity
  8
0
  6
Continuous
 62
     7
370
    25
100
AcDbSpline
210
0.0
220
0.0
230
1.0
 70
     8
 71
     3
 72
    12
 73
     8
 74
     0
 42
0.000000001
 43
0.00000001
 40
0.0
 40
0.0
 40
0.0
 40
0.0
 40
0.25
 40
0.25
 40
0.5
 40
0.5
 40
1.0
 40
1.0
 40
1.0
 40
1.0
 10
140.1607382454579
 20
71.22247770327034
 30
0.0
 10
140.1665083633243
 20
71.2230356959303
 30
0.0
 10
140.1712240048752
 20
71.22368039514764
 30
0.0
 10
140.1788795469283
 20
71.22466832892862
 30
0.0
 10
140.1818194474304
 20
71.22501156349226
 30
0.0
 10
140.1884753547369
 20
71.2248767535501
 30
0.0
 10
140.1900275673413
 20
71.2232341954112
 30
0.0
 10
140.1900275673413
 20
71.21813944135465
 30
0.0
  0
LINE
  5
DA
330
1F
100
AcDbEntity
  8
0
  6
Continuous
 62
     7
370
    25
100
AcDbLine
 10
140.1900273736
 20
71.218139395
 30
0.0
 11
140.1900273736
 21
69.1597801828
 31
0.0
  0
LINE
  5
DB
330
1F
100
AcDbEntity
  8
0
  6
Continuous
 62
     7
370
    25
100
AcDbLine
 10
140.1900273736
 20
69.1597801828
 30
0.0
 11
140.0900275435
 21
69.1597801828
 31
0.0
  0
LINE
  5
DC
330
1F
100
AcDbEntity
  8
0
  6
Continuous
 62
     7
370
    25
100
AcDbLine
 10
140.0900275435
 20
69.1597801828
 30
0.0
 11
140.0900275435
 21
71.218139395
 31
0.0
  0
SPLINE
  5
DD
330
1F
100
AcDbEntity
  8
0
  6
Continuous
 62
     7
370
    25
100
AcDbSpline
210
0.0
220
0.0
230
1.0
 70
     8
 71
     3
 72
    10
 73
     6
 74
     0
 42
0.000000001
 43
0.00000001
 40
0.0
 40
0.0
 40
0.0
 40
0.0
 40
0.5
 40
0.5
 40
1.0
 40
1.0
 40
1.0
 40
1.0
 10
140.1607382454579
 20
71.22247770327034
 30
0.0
 10
140.1491980097252
 20
71.22136171795039
 30
0.0
 10
140.1359088349583
 20
71.22027715247147
 30
0.0
 10
140.1107121085286
 20
71.21866601417359
 30
0.0
 10
140.0988045568659
 20
71.21813944135465
 30
0.0
 10
140.0900275673413
 20
71.21813944135465
 30
0.0
  0
LINE
  5
DE
330
1F
100
AcDbEntity
  8
0
  6
Continuous
 62
     7
370
    25
100
AcDbLine
 10
139.0900276124
 20
76.5597804178
 30
0.0
 11
139.0900276124
 21
76.959780204
 31
0.0
  0
ARC
  5
DF
330
1F
100
AcDbEntity
  8
0
  6
Continuous
 62
     7
370
    25
100
AcDbCircle
 10
139.6900275673
 20
76.5597802279
 30
0.0
 40
0.5999999999999943
100
AcDbArc
 50
180.0
 51
270.0
  0
LINE
  5
E0
330
1F
100
AcDbEntity
  8
0
  6
Continuous
 62
     7
370
    25
100
AcDbLine
 10
140.0900275435
 20
75.9597802729
 30
0.0
 11
139.6900277573
 21
75.9597802729
 31
0.0
  0
LINE
  5
E1
330
1F
100
AcDbEntity
  8
0
  6
Continuous
 62
     7
370
    25
100
AcDbLine
 10
140.0900275435
 20
73.9014210607
 30
0.0
 11
140.0900275435
 21
75.9597802729
 31
0.0
  0
LINE
  5
E2
330
1F
100
AcDbEntity
  8
0
  6
Continuous
 62
     7
370
    25
100
AcDbLine
 10
140.0900275435
 20
73.9014210607
 30
0.0
 11
140.0900275435
 21
72.5597802279
 31
0.0
  0
LINE
  5
E3
330
1F
100
AcDbEntity
  8
0
  6
Continuous
 62
     7
370
    25
100
AcDbLine
 10
140.0900275435
 20
72.5597802279
 30
0.0
 11
140.0900275435
 21
71.218139395
 31
0.0
  0
LINE
  5
E4
330
1F
100
AcDbEntity
  8
0
  6
Continuous
 62
     7
370
    25
100
AcDbLine
 10
134.1900275543
 20
69.1597801828
 30
0.0
 11
140.0900275435
 21
69.1597801828
 31
0.0
  0
ARC
  5
E5
330
1F
100
AcDbEntity
  8
0
  6
Continuous
 62
     7
370
    25
100
AcDbCircle
 10
134.1900275673
 20
71.0597802279
 30
0.0
 40
1.900000000000006
100
AcDbArc
 50
180.0
 51
270.0
  0
LINE
  5
E6
330
1F
100
AcDbEntity
  8
0
  6
Continuous
 62
     7
370
    25
100
AcDbLine
 10
132.2900275223
 20
76.959780204
 30
0.0
 11
132.2900275223
 21
71.0597802148
 31
0.0
  0
LINE
  5
E7
330
1F
100
AcDbEntity
  8
0
  6
Continuous
 62
     7
370
    25
100
AcDbLine
 10
134.3483867345
 20
76.959780204
 30
0.0
 11
132.2900275223
 21
76.959780204
 31
0.0
  0
LINE
  5
E8
330
1F
100
AcDbEntity
  8
0
  6
Continuous
 62
     7
370
    25
100
AcDbLine
 10
134.3483867345
 20
76.959780204
 30
0.0
 11
135.6900275673
 21
76.959780204
 31
0.0
  0
LINE
  5
E9
330
1F
100
AcDbEntity
  8
0
  6
Continuous
 62
     7
370
    25
100
AcDbLine
 10
135.6900275673
 20
76.959780204
 30
0.0
 11
137.0316684002
 21
76.959780204
 31
0.0
  0
SPLINE
  5
EA
330
1F
100
AcDbEntity
  8
0
  6
Continuous
 62
     7
370
    25
100
AcDbSpline
210
0.0
220
0.0
230
1.0
 70
     8
 71
     3
 72
    14
 73
    10
 74
     0
 42
0.000000001
 43
0.00000001
 40
0.0
 40
0.0
 40
0.0
 40
0.0
 40
0.25
 40
0.25
 40
0.5
 40
0.5
 40
0.75
 40
0.75
 40
1.0
 40
1.0
 40
1.0
 40
1.0
 10
137.3725003108637
 20
72.74705703401466
 30
0.0
 10
137.4104226455728
 20
72.827382231237
 30
0.0
 10
137.4716258837309
 20
72.89431268845323
 30
0.0
 10
137.6225585923385
 20
72.98681192604093
 30
0.0
 10
137.709907165787
 20
73.01105429636563
 30
0.0
 10
137.8873986379995
 20
73.01087044644731
 30
0.0
 10
137.9746653026045
 20
72.98626615488125
 30
0.0
 10
138.1239108232373
 20
72.89475962996572
 30
0.0
 10
138.1858720215728
 20
72.82739286630635
 30
0.0
 10
138.2237993772051
 20
72.74705703401504
 30
0.0
  0
LINE
  5
EB
330
1F
100
AcDbEntity
  8
0
  6
Continuous
 62
     7
370
    25
100
AcDbLine
 10
136.660625703
 20
70.7566871037
 30
0.0
 11
137.3725003319
 21
72.7470570322
 31
0.0
  0
SPLINE
  5
EC
330
1F
100
AcDbEntity
  8
0
  6
Continuous
 62
     7
370
    25
100
AcDbSpline
210
0.0
220
0.0
230
1.0
 70
     8
 71
     3
 72
    10
 73
     6
 74
     0
 42
0.000000001
 43
0.00000001
 40
0.0
 40
0.0
 40
0.0
 40
0.0
 40
0.5
 40
0.5
 40
1.0
 40
1.0
 40
1.0
 40
1.0
 10
136.2496475306794
 20
70.61250052563133
 30
0.0
 10
136.322405220336
 20
70.57246116088322
 30
0.0
 10
136.4110273052119
 20
70.56554697310753
 30
0.0
 10
136.5660258762974
 20
70.61793041135716
 30
0.0
 10
136.6326186629463
 20
70.67838054604283
 30
0.0
 10
136.6606257306447
 20
70.75668707332092
 30
0.0
  0
LINE
  5
ED
330
1F
100
AcDbEntity
  8
0
  6
Continuous
 62
     7
370
    25
100
AcDbLine
 10
135.929424559
 20
70.7887227376
 30
0.0
 11
136.2496475445
 21
70.6125005576
 31
0.0
  0
LINE
  5
EE
330
1F
100
AcDbEntity
  8
0
  6
Continuous
 62
     7
370
    25
100
AcDbLine
 10
136.5327913768
 20
69.6385042005
 30
0.0
 11
135.929424559
 21
70.7887227376
 31
0.0
  0
SPLINE
  5
EF
330
1F
100
AcDbEntity
  8
0
  6
Continuous
 62
     7
370
    25
100
AcDbSpline
210
0.0
220
0.0
230
1.0
 70
     8
 71
     3
 72
    23
 73
    19
 74
     0
 42
0.000000001
 43
0.00000001
 40
0.0
 40
0.0
 40
0.0
 40
0.0
 40
0.0000498781835487
 40
0.0000498781835487
 40
0.0000498781835487
 40
0.0000997268192993
 40
0.0000997268192993
 40
0.0000997268192993
 40
0.0001500011747122
 40
0.0001500011747122
 40
0.0001500011747122
 40
0.0002003877210666
 40
0.0002003877210666
 40
0.0002003877210666
 40
0.0002503535461228
 40
0.0002503535461228
 40
0.0002503535461228
 40
0.0002676752878394
 40
0.0002676752878394
 40
0.0002676752878394
 40
0.0002676752878394
 10
136.7630860836175
 20
69.59719663011867
 30
0.0
 10
136.7506516601345
 20
69.58615982699897
 30
0.0
 10
136.7361224979255
 20
69.57714070366148
 30
0.0
 10
136.7207293011485
 20
69.5708577582181
 30
0.0
 10
136.7053417268713
 20
69.56457710767546
 30
0.0
 10
136.6886684782392
 20
69.56085404031019
 30
0.0
 10
136.6720718313355
 20
69.55997351493795
 30
0.0
 10
136.6553368728321
 20
69.55908565152485
 30
0.0
 10
136.6382183092201
 20
69.56106410471033
 30
0.0
 10
136.6221299812973
 20
69.56575588925365
 30
0.0
 10
136.6060094601259
 20
69.57045706220497
 30
0.0
 10
136.590473973626
 20
69.57801706510048
 30
0.0
 10
136.5768479906944
 20
69.58783056697833
 30
0.0
 10
136.5633363981072
 20
69.59756168435122
 30
0.0
 10
136.5513242033003
 20
69.60978580282699
 30
0.0
 10
136.5418661060389
 20
69.62348989622141
 30
0.0
 10
136.5385443879891
 20
69.62830282350755
 30
0.0
 10
136.5355079474982
 20
69.63332565010208
 30
0.0
 10
136.5327913969154
 20
69.63850430174078
 30
0.0
  0
SPLINE
  5
F0
330
1F
100
AcDbEntity
  8
0
  6
Continuous
 62
     7
370
    25
100
AcDbSpline
210
0.0
220
0.0
230
1.0
 70
     8
 71
     3
 72
    12
 73
     8
 74
     0
 42
0.000000001
 43
0.00000001
 40
0.0
 40
0.0
 40
0.0
 40
0.0
 40
0.25
 40
0.25
 40
0.5
 40
0.5
 40
1.0
 40
1.0
 40
1.0
 40
1.0
 10
138.8332136044517
 20
69.59719663011852
 30
0.0
 10
138.6910434164928
 20
69.72338698998001
 30
0.0
 10
138.528531986554
 20
69.81983661535529
 30
0.0
 10
138.1739798715494
 20
69.95182814095917
 30
0.0
 10
137.9865367597851
 20
69.98511950634119
 30
0.0
 10
137.4212437277886
 20
69.9851038847711
 30
0.0
 10
137.0473960930116
 20
69.84955039649365
 30
0.0
 10
136.7630860836175
 20
69.59719663011867
 30
0.0
  0
SPLINE
  5
F1
330
1F
100
AcDbEntity
  8
0
  6
Continuous
 62
     7
370
    25
100
AcDbSpline
210
0.0
220
0.0
230
1.0
 70
     8
 71
     3
 72
    23
 73
    19
 74
     0
 42
0.000000001
 43
0.00000001
 40
0.0
 40
0.0
 40
0.0
 40
0.0
 40
0.0000491340929468
 40
0.0000491340929468
 40
0.0000491340929468
 40
0.0000982315553283
 40
0.0000982315553283
 40
0.0000982315553283
 40
0.0001478770455754
 40
0.0001478770455754
 40
0.0001478770455754
 40
0.0001981233645928
 40
0.0001981233645928
 40
0.0001981233645928
 40
0.0002485283804886
 40
0.0002485283804886
 40
0.0002485283804886
 40
0.0002676671342044
 40
0.0002676671342044
 40
0.0002676671342044
 40
0.0002676671342044
 10
139.0635082911537
 20
69.63850430174074
 30
0.0
 10
139.055900148916
 20
69.62400064459685
 30
0.0
 10
139.0456559182437
 20
69.61062659653396
 30
0.0
 10
139.033660952687
 20
69.59947488365435
 30
0.0
 10
139.0216712948782
 20
69.58832810538505
 30
0.0
 10
139.0076075884783
 20
69.57909273709625
 30
0.0
 10
138.9926295099612
 20
69.57248518655965
 30
0.0
 10
138.9774856078339
 20
69.56580448325629
 30
0.0
 10
138.9609959234978
 20
69.56162630373062
 30
0.0
 10
138.9444996758211
 20
69.5602685921052
 30
0.0
 10
138.9278085314422
 20
69.55889483964897
 30
0.0
 10
138.9106515822741
 20
69.56037169753651
 30
0.0
 10
138.8944427073733
 20
69.56458523179394
 30
0.0
 10
138.8781865484689
 20
69.56881105763674
 30
0.0
 10
138.8624312412793
 20
69.57591065825113
 30
0.0
 10
138.8485160510285
 20
69.5853174529583
 30
0.0
 10
138.8431663653098
 20
69.58893388898225
 30
0.0
 10
138.8380429977354
 20
69.59291005720813
 30
0.0
 10
138.8332136044517
 20
69.59719663011856
 30
0.0
  0
LINE
  5
F2
330
1F
100
AcDbEntity
  8
0
  6
Continuous
 62
     7
370
    25
100
AcDbLine
 10
139.6714990947
 20
70.7975373565
 30
0.0
 11
139.0635082021
 21
69.6385042005
 31
0.0
  0
LINE
  5
F3
330
1F
100
AcDbEntity
  8
0
  6
Continuous
 62
     7
370
    25
100
AcDbLine
 10
139.3508484576
 20
70.6142983594
 30
0.0
 11
139.6714990947
 21
70.7975373565
 31
0.0
  0
SPLINE
  5
F4
330
1F
100
AcDbEntity
  8
0
  6
Continuous
 62
     7
370
    25
100
AcDbSpline
210
0.0
220
0.0
230
1.0
 70
     8
 71
     3
 72
    10
 73
     6
 74
     0
 42
0.000000001
 43
0.00000001
 40
0.0
 40
0.0
 40
0.0
 40
0.0
 40
0.4999999999999998
 40
0.4999999999999998
 40
1.0
 40
1.0
 40
1.0
 40
1.0
 10
138.9358394809773
 20
70.75622427675805
 30
0.0
 10
138.9640649362156
 20
70.67730714754111
 30
0.0
 10
139.0313154603745
 20
70.61650457939959
 30
0.0
 10
139.1888892102795
 20
70.56460330894132
 30
0.0
 10
139.2781702079464
 20
70.57276558623307
 30
0.0
 10
139.350848421298
 20
70.61429830208887
 30
0.0
  0
LINE
  5
F5
330
1F
100
AcDbEntity
  8
0
  6
Continuous
 62
     7
370
    25
100
AcDbLine
 10
138.2237993635
 20
72.7470570322
 30
0.0
 11
138.9358394768
 21
70.7562242364
 31
0.0
  0
LINE
  5
F6
330
1F
100
AcDbEntity
  8
0
  6
Continuous
 62
     7
370
    25
100
AcDbLine
 10
132.2900275223
 20
77.0597800341
 30
0.0
 11
134.3483867345
 21
77.0597800341
 31
0.0
  0
SPLINE
  5
F7
330
1F
100
AcDbEntity
  8
0
  6
Continuous
 62
     7
370
    25
100
AcDbSpline
210
0.0
220
0.0
230
1.0
 70
     8
 71
     3
 72
    12
 73
     8
 74
     0
 42
0.000000001
 43
0.00000001
 40
0.0
 40
0.0
 40
0.0
 40
0.0
 40
0.25
 40
0.25
 40
0.5
 40
0.5
 40
1.0
 40
1.0
 40
1.0
 40
1.0
 10
134.3527250427571
 20
77.03049090597113
 30
0.0
 10
134.3532830354171
 20
77.03626102383753
 30
0.0
 10
134.3539277346344
 20
77.04097666538843
 30
0.0
 10
134.3549156684154
 20
77.04863220744146
 30
0.0
 10
134.355258902979
 20
77.05157210794358
 30
0.0
 10
134.3551240930369
 20
77.05822801525008
 30
0.0
 10
134.353481534898
 20
77.05978022785456
 30
0.0
 10
134.3483867808414
 20
77.05978022785456
 30
0.0
  0
SPLINE
  5
F8
330
1F
100
AcDbEntity
  8
0
  6
Continuous
 62
     7
370
    25
100
AcDbSpline
210
0.0
220
0.0
230
1.0
 70
     8
 71
     3
 72
    10
 73
     6
 74
     0
 42
0.000000001
 43
0.00000001
 40
0.0
 40
0.0
 40
0.0
 40
0.0
 40
0.5
 40
0.5
 40
1.0
 40
1.0
 40
1.0
 40
1.0
 10
134.3527250427571
 20
77.03049090597113
 30
0.0
 10
134.3516090574372
 20
77.01895067023838
 30
0.0
 10
134.3505244919583
 20
77.00566149547151
 30
0.0
 10
134.3489133536604
 20
76.98046476904187
 30
0.0
 10
134.3483867808414
 20
76.96855721737911
 30
0.0
 10
134.3483867808414
 20
76.95978022785457
 30
0.0
  0
LINE
  5
F9
330
1F
100
AcDbEntity
  8
0
  6
Continuous
 62
     7
370
    25
100
AcDbLine
 10
132.2900275223
 20
76.959780204
 30
0.0
 11
132.2900275223
 21
77.0597800341
 31
0.0
  0
LINE
  5
FA
330
1F
100
AcDbEntity
  8
0
  6
Continuous
 62
     7
370
    25
100
AcDbLine
 10
140.1900273736
 20
75.9597802729
 30
0.0
 11
140.1900273736
 21
73.9014210607
 31
0.0
  0
SPLINE
  5
FB
330
1F
100
AcDbEntity
  8
0
  6
Continuous
 62
     7
370
    25
100
AcDbSpline
210
0.0
220
0.0
230
1.0
 70
     8
 71
     3
 72
    12
 73
     8
 74
     0
 42
0.000000001
 43
0.00000001
 40
0.0
 40
0.0
 40
0.0
 40
0.0
 40
0.25
 40
0.25
 40
0.5
 40
0.5
 40
1.0
 40
1.0
 40
1.0
 40
1.0
 10
140.1607382454579
 20
73.89708275243878
 30
0.0
 10
140.1665083633243
 20
73.8965247597788
 30
0.0
 10
140.1712240048752
 20
73.89588006056147
 30
0.0
 10
140.1788795469283
 20
73.8948921267805
 30
0.0
 10
140.1818194474304
 20
73.89454889221686
 30
0.0
 10
140.1884753547369
 20
73.89468370215901
 30
0.0
 10
140.1900275673413
 20
73.89632626029791
 30
0.0
 10
140.1900275673413
 20
73.90142101435447
 30
0.0
  0
SPLINE
  5
FC
330
1F
100
AcDbEntity
  8
0
  6
Continuous
 62
     7
370
    25
100
AcDbSpline
210
0.0
220
0.0
230
1.0
 70
     8
 71
     3
 72
    10
 73
     6
 74
     0
 42
0.000000001
 43
0.00000001
 40
0.0
 40
0.0
 40
0.0
 40
0.0
 40
0.5
 40
0.5
 40
1.0
 40
1.0
 40
1.0
 40
1.0
 10
140.1607382454579
 20
73.89708275243878
 30
0.0
 10
140.1491980097252
 20
73.89819873775873
 30
0.0
 10
140.1359088349583
 20
73.89928330323764
 30
0.0
 10
140.1107121085286
 20
73.90089444153553
 30
0.0
 10
140.0988045568659
 20
73.90142101435447
 30
0.0
 10
140.0900275673413
 20
73.90142101435447
 30
0.0
  0
LINE
  5
FD
330
1F
100
AcDbEntity
  8
0
  6
Continuous
 62
     7
370
    25
100
AcDbLine
 10
140.1900273736
 20
75.9597802729
 30
0.0
 11
140.0900275435
 21
75.9597802729
 31
0.0
  0
SPLINE
  5
FE
330
1F
100
AcDbEntity
  8
0
  6
Continuous
 62
     7
370
    25
100
AcDbSpline
210
0.0
220
0.0
230
1.0
 70
    24
 71
     3
 72
    14
 73
    10
 74
     0
 42
0.000000001
 43
0.00000001
 40
0.0
 40
0.0
 40
0.0
 40
0.0
 40
0.25
 40
0.25
 40
0.5
 40
0.5
 40
0.75
 40
0.75
 40
1.0
 40
1.0
 40
1.0
 40
1.0
 10
135.6900275673413
 20
77.15978022785455
 30
0.0
 10
135.8001878343848
 20
77.15978022785455
 30
0.0
 10
135.9103483264236
 20
77.15978022785455
 30
0.0
 10
136.1303832762976
 20
77.15978022785455
 30
0.0
 10
136.2402581846051
 20
77.15978022785455
 30
0.0
 10
136.4594228786228
 20
77.15978022785455
 30
0.0
 10
136.5687131160214
 20
77.15978022785455
 30
0.0
 10
136.7863823456272
 20
77.15978022785455
 30
0.0
 10
136.8947617907802
 20
77.15978022785455
 30
0.0
 10
137.0025022497869
 20
77.15978022785455
 30
0.0
  0
SPLINE
  5
FF
330
1F
100
AcDbEntity
  8
0
  6
Continuous
 62
     7
370
    25
100
AcDbSpline
210
0.0
220
0.0
230
1.0
 70
    24
 71
     3
 72
    14
 73
    10
 74
     0
 42
0.000000001
 43
0.00000001
 40
0.0
 40
0.0
 40
0.0
 40
0.0
 40
0.25
 40
0.25
 40
0.5
 40
0.5
 40
0.75
 40
0.75
 40
1.0
 40
1.0
 40
1.0
 40
1.0
 10
135.6900275673413
 20
77.15978022785455
 30
0.0
 10
135.5798673002979
 20
77.15978022785455
 30
0.0
 10
135.4697068082591
 20
77.15978022785455
 30
0.0
 10
135.2496718583851
 20
77.15978022785455
 30
0.0
 10
135.1397969500776
 20
77.15978022785455
 30
0.0
 10
134.9206322560599
 20
77.15978022785455
 30
0.0
 10
134.8113420186613
 20
77.15978022785455
 30
0.0
 10
134.5936727890555
 20
77.15978022785455
 30
0.0
 10
134.4852933439025
 20
77.15978022785455
 30
0.0
 10
134.3775528848958
 20
77.15978022785455
 30
0.0
  0
LINE
  5
100
330
1F
100
AcDbEntity
  8
0
  6
Continuous
 62
     7
370
    25
100
AcDbLine
 10
132.3639405414
 20
77.1597803299
 30
0.0
 11
134.3775528472
 21
77.1597803299
 31
0.0
  0
SPLINE
  5
101
330
1F
100
AcDbEntity
  8
0
  6
Continuous
 62
     7
370
    25
100
AcDbSpline
210
0.0
220
0.0
230
1.0
 70
     8
 71
     3
 72
    12
 73
     8
 74
     0
 42
0.000000001
 43
0.00000001
 40
0.0
 40
0.0
 40
0.0
 40
0.0
 40
0.4999999999999984
 40
0.4999999999999984
 40
0.7499999999999992
 40
0.7499999999999992
 40
1.0
 40
1.0
 40
1.0
 40
1.0
 10
132.3639406108196
 20
77.15978022785455
 30
0.0
 10
132.3191598726477
 20
77.15978022785455
 30
0.0
 10
132.2757859151005
 20
77.14505380888883
 30
0.0
 10
132.2200443219565
 20
77.09753019704641
 30
0.0
 10
132.2030488417271
 20
77.0773128431898
 30
0.0
 10
132.1767774560306
 20
77.0250421625818
 30
0.0
 10
132.1682884369066
 20
76.99337185436079
 30
0.0
 10
132.1682884369066
 20
76.95978022785457
 30
0.0
  0
LINE
  5
102
330
1F
100
AcDbEntity
  8
0
  6
Continuous
 62
     7
370
    25
100
AcDbLine
 10
132.1682885278
 20
71.0597802148
 30
0.0
 11
132.1682885278
 21
76.959780204
 31
0.0
  0
SPLINE
  5
103
330
1F
100
AcDbEntity
  8
0
  6
Continuous
 62
     7
370
    25
100
AcDbSpline
210
0.0
220
0.0
230
1.0
 70
     8
 71
     3
 72
     8
 73
     4
 74
     0
 42
0.000000001
 43
0.00000001
 40
0.0
 40
0.0
 40
0.0
 40
0.0
 40
1.0
 40
1.0
 40
1.0
 40
1.0
 10
132.2122472371312
 20
70.62768004440446
 30
0.0
 10
132.1833602566798
 20
70.7681192737244
 30
0.0
 10
132.1682884369066
 20
70.91197398068289
 30
0.0
 10
132.1682884369066
 20
71.05978022785456
 30
0.0
  0
LINE
  5
104
330
1F
100
AcDbEntity
  8
0
  6
Continuous
 62
     7
370
    25
100
AcDbLine
 10
139.369274209
 20
76.2390268696
 30
0.0
 11
140.1900273736
 21
77.0597800341
 31
0.0
  0
SPLINE
  5
105
330
1F
100
AcDbEntity
  8
0
  6
Continuous
 62
     7
370
    25
100
AcDbSpline
210
0.0
220
0.0
230
1.0
 70
     8
 71
     3
 72
    10
 73
     6
 74
     0
 42
0.000000001
 43
0.00000001
 40
0.0
 40
0.0
 40
0.0
 40
0.0
 40
0.5
 40
0.5
 40
1.0
 40
1.0
 40
1.0
 40
1.0
 10
139.2117666977761
 20
76.55978022785456
 30
0.0
 10
139.2117666977761
 20
76.48577916143324
 30
0.0
 10
139.2329241553542
 20
76.4159621821281
 30
0.0
 10
139.2929347930136
 20
76.30810101618458
 30
0.0
 10
139.3305400308705
 20
76.26852900496569
 30
0.0
 10
139.3692742504078
 20
76.23902691092073
 30
0.0
  0
LINE
  5
106
330
1F
100
AcDbEntity
  8
0
  6
Continuous
 62
     7
370
    25
100
AcDbLine
 10
139.2117666069
 20
76.959780204
 30
0.0
 11
139.2117666069
 21
76.5597804178
 31
0.0
  0
SPLINE
  5
107
330
1F
100
AcDbEntity
  8
0
  6
Continuous
 62
     7
370
    25
100
AcDbSpline
210
0.0
220
0.0
230
1.0
 70
     8
 71
     3
 72
    12
 73
     8
 74
     0
 42
0.000000001
 43
0.00000001
 40
0.0
 40
0.0
 40
0.0
 40
0.0
 40
0.2500000000000005
 40
0.2500000000000005
 40
0.500000000000001
 40
0.500000000000001
 40
1.0
 40
1.0
 40
1.0
 40
1.0
 10
139.2117666977761
 20
76.95978022785457
 30
0.0
 10
139.2117666977761
 20
76.99336916586245
 30
0.0
 10
139.2031170291824
 20
77.02542747717573
 30
0.0
 10
139.1769821152912
 20
77.07729480199836
 30
0.0
 10
139.1598577276733
 20
77.09769134053323
 30
0.0
 10
139.1041443182956
 20
77.14509868348102
 30
0.0
 10
139.0609275561864
 20
77.15978022785455
 30
0.0
 10
139.0161145238631
 20
77.15978022785455
 30
0.0
  0
LINE
  5
108
330
1F
100
AcDbEntity
  8
0
  6
Continuous
 62
     7
370
    25
100
AcDbLine
 10
137.0025022875
 20
77.1597803299
 30
0.0
 11
139.0161145933
 21
77.1597803299
 31
0.0
  0
SPLINE
  5
109
330
1F
100
AcDbEntity
  8
0
  6
Continuous
 62
     7
370
    25
100
AcDbSpline
210
0.0
220
0.0
230
1.0
 70
     8
 71
     3
 72
     8
 73
     4
 74
     0
 42
0.000000001
 43
0.00000001
 40
0.0
 40
0.0
 40
0.0
 40
0.0
 40
1.0
 40
1.0
 40
1.0
 40
1.0
 10
134.1900275673413
 20
69.03804109741978
 30
0.0
 10
134.0422213201697
 20
69.03804109741978
 30
0.0
 10
133.8983666132112
 20
69.05311291719299
 30
0.0
 10
133.7579273838913
 20
69.08199989764437
 30
0.0
  0
LINE
  5
10A
330
1F
100
AcDbEntity
  8
0
  6
Continuous
 62
     7
370
    25
100
AcDbLine
 10
140.0900275435
 20
69.0380411883
 30
0.0
 11
134.1900275543
 21
69.0380411883
 31
0.0
  0
SPLINE
  5
10B
330
1F
100
AcDbEntity
  8
0
  6
Continuous
 62
     7
370
    25
100
AcDbSpline
210
0.0
220
0.0
230
1.0
 70
     8
 71
     3
 72
    12
 73
     8
 74
     0
 42
0.000000001
 43
0.00000001
 40
0.0
 40
0.0
 40
0.0
 40
0.0
 40
0.2500000000000008
 40
0.2500000000000008
 40
0.5000000000000016
 40
0.5000000000000016
 40
1.0
 40
1.0
 40
1.0
 40
1.0
 10
140.0900275673413
 20
69.03804109741978
 30
0.0
 10
140.1236165053492
 20
69.03804109741978
 30
0.0
 10
140.1556748166625
 20
69.04669076601354
 30
0.0
 10
140.2075421414851
 20
69.07282567990468
 30
0.0
 10
140.22793868002
 20
69.08995006752262
 30
0.0
 10
140.2753460229678
 20
69.14566347690027
 30
0.0
 10
140.2900275673414
 20
69.18888023900946
 30
0.0
 10
140.2900275673414
 20
69.23369327133281
 30
0.0
  0
LINE
  5
10C
330
1F
100
AcDbEntity
  8
0
  6
Continuous
 62
     7
370
    25
100
AcDbLine
 10
140.2900276694
 20
71.2473055077
 30
0.0
 11
140.2900276694
 21
69.2336932019
 31
0.0
  0
SPLINE
  5
10D
330
1F
100
AcDbEntity
  8
0
  6
Continuous
 62
     7
370
    25
100
AcDbSpline
210
0.0
220
0.0
230
1.0
 70
    24
 71
     3
 72
    14
 73
    10
 74
     0
 42
0.000000001
 43
0.00000001
 40
0.0
 40
0.0
 40
0.0
 40
0.0
 40
0.25
 40
0.25
 40
0.5
 40
0.5
 40
0.75
 40
0.75
 40
1.0
 40
1.0
 40
1.0
 40
1.0
 10
140.2900275673414
 20
72.55978022785456
 30
0.0
 10
140.2900275673414
 20
72.44961996081115
 30
0.0
 10
140.2900275673414
 20
72.33945946877233
 30
0.0
 10
140.2900275673414
 20
72.1194245188983
 30
0.0
 10
140.2900275673414
 20
72.00954961059084
 30
0.0
 10
140.2900275673414
 20
71.79038491657307
 30
0.0
 10
140.2900275673414
 20
71.6810946791745
 30
0.0
 10
140.2900275673414
 20
71.4634254495687
 30
0.0
 10
140.2900275673414
 20
71.35504600441571
 30
0.0
 10
140.2900275673414
 20
71.24730554540899
 30
0.0
  0
SPLINE
  5
10E
330
1F
100
AcDbEntity
  8
0
  6
Continuous
 62
     7
370
    25
100
AcDbSpline
210
0.0
220
0.0
230
1.0
 70
    24
 71
     3
 72
    14
 73
    10
 74
     0
 42
0.000000001
 43
0.00000001
 40
0.0
 40
0.0
 40
0.0
 40
0.0
 40
0.25
 40
0.25
 40
0.5
 40
0.5
 40
0.75
 40
0.75
 40
1.0
 40
1.0
 40
1.0
 40
1.0
 10
140.2900275673414
 20
72.55978022785456
 30
0.0
 10
140.2900275673414
 20
72.66994049489797
 30
0.0
 10
140.2900275673414
 20
72.78010098693679
 30
0.0
 10
140.2900275673414
 20
73.00013593681082
 30
0.0
 10
140.2900275673414
 20
73.11001084511828
 30
0.0
 10
140.2900275673414
 20
73.32917553913602
 30
0.0
 10
140.2900275673414
 20
73.43846577653461
 30
0.0
 10
140.2900275673414
 20
73.65613500614042
 30
0.0
 10
140.2900275673414
 20
73.7645144512934
 30
0.0
 10
140.2900275673414
 20
73.87225491030013
 30
0.0
  0
LINE
  5
10F
330
1F
100
AcDbEntity
  8
0
  6
Continuous
 62
     7
370
    25
100
AcDbLine
 10
140.2900276694
 20
75.8858672538
 30
0.0
 11
140.2900276694
 21
73.872254948
 31
0.0
  0
SPLINE
  5
110
330
1F
100
AcDbEntity
  8
0
  6
Continuous
 62
     7
370
    25
100
AcDbSpline
210
0.0
220
0.0
230
1.0
 70
     8
 71
     3
 72
    12
 73
     8
 74
     0
 42
0.000000001
 43
0.00000001
 40
0.0
 40
0.0
 40
0.0
 40
0.0
 40
0.4999999999999991
 40
0.4999999999999991
 40
0.7499999999999996
 40
0.7499999999999996
 40
1.0
 40
1.0
 40
1.0
 40
1.0
 10
140.2900275673414
 20
75.88586718437628
 30
0.0
 10
140.2900275673414
 20
75.93064792254818
 30
0.0
 10
140.2753011483756
 20
75.97402188009539
 30
0.0
 10
140.2277775365332
 20
76.02976347323936
 30
0.0
 10
140.2075601826766
 20
76.04675895346882
 30
0.0
 10
140.1552895020686
 20
76.07303033916531
 30
0.0
 10
140.1236191938476
 20
76.08151935828934
 30
0.0
 10
140.0900275673413
 20
76.08151935828934
 30
0.0
  0
LINE
  5
111
330
1F
100
AcDbEntity
  8
0
  6
Continuous
 62
     7
370
    25
100
AcDbLine
 10
139.6900277573
 20
76.0815192674
 30
0.0
 11
140.0900275435
 21
76.0815192674
 31
0.0
  0
SPLINE
  5
112
330
1F
100
AcDbEntity
  8
0
  6
Continuous
 62
     7
370
    25
100
AcDbSpline
210
0.0
220
0.0
230
1.0
 70
     8
 71
     3
 72
    10
 73
     6
 74
     0
 42
0.000000001
 43
0.00000001
 40
0.0
 40
0.0
 40
0.0
 40
0.0
 40
0.5
 40
0.5
 40
1.0
 40
1.0
 40
1.0
 40
1.0
 10
139.3692742504076
 20
76.23902691092093
 30
0.0
 10
139.3987763444525
 20
76.20029269138364
 30
0.0
 10
139.4383483556715
 20
76.16268745352677
 30
0.0
 10
139.5462095216149
 20
76.10267681586743
 30
0.0
 10
139.6160265009201
 20
76.08151935828934
 30
0.0
 10
139.6900275673413
 20
76.08151935828934
 30
0.0
  0
SPLINE
  5
113
330
1F
100
AcDbEntity
  8
0
  6
Continuous
 62
     7
370
    25
100
AcDbSpline
210
0.0
220
0.0
230
1.0
 70
    24
 71
     3
 72
    10
 73
     6
 74
     0
 42
0.000000001
 43
0.00000001
 40
0.0
 40
0.0
 40
0.0
 40
0.0
 40
0.5
 40
0.5
 40
1.0
 40
1.0
 40
1.0
 40
1.0
 10
135.6900275673413
 20
77.06020779988509
 30
0.0
 10
135.6900275673413
 20
77.04389404507593
 30
0.0
 10
135.6900275673413
 20
77.02640936163226
 30
0.0
 10
135.6900275673413
 20
76.99027258851365
 30
0.0
 10
135.6900275673414
 20
76.97690565287732
 30
0.0
 10
135.6900275673414
 20
76.95978022785457
 30
0.0
  0
SPLINE
  5
114
330
1F
100
AcDbEntity
  8
0
  6
Continuous
 62
     7
370
    25
100
AcDbSpline
210
0.0
220
0.0
230
1.0
 70
     8
 71
     3
 72
    12
 73
     8
 74
     0
 42
0.000000001
 43
0.00000001
 40
0.0
 40
0.0
 40
0.0
 40
0.0
 40
0.25
 40
0.25
 40
0.5
 40
0.5
 40
1.0
 40
1.0
 40
1.0
 40
1.0
 10
135.6900275673413
 20
77.06020779988509
 30
0.0
 10
135.5787999073403
 20
77.05612936118281
 30
0.0
 10
135.4676762757484
 20
77.05314932681895
 30
0.0
 10
135.2449394188168
 20
77.04749352746319
 30
0.0
 10
135.1333261934772
 20
77.04481776247127
 30
0.0
 10
134.7967056509872
 20
77.03440806259606
 30
0.0
 10
134.5756458981119
 20
77.0305221933498
 30
0.0
 10
134.3527250427571
 20
77.03049090597113
 30
0.0
  0
SPLINE
  5
115
330
1F
100
AcDbEntity
  8
0
  6
Continuous
 62
     7
370
    25
100
AcDbSpline
210
0.0
220
0.0
230
1.0
 70
     8
 71
     3
 72
    12
 73
     8
 74
     0
 42
0.000000001
 43
0.00000001
 40
0.0
 40
0.0
 40
0.0
 40
0.0
 40
0.25
 40
0.25
 40
0.5
 40
0.5
 40
1.0
 40
1.0
 40
1.0
 40
1.0
 10
140.1904551393719
 20
72.55978022785456
 30
0.0
 10
140.1863767006696
 20
72.44855256785347
 30
0.0
 10
140.1833966663057
 20
72.3374289362616
 30
0.0
 10
140.17774086695
 20
72.11469207933007
 30
0.0
 10
140.175065101958
 20
72.00307885399039
 30
0.0
 10
140.1646554020828
 20
71.66645831150039
 30
0.0
 10
140.1607695328366
 20
71.44539855862509
 30
0.0
 10
140.1607382454579
 20
71.22247770327034
 30
0.0
  0
SPLINE
  5
116
330
1F
100
AcDbEntity
  8
0
  6
Continuous
 62
     7
370
    25
100
AcDbSpline
210
0.0
220
0.0
230
1.0
 70
    24
 71
     3
 72
    10
 73
     6
 74
     0
 42
0.000000001
 43
0.00000001
 40
0.0
 40
0.0
 40
0.0
 40
0.0
 40
0.5
 40
0.5
 40
1.0
 40
1.0
 40
1.0
 40
1.0
 10
140.1904551393719
 20
72.55978022785456
 30
0.0
 10
140.1741413845627
 20
72.55978022785456
 30
0.0
 10
140.156656701119
 20
72.55978022785456
 30
0.0
 10
140.1205199280004
 20
72.55978022785456
 30
0.0
 10
140.1071529923641
 20
72.55978022785456
 30
0.0
 10
140.0900275673413
 20
72.55978022785456
 30
0.0
  0
SPLINE
  5
117
330
1F
100
AcDbEntity
  8
0
  6
Continuous
 62
     7
370
    25
100
AcDbSpline
210
0.0
220
0.0
230
1.0
 70
     8
 71
     3
 72
    12
 73
     8
 74
     0
 42
0.000000001
 43
0.00000001
 40
0.0
 40
0.0
 40
0.0
 40
0.0
 40
0.25
 40
0.25
 40
0.5
 40
0.5
 40
1.0
 40
1.0
 40
1.0
 40
1.0
 10
140.1904551393719
 20
72.55978022785456
 30
0.0
 10
140.1863767006696
 20
72.67100788785564
 30
0.0
 10
140.1833966663058
 20
72.78213151944752
 30
0.0
 10
140.17774086695
 20
73.00486837637905
 30
0.0
 10
140.1750651019581
 20
73.11648160171872
 30
0.0
 10
140.1646554020828
 20
73.45310214420871
 30
0.0
 10
140.1607695328366
 20
73.67416189708403
 30
0.0
 10
140.1607382454579
 20
73.89708275243878
 30
0.0
  0
SPLINE
  5
118
330
1F
100
AcDbEntity
  8
0
  6
Continuous
 62
     7
370
    25
100
AcDbSpline
210
0.0
220
0.0
230
1.0
 70
     8
 71
     3
 72
    12
 73
     8
 74
     0
 42
0.000000001
 43
0.00000001
 40
0.0
 40
0.0
 40
0.0
 40
0.0
 40
0.25
 40
0.25
 40
0.5
 40
0.5
 40
1.0
 40
1.0
 40
1.0
 40
1.0
 10
135.6900275673413
 20
77.06020779988509
 30
0.0
 10
135.8012552273424
 20
77.05612936118281
 30
0.0
 10
135.9123788589343
 20
77.05314932681895
 30
0.0
 10
136.1351157158659
 20
77.04749352746317
 30
0.0
 10
136.2467289412055
 20
77.04481776247127
 30
0.0
 10
136.5833494836955
 20
77.03440806259606
 30
0.0
 10
136.8044092365708
 20
77.0305221933498
 30
0.0
 10
137.0273300919256
 20
77.03049090597113
 30
0.0
  0
SPLINE
  5
119
330
1F
100
AcDbEntity
  8
0
  6
Continuous
 62
     7
370
    25
100
AcDbSpline
210
0.0
220
0.0
230
1.0
 70
     8
 71
     3
 72
    14
 73
    10
 74
     0
 42
0.000000001
 43
0.00000001
 40
0.0
 40
0.0
 40
0.0
 40
0.0
 40
0.25
 40
0.25
 40
0.5
 40
0.5
 40
0.75
 40
0.75
 40
1.0
 40
1.0
 40
1.0
 40
1.0
 10
135.6900275673413
 20
77.06020779988509
 30
0.0
 10
135.5787999073403
 20
77.06428623858739
 30
0.0
 10
135.4680580851136
 20
77.07017659951474
 30
0.0
 10
135.2475547954788
 20
77.08298597538705
 30
0.0
 10
135.1377933280708
 20
77.08990499033199
 30
0.0
 10
134.9192594273431
 20
77.10217648380694
 30
0.0
 10
134.8096287352907
 20
77.10455897171344
 30
0.0
 10
134.5907740666421
 20
77.10213053762604
 30
0.0
 10
134.4815500900458
 20
77.09731961563216
 30
0.0
 10
134.3730965705942
 20
77.08906854256884
 30
0.0
  0
SPLINE
  5
11A
330
1F
100
AcDbEntity
  8
0
  6
Continuous
 62
     7
370
    25
100
AcDbSpline
210
0.0
220
0.0
230
1.0
 70
     8
 71
     3
 72
     8
 73
     4
 74
     0
 42
0.000000001
 43
0.00000001
 40
0.0
 40
0.0
 40
0.0
 40
0.0
 40
1.0
 40
1.0
 40
1.0
 40
1.0
 10
134.3730965705942
 20
77.08906854256884
 30
0.0
 10
134.3771169019604
 20
77.10758062685164
 30
0.0
 10
134.3789060593507
 20
77.13359981428815
 30
0.0
 10
134.3775528848958
 20
77.15978022785455
 30
0.0
  0
SPLINE
  5
11B
330
1F
100
AcDbEntity
  8
0
  6
Continuous
 62
     7
370
    25
100
AcDbSpline
210
0.0
220
0.0
230
1.0
 70
    24
 71
     3
 72
    10
 73
     6
 74
     0
 42
0.000000001
 43
0.00000001
 40
0.0
 40
0.0
 40
0.0
 40
0.0
 40
0.5
 40
0.5
 40
1.0
 40
1.0
 40
1.0
 40
1.0
 10
135.6900275673413
 20
77.06020779988509
 30
0.0
 10
135.6900275673413
 20
77.07652155469424
 30
0.0
 10
135.6900275673413
 20
77.09388139855724
 30
0.0
 10
135.6900275673413
 20
77.12953247822318
 30
0.0
 10
135.6900275673413
 20
77.14275554183958
 30
0.0
 10
135.6900275673413
 20
77.15978022785455
 30
0.0
  0
SPLINE
  5
11C
330
1F
100
AcDbEntity
  8
0
  6
Continuous
 62
     7
370
    25
100
AcDbSpline
210
0.0
220
0.0
230
1.0
 70
     8
 71
     3
 72
     8
 73
     4
 74
     0
 42
0.000000001
 43
0.00000001
 40
0.0
 40
0.0
 40
0.0
 40
0.0
 40
1.0
 40
1.0
 40
1.0
 40
1.0
 10
140.2900275673414
 20
71.24730554540899
 30
0.0
 10
140.2638471537749
 20
71.24865871986394
 30
0.0
 10
140.2378279663384
 20
71.2468695624736
 30
0.0
 10
140.2193158820556
 20
71.24284923110739
 30
0.0
  0
SPLINE
  5
11D
330
1F
100
AcDbEntity
  8
0
  6
Continuous
 62
     7
370
    25
100
AcDbSpline
210
0.0
220
0.0
230
1.0
 70
     8
 71
     3
 72
    12
 73
     8
 74
     0
 42
0.000000001
 43
0.00000001
 40
0.0
 40
0.0
 40
0.0
 40
0.0
 40
0.25
 40
0.25
 40
0.5
 40
0.5
 40
1.0
 40
1.0
 40
1.0
 40
1.0
 10
140.1904551393719
 20
72.55978022785456
 30
0.0
 10
140.1945335780742
 20
72.44855256785347
 30
0.0
 10
140.2004239390015
 20
72.3378107456268
 30
0.0
 10
140.2132333148738
 20
72.11730745599205
 30
0.0
 10
140.2201523298188
 20
72.00754598858397
 30
0.0
 10
140.2385595700312
 20
71.67974513749242
 30
0.0
 10
140.2358180281823
 20
71.4597562700107
 30
0.0
 10
140.2193158820556
 20
71.24284923110739
 30
0.0
  0
SPLINE
  5
11E
330
1F
100
AcDbEntity
  8
0
  6
Continuous
 62
     7
370
    25
100
AcDbSpline
210
0.0
220
0.0
230
1.0
 70
    24
 71
     3
 72
    10
 73
     6
 74
     0
 42
0.000000001
 43
0.00000001
 40
0.0
 40
0.0
 40
0.0
 40
0.0
 40
0.5
 40
0.5
 40
1.0
 40
1.0
 40
1.0
 40
1.0
 10
140.1904551393719
 20
72.55978022785456
 30
0.0
 10
140.206768894181
 20
72.55978022785456
 30
0.0
 10
140.224128738044
 20
72.55978022785456
 30
0.0
 10
140.25977981771
 20
72.55978022785456
 30
0.0
 10
140.2730028813264
 20
72.55978022785456
 30
0.0
 10
140.2900275673414
 20
72.55978022785456
 30
0.0
  0
SPLINE
  5
11F
330
1F
100
AcDbEntity
  8
0
  6
Continuous
 62
     7
370
    25
100
AcDbSpline
210
0.0
220
0.0
230
1.0
 70
     8
 71
     3
 72
    10
 73
     6
 74
     0
 42
0.000000001
 43
0.00000001
 40
0.0
 40
0.0
 40
0.0
 40
0.0
 40
0.5
 40
0.5
 40
1.0
 40
1.0
 40
1.0
 40
1.0
 10
137.0069585640885
 20
77.08906854256884
 30
0.0
 10
137.0046544333875
 20
77.10060864843452
 30
0.0
 10
137.0035403548121
 20
77.11389792419587
 30
0.0
 10
137.0024642630118
 20
77.1390950683458
 30
0.0
 10
137.0025022497869
 20
77.15100293673439
 30
0.0
 10
137.0025022497869
 20
77.15978022785455
 30
0.0
  0
SPLINE
  5
120
330
1F
100
AcDbEntity
  8
0
  6
Continuous
 62
     7
370
    25
100
AcDbSpline
210
0.0
220
0.0
230
1.0
 70
     8
 71
     3
 72
    14
 73
    10
 74
     0
 42
0.000000001
 43
0.00000001
 40
0.0
 40
0.0
 40
0.0
 40
0.0
 40
0.25
 40
0.25
 40
0.5
 40
0.5
 40
0.75
 40
0.75
 40
1.0
 40
1.0
 40
1.0
 40
1.0
 10
135.6900275673413
 20
77.06020779988509
 30
0.0
 10
135.8012552273424
 20
77.06428623858739
 30
0.0
 10
135.9119970495691
 20
77.07017659951474
 30
0.0
 10
136.1325003392039
 20
77.08298597538703
 30
0.0
 10
136.2422618066119
 20
77.08990499033199
 30
0.0
 10
136.4607957073396
 20
77.10217648380694
 30
0.0
 10
136.570426399392
 20
77.10455897171344
 30
0.0
 10
136.7892810680406
 20
77.10213053762604
 30
0.0
 10
136.8985050446369
 20
77.09731961563216
 30
0.0
 10
137.0069585640885
 20
77.08906854256884
 30
0.0
  0
SPLINE
  5
121
330
1F
100
AcDbEntity
  8
0
  6
Continuous
 62
     7
370
    25
100
AcDbSpline
210
0.0
220
0.0
230
1.0
 70
     8
 71
     3
 72
    12
 73
     8
 74
     0
 42
0.000000001
 43
0.00000001
 40
0.0
 40
0.0
 40
0.0
 40
0.0
 40
0.25
 40
0.25
 40
0.5
 40
0.5
 40
1.0
 40
1.0
 40
1.0
 40
1.0
 10
140.1904551393719
 20
72.55978022785456
 30
0.0
 10
140.1945335780742
 20
72.67100788785564
 30
0.0
 10
140.2004239390015
 20
72.78174971008232
 30
0.0
 10
140.2132333148738
 20
73.00225299971707
 30
0.0
 10
140.2201523298188
 20
73.11201446712514
 30
0.0
 10
140.2385595700312
 20
73.43981531821669
 30
0.0
 10
140.2358180281823
 20
73.65980418569842
 30
0.0
 10
140.2193158820556
 20
73.87671122460173
 30
0.0
  0
SPLINE
  5
122
330
1F
100
AcDbEntity
  8
0
  6
Continuous
 62
     7
370
    25
100
AcDbSpline
210
0.0
220
0.0
230
1.0
 70
     8
 71
     3
 72
    10
 73
     6
 74
     0
 42
0.000000001
 43
0.00000001
 40
0.0
 40
0.0
 40
0.0
 40
0.0
 40
0.5
 40
0.5
 40
1.0
 40
1.0
 40
1.0
 40
1.0
 10
140.2193158820556
 20
73.87671122460173
 30
0.0
 10
140.2308559879213
 20
73.87440709390079
 30
0.0
 10
140.2441452636826
 20
73.87329301532539
 30
0.0
 10
140.2693424078326
 20
73.87221692352506
 30
0.0
 10
140.2812502762212
 20
73.87225491030013
 30
0.0
 10
140.2900275673414
 20
73.87225491030013
 30
0.0
  0
SPLINE
  5
123
330
1F
100
AcDbEntity
  8
0
  6
Continuous
 62
     7
370
    25
100
AcDbSpline
210
0.0
220
0.0
230
1.0
 70
     8
 71
     3
 72
    12
 73
     8
 74
     0
 42
0.000000001
 43
0.00000001
 40
0.0
 40
0.0
 40
0.0
 40
0.0
 40
0.25
 40
0.25
 40
0.5
 40
0.5
 40
1.0
 40
1.0
 40
1.0
 40
1.0
 10
140.2193158820556
 20
73.87671122460173
 30
0.0
 10
140.2135458291228
 20
73.87786328995222
 30
0.0
 10
140.2083833154873
 20
73.87931702281242
 30
0.0
 10
140.1998500108292
 20
73.88272370638856
 30
0.0
 10
140.1964792198066
 20
73.88467665710449
 30
0.0
 10
140.1899193966851
 20
73.89112816029032
 30
0.0
 10
140.1900275673413
 20
73.89609480744987
 30
0.0
 10
140.1900275673413
 20
73.90142101435447
 30
0.0
  0
SPLINE
  5
124
330
1F
100
AcDbEntity
  8
0
  6
Continuous
 62
     7
370
    25
100
AcDbSpline
210
0.0
220
0.0
230
1.0
 70
     8
 71
     3
 72
     8
 73
     4
 74
     0
 42
0.000000001
 43
0.00000001
 40
0.0
 40
0.0
 40
0.0
 40
0.0
 40
1.0
 40
1.0
 40
1.0
 40
1.0
 10
140.2193158820556
 20
71.24284923110739
 30
0.0
 10
140.2008044692127
 20
71.23610434840887
 30
0.0
 10
140.1900275673413
 20
71.22715821606224
 30
0.0
 10
140.1900275673413
 20
71.21813944135465
 30
0.0
  0
SPLINE
  5
125
330
1F
100
AcDbEntity
  8
0
  6
Continuous
 62
     7
370
    25
100
AcDbSpline
210
0.0
220
0.0
230
1.0
 70
     8
 71
     3
 72
     8
 73
     4
 74
     0
 42
0.000000001
 43
0.00000001
 40
0.0
 40
0.0
 40
0.0
 40
0.0
 40
1.0
 40
1.0
 40
1.0
 40
1.0
 10
134.3483867808414
 20
77.05978022785455
 30
0.0
 10
134.357405555549
 20
77.05978022785455
 30
0.0
 10
134.3663516878957
 20
77.07055712972596
 30
0.0
 10
134.3730965705942
 20
77.08906854256884
 30
0.0
  0
SPLINE
  5
126
330
1F
100
AcDbEntity
  8
0
  6
Continuous
 62
     7
370
    25
100
AcDbSpline
210
0.0
220
0.0
230
1.0
 70
     8
 71
     3
 72
    12
 73
     8
 74
     0
 42
0.000000001
 43
0.00000001
 40
0.0
 40
0.0
 40
0.0
 40
0.0
 40
0.25
 40
0.25
 40
0.5
 40
0.5
 40
1.0
 40
1.0
 40
1.0
 40
1.0
 10
137.0069585640885
 20
77.08906854256884
 30
0.0
 10
137.008110629439
 20
77.083298489636
 30
0.0
 10
137.0095643622992
 20
77.07813597600054
 30
0.0
 10
137.0129710458753
 20
77.06960267134244
 30
0.0
 10
137.0149239965913
 20
77.06623188031983
 30
0.0
 10
137.0213754997771
 20
77.05967205719834
 30
0.0
 10
137.0263421469367
 20
77.05978022785455
 30
0.0
 10
137.0316683538413
 20
77.05978022785455
 30
0.0
  0
SPLINE
  5
127
330
1F
100
AcDbEntity
  8
0
  6
Continuous
 62
     7
370
    25
100
AcDbSpline
210
0.0
220
0.0
230
1.0
 70
     8
 71
     3
 72
    23
 73
    19
 74
     0
 42
0.000000001
 43
0.00000001
 40
0.0
 40
0.0
 40
0.0
 40
0.0
 40
0.0000335401906397
 40
0.0000335401906397
 40
0.0000335401906397
 40
0.0000670788044387
 40
0.0000670788044387
 40
0.0000670788044387
 40
0.0001006422835424
 40
0.0001006422835424
 40
0.0001006422835424
 40
0.0001342535319641
 40
0.0001342535319641
 40
0.0001342535319641
 40
0.0001499408123296
 40
0.0001499408123296
 40
0.0001499408123296
 40
0.0001563508302713
 40
0.0001563508302713
 40
0.0001563508302713
 40
0.0001563508302713
 10
138.1313908666725
 20
72.70848659793435
 30
0.0
 10
138.1313908666725
 20
72.70848659793435
 30
0.0
 10
138.1331703331835
 20
72.70923718084485
 30
0.0
 10
138.1365818312882
 20
72.71067353399827
 30
0.0
 10
138.1399932398056
 20
72.71210984943251
 30
0.0
 10
138.1451304726914
 20
72.71427112837439
 30
0.0
 10
138.1515690075454
 20
72.7169725737514
 30
0.0
 10
138.1580123539165
 20
72.71967603791857
 30
0.0
 10
138.1659362856551
 20
72.72299451526
 30
0.0
 10
138.1746871674548
 20
72.72664809083088
 30
0.0
 10
138.1834503273074
 20
72.73030679260448
 30
0.0
 10
138.1932841515596
 20
72.73440209446396
 30
0.0
 10
138.2033767061959
 20
72.7385926435496
 30
0.0
 10
138.2081398507524
 20
72.74057035799206
 30
0.0
 10
138.213004505425
 20
72.74258761711046
 30
0.0
 10
138.2178797414046
 20
72.74460667942452
 30
0.0
 10
138.2198497801565
 20
72.7454225642387
 30
0.0
 10
138.2218251559027
 20
72.74623983131957
 30
0.0
 10
138.2237993772152
 20
72.74705703399356
 30
0.0
  0
SPLINE
  5
128
330
1F
100
AcDbEntity
  8
0
  6
Continuous
 62
     7
370
    25
100
AcDbSpline
210
0.0
220
0.0
230
1.0
 70
     8
 71
     3
 72
    10
 73
     6
 74
     0
 42
0.000000001
 43
0.00000001
 40
0.0
 40
0.0
 40
0.0
 40
0.0
 40
0.5
 40
0.5
 40
1.0
 40
1.0
 40
1.0
 40
1.0
 10
138.1313908666725
 20
72.70848659793437
 30
0.0
 10
138.0707416842413
 20
72.83263305848709
 30
0.0
 10
137.9365709084295
 20
72.91080808796306
 30
0.0
 10
137.660591283687
 20
72.91111669369496
 30
0.0
 10
137.5255461824201
 20
72.83260886053627
 30
0.0
 10
137.4649088213966
 20
72.70848659793472
 30
0.0
  0
SPLINE
  5
129
330
1F
100
AcDbEntity
  8
0
  6
Continuous
 62
     7
370
    25
100
AcDbSpline
210
0.0
220
0.0
230
1.0
 70
     8
 71
     3
 72
    23
 73
    19
 74
     0
 42
0.000000001
 43
0.00000001
 40
0.0
 40
0.0
 40
0.0
 40
0.0
 40
0.0000335401906397
 40
0.0000335401906397
 40
0.0000335401906397
 40
0.0000670788044387
 40
0.0000670788044387
 40
0.0000670788044387
 40
0.0001006422835424
 40
0.0001006422835424
 40
0.0001006422835424
 40
0.0001342535319641
 40
0.0001342535319641
 40
0.0001342535319641
 40
0.0001499408123296
 40
0.0001499408123296
 40
0.0001499408123296
 40
0.0001563508302713
 40
0.0001563508302713
 40
0.0001563508302713
 40
0.0001563508302713
 10
137.4649088213964
 20
72.70848659793428
 30
0.0
 10
137.4649088213964
 20
72.70848659793428
 30
0.0
 10
137.4631293548853
 20
72.70923718084445
 30
0.0
 10
137.4597178567806
 20
72.71067353399789
 30
0.0
 10
137.4563064482632
 20
72.71210984943212
 30
0.0
 10
137.4511692153774
 20
72.71427112837401
 30
0.0
 10
137.4447306805234
 20
72.71697257375102
 30
0.0
 10
137.4382873341523
 20
72.71967603791818
 30
0.0
 10
137.4303634024137
 20
72.72299451525963
 30
0.0
 10
137.421612520614
 20
72.7266480908305
 30
0.0
 10
137.4128493607614
 20
72.73030679260408
 30
0.0
 10
137.4030155365092
 20
72.73440209446355
 30
0.0
 10
137.3929229818729
 20
72.7385926435492
 30
0.0
 10
137.3881598373164
 20
72.74057035799166
 30
0.0
 10
137.3832951826438
 20
72.74258761711006
 30
0.0
 10
137.3784199466643
 20
72.74460667942411
 30
0.0
 10
137.3764499079124
 20
72.74542256423827
 30
0.0
 10
137.3744745321661
 20
72.74623983131917
 30
0.0
 10
137.3725003108536
 20
72.74705703399317
 30
0.0
  0
LWPOLYLINE
  5
12A
330
1F
100
AcDbEntity
  8
0
  6
Continuous
 62
     7
370
    25
100
AcDbPolyline
 90
        9
 70
   128
 43
0.0
 10
138.9358394768
 20
70.7562242364
 10
138.9174700703
 20
70.7496542213
 10
138.8998063735
 20
70.743336711
 10
138.8835275534
 20
70.7375144315
 10
138.8692592259
 20
70.7324112494
 10
138.8575492415
 20
70.7282230918
 10
138.8488481275
 20
70.725110961
 10
138.8434899959
 20
70.7231946484
 10
138.841680669
 20
70.7225474956
  0
LINE
  5
12B
330
1F
100
AcDbEntity
  8
0
  6
Continuous
 62
     7
370
    25
100
AcDbLine
 10
138.841680669
 20
70.7225474956
 30
0.0
 11
138.1313909765
 21
72.7084865988
 31
0.0
  0
LINE
  5
12C
330
1F
100
AcDbEntity
  8
0
  6
Continuous
 62
     7
370
    25
100
AcDbLine
 10
137.4649088353
 20
72.7084865988
 30
0.0
 11
136.7547844525
 21
70.7230102465
 31
0.0
  0
LWPOLYLINE
  5
12D
330
1F
100
AcDbEntity
  8
0
  6
Continuous
 62
     7
370
    25
100
AcDbPolyline
 90
        9
 70
   128
 43
0.0
 10
136.660625703
 20
70.7566871037
 10
136.6789951676
 20
70.7501170886
 10
136.696658748
 20
70.7437995783
 10
136.7129375681
 20
70.7379772988
 10
136.727206012
 20
70.7328740003
 10
136.73891588
 20
70.7286858427
 10
136.7476171104
 20
70.7255738283
 10
136.752975242
 20
70.7236573993
 10
136.7547844525
 20
70.7230102465
  0
ARC
  5
12E
330
1F
100
AcDbEntity
  8
0
  6
Continuous
 62
     7
370
    25
100
AcDbCircle
 10
134.1900275673
 20
71.0597802279
 30
0.0
 40
2.0
100
AcDbArc
 50
180.0
 51
270.0
  0
LINE
  5
12F
330
1F
100
AcDbEntity
  8
0
  6
Continuous
 62
     7
370
    25
100
AcDbLine
 10
132.1900274593
 20
71.0597802148
 30
0.0
 11
132.2900275223
 21
71.0597802148
 31
0.0
  0
LINE
  5
130
330
1F
100
AcDbEntity
  8
0
  6
Continuous
 62
     7
370
    25
100
AcDbLine
 10
134.1900275543
 20
69.1597801828
 30
0.0
 11
134.1900275543
 21
69.0597801198
 31
0.0
  0
LINE
  5
131
330
1F
100
AcDbEntity
  8
0
  6
Continuous
 62
     7
370
    25
100
AcDbLine
 10
139.0900276124
 20
76.959780204
 30
0.0
 11
139.1900276754
 21
76.959780204
 31
0.0
  0
LINE
  5
132
330
1F
100
AcDbEntity
  8
0
  6
Continuous
 62
     7
370
    25
100
AcDbLine
 10
139.1900276754
 20
76.959780204
 30
0.0
 11
139.1900276754
 21
76.5597804178
 31
0.0
  0
LINE
  5
133
330
1F
100
AcDbEntity
  8
0
  6
Continuous
 62
     7
370
    25
100
AcDbLine
 10
139.0900276124
 20
76.5597804178
 30
0.0
 11
139.1900276754
 21
76.5597804178
 31
0.0
  0
SPLINE
  5
134
330
1F
100
AcDbEntity
  8
0
  6
Continuous
 62
     7
370
    25
100
AcDbSpline
210
0.0
220
0.0
230
1.0
 70
     8
 71
     3
 72
    23
 73
    19
 74
     0
 42
0.000000001
 43
0.00000001
 40
0.0
 40
0.0
 40
0.0
 40
0.0
 40
0.0000062336341986
 40
0.0000062336341986
 40
0.0000062336341986
 40
0.0000229838733481
 40
0.0000229838733481
 40
0.0000229838733481
 40
0.0000399511377778
 40
0.0000399511377778
 40
0.0000399511377778
 40
0.0000566277009136
 40
0.0000566277009136
 40
0.0000566277009136
 40
0.0000727324427906
 40
0.0000727324427906
 40
0.0000727324427906
 40
0.0000883415521142
 40
0.0000883415521142
 40
0.0000883415521142
 40
0.0000883415521142
 10
138.8995961528995
 20
69.67198538102123
 30
0.0
 10
138.9011501719505
 20
69.67060603260725
 30
0.0
 10
138.9027993127203
 20
69.66932724451469
 30
0.0
 10
138.9045207532897
 20
69.66816353509037
 30
0.0
 10
138.90908863827
 20
69.66507560345015
 30
0.0
 10
138.9142654223904
 20
69.6627558020498
 30
0.0
 10
138.9196017679781
 20
69.66136860675827
 30
0.0
 10
138.9250077471783
 20
69.65996331004925
 30
0.0
 10
138.9307301588258
 20
69.65947343005011
 30
0.0
 10
138.9362969844008
 20
69.65993160356615
 30
0.0
 10
138.9417702426095
 20
69.66038207608841
 30
0.0
 10
138.9472430977787
 20
69.66176134838415
 30
0.0
 10
138.9522676638651
 20
69.66397792605146
 30
0.0
 10
138.9571214168746
 20
69.66611914985835
 30
0.0
 10
138.9616861585365
 20
69.66910083258617
 30
0.0
 10
138.9655714925335
 20
69.67271302546585
 30
0.0
 10
138.9693372138266
 20
69.67621401448054
 30
0.0
 10
138.9725642165943
 20
69.68040433615053
 30
0.0
 10
138.9749527305999
 20
69.68495764064109
 30
0.0
  0
LWPOLYLINE
  5
135
330
1F
100
AcDbEntity
  8
0
  6
Continuous
 62
     7
370
    25
100
AcDbPolyline
 90
        9
 70
   128
 43
0.0
 10
138.9749526966
 20
69.6849576392
 10
138.9766542229
 20
69.6840649665
 10
138.9816936094
 20
69.6814216402
 10
138.9898771409
 20
69.6771289417
 10
139.0008900303
 20
69.6713517149
 10
139.0143094573
 20
69.6643123132
 10
139.0296194691
 20
69.6562812858
 10
139.0462319355
 20
69.6475669005
 10
139.0635082021
 20
69.6385042005
  0
LWPOLYLINE
  5
136
330
1F
100
AcDbEntity
  8
0
  6
Continuous
 62
     7
370
    25
100
AcDbPolyline
 90
        9
 70
   128
 43
0.0
 10
138.8995961275
 20
69.6719854799
 10
138.8983206812
 20
69.6705484492
 10
138.894543004
 20
69.6662925378
 10
138.888408615
 20
69.659381193
 10
138.8801531389
 20
69.6500803073
 10
138.8700936909
 20
69.6387470429
 10
138.8586170029
 20
69.6258170259
 10
138.8461642887
 20
69.611787117
 10
138.8332135498
 20
69.5971965519
  0
LINE
  5
137
330
1F
100
AcDbEntity
  8
0
  6
Continuous
 62
     7
370
    25
100
AcDbLine
 10
138.9749526966
 20
69.6849576392
 30
0.0
 11
139.4239500619
 21
70.5408964035
 31
0.0
  0
LWPOLYLINE
  5
138
330
1F
100
AcDbEntity
  8
0
  6
Continuous
 62
     7
370
    25
100
AcDbPolyline
 90
        9
 70
   128
 43
0.0
 10
139.4239500619
 20
70.5408964035
 10
139.4287065591
 20
70.5458275237
 10
139.4427935116
 20
70.5604318258
 10
139.465669588
 20
70.584148188
 10
139.496455387
 20
70.6160647291
 10
139.533968129
 20
70.6549552464
 10
139.5767661266
 20
70.6993250837
 10
139.6232044313
 20
70.7474692221
 10
139.6714990947
 20
70.7975373565
  0
LINE
  5
139
330
1F
100
AcDbEntity
  8
0
  6
Continuous
 62
     7
370
    25
100
AcDbLine
 10
139.4239500619
 20
70.5408964035
 30
0.0
 11
139.4004644349
 21
70.5274751139
 31
0.0
  0
LWPOLYLINE
  5
13A
330
1F
100
AcDbEntity
  8
0
  6
Continuous
 62
     7
370
    25
100
AcDbPolyline
 90
        9
 70
   128
 43
0.0
 10
139.4004644349
 20
70.5274751139
 10
139.3995109934
 20
70.5291433454
 10
139.396687689
 20
70.5340842445
 10
139.3921025552
 20
70.5421075885
 10
139.3859323103
 20
70.5529051096
 10
139.3784135103
 20
70.5660619036
 10
139.3698355637
 20
70.5810724952
 10
139.3605279259
 20
70.5973599301
 10
139.3508484576
 20
70.6142983594
  0
SPLINE
  5
13B
330
1F
100
AcDbEntity
  8
0
  6
Continuous
 62
     7
370
    25
100
AcDbSpline
210
0.0
220
0.0
230
1.0
 70
     8
 71
     3
 72
    14
 73
    10
 74
     0
 42
0.000000001
 43
0.00000001
 40
0.0
 40
0.0
 40
0.0
 40
0.0
 40
0.4999999999999993
 40
0.4999999999999993
 40
0.6249999999999996
 40
0.6249999999999996
 40
0.7499999999999999
 40
0.7499999999999999
 40
1.0
 40
1.0
 40
1.0
 40
1.0
 10
136.6967035351697
 20
69.67198538102126
 30
0.0
 10
136.9992732529922
 20
69.94054647757311
 30
0.0
 10
137.3970262659111
 20
70.08510371930807
 30
0.0
 10
137.8983748276862
 20
70.0851169441361
 30
0.0
 10
137.9995838178427
 20
70.07607178041862
 30
0.0
 10
138.1961129733461
 20
70.04072308336815
 30
0.0
 10
138.2924448516355
 20
70.01447395533917
 30
0.0
 10
138.5754167451136
 20
69.9090011257208
 30
0.0
 10
138.7482961555074
 20
69.80627936622344
 30
0.0
 10
138.8995961528994
 20
69.67198538102119
 30
0.0
  0
LWPOLYLINE
  5
13C
330
1F
100
AcDbEntity
  8
0
  6
Continuous
 62
     7
370
    25
100
AcDbPolyline
 90
        9
 70
   128
 43
0.0
 10
136.6967035679
 20
69.6719854799
 10
136.6979790142
 20
69.6705484492
 10
136.7017565749
 20
69.6662925378
 10
136.7078909639
 20
69.659381193
 10
136.7161465564
 20
69.6500803073
 10
136.726205888
 20
69.6387470429
 10
136.7376825761
 20
69.6258170259
 10
136.7501355231
 20
69.611787117
 10
136.7630860291
 20
69.5971965519
  0
ARC
  5
13D
330
1F
100
AcDbEntity
  8
0
  6
Continuous
 62
     7
370
    25
100
AcDbCircle
 10
132.2900275673
 20
76.9597802279
 30
0.0
 40
0.0999999999999943
100
AcDbArc
 50
90.0
 51
180.0
  0
LINE
  5
13E
330
1F
100
AcDbEntity
  8
0
  6
Continuous
 62
     7
370
    25
100
AcDbLine
 10
132.1900274593
 20
76.959780204
 30
0.0
 11
132.2900275223
 21
76.959780204
 31
0.0
  0
ARC
  5
13F
330
1F
100
AcDbEntity
  8
0
  6
Continuous
 62
     7
370
    25
100
AcDbCircle
 10
140.0900275673
 20
69.1597802279
 30
0.0
 40
0.0999999999999943
100
AcDbArc
 50
270.0
 51
0.0
  0
LINE
  5
140
330
1F
100
AcDbEntity
  8
0
  6
Continuous
 62
     7
370
    25
100
AcDbLine
 10
140.0900275435
 20
69.1597801828
 30
0.0
 11
140.0900275435
 21
69.0597801198
 31
0.0
  0
ARC
  5
141
330
1F
100
AcDbEntity
  8
0
  6
Continuous
 62
     7
370
    25
100
AcDbCircle
 10
139.6900275673
 20
76.5597802279
 30
0.0
 40
0.5000000000000142
100
AcDbArc
 50
180.0
 51
270.0
  0
LINE
  5
142
330
1F
100
AcDbEntity
  8
0
  6
Continuous
 62
     7
370
    25
100
AcDbLine
 10
139.6900277573
 20
76.0597803359
 30
0.0
 11
139.6900277573
 21
75.9597802729
 31
0.0
  0
ARC
  5
143
330
1F
100
AcDbEntity
  8
0
  6
Continuous
 62
     7
370
    25
100
AcDbCircle
 10
139.0900275673
 20
76.9597802279
 30
0.0
 40
0.0999999999999943
100
AcDbArc
 50
0.0
 51
90.0
  0
SPLINE
  5
144
330
1F
100
AcDbEntity
  8
0
  6
Continuous
 62
     7
370
    25
100
AcDbSpline
210
0.0
220
0.0
230
1.0
 70
     8
 71
     3
 72
    10
 73
     6
 74
     0
 42
0.000000001
 43
0.00000001
 40
0.0
 40
0.0
 40
0.0
 40
0.0
 40
0.5
 40
0.5
 40
1.0
 40
1.0
 40
1.0
 40
1.0
 10
139.4004643938217
 20
70.52747517573115
 30
0.0
 10
139.3022931676793
 20
70.47137421434869
 30
0.0
 10
139.1813825506707
 20
70.46072242655163
 30
0.0
 10
138.9693441987251
 20
70.53273560192483
 30
0.0
 10
138.8797938218615
 20
70.61598491027684
 30
0.0
 10
138.8416807059093
 20
70.72254750319391
 30
0.0
  0
ELLIPSE
  5
145
330
1F
100
AcDbEntity
  8
0
  6
Continuous
 62
     7
370
    25
100
AcDbEllipse
 10
137.7981498452
 20
71.2257901415
 30
0.0
 11
0.04781765271718541
 21
0.0
 31
0.0
210
0.0
220
0.0
230
1.0
 40
0.9531667975
 41
0.3430239404214925
 42
2.798568713169088
  0
LINE
  5
146
330
1F
100
AcDbEntity
  8
0
  6
Continuous
 62
     7
370
    25
100
AcDbLine
 10
137.8431817971
 20
71.2411197795
 30
0.0
 11
138.0144163955
 21
70.7841168818
 31
0.0
  0
LINE
  5
147
330
1F
100
AcDbEntity
  8
0
  6
Continuous
 62
     7
370
    25
100
AcDbLine
 10
137.9693846207
 20
70.7232090839
 30
0.0
 11
137.6269150747
 21
70.7232090839
 31
0.0
  0
ELLIPSE
  5
148
330
1F
100
AcDbEntity
  8
0
  6
Continuous
 62
     7
370
    25
100
AcDbEllipse
 10
137.6269150646
 20
70.7687872834
 30
0.0
 11
-0.04781765271721383
 21
0.0
 31
0.0
210
0.0
220
0.0
230
1.0
 40
0.9531667975
 41
5.940161364897629
 42
7.853981633974483
  0
ELLIPSE
  5
149
330
1F
100
AcDbEntity
  8
0
  6
Continuous
 62
     7
370
    25
100
AcDbEllipse
 10
137.9693846237
 20
70.7687872834
 30
0.0
 11
0.04781765271718541
 21
0.0
 31
0.0
210
0.0
220
0.0
230
1.0
 40
0.9531667975
 41
4.712388980384703
 42
6.626209245739806
  0
LINE
  5
14A
330
1F
100
AcDbEntity
  8
0
  6
Continuous
 62
     7
370
    25
100
AcDbLine
 10
137.5818831835
 20
70.7841168818
 30
0.0
 11
137.7531180147
 21
71.2411197795
 31
0.0
  0
LWPOLYLINE
  5
14B
330
1F
100
AcDbEntity
  8
0
  6
Continuous
 62
     7
370
    25
100
AcDbPolyline
 90
        9
 70
   128
 43
0.0
 10
136.2496475445
 20
70.6125005576
 10
136.2402416521
 20
70.5954085764
 10
136.2311972876
 20
70.578973527
 10
136.2228619505
 20
70.5638269623
 10
136.2155559578
 20
70.550550959
 10
136.2095600448
 20
70.5396554162
 10
136.205104714
 20
70.531559429
 10
136.2023611542
 20
70.5265738265
 10
136.201434721
 20
70.5248904609
  0
LINE
  5
14C
330
1F
100
AcDbEntity
  8
0
  6
Continuous
 62
     7
370
    25
100
AcDbLine
 10
136.201434721
 20
70.5248904609
 30
0.0
 11
136.1723496625
 21
70.5408964035
 31
0.0
  0
LWPOLYLINE
  5
14D
330
1F
100
AcDbEntity
  8
0
  6
Continuous
 62
     7
370
    25
100
AcDbPolyline
 90
       10
 70
   128
 43
0.0
 10
135.929424559
 20
70.7887227376
 10
135.9716080583
 20
70.7456881841
 10
136.012509825
 20
70.703961091
 10
136.0508870962
 20
70.6648095706
 10
136.0855737981
 20
70.629423038
 10
136.1155159644
 20
70.5988765889
 10
136.1398038676
 20
70.5740987518
 10
136.1576994637
 20
70.5558420354
 10
136.168659064
 20
70.544661275
 10
136.1723496625
 20
70.5408964035
  0
LINE
  5
14E
330
1F
100
AcDbEntity
  8
0
  6
Continuous
 62
     7
370
    25
100
AcDbLine
 10
140.0900275435
 20
76.0597803359
 30
0.0
 11
140.0900275435
 21
75.9597802729
 31
0.0
  0
ARC
  5
14F
330
1F
100
AcDbEntity
  8
0
  6
Continuous
 62
     7
370
    25
100
AcDbCircle
 10
140.0900275673
 20
75.9597802279
 30
0.0
 40
0.0999999999999943
100
AcDbArc
 50
0.0
 51
90.0
  0
LINE
  5
150
330
1F
100
AcDbEntity
  8
0
  6
Continuous
 62
     7
370
    25
100
AcDbLine
 10
132.1900274593
 20
71.0597802148
 30
0.0
 11
132.1900274593
 21
76.959780204
 31
0.0
  0
SPLINE
  5
151
330
1F
100
AcDbEntity
  8
0
  6
Continuous
 62
     7
370
    25
100
AcDbSpline
210
0.0
220
0.0
230
1.0
 70
     8
 71
     3
 72
    23
 73
    19
 74
     0
 42
0.000000001
 43
0.00000001
 40
0.0
 40
0.0
 40
0.0
 40
0.0
 40
0.0000054523451471
 40
0.0000054523451471
 40
0.0000054523451471
 40
0.0000215286296671
 40
0.0000215286296671
 40
0.0000215286296671
 40
0.0000382514358266
 40
0.0000382514358266
 40
0.0000382514358266
 40
0.0000552347046226
 40
0.0000552347046226
 40
0.0000552347046226
 40
0.0000720169920566
 40
0.0000720169920566
 40
0.0000720169920566
 40
0.000088430616498
 40
0.000088430616498
 40
0.000088430616498
 40
0.000088430616498
 10
136.6213469574683
 20
69.68495764064308
 30
0.0
 10
136.6221912229247
 20
69.68334818904032
 30
0.0
 10
136.6231353936155
 20
69.68178746062519
 30
0.0
 10
136.6241677365519
 20
69.68029167097276
 30
0.0
 10
136.6271718159928
 20
69.67593897887359
 30
0.0
 10
136.630997871525
 20
69.6720669060953
 30
0.0
 10
136.6352894215466
 20
69.66897611004728
 30
0.0
 10
136.6397524567561
 20
69.66576180949887
 30
0.0
 10
136.6448463445988
 20
69.66329673838699
 30
0.0
 10
136.6501264373411
 20
69.66175692283657
 30
0.0
 10
136.6554891188994
 20
69.66019302218967
 30
0.0
 10
136.6611956197415
 20
69.65953712355119
 30
0.0
 10
136.6667738410318
 20
69.65983307281171
 30
0.0
 10
136.6722873436035
 20
69.66012558845854
 30
0.0
 10
136.6778277186283
 20
69.66135603717008
 30
0.0
 10
136.6829395602456
 20
69.66344250578749
 30
0.0
 10
136.6879390196714
 20
69.66548310406438
 30
0.0
 10
136.6926650370842
 20
69.66840080725102
 30
0.0
 10
136.6967035351681
 20
69.67198538101985
 30
0.0
  0
LWPOLYLINE
  5
152
330
1F
100
AcDbEntity
  8
0
  6
Continuous
 62
     7
370
    25
100
AcDbPolyline
 90
        9
 70
   128
 43
0.0
 10
136.6213469405
 20
69.6849576392
 10
136.6196454142
 20
69.6840649665
 10
136.6146060859
 20
69.6814216402
 10
136.6064226709
 20
69.6771289417
 10
136.5954096068
 20
69.6713517149
 10
136.5819902381
 20
69.6643123132
 10
136.5666801681
 20
69.6562812858
 10
136.5500677016
 20
69.6475669005
 10
136.5327913768
 20
69.6385042005
  0
LINE
  5
153
330
1F
100
AcDbEntity
  8
0
  6
Continuous
 62
     7
370
    25
100
AcDbLine
 10
136.1723496625
 20
70.5408964035
 30
0.0
 11
136.6213469405
 21
69.6849576392
 31
0.0
  0
LINE
  5
154
330
1F
100
AcDbEntity
  8
0
  6
Continuous
 62
     7
370
    25
100
AcDbLine
 10
139.6900277573
 20
76.0597803359
 30
0.0
 11
140.0900275435
 21
76.0597803359
 31
0.0
  0
SPLINE
  5
155
330
1F
100
AcDbEntity
  8
0
  6
Continuous
 62
     7
370
    25
100
AcDbSpline
210
0.0
220
0.0
230
1.0
 70
     8
 71
     3
 72
    10
 73
     6
 74
     0
 42
0.000000001
 43
0.00000001
 40
0.0
 40
0.0
 40
0.0
 40
0.0
 40
0.5
 40
0.5
 40
1.0
 40
1.0
 40
1.0
 40
1.0
 10
136.7547845057127
 20
70.72301029975674
 30
0.0
 10
136.7169673774733
 20
70.61727527544272
 30
0.0
 10
136.6283501977562
 20
70.53453372634908
 30
0.0
 10
136.4196490703164
 20
70.46184331831627
 30
0.0
 10
136.2997147787846
 20
70.47080584470194
 30
0.0
 10
136.2014347310815
 20
70.5248904465597
 30
0.0
  0
LINE
  5
156
330
1F
100
AcDbEntity
  8
0
  6
Continuous
 62
     7
370
    25
100
AcDbLine
 10
140.0900275435
 20
69.0597801198
 30
0.0
 11
134.1900275543
 21
69.0597801198
 31
0.0
  0
ARC
  5
157
330
1F
100
AcDbEntity
  8
0
  6
Continuous
 62
     7
370
    25
100
AcDbCircle
 10
139.1053729897
 20
77.1484379713
 30
0.0
 40
0.0899761659096684
100
AcDbArc
 50
172.7580501214
 51
260.1802386151
  0
ARC
  5
158
330
1F
100
AcDbEntity
  8
0
  6
Continuous
 62
     7
370
    25
100
AcDbCircle
 10
140.2786853108
 20
69.1444348055
 30
0.0
 40
0.0899761659096561
100
AcDbArc
 50
82.7580501214
 51
170.1802386151
  0
ARC
  5
159
330
1F
100
AcDbEntity
  8
0
  6
Continuous
 62
     7
370
    25
100
AcDbCircle
 10
140.2786853108
 20
75.9751256502
 30
0.0
 40
0.0899761659096702
100
AcDbArc
 50
189.8197613849
 51
277.2419498786
  0
ARC
  5
15A
330
1F
100
AcDbEntity
  8
0
  6
Continuous
 62
     7
370
    25
100
AcDbCircle
 10
132.274682145
 20
77.1484379713
 30
0.0
 40
0.0899761659096609
100
AcDbArc
 50
279.8197613849
 51
7.2419498786
  0
LWPOLYLINE
  5
15B
330
1F
100
AcDbEntity
  8
0
  6
Continuous
 62
     7
370
    25
100
AcDbPolyline
 90
        9
 70
   128
 43
0.0
 10
133.7579274073
 20
69.0819998466
 10
133.7607274286
 20
69.0870559969
 10
133.7635050982
 20
69.0914581259
 10
133.7662386464
 20
69.095171309
 10
133.7689060706
 20
69.0981662095
 10
133.7714862998
 20
69.1004190789
 10
133.7739589613
 20
69.1019117561
 10
133.7763042643
 20
69.1026328326
 10
133.7785035826
 20
69.1025760219
  0
SPLINE
  5
15C
330
1F
100
AcDbEntity
  8
0
  6
Continuous
 62
     7
370
    25
100
AcDbSpline
210
0.0
220
0.0
230
1.0
 70
     8
 71
     3
 72
    12
 73
     8
 74
     0
 42
0.000000001
 43
0.00000001
 40
0.0
 40
0.0
 40
0.0
 40
0.0
 40
0.25
 40
0.25
 40
0.5
 40
0.5
 40
1.0
 40
1.0
 40
1.0
 40
1.0
 10
133.7579273838913
 20
69.08199989764437
 30
0.0
 10
133.5709785231551
 20
69.12034132410129
 30
0.0
 10
133.3915582898562
 20
69.18455950905079
 30
0.0
 10
133.0490004372862
 20
69.36764398358004
 30
0.0
 10
132.8922038417172
 20
69.48365405278088
 30
0.0
 10
132.4782321766631
 20
69.89686573959818
 30
0.0
 10
132.288947763939
 20
70.25369614683886
 30
0.0
 10
132.2122472371312
 20
70.62768004440446
 30
0.0
  0
LWPOLYLINE
  5
15D
330
1F
100
AcDbEntity
  8
0
  6
Continuous
 62
     7
370
    25
100
AcDbPolyline
 90
        9
 70
   128
 43
0.0
 10
132.2328233614
 20
70.6482562431
 10
132.2328801721
 20
70.6460569248
 10
132.2321590956
 20
70.6437116218
 10
132.2306664183
 20
70.6412389603
 10
132.228413549
 20
70.6386587311
 10
132.2254186485
 20
70.6359913069
 10
132.2217054654
 20
70.6332577587
 10
132.2173033364
 20
70.6304800891
 10
132.2122471861
 20
70.6276800678
  0
LINE
  5
15E
330
1F
100
AcDbEntity
  8
0
  6
Continuous
 62
     7
370
    25
100
AcDbLine
 10
139.1900276754
 20
76.959780204
 30
0.0
 11
139.2117666069
 21
76.959780204
 31
0.0
  0
LINE
  5
15F
330
1F
100
AcDbEntity
  8
0
  6
Continuous
 62
     7
370
    25
100
AcDbLine
 10
140.0900275435
 20
69.0380411883
 30
0.0
 11
140.0900275435
 21
69.0597801198
 31
0.0
  0
LINE
  5
160
330
1F
100
AcDbEntity
  8
0
  6
Continuous
 62
     7
370
    25
100
AcDbLine
 10
140.0900275435
 20
76.0815192674
 30
0.0
 11
140.0900275435
 21
76.0597803359
 31
0.0
  0
LINE
  5
161
330
1F
100
AcDbEntity
  8
0
  6
Continuous
 62
     7
370
    25
100
AcDbLine
 10
132.1900274593
 20
76.959780204
 30
0.0
 11
132.1682885278
 21
76.959780204
 31
0.0
  0
LINE
  5
162
330
1F
100
AcDbEntity
  8
0
  6
Continuous
 62
     7
370
    25
100
AcDbLine
 10
134.1900275543
 20
69.0380411883
 30
0.0
 11
134.1900275543
 21
69.0597801198
 31
0.0
  0
LINE
  5
163
330
1F
100
AcDbEntity
  8
0
  6
Continuous
 62
     7
370
    25
100
AcDbLine
 10
132.1900274593
 20
71.0597802148
 30
0.0
 11
132.1682885278
 21
71.0597802148
 31
0.0
  0
SPLINE
  5
164
330
1F
100
AcDbEntity
  8
0
  6
Continuous
 62
     7
370
    25
100
AcDbSpline
210
0.0
220
0.0
230
1.0
 70
    24
 71
     3
 72
    17
 73
    13
 74
     0
 42
0.000000001
 43
0.00000001
 40
0.0
 40
0.0
 40
0.0
 40
0.0
 40
0.0000507892261014
 40
0.0000507892261014
 40
0.0000507892261014
 40
0.0001012206134828
 40
0.0001012206134828
 40
0.0001012206134828
 40
0.0001277276396247
 40
0.0001277276396247
 40
0.0001277276396247
 40
0.0001298530789872
 40
0.0001298530789872
 40
0.0001298530789872
 40
0.0001298530789872
 10
139.3692742504076
 20
76.23902691092083
 30
0.0
 10
139.3608267532787
 20
76.23057941379189
 30
0.0
 10
139.3539610158269
 20
76.2237136763401
 30
0.0
 10
139.3487941100651
 20
76.2185467705783
 30
0.0
 10
139.3436502143239
 20
76.21340287483714
 30
0.0
 10
139.3400550668079
 20
76.20980772732109
 30
0.0
 10
139.3381343629821
 20
76.20788702349536
 30
0.0
 10
139.3371175584
 20
76.20687021891321
 30
0.0
 10
139.3365596474042
 20
76.20631230791737
 30
0.0
 10
139.3364832783111
 20
76.20623593882432
 30
0.0
 10
139.3364772143551
 20
76.20622987486824
 30
0.0
 10
139.3364741767481
 20
76.2062268372613
 30
0.0
 10
139.3364741767481
 20
76.20622683726127
 30
0.0
  0
LINE
  5
165
330
1F
100
AcDbEntity
  8
0
  6
Continuous
 62
     7
370
    25
100
AcDbLine
 10
139.1900276754
 20
76.5597804178
 30
0.0
 11
139.2117666069
 21
76.5597804178
 31
0.0
  0
LINE
  5
166
330
1F
100
AcDbEntity
  8
0
  6
Continuous
 62
     7
370
    25
100
AcDbLine
 10
139.6900277573
 20
76.0815192674
 30
0.0
 11
139.6900277573
 21
76.0597803359
 31
0.0
  0
LINE
  5
167
330
1F
100
AcDbEntity
  8
0
  6
Continuous
 62
     8
370
    25
100
AcDbLine
 10
142.950797173
 20
72.5597802279
 30
0.0
 11
142.950797173
 21
66.7097803866
 31
0.0
  0
LINE
  5
168
330
1F
100
AcDbEntity
  8
0
  6
Continuous
 62
     8
370
    25
100
AcDbLine
 10
142.950797173
 20
78.4097800692
 30
0.0
 11
142.950797173
 21
72.5597802279
 31
0.0
  0
LINE
  5
169
330
1F
100
AcDbEntity
  8
0
  6
Continuous
 62
     8
370
    25
100
AcDbLine
 10
152.3507979687
 20
72.5597802279
 30
0.0
 11
152.3507979687
 21
66.7097803866
 31
0.0
  0
LINE
  5
16A
330
1F
100
AcDbEntity
  8
0
  6
Continuous
 62
     8
370
    25
100
AcDbLine
 10
152.3507979687
 20
78.4097800692
 30
0.0
 11
152.3507979687
 21
72.5597802279
 31
0.0
  0
LINE
  5
16B
330
1F
100
AcDbEntity
  8
0
  6
Continuous
 62
     8
370
    25
100
AcDbLine
 10
140.1900273736
 20
80.2597801861
 30
0.0
 11
131.1900277611
 21
80.2597801861
 31
0.0
  0
LWPOLYLINE
  5
16C
330
1F
100
AcDbEntity
  8
0
  6
Continuous
 62
     8
370
    25
100
AcDbPolyline
 90
       10
 70
   128
 43
0.0
 10
131.1900277611
 20
70.0597802837
 10
131.1937069509
 20
70.061824304
 10
131.2231046136
 20
70.0781564423
 10
131.2817085523
 20
70.1107140825
 10
131.369135062
 20
70.1592844174
 10
131.4848123107
 20
70.2235496332
 10
131.6279845301
 20
70.3030897033
 10
131.7977152753
 20
70.3973844842
 10
131.9928948756
 20
70.5058176731
 10
132.2122471861
 20
70.6276800678
  0
LWPOLYLINE
  5
16D
330
1F
100
AcDbEntity
  8
0
  6
Continuous
 62
     8
370
    25
100
AcDbPolyline
 90
       10
 70
   128
 43
0.0
 10
133.7579274073
 20
69.0819998466
 10
133.6360650126
 20
68.8626475361
 10
133.5276318237
 20
68.6674679358
 10
133.4333370428
 20
68.4977371906
 10
133.3537969727
 20
68.3545649712
 10
133.2895317569
 20
68.2388877225
 10
133.240961422
 20
68.1514612128
 10
133.2084037818
 20
68.0928572741
 10
133.1920716434
 20
68.0634596114
 10
133.1900276232
 20
68.0597804216
  0
LINE
  5
16E
330
1F
100
AcDbEntity
  8
0
  6
Continuous
 62
     7
370
     0
100
AcDbLine
 10
139.9892219377
 20
89.0415603771
 30
0.0
 11
140.2539650673
 21
80.5697802279
 31
0.0
  0
LINE
  5
16F
330
1F
100
AcDbEntity
  8
0
  6
Continuous
 62
     7
370
     0
100
AcDbLine
 10
131.390833197
 20
89.0415603771
 30
0.0
 11
131.1260900673
 21
80.5697802279
 31
0.0
  0
LINE
  5
170
330
1F
100
AcDbEntity
  8
0
  6
Continuous
 62
     7
370
     0
100
AcDbLine
 10
130.6691525673
 20
80.5697802279
 30
0.0
 11
140.7109025673
 21
80.5697802279
 31
0.0
  0
LINE
  5
171
330
1F
100
AcDbEntity
  8
0
  6
CENTERX2
 62
     7
370
    18
100
AcDbLine
 10
173.6507970828
 20
72.5597802279
 30
0.0
 11
129.1357126134
 21
72.5597802279
 31
0.0
  0
LINE
  5
172
330
1F
100
AcDbEntity
  8
0
  6
CENTERX2
 62
     7
370
    18
100
AcDbLine
 10
135.6900275673
 20
88.2048321684
 30
0.0
 11
135.6900275673
 21
66.4617708255
 31
0.0
  0
LINE
  5
173
330
1F
100
AcDbEntity
  8
0
  6
CENTERX2
 62
     7
370
    18
100
AcDbLine
 10
135.6900275673
 20
88.2048321684
 30
0.0
 11
135.6900275673
 21
91.5597802279
 31
0.0
  0
LINE
  5
174
330
1F
100
AcDbEntity
  8
0
  6
Continuous
 62
     7
370
    25
100
AcDbLine
 10
155.6507979508
 20
116.1618945402
 30
0.0
 11
152.6507974591
 21
116.1618945402
 31
0.0
  0
LINE
  5
175
330
1F
100
AcDbEntity
  8
0
  6
Continuous
 62
     7
370
    25
100
AcDbLine
 10
152.6507974591
 20
109.1618943242
 30
0.0
 11
155.6507979508
 21
109.1618943242
 31
0.0
  0
LINE
  5
176
330
1F
100
AcDbEntity
  8
0
  6
Continuous
 62
     7
370
    25
100
AcDbLine
 10
155.6507979508
 20
109.1618943242
 30
0.0
 11
159.6507967438
 21
109.8118943841
 31
0.0
  0
LINE
  5
177
330
1F
100
AcDbEntity
  8
0
  6
Continuous
 62
     7
370
    25
100
AcDbLine
 10
159.6507967438
 20
115.5118944803
 30
0.0
 11
155.6507979508
 21
116.1618945402
 31
0.0
  0
LINE
  5
178
330
1F
100
AcDbEntity
  8
0
  6
Continuous
 62
     7
370
    25
100
AcDbLine
 10
163.6507973995
 20
109.1618943242
 30
0.0
 11
167.6507980551
 21
109.8118943841
 31
0.0
  0
LINE
  5
179
330
1F
100
AcDbEntity
  8
0
  6
Continuous
 62
     7
370
    25
100
AcDbLine
 10
167.6507980551
 20
115.5118944803
 30
0.0
 11
163.6507973995
 21
116.1618945402
 31
0.0
  0
LINE
  5
17A
330
1F
100
AcDbEntity
  8
0
  6
Continuous
 62
     7
370
    25
100
AcDbLine
 10
159.6507967438
 20
109.1618943242
 30
0.0
 11
163.6507973995
 21
109.8118943841
 31
0.0
  0
LINE
  5
17B
330
1F
100
AcDbEntity
  8
0
  6
Continuous
 62
     7
370
    25
100
AcDbLine
 10
163.6507973995
 20
115.5118944803
 30
0.0
 11
159.6507967438
 21
116.1618945402
 31
0.0
  0
LINE
  5
17C
330
1F
100
AcDbEntity
  8
0
  6
Continuous
 62
     7
370
    25
100
AcDbLine
 10
167.6507980551
 20
109.1618943242
 30
0.0
 11
171.3546828355
 21
109.7637755079
 31
0.0
  0
LINE
  5
17D
330
1F
100
AcDbEntity
  8
0
  6
Continuous
 62
     7
370
    25
100
AcDbLine
 10
171.3546828355
 20
115.5600133565
 30
0.0
 11
167.6507980551
 21
116.1618945402
 31
0.0
  0
LINE
  5
17E
330
1F
100
AcDbEntity
  8
0
  6
Continuous
 62
     7
370
    25
100
AcDbLine
 10
171.3546828355
 20
109.7637755079
 30
0.0
 11
171.6507987108
 21
110.1748021533
 31
0.0
  0
LINE
  5
17F
330
1F
100
AcDbEntity
  8
0
  6
Continuous
 62
     7
370
    25
100
AcDbLine
 10
171.6507987108
 20
115.1489867111
 30
0.0
 11
171.3546828355
 21
115.5600133565
 31
0.0
  0
LINE
  5
180
330
1F
100
AcDbEntity
  8
0
  6
Continuous
 62
     7
370
    25
100
AcDbLine
 10
151.0641944583
 20
106.66189438
 30
0.0
 11
151.1507972132
 21
106.8118945909
 31
0.0
  0
LINE
  5
181
330
1F
100
AcDbEntity
  8
0
  6
Continuous
 62
     7
370
    25
100
AcDbLine
 10
151.1507972132
 20
118.5118942735
 30
0.0
 11
151.0641944583
 21
118.6618944844
 31
0.0
  0
LINE
  5
182
330
1F
100
AcDbEntity
  8
0
  6
Continuous
 62
     7
370
    25
100
AcDbLine
 10
144.237399752
 20
118.6618944844
 30
0.0
 11
144.1507969971
 21
118.5118942735
 31
0.0
  0
LINE
  5
183
330
1F
100
AcDbEntity
  8
0
  6
Continuous
 62
     7
370
    25
100
AcDbLine
 10
144.1507969971
 20
106.8118945909
 30
0.0
 11
144.237399752
 21
106.66189438
 31
0.0
  0
LINE
  5
184
330
1F
100
AcDbEntity
  8
0
  6
Continuous
 62
     7
370
    25
100
AcDbLine
 10
144.1507969971
 20
118.5118942735
 30
0.0
 11
142.950797173
 21
118.5118942735
 31
0.0
  0
LINE
  5
185
330
1F
100
AcDbEntity
  8
0
  6
Continuous
 62
     7
370
    25
100
AcDbLine
 10
142.950797173
 20
106.8118945909
 30
0.0
 11
144.1507969971
 21
106.8118945909
 31
0.0
  0
LINE
  5
186
330
1F
100
AcDbEntity
  8
0
  6
Continuous
 62
     7
370
    25
100
AcDbLine
 10
151.1507972132
 20
106.8118945909
 30
0.0
 11
152.3507979687
 21
106.8118945909
 31
0.0
  0
LINE
  5
187
330
1F
100
AcDbEntity
  8
0
  6
Continuous
 62
     7
370
    25
100
AcDbLine
 10
152.3507979687
 20
118.5118942735
 30
0.0
 11
151.1507972132
 21
118.5118942735
 31
0.0
  0
ARC
  5
188
330
1F
100
AcDbEntity
  8
0
  6
Continuous
 62
     7
370
    25
100
AcDbCircle
 10
152.3507970828
 20
118.2118944322
 30
0.0
 40
0.3000000000000114
100
AcDbArc
 50
0.0
 51
90.0
  0
ARC
  5
189
330
1F
100
AcDbEntity
  8
0
  6
Continuous
 62
     7
370
    25
100
AcDbCircle
 10
152.3507970828
 20
107.1118944322
 30
0.0
 40
0.3000000000000114
100
AcDbArc
 50
270.0
 51
0.0
  0
ARC
  5
18A
330
1F
100
AcDbEntity
  8
0
  6
Continuous
 62
     7
370
    25
100
AcDbCircle
 10
142.9507970828
 20
107.1118944322
 30
0.0
 40
0.2999999999999972
100
AcDbArc
 50
180.0
 51
270.0
  0
ARC
  5
18B
330
1F
100
AcDbEntity
  8
0
  6
Continuous
 62
     7
370
    25
100
AcDbCircle
 10
142.9507970828
 20
118.2118944322
 30
0.0
 40
0.2999999999999972
100
AcDbArc
 50
90.0
 51
180.0
  0
LINE
  5
18C
330
1F
100
AcDbEntity
  8
0
  6
Continuous
 62
     7
370
    25
100
AcDbLine
 10
140.2900276694
 20
108.1618946259
 30
0.0
 11
142.6507972169
 21
108.1618946259
 31
0.0
  0
LINE
  5
18D
330
1F
100
AcDbEntity
  8
0
  6
Continuous
 62
     7
370
    25
100
AcDbLine
 10
140.6900274556
 20
117.1618942385
 30
0.0
 11
140.2900276694
 21
117.1618942385
 31
0.0
  0
LINE
  5
18E
330
1F
100
AcDbEntity
  8
0
  6
Continuous
 62
     7
370
    25
100
AcDbLine
 10
142.6507972169
 20
117.1618942385
 30
0.0
 11
141.6900276195
 21
117.1618942385
 31
0.0
  0
SPLINE
  5
18F
330
1F
100
AcDbEntity
  8
0
  6
Continuous
 62
     7
370
    25
100
AcDbSpline
210
0.0
220
0.0
230
1.0
 70
     8
 71
     3
 72
    11
 73
     7
 74
     0
 42
0.000000001
 43
0.00000001
 40
0.0
 40
0.0
 40
0.0
 40
0.0
 40
0.2499990961910953
 40
0.4999996005613321
 40
0.749999535890269
 40
1.0
 40
1.0
 40
1.0
 40
1.0
 10
140.9400274965608
 20
117.4618946601877
 30
0.0
 10
140.9072683528368
 20
117.458136698038
 30
0.0
 10
140.8417498808652
 20
117.4506207525712
 30
0.0
 10
140.7591133703303
 20
117.3928088015482
 30
0.0
 10
140.7013017970611
 20
117.3101719598146
 30
0.0
 10
140.6937858824992
 20
117.2446534454002
 30
0.0
 10
140.6900279212439
 20
117.2118941535482
 30
0.0
  0
SPLINE
  5
190
330
1F
100
AcDbEntity
  8
0
  6
Continuous
 62
     7
370
    25
100
AcDbSpline
210
0.0
220
0.0
230
1.0
 70
     8
 71
     3
 72
    11
 73
     7
 74
     0
 42
0.000000001
 43
0.00000001
 40
0.0
 40
0.0
 40
0.0
 40
0.0
 40
0.249999346786993
 40
0.4999999133582256
 40
0.7499994860707229
 40
1.0
 40
1.0
 40
1.0
 40
1.0
 10
141.6900276194954
 20
117.2118946192095
 30
0.0
 10
141.6862696709204
 20
117.244653773604
 30
0.0
 10
141.6787537554347
 20
117.3101722422298
 30
0.0
 10
141.6209416801177
 20
117.3928085102768
 30
0.0
 10
141.5383054460341
 20
117.4506209846328
 30
0.0
 10
141.4727869088009
 20
117.4581367636201
 30
0.0
 10
141.4400275785172
 20
117.4618946601877
 30
0.0
  0
LINE
  5
191
330
1F
100
AcDbEntity
  8
0
  6
Continuous
 62
     7
370
    25
100
AcDbLine
 10
140.6900274556
 20
117.2121945051
 30
0.0
 11
140.6900274556
 21
117.1618942385
 31
0.0
  0
LINE
  5
192
330
1F
100
AcDbEntity
  8
0
  6
Continuous
 62
     7
370
    25
100
AcDbLine
 10
141.6900276195
 20
117.1618942385
 30
0.0
 11
141.6900276195
 21
117.2121945051
 31
0.0
  0
LINE
  5
193
330
1F
100
AcDbEntity
  8
0
  6
Continuous
 62
     7
370
    25
100
AcDbLine
 10
141.4556109335
 20
117.4618946602
 30
0.0
 11
140.9244441416
 21
117.4618946602
 31
0.0
  0
LINE
  5
194
330
1F
100
AcDbEntity
  8
0
  6
Continuous
 62
     7
370
    25
100
AcDbLine
 10
155.6507979508
 20
116.1618945402
 30
0.0
 11
155.6507979508
 21
109.1618943242
 31
0.0
  0
LINE
  5
195
330
1F
100
AcDbEntity
  8
0
  6
Continuous
 62
     7
370
    25
100
AcDbLine
 10
163.6507973995
 20
116.1618945402
 30
0.0
 11
163.6507973995
 21
109.1618943242
 31
0.0
  0
LINE
  5
196
330
1F
100
AcDbEntity
  8
0
  6
Continuous
 62
     7
370
    25
100
AcDbLine
 10
159.6507967438
 20
116.1618945402
 30
0.0
 11
159.6507967438
 21
109.1618943242
 31
0.0
  0
LINE
  5
197
330
1F
100
AcDbEntity
  8
0
  6
Continuous
 62
     7
370
    25
100
AcDbLine
 10
171.3546828355
 20
109.7637755079
 30
0.0
 11
171.3546828355
 21
115.5600133565
 31
0.0
  0
LINE
  5
198
330
1F
100
AcDbEntity
  8
0
  6
Continuous
 62
     7
370
    25
100
AcDbLine
 10
167.6507980551
 20
116.1618945402
 30
0.0
 11
167.6507980551
 21
109.1618943242
 31
0.0
  0
LINE
  5
199
330
1F
100
AcDbEntity
  8
0
  6
Continuous
 62
     7
370
    25
100
AcDbLine
 10
171.6507987108
 20
115.1489867111
 30
0.0
 11
171.6507987108
 21
110.1748021533
 31
0.0
  0
LINE
  5
19A
330
1F
100
AcDbEntity
  8
0
  6
Continuous
 62
     7
370
    25
100
AcDbLine
 10
144.7732976626
 20
112.6618944322
 30
0.0
 11
147.5972074073
 21
112.6618944322
 31
0.0
  0
SPLINE
  5
19B
330
1F
100
AcDbEntity
  8
0
  6
Continuous
 62
     7
370
    25
100
AcDbSpline
210
0.0
220
0.0
230
1.0
 70
     8
 71
     3
 72
    15
 73
    11
 74
     0
 42
0.000000001
 43
0.00000001
 40
0.0
 40
0.0
 40
0.0
 40
0.0
 40
0.1323034029548308
 40
0.2645694346746548
 40
0.3997942221572916
 40
0.5349945614998111
 40
0.650187219843739
 40
0.7653979239273321
 40
0.8826876536126994
 40
1.0
 40
1.0
 40
1.0
 40
1.0
 10
144.7732976626301
 20
112.6618944321999
 30
0.0
 10
144.6917202071842
 20
112.9211147406987
 30
0.0
 10
144.5285883391636
 20
113.4394821367296
 30
0.0
 10
144.3530625590529
 20
114.2377216230261
 30
0.0
 10
144.2475211411432
 20
115.0510074671476
 30
0.0
 10
144.2266168810785
 20
115.8348406055023
 30
0.0
 10
144.2808399787976
 20
116.5763347875371
 30
0.0
 10
144.3919514279288
 20
117.2761312747873
 30
0.0
 10
144.554943935154
 20
117.9727635545873
 30
0.0
 10
144.7005084091134
 20
118.4321694114971
 30
0.0
 10
144.7732976626301
 20
118.661894484354
 30
0.0
  0
LINE
  5
19C
330
1F
100
AcDbEntity
  8
0
  6
Continuous
 62
     7
370
    25
100
AcDbLine
 10
144.7732976626
 20
118.6618944844
 30
0.0
 11
147.5972074073
 21
118.6618944844
 31
0.0
  0
LINE
  5
19D
330
1F
100
AcDbEntity
  8
0
  6
Continuous
 62
     7
370
    25
100
AcDbLine
 10
147.6507966395
 20
118.298471461
 30
0.0
 11
147.5972074073
 21
118.6618944844
 31
0.0
  0
LINE
  5
19E
330
1F
100
AcDbEntity
  8
0
  6
Continuous
 62
     7
370
    25
100
AcDbLine
 10
147.7043868031
 20
118.6618944844
 30
0.0
 11
147.6507966395
 21
118.298471461
 31
0.0
  0
LINE
  5
19F
330
1F
100
AcDbEntity
  8
0
  6
Continuous
 62
     7
370
    25
100
AcDbLine
 10
147.7043868031
 20
118.6618944844
 30
0.0
 11
150.5282965477
 21
118.6618944844
 31
0.0
  0
SPLINE
  5
1A0
330
1F
100
AcDbEntity
  8
0
  6
Continuous
 62
     7
370
    25
100
AcDbSpline
210
0.0
220
0.0
230
1.0
 70
     8
 71
     3
 72
    15
 73
    11
 74
     0
 42
0.000000001
 43
0.00000001
 40
0.0
 40
0.0
 40
0.0
 40
0.0
 40
0.1323034044858545
 40
0.2645694377362696
 40
0.3997942122513925
 40
0.5349945561187377
 40
0.6501872157956826
 40
0.7653979212125015
 40
0.8826876522551532
 40
1.0
 40
1.0
 40
1.0
 40
1.0
 10
150.5282965477252
 20
112.6618944321999
 30
0.0
 10
150.6098739685528
 20
112.9211147434391
 30
0.0
 10
150.7730057673467
 20
113.4394821449501
 30
0.0
 10
150.9485320640356
 20
114.2377215608326
 30
0.0
 10
151.0540714527897
 20
115.051007541778
 30
0.0
 10
151.0749776920736
 20
115.834840586692
 30
0.0
 10
151.0207541411723
 20
116.5763347907315
 30
0.0
 10
150.9096428070169
 20
117.2761312739182
 30
0.0
 10
150.7466502690066
 20
117.9727635548062
 30
0.0
 10
150.6010857991769
 20
118.4321694115701
 30
0.0
 10
150.5282965477252
 20
118.661894484354
 30
0.0
  0
LINE
  5
1A1
330
1F
100
AcDbEntity
  8
0
  6
Continuous
 62
     7
370
    25
100
AcDbLine
 10
147.7043868031
 20
112.6618944322
 30
0.0
 11
150.5282965477
 21
112.6618944322
 31
0.0
  0
LINE
  5
1A2
330
1F
100
AcDbEntity
  8
0
  6
Continuous
 62
     7
370
    25
100
AcDbLine
 10
147.6507966395
 20
113.0253172809
 30
0.0
 11
147.7043868031
 21
112.6618944322
 31
0.0
  0
LINE
  5
1A3
330
1F
100
AcDbEntity
  8
0
  6
Continuous
 62
     7
370
    25
100
AcDbLine
 10
147.5972074073
 20
112.6618944322
 30
0.0
 11
147.6507966395
 21
113.0253172809
 31
0.0
  0
SPLINE
  5
1A4
330
1F
100
AcDbEntity
  8
0
  6
Continuous
 62
     7
370
    25
100
AcDbSpline
210
0.0
220
0.0
230
1.0
 70
    24
 71
     3
 72
    12
 73
     8
 74
     0
 42
0.000000001
 43
0.00000001
 40
0.0
 40
0.0
 40
0.0
 40
0.0
 40
0.370293291464609
 40
0.5571564965130832
 40
0.744000308094729
 40
0.9942608237029307
 40
1.0
 40
1.0
 40
1.0
 40
1.0
 10
150.5282965477252
 20
118.661894484354
 30
0.0
 10
150.6402834888079
 20
118.661894484354
 30
0.0
 10
150.8087830354835
 20
118.661894484354
 30
0.0
 10
150.9566491539925
 20
118.661894484354
 30
0.0
 10
151.0369855009994
 20
118.661894484354
 30
0.0
 10
151.0755020267638
 20
118.6618944843539
 30
0.0
 10
151.0633219919106
 20
118.661894484354
 30
0.0
 10
151.0630489315534
 20
118.661894484354
 30
0.0
  0
SPLINE
  5
1A5
330
1F
100
AcDbEntity
  8
0
  6
Continuous
 62
     7
370
    25
100
AcDbSpline
210
0.0
220
0.0
230
1.0
 70
    24
 71
     3
 72
    11
 73
     7
 74
     0
 42
0.000000001
 43
0.00000001
 40
0.0
 40
0.0
 40
0.0
 40
0.0
 40
0.2560765741855226
 40
0.4411123719462814
 40
0.6261667884255204
 40
0.9999999999999999
 40
0.9999999999999999
 40
0.9999999999999999
 40
0.9999999999999999
 10
151.0637483548069
 20
106.6618943800458
 30
0.0
 10
151.0565957757013
 20
106.6618943800458
 30
0.0
 10
151.0442748863545
 20
106.6618943800458
 30
0.0
 10
150.9559940173098
 20
106.6618943800458
 30
0.0
 10
150.8110412891323
 20
106.6618943800458
 30
0.0
 10
150.641620245712
 20
106.6618943800458
 30
0.0
 10
150.5282965477252
 20
106.6618943800458
 30
0.0
  0
SPLINE
  5
1A6
330
1F
100
AcDbEntity
  8
0
  6
Continuous
 62
     7
370
    25
100
AcDbSpline
210
0.0
220
0.0
230
1.0
 70
     8
 71
     3
 72
    15
 73
    11
 74
     0
 42
0.000000001
 43
0.00000001
 40
0.0
 40
0.0
 40
0.0
 40
0.0
 40
0.1323034065789983
 40
0.2645694397755009
 40
0.3997942284844695
 40
0.5349945722967061
 40
0.6501872605422856
 40
0.7653979375014015
 40
0.8826876544481312
 40
1.0
 40
1.0
 40
1.0
 40
1.0
 10
150.5282965477252
 20
106.6618943800458
 30
0.0
 10
150.6098739681157
 20
106.9211146420089
 30
0.0
 10
150.773005764712
 20
107.439481940776
 30
0.0
 10
150.9485320729296
 20
108.237721417239
 30
0.0
 10
151.0540714499376
 20
109.0510074781603
 30
0.0
 10
151.0749776843641
 20
109.8348405596799
 30
0.0
 10
151.0207541664079
 20
110.5763348945617
 30
0.0
 10
150.9096427962855
 20
111.2761312423188
 30
0.0
 10
150.7466502586699
 20
111.9727633710892
 30
0.0
 10
150.6010857981932
 20
112.4321693077885
 30
0.0
 10
150.5282965477252
 20
112.6618944321999
 30
0.0
  0
LINE
  5
1A7
330
1F
100
AcDbEntity
  8
0
  6
Continuous
 62
     7
370
    25
100
AcDbLine
 10
151.1507972132
 20
106.8118945909
 30
0.0
 11
151.1507972132
 21
118.5118942735
 31
0.0
  0
SPLINE
  5
1A8
330
1F
100
AcDbEntity
  8
0
  6
Continuous
 62
     7
370
    25
100
AcDbSpline
210
0.0
220
0.0
230
1.0
 70
    24
 71
     3
 72
    11
 73
     7
 74
     0
 42
0.000000001
 43
0.00000001
 40
0.0
 40
0.0
 40
0.0
 40
0.0
 40
0.2560765741855226
 40
0.4411123719462814
 40
0.6261667884255204
 40
0.9999999999999999
 40
0.9999999999999999
 40
0.9999999999999999
 40
0.9999999999999999
 10
144.2378458555484
 20
106.6618943800458
 30
0.0
 10
144.244998434654
 20
106.6618943800458
 30
0.0
 10
144.2573193240008
 20
106.6618943800458
 30
0.0
 10
144.3456001930455
 20
106.6618943800458
 30
0.0
 10
144.490552921223
 20
106.6618943800458
 30
0.0
 10
144.6599739646433
 20
106.6618943800458
 30
0.0
 10
144.7732976626301
 20
106.6618943800458
 30
0.0
  0
SPLINE
  5
1A9
330
1F
100
AcDbEntity
  8
0
  6
Continuous
 62
     7
370
    25
100
AcDbSpline
210
0.0
220
0.0
230
1.0
 70
    24
 71
     3
 72
    12
 73
     8
 74
     0
 42
0.000000001
 43
0.00000001
 40
0.0
 40
0.0
 40
0.0
 40
0.0
 40
0.370293291464609
 40
0.5571564965130832
 40
0.744000308094729
 40
0.9942608237029307
 40
1.0
 40
1.0
 40
1.0
 40
1.0
 10
144.7732976626301
 20
118.661894484354
 30
0.0
 10
144.6613107215475
 20
118.661894484354
 30
0.0
 10
144.4928111748718
 20
118.661894484354
 30
0.0
 10
144.3449450563628
 20
118.661894484354
 30
0.0
 10
144.2646087093559
 20
118.661894484354
 30
0.0
 10
144.2260921835915
 20
118.6618944843539
 30
0.0
 10
144.2382722184447
 20
118.661894484354
 30
0.0
 10
144.2385452788019
 20
118.661894484354
 30
0.0
  0
SPLINE
  5
1AA
330
1F
100
AcDbEntity
  8
0
  6
Continuous
 62
     7
370
    25
100
AcDbSpline
210
0.0
220
0.0
230
1.0
 70
     8
 71
     3
 72
    15
 73
    11
 74
     0
 42
0.000000001
 43
0.00000001
 40
0.0
 40
0.0
 40
0.0
 40
0.0
 40
0.1323034050479748
 40
0.2645694367138865
 40
0.3997942383903674
 40
0.5349945776777785
 40
0.6501872645903409
 40
0.7653979402162315
 40
0.8826876558056772
 40
1.0
 40
1.0
 40
1.0
 40
1.0
 10
144.7732976626301
 20
106.6618943800458
 30
0.0
 10
144.6917202076213
 20
106.9211146392685
 30
0.0
 10
144.5285883417982
 20
107.4394819325554
 30
0.0
 10
144.3530625501589
 20
108.2377214794325
 30
0.0
 10
144.2475211439952
 20
109.05100740353
 30
0.0
 10
144.2266168887881
 20
109.8348405784902
 30
0.0
 10
144.2808399535621
 20
110.5763348913673
 30
0.0
 10
144.3919514386602
 20
111.2761312431878
 30
0.0
 10
144.5549439454907
 20
111.9727633708703
 30
0.0
 10
144.7005084100971
 20
112.4321693077155
 30
0.0
 10
144.7732976626301
 20
112.6618944321999
 30
0.0
  0
LINE
  5
1AB
330
1F
100
AcDbEntity
  8
0
  6
Continuous
 62
     7
370
    25
100
AcDbLine
 10
144.1507969971
 20
106.8118945909
 30
0.0
 11
144.1507969971
 21
118.5118942735
 31
0.0
  0
LINE
  5
1AC
330
1F
100
AcDbEntity
  8
0
  6
Continuous
 62
     7
370
    25
100
AcDbLine
 10
147.7043868031
 20
112.6618944322
 30
0.0
 11
147.6507966395
 21
112.2984715834
 31
0.0
  0
LINE
  5
1AD
330
1F
100
AcDbEntity
  8
0
  6
Continuous
 62
     7
370
    25
100
AcDbLine
 10
147.6507966395
 20
112.2984715834
 30
0.0
 11
147.6507966395
 21
113.0253172809
 31
0.0
  0
LINE
  5
1AE
330
1F
100
AcDbEntity
  8
0
  6
Continuous
 62
     7
370
    25
100
AcDbLine
 10
147.6507966395
 20
112.2984715834
 30
0.0
 11
147.5972074073
 21
112.6618944322
 31
0.0
  0
LINE
  5
1AF
330
1F
100
AcDbEntity
  8
0
  6
Continuous
 62
     7
370
    25
100
AcDbLine
 10
144.7732976626
 20
106.66189438
 30
0.0
 11
147.5972074073
 21
106.66189438
 31
0.0
  0
LINE
  5
1B0
330
1F
100
AcDbEntity
  8
0
  6
Continuous
 62
     7
370
    25
100
AcDbLine
 10
147.7043868031
 20
106.66189438
 30
0.0
 11
150.5282965477
 21
106.66189438
 31
0.0
  0
LINE
  5
1B1
330
1F
100
AcDbEntity
  8
0
  6
Continuous
 62
     7
370
    25
100
AcDbLine
 10
147.6507966395
 20
107.0253174034
 30
0.0
 11
147.7043868031
 21
106.66189438
 31
0.0
  0
LINE
  5
1B2
330
1F
100
AcDbEntity
  8
0
  6
Continuous
 62
     7
370
    25
100
AcDbLine
 10
147.5972074073
 20
106.66189438
 30
0.0
 11
147.6507966395
 21
107.0253174034
 31
0.0
  0
LINE
  5
1B3
330
1F
100
AcDbEntity
  8
0
  6
Continuous
 62
     7
370
    25
100
AcDbLine
 10
152.6507974591
 20
107.1118945469
 30
0.0
 11
152.6507974591
 21
118.2118943175
 31
0.0
  0
LINE
  5
1B4
330
1F
100
AcDbEntity
  8
0
  6
Continuous
 62
     7
370
    25
100
AcDbLine
 10
142.6507972169
 20
107.1118945469
 30
0.0
 11
142.6507972169
 21
118.2118943175
 31
0.0
  0
LINE
  5
1B5
330
1F
100
AcDbEntity
  8
0
  6
Continuous
 62
     7
370
    25
100
AcDbLine
 10
147.6507966395
 20
106.66189438
 30
0.0
 11
147.6507966395
 21
107.0253174034
 31
0.0
  0
LINE
  5
1B6
330
1F
100
AcDbEntity
  8
0
  6
Continuous
 62
     7
370
    25
100
AcDbLine
 10
147.6507966395
 20
106.66189438
 30
0.0
 11
147.5972074073
 21
106.66189438
 31
0.0
  0
LINE
  5
1B7
330
1F
100
AcDbEntity
  8
0
  6
Continuous
 62
     7
370
    25
100
AcDbLine
 10
147.7043868031
 20
106.66189438
 30
0.0
 11
147.6507966395
 21
106.66189438
 31
0.0
  0
LINE
  5
1B8
330
1F
100
AcDbEntity
  8
0
  6
Continuous
 62
     7
370
    25
100
AcDbLine
 10
147.5972074073
 20
118.6618944844
 30
0.0
 11
147.6507966395
 21
118.6618944844
 31
0.0
  0
LINE
  5
1B9
330
1F
100
AcDbEntity
  8
0
  6
Continuous
 62
     7
370
    25
100
AcDbLine
 10
147.6507966395
 20
118.298471461
 30
0.0
 11
147.6507966395
 21
118.6618944844
 31
0.0
  0
LINE
  5
1BA
330
1F
100
AcDbEntity
  8
0
  6
Continuous
 62
     7
370
    25
100
AcDbLine
 10
147.6507966395
 20
118.6618944844
 30
0.0
 11
147.7043868031
 21
118.6618944844
 31
0.0
  0
CIRCLE
  5
1BB
330
1F
100
AcDbEntity
  8
0
  6
Continuous
 62
     7
370
    25
100
AcDbCircle
 10
135.6900275673
 20
112.6618944322
 30
0.0
 40
4.0
  0
CIRCLE
  5
1BC
330
1F
100
AcDbEntity
  8
0
  6
Continuous
 62
     7
370
    25
100
AcDbCircle
 10
135.6900275673
 20
112.6618944322
 30
0.0
 40
4.782279626857587
  0
CIRCLE
  5
1BD
330
1F
100
AcDbEntity
  8
0
  6
Continuous
 62
     7
370
    25
100
AcDbCircle
 10
135.6900275673
 20
112.6618944322
 30
0.0
 40
2.200000000000017
  0
CIRCLE
  5
1BE
330
1F
100
AcDbEntity
  8
0
  6
Continuous
 62
     7
370
    25
100
AcDbCircle
 10
135.6900275673
 20
112.6618944322
 30
0.0
 40
2.0
  0
CIRCLE
  5
1BF
330
1F
100
AcDbEntity
  8
0
  6
Continuous
 62
     7
370
    25
100
AcDbCircle
 10
135.6900275673
 20
112.6618944322
 30
0.0
 40
5.020921759968047
  0
LINE
  5
1C0
330
1F
100
AcDbEntity
  8
0
  6
Continuous
 62
     7
370
    25
100
AcDbLine
 10
132.2900275223
 20
117.0618944084
 30
0.0
 11
132.2900275223
 21
117.1618942385
 31
0.0
  0
LINE
  5
1C1
330
1F
100
AcDbEntity
  8
0
  6
Continuous
 62
     7
370
    25
100
AcDbLine
 10
132.2900275223
 20
117.1618942385
 30
0.0
 11
133.4629992012
 21
117.1618942385
 31
0.0
  0
LINE
  5
1C2
330
1F
100
AcDbEntity
  8
0
  6
Continuous
 62
     7
370
    25
100
AcDbLine
 10
139.1900276754
 20
116.2618466401
 30
0.0
 11
139.1900276754
 21
117.0618944084
 31
0.0
  0
LINE
  5
1C3
330
1F
100
AcDbEntity
  8
0
  6
Continuous
 62
     7
370
    25
100
AcDbLine
 10
137.9170559335
 20
117.1618942385
 30
0.0
 11
139.0900276124
 21
117.1618942385
 31
0.0
  0
ARC
  5
1C4
330
1F
100
AcDbEntity
  8
0
  6
Continuous
 62
     7
370
    25
100
AcDbCircle
 10
139.0900275673
 20
117.0618944322
 30
0.0
 40
0.0999999999999943
100
AcDbArc
 50
0.0
 51
90.0
  0
LINE
  5
1C5
330
1F
100
AcDbEntity
  8
0
  6
Continuous
 62
     7
370
    25
100
AcDbLine
 10
139.0900276124
 20
108.1618946259
 30
0.0
 11
137.9170559335
 21
108.1618946259
 31
0.0
  0
LINE
  5
1C6
330
1F
100
AcDbEntity
  8
0
  6
Continuous
 62
     7
370
    25
100
AcDbLine
 10
139.0900276124
 20
108.1618946259
 30
0.0
 11
139.0900276124
 21
108.261894456
 31
0.0
  0
LINE
  5
1C7
330
1F
100
AcDbEntity
  8
0
  6
Continuous
 62
     7
370
    25
100
AcDbLine
 10
133.4629992012
 20
108.1618946259
 30
0.0
 11
132.2900275223
 21
108.1618946259
 31
0.0
  0
LINE
  5
1C8
330
1F
100
AcDbEntity
  8
0
  6
Continuous
 62
     7
370
    25
100
AcDbLine
 10
132.2900275223
 20
108.1618946259
 30
0.0
 11
132.2900275223
 21
108.261894456
 31
0.0
  0
LINE
  5
1C9
330
1F
100
AcDbEntity
  8
0
  6
Continuous
 62
     7
370
    25
100
AcDbLine
 10
132.1900274593
 20
116.2618466401
 30
0.0
 11
132.1900274593
 21
117.0618944084
 31
0.0
  0
LINE
  5
1CA
330
1F
100
AcDbEntity
  8
0
  6
Continuous
 62
     7
370
    25
100
AcDbLine
 10
132.1900274593
 20
117.0618944084
 30
0.0
 11
132.2900275223
 21
117.0618944084
 31
0.0
  0
ARC
  5
1CB
330
1F
100
AcDbEntity
  8
0
  6
Continuous
 62
     7
370
    25
100
AcDbCircle
 10
132.2900275673
 20
117.0618944322
 30
0.0
 40
0.0999999999999943
100
AcDbArc
 50
90.0
 51
180.0
  0
SPLINE
  5
1CC
330
1F
100
AcDbEntity
  8
0
  6
Continuous
 62
     7
370
    25
100
AcDbSpline
210
0.0
220
0.0
230
1.0
 70
     8
 71
     3
 72
    22
 73
    18
 74
     0
 42
0.000000001
 43
0.00000001
 40
0.0
 40
0.0
 40
0.0
 40
0.0
 40
0.0625
 40
0.0625
 40
0.125
 40
0.125
 40
0.1875
 40
0.1875
 40
0.25
 40
0.25
 40
0.3125
 40
0.3125
 40
0.375
 40
0.375
 40
0.4375
 40
0.4375
 40
0.5
 40
0.5
 40
0.5
 40
0.5
 10
141.6900275673245
 20
117.1618944321999
 30
0.0
 10
141.6900209448628
 20
117.1618944323868
 30
0.0
 10
141.6773341922492
 20
117.160429554456
 30
0.0
 10
141.6266004666847
 20
117.1552246121236
 30
0.0
 10
141.5904461585868
 20
117.1516902411344
 30
0.0
 10
141.4967157342506
 20
117.1443351297386
 30
0.0
 10
141.4425980344971
 20
117.1408035942487
 30
0.0
 10
141.3201405194824
 20
117.1356072633173
 30
0.0
 10
141.2561546936353
 20
117.1341378888711
 30
0.0
 10
141.1239004537348
 20
117.1341525524244
 30
0.0
 10
141.0597651125658
 20
117.1356121410485
 30
0.0
 10
140.9376066262283
 20
117.1407987155143
 30
0.0
 10
140.8833300414357
 20
117.1443343932943
 30
0.0
 10
140.7896183531029
 20
117.1516909761762
 30
0.0
 10
140.7534424241542
 20
117.1552243963434
 30
0.0
 10
140.7027331959448
 20
117.1604297692388
 30
0.0
 10
140.690027572837
 20
117.1618944321999
 30
0.0
 10
140.6900275673413
 20
117.1618944321999
 30
0.0
  0
SPLINE
  5
1CD
330
1F
100
AcDbEntity
  8
0
  6
Continuous
 62
     7
370
    25
100
AcDbSpline
210
0.0
220
0.0
230
1.0
 70
    24
 71
     3
 72
    14
 73
    10
 74
     0
 42
0.000000001
 43
0.00000001
 40
0.0
 40
0.0
 40
0.0
 40
0.0
 40
0.25
 40
0.25
 40
0.5
 40
0.5
 40
0.75
 40
0.75
 40
1.0
 40
1.0
 40
1.0
 40
1.0
 10
140.2900275673414
 20
117.1618944321999
 30
0.0
 10
140.2900275673414
 20
117.1618944321999
 30
0.0
 10
140.2900275673414
 20
117.1578513032772
 30
0.0
 10
140.2900275673414
 20
117.1416551705719
 30
0.0
 10
140.2900275673414
 20
117.1295021137356
 30
0.0
 10
140.2900275673414
 20
117.0970159619067
 30
0.0
 10
140.2900275673414
 20
117.0766827587888
 30
0.0
 10
140.2900275673414
 20
117.027722012645
 30
0.0
 10
140.2900275673414
 20
116.999094302414
 30
0.0
 10
140.2900275673414
 20
116.9662422582868
 30
0.0
  0
SPLINE
  5
1CE
330
1F
100
AcDbEntity
  8
0
  6
Continuous
 62
     7
370
    25
100
AcDbSpline
210
0.0
220
0.0
230
1.0
 70
    24
 71
     3
 72
    14
 73
    10
 74
     0
 42
0.000000001
 43
0.00000001
 40
0.0
 40
0.0
 40
0.0
 40
0.0
 40
0.25
 40
0.25
 40
0.5
 40
0.5
 40
0.75
 40
0.75
 40
1.0
 40
1.0
 40
1.0
 40
1.0
 10
140.2900275673414
 20
108.1618944321999
 30
0.0
 10
140.2900275673414
 20
108.1618944321999
 30
0.0
 10
140.2900275673414
 20
108.1659375611225
 30
0.0
 10
140.2900275673414
 20
108.1821336938278
 30
0.0
 10
140.2900275673414
 20
108.1942867506642
 30
0.0
 10
140.2900275673414
 20
108.226772902493
 30
0.0
 10
140.2900275673414
 20
108.247106105611
 30
0.0
 10
140.2900275673414
 20
108.2960668517548
 30
0.0
 10
140.2900275673414
 20
108.3246945619858
 30
0.0
 10
140.2900275673414
 20
108.3575466061129
 30
0.0
  0
LINE
  5
1CF
330
1F
100
AcDbEntity
  8
0
  6
Continuous
 62
     7
370
    25
100
AcDbLine
 10
140.2900276694
 20
109.6308639021
 30
0.0
 11
140.2900276694
 21
108.3575464067
 31
0.0
  0
SPLINE
  5
1D0
330
1F
100
AcDbEntity
  8
0
  6
Continuous
 62
     7
370
    25
100
AcDbSpline
210
0.0
220
0.0
230
1.0
 70
     8
 71
     3
 72
    12
 73
     8
 74
     0
 42
0.000000001
 43
0.00000001
 40
0.0
 40
0.0
 40
0.0
 40
0.0
 40
0.4999999999999991
 40
0.4999999999999991
 40
0.7499999999999996
 40
0.7499999999999996
 40
1.0
 40
1.0
 40
1.0
 40
1.0
 10
140.2900275673414
 20
109.6308639873419
 30
0.0
 10
140.2900275673414
 20
109.6800039190736
 30
0.0
 10
140.2753011483756
 20
109.7299483498388
 30
0.0
 10
140.2277775365332
 20
109.7965751220372
 30
0.0
 10
140.2075601826766
 20
109.8173529631774
 30
0.0
 10
140.1552895020686
 20
109.8498648346939
 30
0.0
 10
140.1236191938476
 20
109.8605816154719
 30
0.0
 10
140.0900275673413
 20
109.8605816154719
 30
0.0
  0
SPLINE
  5
1D1
330
1F
100
AcDbEntity
  8
0
  6
Continuous
 62
     7
370
    25
100
AcDbSpline
210
0.0
220
0.0
230
1.0
 70
     8
 71
     3
 72
    12
 73
     8
 74
     0
 42
0.000000001
 43
0.00000001
 40
0.0
 40
0.0
 40
0.0
 40
0.0
 40
0.2500000000000013
 40
0.2500000000000013
 40
0.5000000000000027
 40
0.5000000000000027
 40
1.0
 40
1.0
 40
1.0
 40
1.0
 10
140.0900275673413
 20
115.4632072489279
 30
0.0
 10
140.1236165053492
 20
115.4632072489279
 30
0.0
 10
140.1556748166625
 20
115.4741239167375
 30
0.0
 10
140.2075421414851
 20
115.5064647373836
 30
0.0
 10
140.22793868002
 20
115.5273989573384
 30
0.0
 10
140.2753460229678
 20
115.5939853092718
 30
0.0
 10
140.2900275673414
 20
115.6437495074914
 30
0.0
 10
140.2900275673414
 20
115.6929248770579
 30
0.0
  0
LINE
  5
1D2
330
1F
100
AcDbEntity
  8
0
  6
Continuous
 62
     7
370
    25
100
AcDbLine
 10
140.2900276694
 20
116.9662424577
 30
0.0
 11
140.2900276694
 21
115.6929249623
 31
0.0
  0
LINE
  5
1D3
330
1F
100
AcDbEntity
  8
0
  6
Continuous
 62
     7
370
    25
100
AcDbLine
 10
132.1900274593
 20
108.261894456
 30
0.0
 11
132.1900274593
 21
109.0619422243
 31
0.0
  0
LINE
  5
1D4
330
1F
100
AcDbEntity
  8
0
  6
Continuous
 62
     7
370
    25
100
AcDbLine
 10
132.1900274593
 20
108.261894456
 30
0.0
 11
132.2900275223
 21
108.261894456
 31
0.0
  0
LINE
  5
1D5
330
1F
100
AcDbEntity
  8
0
  6
Continuous
 62
     7
370
    25
100
AcDbLine
 10
139.1900276754
 20
109.0619422243
 30
0.0
 11
139.1900276754
 21
108.261894456
 31
0.0
  0
LINE
  5
1D6
330
1F
100
AcDbEntity
  8
0
  6
Continuous
 62
     7
370
    25
100
AcDbLine
 10
139.1900276754
 20
108.261894456
 30
0.0
 11
139.0900276124
 21
108.261894456
 31
0.0
  0
ARC
  5
1D7
330
1F
100
AcDbEntity
  8
0
  6
Continuous
 62
     7
370
    25
100
AcDbCircle
 10
132.2900275673
 20
108.2618944322
 30
0.0
 40
0.0999999999999943
100
AcDbArc
 50
180.0
 51
270.0
  0
ARC
  5
1D8
330
1F
100
AcDbEntity
  8
0
  6
Continuous
 62
     7
370
    25
100
AcDbCircle
 10
139.0900275673
 20
108.2618944322
 30
0.0
 40
0.0999999999999943
100
AcDbArc
 50
270.0
 51
0.0
  0
LINE
  5
1D9
330
1F
100
AcDbEntity
  8
0
  6
Continuous
 62
     7
370
    25
100
AcDbLine
 10
139.6900277573
 20
117.0618944084
 30
0.0
 11
139.1900276754
 21
117.0618944084
 31
0.0
  0
LINE
  5
1DA
330
1F
100
AcDbEntity
  8
0
  6
Continuous
 62
     7
370
    25
100
AcDbLine
 10
139.6900277573
 20
117.1618942385
 30
0.0
 11
139.6900277573
 21
117.0618944084
 31
0.0
  0
LINE
  5
1DB
330
1F
100
AcDbEntity
  8
0
  6
Continuous
 62
     7
370
    25
100
AcDbLine
 10
139.0900276124
 20
117.1618942385
 30
0.0
 11
139.6900277573
 21
117.1618942385
 31
0.0
  0
LINE
  5
1DC
330
1F
100
AcDbEntity
  8
0
  6
Continuous
 62
     7
370
    25
100
AcDbLine
 10
139.1900276754
 20
108.261894456
 30
0.0
 11
139.6900277573
 21
108.261894456
 31
0.0
  0
LINE
  5
1DD
330
1F
100
AcDbEntity
  8
0
  6
Continuous
 62
     7
370
    25
100
AcDbLine
 10
139.6900277573
 20
108.261894456
 30
0.0
 11
139.6900277573
 21
108.1618946259
 31
0.0
  0
LINE
  5
1DE
330
1F
100
AcDbEntity
  8
0
  6
Continuous
 62
     7
370
    25
100
AcDbLine
 10
139.6900277573
 20
108.1618946259
 30
0.0
 11
139.0900276124
 21
108.1618946259
 31
0.0
  0
SPLINE
  5
1DF
330
1F
100
AcDbEntity
  8
0
  6
Continuous
 62
     7
370
    25
100
AcDbSpline
210
0.0
220
0.0
230
1.0
 70
     8
 71
     3
 72
    12
 73
     8
 74
     0
 42
0.000000001
 43
0.00000001
 40
0.0
 40
0.0
 40
0.0
 40
0.0
 40
0.4999999999999971
 40
0.4999999999999971
 40
0.7499999999999986
 40
0.7499999999999986
 40
1.0
 40
1.0
 40
1.0
 40
1.0
 10
140.1900275673413
 20
115.7602811091658
 30
0.0
 10
140.1900275673413
 20
115.7159853577666
 30
0.0
 10
140.1845087863722
 20
115.671541872794
 30
0.0
 10
140.1651754019382
 20
115.6068734239141
 30
0.0
 10
140.1568850595371
 20
115.5854797732501
 30
0.0
 10
140.1326707300005
 20
115.5465575634354
 30
0.0
 10
140.1148811373008
 20
115.5254586448551
 30
0.0
 10
140.0900275673413
 20
115.5254586448551
 30
0.0
  0
ARC
  5
1E0
330
1F
100
AcDbEntity
  8
0
  6
Continuous
 62
     7
370
    25
100
AcDbCircle
 10
140.2763698653
 20
115.7805587238
 30
0.0
 40
0.0886916668068588
100
AcDbArc
 50
193.2165225104
 51
278.8583382271
  0
LINE
  5
1E1
330
1F
100
AcDbEntity
  8
0
  6
Continuous
 62
     7
370
    25
100
AcDbLine
 10
140.0900275435
 20
115.5254587279
 30
0.0
 11
140.0900275435
 21
115.4632072644
 31
0.0
  0
ARC
  5
1E2
330
1F
100
AcDbEntity
  8
0
  6
Continuous
 62
     7
370
    25
100
AcDbCircle
 10
140.2763698653
 20
109.5432301406
 30
0.0
 40
0.0886916668068441
100
AcDbArc
 50
81.141661773
 51
166.7834774897
  0
SPLINE
  5
1E3
330
1F
100
AcDbEntity
  8
0
  6
Continuous
 62
     7
370
    25
100
AcDbSpline
210
0.0
220
0.0
230
1.0
 70
     8
 71
     3
 72
    14
 73
    10
 74
     0
 42
0.000000001
 43
0.00000001
 40
0.0
 40
0.0
 40
0.0
 40
0.0
 40
0.1250000000000015
 40
0.1250000000000015
 40
0.250000000000003
 40
0.250000000000003
 40
0.5000000000000039
 40
0.5000000000000039
 40
1.0
 40
1.0
 40
1.0
 40
1.0
 10
140.0900275673413
 20
109.7983302195446
 30
0.0
 10
140.1024191653805
 20
109.7983302195446
 30
0.0
 10
140.11383479144
 20
109.7922354330915
 30
0.0
 10
140.131600501402
 20
109.7769049499693
 30
0.0
 10
140.138725964572
 20
109.7674984780638
 30
0.0
 10
140.1568864763279
 20
109.738306043085
 30
0.0
 10
140.1651705507244
 20
109.7169213007715
 30
0.0
 10
140.1844769186993
 20
109.6523742862793
 30
0.0
 10
140.1900275673413
 20
109.6077851152939
 30
0.0
 10
140.1900275673413
 20
109.5635077552339
 30
0.0
  0
LINE
  5
1E4
330
1F
100
AcDbEntity
  8
0
  6
Continuous
 62
     7
370
    25
100
AcDbLine
 10
140.0900275435
 20
109.8605816
 30
0.0
 11
140.0900275435
 21
109.7983301365
 31
0.0
  0
LINE
  5
1E5
330
1F
100
AcDbEntity
  8
0
  6
Continuous
 62
     7
370
    25
100
AcDbLine
 10
140.0900275435
 20
117.1618942385
 30
0.0
 11
140.0900275435
 21
117.0618944084
 31
0.0
  0
LINE
  5
1E6
330
1F
100
AcDbEntity
  8
0
  6
Continuous
 62
     7
370
    25
100
AcDbLine
 10
140.0900275435
 20
117.0618944084
 30
0.0
 11
139.6900277573
 21
117.0618944084
 31
0.0
  0
LINE
  5
1E7
330
1F
100
AcDbEntity
  8
0
  6
Continuous
 62
     7
370
    25
100
AcDbLine
 10
139.6900277573
 20
117.1618942385
 30
0.0
 11
140.0900275435
 21
117.1618942385
 31
0.0
  0
ARC
  5
1E8
330
1F
100
AcDbEntity
  8
0
  6
Continuous
 62
     7
370
    25
100
AcDbCircle
 10
140.0900275673
 20
117.0618944322
 30
0.0
 40
0.0999999999999943
100
AcDbArc
 50
0.0
 51
90.0
  0
LINE
  5
1E9
330
1F
100
AcDbEntity
  8
0
  6
Continuous
 62
     7
370
    25
100
AcDbLine
 10
140.0900275435
 20
117.0618944084
 30
0.0
 11
140.1900273736
 21
117.0618944084
 31
0.0
  0
LINE
  5
1EA
330
1F
100
AcDbEntity
  8
0
  6
Continuous
 62
     7
370
    25
100
AcDbLine
 10
140.0900275435
 20
115.5254587279
 30
0.0
 11
140.0900275435
 21
117.0618944084
 31
0.0
  0
LINE
  5
1EB
330
1F
100
AcDbEntity
  8
0
  6
Continuous
 62
     7
370
    25
100
AcDbLine
 10
140.1900273736
 20
117.0618944084
 30
0.0
 11
140.1900273736
 21
115.7602810049
 31
0.0
  0
LINE
  5
1EC
330
1F
100
AcDbEntity
  8
0
  6
Continuous
 62
     7
370
    25
100
AcDbLine
 10
139.6900277573
 20
108.261894456
 30
0.0
 11
140.0900275435
 21
108.261894456
 31
0.0
  0
LINE
  5
1ED
330
1F
100
AcDbEntity
  8
0
  6
Continuous
 62
     7
370
    25
100
AcDbLine
 10
140.0900275435
 20
108.261894456
 30
0.0
 11
140.0900275435
 21
109.7983301365
 31
0.0
  0
LINE
  5
1EE
330
1F
100
AcDbEntity
  8
0
  6
Continuous
 62
     7
370
    25
100
AcDbLine
 10
140.1900273736
 20
109.5635078595
 30
0.0
 11
140.1900273736
 21
108.261894456
 31
0.0
  0
LINE
  5
1EF
330
1F
100
AcDbEntity
  8
0
  6
Continuous
 62
     7
370
    25
100
AcDbLine
 10
140.1900273736
 20
108.261894456
 30
0.0
 11
140.0900275435
 21
108.261894456
 31
0.0
  0
ARC
  5
1F0
330
1F
100
AcDbEntity
  8
0
  6
Continuous
 62
     7
370
    25
100
AcDbCircle
 10
140.0900275673
 20
108.2618944322
 30
0.0
 40
0.0999999999999943
100
AcDbArc
 50
270.0
 51
0.0
  0
LINE
  5
1F1
330
1F
100
AcDbEntity
  8
0
  6
Continuous
 62
     7
370
    25
100
AcDbLine
 10
140.0900275435
 20
108.261894456
 30
0.0
 11
140.0900275435
 21
108.1618946259
 31
0.0
  0
LINE
  5
1F2
330
1F
100
AcDbEntity
  8
0
  6
Continuous
 62
     7
370
    25
100
AcDbLine
 10
140.0900275435
 20
108.1618946259
 30
0.0
 11
139.6900277573
 21
108.1618946259
 31
0.0
  0
SPLINE
  5
1F3
330
1F
100
AcDbEntity
  8
0
  6
Continuous
 62
     7
370
    25
100
AcDbSpline
210
0.0
220
0.0
230
1.0
 70
     8
 71
     3
 72
    12
 73
     8
 74
     0
 42
0.000000001
 43
0.00000001
 40
0.0
 40
0.0
 40
0.0
 40
0.0
 40
0.25
 40
0.25
 40
0.5
 40
0.5
 40
1.0
 40
1.0
 40
1.0
 40
1.0
 10
140.2193158820556
 20
116.9955030479782
 30
0.0
 10
140.2135458291228
 20
117.0011837176143
 30
0.0
 10
140.2083833154873
 20
117.0078818323424
 30
0.0
 10
140.1998500108292
 20
117.0218971163166
 30
0.0
 10
140.1964792198066
 20
117.0292142855625
 30
0.0
 10
140.1899193966851
 20
117.0499706215776
 30
0.0
 10
140.1900275673413
 20
117.0618944321999
 30
0.0
 10
140.1900275673413
 20
117.0618944321999
 30
0.0
  0
SPLINE
  5
1F4
330
1F
100
AcDbEntity
  8
0
  6
Continuous
 62
     7
370
    25
100
AcDbSpline
210
0.0
220
0.0
230
1.0
 70
     8
 71
     3
 72
    10
 73
     6
 74
     0
 42
0.000000001
 43
0.00000001
 40
0.0
 40
0.0
 40
0.0
 40
0.0
 40
0.5
 40
0.5
 40
1.0
 40
1.0
 40
1.0
 40
1.0
 10
140.2193158820556
 20
116.9955030479782
 30
0.0
 10
140.2308559879213
 20
116.984141708706
 30
0.0
 10
140.2441452636826
 20
116.9768265112832
 30
0.0
 10
140.2693424078326
 20
116.9678767860736
 30
0.0
 10
140.2812502762212
 20
116.9662422582868
 30
0.0
 10
140.2900275673414
 20
116.9662422582868
 30
0.0
  0
SPLINE
  5
1F5
330
1F
100
AcDbEntity
  8
0
  6
Continuous
 62
     7
370
    25
100
AcDbSpline
210
0.0
220
0.0
230
1.0
 70
     8
 71
     3
 72
    10
 73
     6
 74
     0
 42
0.000000001
 43
0.00000001
 40
0.0
 40
0.0
 40
0.0
 40
0.0
 40
0.5
 40
0.5
 40
1.0
 40
1.0
 40
1.0
 40
1.0
 10
140.2193158820556
 20
108.3282858164216
 30
0.0
 10
140.2308559879213
 20
108.3396471556938
 30
0.0
 10
140.2441452636826
 20
108.3469623531166
 30
0.0
 10
140.2693424078326
 20
108.3559120783262
 30
0.0
 10
140.2812502762212
 20
108.3575466061129
 30
0.0
 10
140.2900275673414
 20
108.3575466061129
 30
0.0
  0
SPLINE
  5
1F6
330
1F
100
AcDbEntity
  8
0
  6
Continuous
 62
     7
370
    25
100
AcDbSpline
210
0.0
220
0.0
230
1.0
 70
     8
 71
     3
 72
    12
 73
     8
 74
     0
 42
0.000000001
 43
0.00000001
 40
0.0
 40
0.0
 40
0.0
 40
0.0
 40
0.25
 40
0.25
 40
0.5
 40
0.5
 40
1.0
 40
1.0
 40
1.0
 40
1.0
 10
140.2193158820556
 20
108.3282858164216
 30
0.0
 10
140.2135458291228
 20
108.3226051467855
 30
0.0
 10
140.2083833154873
 20
108.3159070320573
 30
0.0
 10
140.1998500108292
 20
108.3018917480832
 30
0.0
 10
140.1964792198066
 20
108.2945745788372
 30
0.0
 10
140.1899193966851
 20
108.2738182428222
 30
0.0
 10
140.1900275673413
 20
108.2618944321999
 30
0.0
 10
140.1900275673413
 20
108.2618944321999
 30
0.0
  0
LINE
  5
1F7
330
1F
100
AcDbEntity
  8
0
  6
Continuous
 62
     7
370
    25
100
AcDbLine
 10
135.1900275436
 20
111.0547274797
 30
0.0
 11
135.1900275436
 21
114.2690613847
 31
0.0
  0
SPLINE
  5
1F8
330
1F
100
AcDbEntity
  8
0
  6
Continuous
 62
     7
370
    25
100
AcDbSpline
210
0.0
220
0.0
230
1.0
 70
     8
 71
     3
 72
    16
 73
    12
 74
     0
 42
0.000000001
 43
0.00000001
 40
0.0
 40
0.0
 40
0.0
 40
0.0
 40
0.25
 40
0.25
 40
0.5
 40
0.5
 40
0.625
 40
0.625
 40
0.75
 40
0.75
 40
1.0
 40
1.0
 40
1.0
 40
1.0
 10
136.6900275673414
 20
114.3939452397688
 30
0.0
 10
136.5730492497351
 20
114.3649412659879
 30
0.0
 10
136.4556866191338
 20
114.3342118298102
 30
0.0
 10
136.2171139771945
 20
114.2745754430499
 30
0.0
 10
136.0961074630094
 20
114.2452878324552
 30
0.0
 10
135.9051111894721
 20
114.2148173054589
 30
0.0
 10
135.8388200852221
 20
114.2070567161804
 30
0.0
 10
135.7061757117397
 20
114.2000777621747
 30
0.0
 10
135.6402242575023
 20
114.200855943816
 30
0.0
 10
135.4434188259293
 20
114.2151934086222
 30
0.0
 10
135.3140224945157
 20
114.2405546536104
 30
0.0
 10
135.1900275673413
 20
114.2690613381277
 30
0.0
  0
SPLINE
  5
1F9
330
1F
100
AcDbEntity
  8
0
  6
Continuous
 62
     7
370
    25
100
AcDbSpline
210
0.0
220
0.0
230
1.0
 70
     8
 71
     3
 72
    14
 73
    10
 74
     0
 42
0.000000001
 43
0.00000001
 40
0.0
 40
0.0
 40
0.0
 40
0.0
 40
0.25
 40
0.25
 40
0.5
 40
0.5
 40
0.75
 40
0.75
 40
1.0
 40
1.0
 40
1.0
 40
1.0
 10
135.1900275673413
 20
111.054727526272
 30
0.0
 10
135.3127888186729
 20
111.0829505862182
 30
0.0
 10
135.4408180796423
 20
111.1081181232389
 30
0.0
 10
135.7011922296842
 20
111.1276544673828
 30
0.0
 10
135.83506352173
 20
111.1197762766789
 30
0.0
 10
136.0898243458584
 20
111.0798558047785
 30
0.0
 10
136.2120147304442
 20
111.0504514218441
 30
0.0
 10
136.4535214537223
 20
110.9901538496314
 30
0.0
 10
136.5720452635081
 20
110.9590965299269
 30
0.0
 10
136.6900275673408
 20
110.929843624628
 30
0.0
  0
SPLINE
  5
1FA
330
1F
100
AcDbEntity
  8
0
  6
Continuous
 62
     7
370
    25
100
AcDbSpline
210
0.0
220
0.0
230
1.0
 70
    11
 71
     3
 72
    30
 73
    26
 74
     0
 42
0.000000001
 43
0.00000001
 40
0.0
 40
0.0
 40
0.0
 40
0.0
 40
0.0624999999999999
 40
0.0624999999999999
 40
0.1249999999999998
 40
0.1249999999999998
 40
0.2499999999999998
 40
0.2499999999999998
 40
0.3749999999999997
 40
0.3749999999999997
 40
0.4374999999999997
 40
0.4374999999999997
 40
0.4999999999999997
 40
0.4999999999999997
 40
0.5624999999999997
 40
0.5624999999999997
 40
0.6249999999999997
 40
0.6249999999999997
 40
0.7499999999999998
 40
0.7499999999999998
 40
0.8749999999999999
 40
0.8749999999999999
 40
0.9375
 40
0.9375
 40
1.0
 40
1.0
 40
1.0
 40
1.0
 10
135.723243822208
 20
112.2594633602019
 30
0.0
 10
135.6745674153192
 20
112.253347823135
 30
0.0
 10
135.6252252142367
 20
112.2612183847641
 30
0.0
 10
135.5364211869586
 20
112.2995229071522
 30
0.0
 10
135.4968534612051
 20
112.3295742729428
 30
0.0
 10
135.3996328595526
 20
112.4373424639943
 30
0.0
 10
135.3623371188017
 20
112.5325489302759
 30
0.0
 10
135.3486281696369
 20
112.7250963452793
 30
0.0
 10
135.3725435321624
 20
112.8246112324399
 30
0.0
 10
135.4501602280506
 20
112.9459526211421
 30
0.0
 10
135.4831355563105
 20
112.9822021545493
 30
0.0
 10
135.5616012077
 20
113.0382912647336
 30
0.0
 10
135.6075989834846
 20
113.0578978538314
 30
0.0
 10
135.7033810272059
 20
113.0704144850639
 30
0.0
 10
135.7536337242658
 20
113.0629061856992
 30
0.0
 10
135.8429922227658
 20
113.024719344415
 30
0.0
 10
135.8824818556969
 20
112.9948355826301
 30
0.0
 10
135.9799839236056
 20
112.8872810821112
 30
0.0
 10
136.0175316130655
 20
112.7928809990431
 30
0.0
 10
136.0315663432335
 20
112.5977086487246
 30
0.0
 10
136.0079485474712
 20
112.4998231652316
 30
0.0
 10
135.9296056348902
 20
112.3774028186757
 30
0.0
 10
135.8969382294697
 20
112.341571215163
 30
0.0
 10
135.818169502691
 20
112.285323210807
 30
0.0
 10
135.7719202290967
 20
112.2655788972688
 30
0.0
 10
135.723243822208
 20
112.2594633602019
 30
0.0
  0
SPLINE
  5
1FB
330
1F
100
AcDbEntity
  8
0
  6
Continuous
 62
     7
370
    25
100
AcDbSpline
210
0.0
220
0.0
230
1.0
 70
     8
 71
     3
 72
    14
 73
    10
 74
     0
 42
0.000000001
 43
0.00000001
 40
0.0
 40
0.0
 40
0.0
 40
0.0
 40
0.25
 40
0.25
 40
0.5
 40
0.5
 40
0.75
 40
0.75
 40
1.0
 40
1.0
 40
1.0
 40
1.0
 10
140.1904551393719
 20
117.1616176667399
 30
0.0
 10
140.1945335780742
 20
117.1616197515988
 30
0.0
 10
140.2004239390015
 20
117.1581298251244
 30
0.0
 10
140.2132333148738
 20
117.1433564666528
 30
0.0
 10
140.2201523298188
 20
117.1320730346556
 30
0.0
 10
140.2324238232937
 20
117.1009031822817
 30
0.0
 10
140.2348063112002
 20
117.0828238247836
 30
0.0
 10
140.2323778771128
 20
117.0422906652563
 30
0.0
 10
140.227566955119
 20
117.0198368632272
 30
0.0
 10
140.2193158820556
 20
116.9955030479782
 30
0.0
  0
SPLINE
  5
1FC
330
1F
100
AcDbEntity
  8
0
  6
Continuous
 62
     7
370
    25
100
AcDbSpline
210
0.0
220
0.0
230
1.0
 70
     8
 71
     3
 72
    12
 73
     8
 74
     0
 42
0.000000001
 43
0.00000001
 40
0.0
 40
0.0
 40
0.0
 40
0.0
 40
0.25
 40
0.25
 40
0.5
 40
0.5
 40
1.0
 40
1.0
 40
1.0
 40
1.0
 10
140.1904551393719
 20
117.1616176667399
 30
0.0
 10
140.1863767006696
 20
117.1616155818811
 30
0.0
 10
140.1833966663058
 20
117.1581211209455
 30
0.0
 10
140.17774086695
 20
117.1494287113192
 30
0.0
 10
140.1750651019581
 20
117.1442307626285
 30
0.0
 10
140.1646554020828
 20
117.1340035815207
 30
0.0
 10
140.1607695328366
 20
117.1325738229419
 30
0.0
 10
140.1607382454579
 20
117.1326051103206
 30
0.0
  0
SPLINE
  5
1FD
330
1F
100
AcDbEntity
  8
0
  6
Continuous
 62
     7
370
    25
100
AcDbSpline
210
0.0
220
0.0
230
1.0
 70
     8
 71
     3
 72
     9
 73
     5
 74
     0
 42
0.000000001
 43
0.00000001
 40
0.0
 40
0.0
 40
0.0
 40
0.0
 40
0.4116823612663844
 40
0.9999999999999999
 40
0.9999999999999999
 40
0.9999999999999999
 40
0.9999999999999999
 10
140.113302691623
 20
117.1620856252739
 30
0.0
 10
140.1238909501938
 20
117.1622254312935
 30
0.0
 10
140.1496104358145
 20
117.1625650281109
 30
0.0
 10
140.1753262495401
 20
117.1619685526908
 30
0.0
 10
140.1904553163493
 20
117.1616176356801
 30
0.0
  0
SPLINE
  5
1FE
330
1F
100
AcDbEntity
  8
0
  6
Continuous
 62
     7
370
    25
100
AcDbSpline
210
0.0
220
0.0
230
1.0
 70
     8
 71
     3
 72
    12
 73
     8
 74
     0
 42
0.000000001
 43
0.00000001
 40
0.0
 40
0.0
 40
0.0
 40
0.0
 40
0.25
 40
0.25
 40
0.5
 40
0.5
 40
1.0
 40
1.0
 40
1.0
 40
1.0
 10
140.1904551393719
 20
108.1621711976598
 30
0.0
 10
140.1863767006696
 20
108.1621732825187
 30
0.0
 10
140.1833966663058
 20
108.1656677434542
 30
0.0
 10
140.17774086695
 20
108.1743601530805
 30
0.0
 10
140.1750651019581
 20
108.1795581017713
 30
0.0
 10
140.1646554020828
 20
108.189785282879
 30
0.0
 10
140.1607695328366
 20
108.1912150414578
 30
0.0
 10
140.1607382454579
 20
108.1911837540792
 30
0.0
  0
SPLINE
  5
1FF
330
1F
100
AcDbEntity
  8
0
  6
Continuous
 62
     7
370
    25
100
AcDbSpline
210
0.0
220
0.0
230
1.0
 70
     8
 71
     3
 72
    12
 73
     8
 74
     0
 42
0.000000001
 43
0.00000001
 40
0.0
 40
0.0
 40
0.0
 40
0.0
 40
0.25
 40
0.25
 40
0.5
 40
0.5
 40
1.0
 40
1.0
 40
1.0
 40
1.0
 10
140.1904551393719
 20
108.1621711976598
 30
0.0
 10
140.1945335780742
 20
108.162169112801
 30
0.0
 10
140.2004239390015
 20
108.1656590392754
 30
0.0
 10
140.2132333148738
 20
108.180432397747
 30
0.0
 10
140.2201523298188
 20
108.1917158297442
 30
0.0
 10
140.2385595700312
 20
108.238470608305
 30
0.0
 10
140.2358180281823
 20
108.2796181859236
 30
0.0
 10
140.2193158820556
 20
108.3282858164216
 30
0.0
  0
SPLINE
  5
200
330
1F
100
AcDbEntity
  8
0
  6
Continuous
 62
     7
370
    25
100
AcDbSpline
210
0.0
220
0.0
230
1.0
 70
     8
 71
     3
 72
     9
 73
     5
 74
     0
 42
0.000000001
 43
0.00000001
 40
0.0
 40
0.0
 40
0.0
 40
0.0
 40
0.4116823612663844
 40
0.9999999999999999
 40
0.9999999999999999
 40
0.9999999999999999
 40
0.9999999999999999
 10
140.113302691623
 20
108.1617032391259
 30
0.0
 10
140.1238909501938
 20
108.1615634331062
 30
0.0
 10
140.1496104358145
 20
108.1612238362888
 30
0.0
 10
140.1753262495401
 20
108.1618203117089
 30
0.0
 10
140.1904553163493
 20
108.1621712287196
 30
0.0
  0
SPLINE
  5
201
330
1F
100
AcDbEntity
  8
0
  6
Continuous
 62
     7
370
    25
100
AcDbSpline
210
0.0
220
0.0
230
1.0
 70
     8
 71
     3
 72
    10
 73
     6
 74
     0
 42
0.000000001
 43
0.00000001
 40
0.0
 40
0.0
 40
0.0
 40
0.0
 40
0.5
 40
0.5
 40
1.0
 40
1.0
 40
1.0
 40
1.0
 10
140.1904551393719
 20
117.1616176667399
 30
0.0
 10
140.206768894181
 20
117.1616260061753
 30
0.0
 10
140.224128738044
 20
117.1617210248953
 30
0.0
 10
140.25977981771
 20
117.1600896154015
 30
0.0
 10
140.2730028813264
 20
117.1618944321999
 30
0.0
 10
140.2900275673414
 20
117.1618944321999
 30
0.0
  0
SPLINE
  5
202
330
1F
100
AcDbEntity
  8
0
  6
Continuous
 62
     7
370
    25
100
AcDbSpline
210
0.0
220
0.0
230
1.0
 70
     8
 71
     3
 72
    10
 73
     6
 74
     0
 42
0.000000001
 43
0.00000001
 40
0.0
 40
0.0
 40
0.0
 40
0.0
 40
0.5
 40
0.5
 40
1.0
 40
1.0
 40
1.0
 40
1.0
 10
140.1904551393719
 20
108.1621711976598
 30
0.0
 10
140.206768894181
 20
108.1621628582245
 30
0.0
 10
140.224128738044
 20
108.1620678395045
 30
0.0
 10
140.25977981771
 20
108.1636992489982
 30
0.0
 10
140.2730028813264
 20
108.1618944321999
 30
0.0
 10
140.2900275673414
 20
108.1618944321999
 30
0.0
  0
SPLINE
  5
203
330
1F
100
AcDbEntity
  8
0
  6
Continuous
 62
     7
370
    25
100
AcDbSpline
210
0.0
220
0.0
230
1.0
 70
     8
 71
     3
 72
    20
 73
    16
 74
     0
 42
0.000000001
 43
0.00000001
 40
0.0
 40
0.0
 40
0.0
 40
0.0
 40
0.2499999999999998
 40
0.2499999999999998
 40
0.3749999999999998
 40
0.3749999999999998
 40
0.4374999999999998
 40
0.4374999999999998
 40
0.4999999999999998
 40
0.4999999999999998
 40
0.6249999999999998
 40
0.6249999999999998
 40
0.7499999999999998
 40
0.7499999999999998
 40
1.0
 40
1.0
 40
1.0
 40
1.0
 10
135.1900275673413
 20
114.2690613381277
 30
0.0
 10
135.1150702856092
 20
114.0163312280848
 30
0.0
 10
135.0668895601977
 20
113.7590662428435
 30
0.0
 10
135.0536453190271
 20
113.363165657222
 30
0.0
 10
135.0592965165726
 20
113.2293947095581
 30
0.0
 10
135.0756080013258
 20
113.0232344408506
 30
0.0
 10
135.0821800735696
 20
112.9539015360328
 30
0.0
 10
135.0930800911677
 20
112.8116402624203
 30
0.0
 10
135.0971320001551
 20
112.7373221503787
 30
0.0
 10
135.0973482776095
 20
112.517699384319
 30
0.0
 10
135.0815151249505
 20
112.3739418790608
 30
0.0
 10
135.0596953701945
 20
112.1006574333952
 30
0.0
 10
135.0537129509262
 20
111.9675725478096
 30
0.0
 10
135.066153491392
 20
111.5693970154185
 30
0.0
 10
135.1150505170679
 20
111.3075242890205
 30
0.0
 10
135.1900275673413
 20
111.054727526272
 30
0.0
  0
LINE
  5
204
330
1F
100
AcDbEntity
  8
0
  6
Continuous
 62
     8
370
    25
100
AcDbLine
 10
142.950797173
 20
118.5118942735
 30
0.0
 11
142.950797173
 21
106.8118945909
 31
0.0
  0
LINE
  5
205
330
1F
100
AcDbEntity
  8
0
  6
Continuous
 62
     8
370
    25
100
AcDbLine
 10
152.3507979687
 20
118.5118942735
 30
0.0
 11
152.3507979687
 21
106.8118945909
 31
0.0
  0
LINE
  5
206
330
1F
100
AcDbEntity
  8
0
  6
Continuous
 62
     8
370
    25
100
AcDbLine
 10
133.271421491
 20
117.0618944084
 30
0.0
 11
132.2900275223
 21
117.0618944084
 31
0.0
  0
LINE
  5
207
330
1F
100
AcDbEntity
  8
0
  6
Continuous
 62
     8
370
    25
100
AcDbLine
 10
132.2900275223
 20
117.0618944084
 30
0.0
 11
132.2900275223
 21
116.3564385128
 31
0.0
  0
LINE
  5
208
330
1F
100
AcDbEntity
  8
0
  6
Continuous
 62
     8
370
    25
100
AcDbLine
 10
139.1900276754
 20
117.0618944084
 30
0.0
 11
138.1086336437
 21
117.0618944084
 31
0.0
  0
LINE
  5
209
330
1F
100
AcDbEntity
  8
0
  6
Continuous
 62
     8
370
    25
100
AcDbLine
 10
139.0900276124
 20
108.261894456
 30
0.0
 11
139.0900276124
 21
108.9673503516
 31
0.0
  0
LINE
  5
20A
330
1F
100
AcDbEntity
  8
0
  6
Continuous
 62
     8
370
    25
100
AcDbLine
 10
138.1086336437
 20
108.261894456
 30
0.0
 11
139.0900276124
 21
108.261894456
 31
0.0
  0
LINE
  5
20B
330
1F
100
AcDbEntity
  8
0
  6
Continuous
 62
     8
370
    25
100
AcDbLine
 10
132.2900275223
 20
108.261894456
 30
0.0
 11
133.271421491
 21
108.261894456
 31
0.0
  0
LINE
  5
20C
330
1F
100
AcDbEntity
  8
0
  6
Continuous
 62
     8
370
    25
100
AcDbLine
 10
132.2900275223
 20
108.9673503516
 30
0.0
 11
132.2900275223
 21
108.261894456
 31
0.0
  0
LINE
  5
20D
330
1F
100
AcDbEntity
  8
0
  6
Continuous
 62
     8
370
    25
100
AcDbLine
 10
139.8568369437
 20
109.8605816
 30
0.0
 11
140.0900275435
 21
109.8605816
 31
0.0
  0
LINE
  5
20E
330
1F
100
AcDbEntity
  8
0
  6
Continuous
 62
     8
370
    25
100
AcDbLine
 10
140.0900275435
 20
115.4632072644
 30
0.0
 11
139.8568369437
 21
115.4632072644
 31
0.0
  0
LINE
  5
20F
330
1F
100
AcDbEntity
  8
0
  6
Continuous
 62
     8
370
    25
100
AcDbLine
 10
139.6900277573
 20
115.6966358171
 30
0.0
 11
139.6900277573
 21
117.0618944084
 31
0.0
  0
LINE
  5
210
330
1F
100
AcDbEntity
  8
0
  6
Continuous
 62
     8
370
    25
100
AcDbLine
 10
139.6900277573
 20
108.261894456
 30
0.0
 11
139.6900277573
 21
109.6271530473
 31
0.0
  0
LINE
  5
211
330
1F
100
AcDbEntity
  8
0
  6
Continuous
 62
     8
370
    25
100
AcDbLine
 10
139.8143039073
 20
115.5254587279
 30
0.0
 11
140.0900275435
 21
115.5254587279
 31
0.0
  0
LINE
  5
212
330
1F
100
AcDbEntity
  8
0
  6
Continuous
 62
     8
370
    25
100
AcDbLine
 10
140.0900275435
 20
109.7983301365
 30
0.0
 11
139.8143039073
 21
109.7983301365
 31
0.0
  0
SPLINE
  5
213
330
1F
100
AcDbEntity
  8
0
  6
Continuous
 62
     8
370
    25
100
AcDbSpline
210
0.0
220
0.0
230
1.0
 70
     8
 71
     3
 72
    14
 73
    10
 74
     0
 42
0.000000001
 43
0.00000001
 40
0.0
 40
0.0
 40
0.0
 40
0.0
 40
0.25
 40
0.25
 40
0.5
 40
0.5
 40
0.75
 40
0.75
 40
1.0
 40
1.0
 40
1.0
 40
1.0
 10
140.9400275673413
 20
117.4618944321999
 30
0.0
 10
140.940027573158
 20
117.4618944324777
 30
0.0
 10
140.9642834395946
 20
117.4602376944977
 30
0.0
 10
141.055862905872
 20
117.456259495158
 30
0.0
 10
141.1224965552444
 20
117.4543375779257
 30
0.0
 10
141.2579643805125
 20
117.4543279693684
 30
0.0
 10
141.3248311767497
 20
117.4562860417357
 30
0.0
 10
141.4155642870467
 20
117.4602296658486
 30
0.0
 10
141.4400182765739
 20
117.4618946172545
 30
0.0
 10
141.4400275670423
 20
117.4618944321824
 30
0.0
  0
LWPOLYLINE
  5
214
330
1F
100
AcDbEntity
  8
0
  6
Continuous
 62
     8
370
    25
100
AcDbPolyline
 90
       13
 70
   128
 43
0.0
 10
141.6900243599
 20
117.2118941535
 10
141.6900276195
 20
117.2118946192
 10
141.6610020201
 20
117.207961644
 10
141.5765222151
 20
117.1978549314
 10
141.4472178545
 20
117.1862362166
 10
141.2890555326
 20
117.1783665409
 10
141.1206933658
 20
117.1776731712
 10
140.9625343036
 20
117.1842292165
 10
140.8297221165
 20
117.1951377978
 10
140.736479963
 20
117.2057287981
 10
140.692641678
 20
117.2115258155
 10
140.6900274556
 20
117.2118946192
 10
140.6900274556
 20
117.2118946192
  0
INSERT
  5
220
330
1F
100
AcDbEntity
  8
0
  6
Continuous
 62
     7
370
    18
100
AcDbBlockReference
  2
SW_CENTERMARKSYMBOL_0
 10
135.6900275673
 20
112.6618944322
 30
0.0
  0
LINE
  5
221
330
1F
100
AcDbEntity
  8
0
  6
Continuous
 62
     7
370
    25
100
AcDbLine
 10
201.2730182488
 20
80.5682835829
 30
0.0
 11
201.0343761523
 21
88.2048316029
 31
0.0
  0
LINE
  5
222
330
1F
100
AcDbEntity
  8
0
  6
Continuous
 62
     7
370
    25
100
AcDbLine
 10
191.4698171769
 20
88.2048316029
 30
0.0
 11
191.2311750804
 21
80.5682835829
 31
0.0
  0
ARC
  5
223
330
1F
100
AcDbEntity
  8
0
  6
Continuous
 62
     7
370
    25
100
AcDbCircle
 10
191.3020966646
 20
80.8597802279
 30
0.0
 40
0.2999999999999972
100
AcDbArc
 50
256.3254917117
 51
270.0
  0
ARC
  5
224
330
1F
100
AcDbEntity
  8
0
  6
Continuous
 62
     7
370
    25
100
AcDbCircle
 10
201.2020966646
 20
80.8597802279
 30
0.0
 40
0.2999999999999972
100
AcDbArc
 50
270.0
 51
283.6745082883
  0
ARC
  5
225
330
1F
100
AcDbEntity
  8
0
  6
Continuous
 62
     7
370
    25
100
AcDbCircle
 10
191.4520966646
 20
80.2597802279
 30
0.0
 40
0.3000000000000398
100
AcDbArc
 50
0.0
 51
90.0
  0
ARC
  5
226
330
1F
100
AcDbEntity
  8
0
  6
Continuous
 62
     7
370
    25
100
AcDbCircle
 10
201.0520966646
 20
80.2597802279
 30
0.0
 40
0.3000000000000114
100
AcDbArc
 50
90.0
 51
180.0
  0
LINE
  5
227
330
1F
100
AcDbEntity
  8
0
  6
Continuous
 62
     7
370
    25
100
AcDbLine
 10
201.0343761523
 20
88.2048316029
 30
0.0
 11
200.2520968546
 21
89.5597811517
 31
0.0
  0
LINE
  5
228
330
1F
100
AcDbEntity
  8
0
  6
Continuous
 62
     7
370
    25
100
AcDbLine
 10
192.2520964746
 20
89.5597811517
 30
0.0
 11
191.4698171769
 21
88.2048316029
 31
0.0
  0
LINE
  5
229
330
1F
100
AcDbEntity
  8
0
  6
Continuous
 62
     7
370
    25
100
AcDbLine
 10
200.7520964709
 20
77.1597803299
 30
0.0
 11
200.7520964709
 21
80.2597801861
 31
0.0
  0
LINE
  5
22A
330
1F
100
AcDbEntity
  8
0
  6
Continuous
 62
     7
370
    25
100
AcDbLine
 10
191.7520968583
 20
80.2597801861
 30
0.0
 11
191.7520968583
 21
77.1597803299
 31
0.0
  0
CIRCLE
  5
22B
330
1F
100
AcDbEntity
  8
0
  6
Continuous
 62
     7
370
    25
100
AcDbCircle
 10
196.2520966646
 20
72.5597802279
 30
0.0
 40
2.199999999999995
  0
CIRCLE
  5
22C
330
1F
100
AcDbEntity
  8
0
  6
Continuous
 62
     7
370
    25
100
AcDbCircle
 10
196.2520966646
 20
72.5597802279
 30
0.0
 40
1.999999999999971
  0
CIRCLE
  5
22D
330
1F
100
AcDbEntity
  8
0
  6
Continuous
 62
     7
370
    25
100
AcDbCircle
 10
196.2520966646
 20
72.5597802279
 30
0.0
 40
2.487092383559048
  0
CIRCLE
  5
22E
330
1F
100
AcDbEntity
  8
0
  6
Continuous
 62
     7
370
    25
100
AcDbCircle
 10
196.2520966646
 20
72.5597802279
 30
0.0
 40
2.898118820812902
  0
CIRCLE
  5
22F
330
1F
100
AcDbEntity
  8
0
  6
Continuous
 62
     7
370
    25
100
AcDbCircle
 10
196.2520966646
 20
72.5597802279
 30
0.0
 40
3.499999999999987
  0
CIRCLE
  5
230
330
1F
100
AcDbEntity
  8
0
  6
Continuous
 62
     7
370
    25
100
AcDbCircle
 10
196.2520966646
 20
72.5597802279
 30
0.0
 40
5.550000000000011
  0
CIRCLE
  5
231
330
1F
100
AcDbEntity
  8
0
  6
Continuous
 62
     7
370
    25
100
AcDbCircle
 10
196.2520966646
 20
72.5597802279
 30
0.0
 40
3.75
  0
CIRCLE
  5
232
330
1F
100
AcDbEntity
  8
0
  6
Continuous
 62
     7
370
    25
100
AcDbCircle
 10
196.2520966646
 20
72.5597802279
 30
0.0
 40
3.650000000000006
  0
CIRCLE
  5
233
330
1F
100
AcDbEntity
  8
0
  6
Continuous
 62
     7
370
    25
100
AcDbCircle
 10
196.2520966646
 20
72.5597802279
 30
0.0
 40
5.849999999999994
  0
SPLINE
  5
234
330
1F
100
AcDbEntity
  8
0
  6
Continuous
 62
     7
370
    25
100
AcDbSpline
210
0.0
220
0.0
230
1.0
 70
     8
 71
     3
 72
    15
 73
    11
 74
     0
 42
0.000000001
 43
0.00000001
 40
0.0
 40
0.0
 40
0.0
 40
0.0
 40
0.1323034044858545
 40
0.2645694377362696
 40
0.3997942122513925
 40
0.5349945561187377
 40
0.6501872157956826
 40
0.7653979212125015
 40
0.8826876522551532
 40
1.0
 40
1.0
 40
1.0
 40
1.0
 10
196.2520966645798
 20
79.48798338966044
 30
0.0
 10
196.5113169758191
 20
79.33832245003907
 30
0.0
 10
197.0296843773301
 20
79.0390428449482
 30
0.0
 10
197.8279237932125
 20
78.57817950917567
 30
0.0
 10
198.6412097741579
 20
78.10862814389516
 30
0.0
 10
199.4250428190719
 20
77.65608236702364
 30
0.0
 10
200.1665370231114
 20
77.22798022563383
 30
0.0
 10
200.8663335062981
 20
76.82395259061342
 30
0.0
 10
201.5629657871862
 20
76.42175179235433
 30
0.0
 10
202.02237164395
 20
76.15651366000859
 30
0.0
 10
202.2520967167339
 20
76.02388180875751
 30
0.0
  0
SPLINE
  5
235
330
1F
100
AcDbEntity
  8
0
  6
Continuous
 62
     7
370
    25
100
AcDbSpline
210
0.0
220
0.0
230
1.0
 70
    24
 71
     3
 72
    15
 73
    11
 74
     0
 42
0.000000001
 43
0.00000001
 40
0.0
 40
0.0
 40
0.0
 40
0.0
 40
0.1851354742403404
 40
0.2785614392311906
 40
0.3719777080737141
 40
0.4971004156915072
 40
0.6222225595785416
 40
0.7506803973953141
 40
0.8791734331540817
 40
1.0
 40
1.0
 40
1.0
 40
1.0
 10
202.2520967167339
 20
76.02388180875751
 30
0.0
 10
202.2520967167339
 20
75.60430033710064
 30
0.0
 10
202.2520967167339
 20
74.97298308631949
 30
0.0
 10
202.2520967167339
 20
74.1126929559218
 30
0.0
 10
202.2520967167339
 20
73.38603807501866
 30
0.0
 10
202.2520967167339
 20
72.58016825798713
 30
0.0
 10
202.2520967167339
 20
71.69202392696403
 30
0.0
 10
202.2520967167339
 20
70.80246961404089
 30
0.0
 10
202.2520967167339
 20
69.93273072316
 30
0.0
 10
202.2520967167339
 20
69.3689169970597
 30
0.0
 10
202.2520967167339
 20
69.09567864695164
 30
0.0
  0
SPLINE
  5
236
330
1F
100
AcDbEntity
  8
0
  6
Continuous
 62
     7
370
    25
100
AcDbSpline
210
0.0
220
0.0
230
1.0
 70
     8
 71
     3
 72
    15
 73
    11
 74
     0
 42
0.000000001
 43
0.00000001
 40
0.0
 40
0.0
 40
0.0
 40
0.0
 40
0.1323034065789975
 40
0.2645694397754994
 40
0.3997942284844672
 40
0.534994572296703
 40
0.6501872605422818
 40
0.7653979375013971
 40
0.8826876544481261
 40
1.0
 40
1.0
 40
1.0
 40
1.0
 10
202.2520967167339
 20
69.09567864695164
 30
0.0
 10
201.9928764547708
 20
68.94601761139096
 30
0.0
 10
201.4745091560037
 20
68.64673781687661
 30
0.0
 10
200.6762696795407
 20
68.1858745121175
 30
0.0
 10
199.8629836186194
 20
67.71632321384746
 30
0.0
 10
199.0791505370998
 20
67.26377730250039
 30
0.0
 10
198.337656202218
 20
66.83567538050872
 30
0.0
 10
197.6378598544609
 20
66.43164758477495
 30
0.0
 10
196.9412277256905
 20
66.02944673816621
 30
0.0
 10
196.4818217889911
 20
65.76420881795289
 30
0.0
 10
196.2520966645798
 20
65.6315770660487
 30
0.0
  0
SPLINE
  5
237
330
1F
100
AcDbEntity
  8
0
  6
Continuous
 62
     7
370
    25
100
AcDbSpline
210
0.0
220
0.0
230
1.0
 70
     8
 71
     3
 72
    15
 73
    11
 74
     0
 42
0.000000001
 43
0.00000001
 40
0.0
 40
0.0
 40
0.0
 40
0.0
 40
0.1323034044858494
 40
0.2645694377362653
 40
0.3997942122513891
 40
0.534994556118735
 40
0.6501872157956806
 40
0.7653979212125
 40
0.8826876522551527
 40
1.0
 40
1.0
 40
1.0
 40
1.0
 10
196.2520966645798
 20
65.6315770660487
 30
0.0
 10
195.9928763533405
 20
65.78123800567006
 30
0.0
 10
195.4745089518296
 20
66.08051761076095
 30
0.0
 10
194.6762695359471
 20
66.54138094653347
 30
0.0
 10
193.8629835550017
 20
67.01093231181399
 30
0.0
 10
193.0791505100877
 20
67.46347808868548
 30
0.0
 10
192.3376563060482
 20
67.8915802300753
 30
0.0
 10
191.6378598228615
 20
68.29560786509573
 30
0.0
 10
190.9412275419734
 20
68.69780866335482
 30
0.0
 10
190.4818216852096
 20
68.96304679570056
 30
0.0
 10
190.2520966124257
 20
69.09567864695164
 30
0.0
  0
SPLINE
  5
238
330
1F
100
AcDbEntity
  8
0
  6
Continuous
 62
     7
370
    25
100
AcDbSpline
210
0.0
220
0.0
230
1.0
 70
    24
 71
     3
 72
    15
 73
    11
 74
     0
 42
0.000000001
 43
0.00000001
 40
0.0
 40
0.0
 40
0.0
 40
0.0
 40
0.1208268626113046
 40
0.2461021415051922
 40
0.3713454778940315
 40
0.4996840359460464
 40
0.6280225296663987
 40
0.7205443478855924
 40
0.8130754758583989
 40
1.0
 40
1.0
 40
1.0
 40
1.0
 10
190.2520966124257
 20
69.09567864695164
 30
0.0
 10
190.2520966124257
 20
69.36891601781295
 30
0.0
 10
190.2520966124257
 20
69.92545038984693
 30
0.0
 10
190.2520966124257
 20
70.78019880757269
 30
0.0
 10
190.2520966124257
 20
71.66187943055347
 30
0.0
 10
190.2520966124258
 20
72.5575038003375
 30
0.0
 10
190.2520966124257
 20
73.37645308933477
 30
0.0
 10
190.2520966124257
 20
74.10644371777325
 30
0.0
 10
190.2520966124257
 20
74.96683797673765
 30
0.0
 10
190.2520966124257
 20
75.60022011523675
 30
0.0
 10
190.2520966124257
 20
76.02388180875751
 30
0.0
  0
SPLINE
  5
239
330
1F
100
AcDbEntity
  8
0
  6
Continuous
 62
     7
370
    25
100
AcDbSpline
210
0.0
220
0.0
230
1.0
 70
     8
 71
     3
 72
    15
 73
    11
 74
     0
 42
0.000000001
 43
0.00000001
 40
0.0
 40
0.0
 40
0.0
 40
0.0
 40
0.1323034065789983
 40
0.2645694397755009
 40
0.3997942284844695
 40
0.5349945722967061
 40
0.6501872605422856
 40
0.7653979375014015
 40
0.8826876544481312
 40
1.0
 40
1.0
 40
1.0
 40
1.0
 10
190.2520966124257
 20
76.02388180875751
 30
0.0
 10
190.5113168743888
 20
76.17354284431818
 30
0.0
 10
191.0296841731559
 20
76.47282263883254
 30
0.0
 10
191.8279236496189
 20
76.93368594359164
 30
0.0
 10
192.6412097105402
 20
77.40323724186169
 30
0.0
 10
193.4250427920598
 20
77.85578315320875
 30
0.0
 10
194.1665371269416
 20
78.28388507520043
 30
0.0
 10
194.8663334746987
 20
78.68791287093418
 30
0.0
 10
195.5629656034691
 20
79.0901137175429
 30
0.0
 10
196.0223715401685
 20
79.35535163775624
 30
0.0
 10
196.2520966645798
 20
79.48798338966044
 30
0.0
  0
LINE
  5
23A
330
1F
100
AcDbEntity
  8
0
  6
Continuous
 62
     7
370
    25
100
AcDbLine
 10
201.0343761523
 20
88.2048316029
 30
0.0
 11
191.4698171769
 21
88.2048316029
 31
0.0
  0
LINE
  5
23B
330
1F
100
AcDbEntity
  8
0
  6
Continuous
 62
     7
370
    25
100
AcDbLine
 10
196.2520966646
 20
80.5682835829
 30
0.0
 11
191.2311750804
 21
80.5682835829
 31
0.0
  0
LINE
  5
23C
330
1F
100
AcDbEntity
  8
0
  6
Continuous
 62
     7
370
    25
100
AcDbLine
 10
201.2730182488
 20
80.5682835829
 30
0.0
 11
196.2520966646
 21
80.5682835829
 31
0.0
  0
LINE
  5
23D
330
1F
100
AcDbEntity
  8
0
  6
Continuous
 62
     7
370
    25
100
AcDbLine
 10
196.2520966646
 20
80.5597806078
 30
0.0
 11
191.3020966914
 21
80.5597806078
 31
0.0
  0
LINE
  5
23E
330
1F
100
AcDbEntity
  8
0
  6
Continuous
 62
     7
370
    25
100
AcDbLine
 10
201.2020966378
 20
80.5597806078
 30
0.0
 11
196.2520966646
 21
80.5597806078
 31
0.0
  0
LINE
  5
23F
330
1F
100
AcDbEntity
  8
0
  6
Continuous
 62
     7
370
    25
100
AcDbLine
 10
196.2520966646
 20
89.5597811517
 30
0.0
 11
200.2520968546
 21
89.5597811517
 31
0.0
  0
LINE
  5
240
330
1F
100
AcDbEntity
  8
0
  6
Continuous
 62
     7
370
    25
100
AcDbLine
 10
192.2520964746
 20
89.5597811517
 30
0.0
 11
196.2520966646
 21
89.5597811517
 31
0.0
  0
SPLINE
  5
241
330
1F
100
AcDbEntity
  8
0
  6
Continuous
 62
     7
370
    25
100
AcDbSpline
210
0.0
220
0.0
230
1.0
 70
    24
 71
     3
 72
    14
 73
    10
 74
     0
 42
0.000000001
 43
0.00000001
 40
0.0
 40
0.0
 40
0.0
 40
0.0
 40
0.25
 40
0.25
 40
0.5
 40
0.5
 40
0.75
 40
0.75
 40
1.0
 40
1.0
 40
1.0
 40
1.0
 10
191.7520966645798
 20
77.15978022785457
 30
0.0
 10
191.7520966645798
 20
77.15978022785457
 30
0.0
 10
191.7561397935025
 20
77.15978022785457
 30
0.0
 10
191.7723359262077
 20
77.15978022785457
 30
0.0
 10
191.7844889830441
 20
77.15978022785457
 30
0.0
 10
191.8169751348729
 20
77.15978022785457
 30
0.0
 10
191.8373083379909
 20
77.15978022785457
 30
0.0
 10
191.8862690841348
 20
77.15978022785457
 30
0.0
 10
191.9148967943657
 20
77.15978022785457
 30
0.0
 10
191.9477488384929
 20
77.15978022785457
 30
0.0
  0
SPLINE
  5
242
330
1F
100
AcDbEntity
  8
0
  6
Continuous
 62
     7
370
    25
100
AcDbSpline
210
0.0
220
0.0
230
1.0
 70
    24
 71
     3
 72
    14
 73
    10
 74
     0
 42
0.000000001
 43
0.00000001
 40
0.0
 40
0.0
 40
0.0
 40
0.0
 40
0.25
 40
0.25
 40
0.5
 40
0.5
 40
0.75
 40
0.75
 40
1.0
 40
1.0
 40
1.0
 40
1.0
 10
200.7520966645798
 20
77.15978022785457
 30
0.0
 10
200.7520966645798
 20
77.15978022785457
 30
0.0
 10
200.7480535356571
 20
77.15978022785457
 30
0.0
 10
200.7318574029519
 20
77.15978022785457
 30
0.0
 10
200.7197043461155
 20
77.15978022785457
 30
0.0
 10
200.6872181942866
 20
77.15978022785457
 30
0.0
 10
200.6668849911688
 20
77.15978022785457
 30
0.0
 10
200.6179242450249
 20
77.15978022785457
 30
0.0
 10
200.5892965347939
 20
77.15978022785457
 30
0.0
 10
200.5564444906668
 20
77.15978022785457
 30
0.0
  0
SPLINE
  5
243
330
1F
100
AcDbEntity
  8
0
  6
Continuous
 62
     7
370
    25
100
AcDbSpline
210
0.0
220
0.0
230
1.0
 70
     8
 71
     3
 72
    10
 73
     6
 74
     0
 42
0.000000001
 43
0.00000001
 40
0.0
 40
0.0
 40
0.0
 40
0.0
 40
0.5
 40
0.5
 40
1.0
 40
1.0
 40
1.0
 40
1.0
 10
200.5857052803581
 20
77.08906854256885
 30
0.0
 10
200.5743439410859
 20
77.10060864843454
 30
0.0
 10
200.5670287436631
 20
77.11389792419588
 30
0.0
 10
200.5580790184535
 20
77.13909506834582
 30
0.0
 10
200.5564444906668
 20
77.1510029367344
 30
0.0
 10
200.5564444906668
 20
77.15978022785457
 30
0.0
  0
SPLINE
  5
244
330
1F
100
AcDbEntity
  8
0
  6
Continuous
 62
     7
370
    25
100
AcDbSpline
210
0.0
220
0.0
230
1.0
 70
     8
 71
     3
 72
    12
 73
     8
 74
     0
 42
0.000000001
 43
0.00000001
 40
0.0
 40
0.0
 40
0.0
 40
0.0
 40
0.25
 40
0.25
 40
0.5
 40
0.5
 40
1.0
 40
1.0
 40
1.0
 40
1.0
 10
200.5857052803581
 20
77.08906854256885
 30
0.0
 10
200.5913859499942
 20
77.08329848963601
 30
0.0
 10
200.5980840647223
 20
77.07813597600055
 30
0.0
 10
200.6120993486965
 20
77.06960267134245
 30
0.0
 10
200.6194165179424
 20
77.06623188031983
 30
0.0
 10
200.6401728539575
 20
77.05967205719836
 30
0.0
 10
200.6520966645798
 20
77.05978022785456
 30
0.0
 10
200.6520966645798
 20
77.05978022785456
 30
0.0
  0
LINE
  5
245
330
1F
100
AcDbEntity
  8
0
  6
Continuous
 62
     7
370
    25
100
AcDbLine
 10
191.7520968583
 20
76.959780204
 30
0.0
 11
191.8520966884
 21
76.959780204
 31
0.0
  0
LINE
  5
246
330
1F
100
AcDbEntity
  8
0
  6
Continuous
 62
     7
370
    25
100
AcDbLine
 10
191.7520968583
 20
76.8899072622
 30
0.0
 11
191.7520968583
 21
76.959780204
 31
0.0
  0
LINE
  5
247
330
1F
100
AcDbEntity
  8
0
  6
Continuous
 62
     7
370
    25
100
AcDbLine
 10
200.4578679208
 20
77.0597800341
 30
0.0
 11
200.6520966407
 21
77.0597800341
 31
0.0
  0
LINE
  5
248
330
1F
100
AcDbEntity
  8
0
  6
Continuous
 62
     7
370
    25
100
AcDbLine
 10
191.8520966884
 20
77.0597800341
 30
0.0
 11
192.0463254083
 21
77.0597800341
 31
0.0
  0
LINE
  5
249
330
1F
100
AcDbEntity
  8
0
  6
Continuous
 62
     7
370
    25
100
AcDbLine
 10
191.8520966884
 20
76.959780204
 30
0.0
 11
191.8520966884
 21
77.0597800341
 31
0.0
  0
ARC
  5
24A
330
1F
100
AcDbEntity
  8
0
  6
Continuous
 62
     7
370
    25
100
AcDbCircle
 10
191.8520966646
 20
76.9597802279
 30
0.0
 40
0.0999999999999943
100
AcDbArc
 50
90.0
 51
180.0
  0
ARC
  5
24B
330
1F
100
AcDbEntity
  8
0
  6
Continuous
 62
     7
370
    25
100
AcDbCircle
 10
200.6520966646
 20
76.9597802279
 30
0.0
 40
0.0999999999999943
100
AcDbArc
 50
0.0
 51
90.0
  0
LINE
  5
24C
330
1F
100
AcDbEntity
  8
0
  6
Continuous
 62
     7
370
    25
100
AcDbLine
 10
200.7520964709
 20
76.959780204
 30
0.0
 11
200.7520964709
 21
76.8899072622
 31
0.0
  0
SPLINE
  5
24D
330
1F
100
AcDbEntity
  8
0
  6
Continuous
 62
     7
370
    25
100
AcDbSpline
210
0.0
220
0.0
230
1.0
 70
     8
 71
     3
 72
    12
 73
     8
 74
     0
 42
0.000000001
 43
0.00000001
 40
0.0
 40
0.0
 40
0.0
 40
0.0
 40
0.25
 40
0.25
 40
0.5
 40
0.5
 40
1.0
 40
1.0
 40
1.0
 40
1.0
 10
191.9184880488015
 20
77.08906854256885
 30
0.0
 10
191.9128073791654
 20
77.08329848963601
 30
0.0
 10
191.9061092644372
 20
77.07813597600055
 30
0.0
 10
191.8920939804631
 20
77.06960267134245
 30
0.0
 10
191.8847768112172
 20
77.06623188031983
 30
0.0
 10
191.8640204752021
 20
77.05967205719836
 30
0.0
 10
191.8520966645798
 20
77.05978022785456
 30
0.0
 10
191.8520966645798
 20
77.05978022785456
 30
0.0
  0
SPLINE
  5
24E
330
1F
100
AcDbEntity
  8
0
  6
Continuous
 62
     7
370
    25
100
AcDbSpline
210
0.0
220
0.0
230
1.0
 70
     8
 71
     3
 72
    10
 73
     6
 74
     0
 42
0.000000001
 43
0.00000001
 40
0.0
 40
0.0
 40
0.0
 40
0.0
 40
0.5
 40
0.5
 40
1.0
 40
1.0
 40
1.0
 40
1.0
 10
191.9184880488015
 20
77.08906854256885
 30
0.0
 10
191.9298493880737
 20
77.10060864843454
 30
0.0
 10
191.9371645854965
 20
77.11389792419588
 30
0.0
 10
191.9461143107061
 20
77.13909506834582
 30
0.0
 10
191.9477488384929
 20
77.1510029367344
 30
0.0
 10
191.9477488384929
 20
77.15978022785457
 30
0.0
  0
SPLINE
  5
24F
330
1F
100
AcDbEntity
  8
0
  6
Continuous
 62
     7
370
    25
100
AcDbSpline
210
0.0
220
0.0
230
1.0
 70
     8
 71
     3
 72
    10
 73
     6
 74
     0
 42
0.000000001
 43
0.00000001
 40
0.0
 40
0.0
 40
0.0
 40
0.0
 40
0.5
 40
0.5
 40
1.0
 40
1.0
 40
1.0
 40
1.0
 10
198.1885883376835
 20
73.05978022785457
 30
0.0
 10
198.1811256228905
 20
72.89627271742829
 30
0.0
 10
198.1763113183191
 20
72.73101898922909
 30
0.0
 10
198.1761799387916
 20
72.39588795018165
 30
0.0
 10
198.1810208321465
 20
72.22558369546807
 30
0.0
 10
198.1885883376835
 20
72.05978022785457
 30
0.0
  0
LINE
  5
250
330
1F
100
AcDbEntity
  8
0
  6
Continuous
 62
     7
370
    25
100
AcDbLine
 10
197.984147455
 20
71.5597801804
 30
0.0
 11
194.5200458741
 21
71.5597801804
 31
0.0
  0
SPLINE
  5
251
330
1F
100
AcDbEntity
  8
0
  6
Continuous
 62
     7
370
    25
100
AcDbSpline
210
0.0
220
0.0
230
1.0
 70
     8
 71
     3
 72
    10
 73
     6
 74
     0
 42
0.000000001
 43
0.00000001
 40
0.0
 40
0.0
 40
0.0
 40
0.0
 40
0.5
 40
0.5
 40
1.0
 40
1.0
 40
1.0
 40
1.0
 10
194.3156049914761
 20
72.05978022785457
 30
0.0
 10
194.3230677062691
 20
72.22328773828085
 30
0.0
 10
194.3278820108406
 20
72.38854146648005
 30
0.0
 10
194.3280133903679
 20
72.7236725055275
 30
0.0
 10
194.323172497013
 20
72.89397676024106
 30
0.0
 10
194.3156049914761
 20
73.05978022785457
 30
0.0
  0
SPLINE
  5
252
330
1F
100
AcDbEntity
  8
0
  6
Continuous
 62
     7
370
    25
100
AcDbSpline
210
0.0
220
0.0
230
1.0
 70
     8
 71
     3
 72
    12
 73
     8
 74
     0
 42
0.000000001
 43
0.00000001
 40
0.0
 40
0.0
 40
0.0
 40
0.0
 40
0.25
 40
0.25
 40
0.5
 40
0.5
 40
1.0
 40
1.0
 40
1.0
 40
1.0
 10
200.7518198991199
 20
77.0602077998851
 30
0.0
 10
200.751817814261
 20
77.05612936118281
 30
0.0
 10
200.7483233533254
 20
77.05314932681897
 30
0.0
 10
200.7396309436992
 20
77.04749352746319
 30
0.0
 10
200.7344329950084
 20
77.04481776247128
 30
0.0
 10
200.7242058139006
 20
77.03440806259607
 30
0.0
 10
200.7227760553219
 20
77.03052219334981
 30
0.0
 10
200.7228073427005
 20
77.03049090597115
 30
0.0
  0
LINE
  5
253
330
1F
100
AcDbEntity
  8
0
  6
Continuous
 62
     7
370
    25
100
AcDbLine
 10
200.7522878577
 20
76.9830553521
 30
0.0
 11
200.7524955426
 21
77.0083440197
 31
0.0
  0
SPLINE
  5
254
330
1F
100
AcDbEntity
  8
0
  6
Continuous
 62
     7
370
    25
100
AcDbSpline
210
0.0
220
0.0
230
1.0
 70
     8
 71
     3
 72
    12
 73
     8
 74
     0
 42
0.000000001
 43
0.00000001
 40
0.0
 40
0.0
 40
0.0
 40
0.0
 40
0.25
 40
0.25
 40
0.5
 40
0.5
 40
1.0
 40
1.0
 40
1.0
 40
1.0
 10
200.7518198991199
 20
77.0602077998851
 30
0.0
 10
200.7518219839787
 20
77.0642862385874
 30
0.0
 10
200.7483320575043
 20
77.07017659951475
 30
0.0
 10
200.7335586990327
 20
77.08298597538705
 30
0.0
 10
200.7222752670355
 20
77.089904990332
 30
0.0
 10
200.6755204884746
 20
77.10831223054444
 30
0.0
 10
200.6343729108561
 20
77.10557068869548
 30
0.0
 10
200.5857052803581
 20
77.08906854256885
 30
0.0
  0
SPLINE
  5
255
330
1F
100
AcDbEntity
  8
0
  6
Continuous
 62
     7
370
    25
100
AcDbSpline
210
0.0
220
0.0
230
1.0
 70
     8
 71
     3
 72
    12
 73
     8
 74
     0
 42
0.000000001
 43
0.00000001
 40
0.0
 40
0.0
 40
0.0
 40
0.0
 40
0.25
 40
0.25
 40
0.5
 40
0.5
 40
1.0
 40
1.0
 40
1.0
 40
1.0
 10
191.7523734300398
 20
77.0602077998851
 30
0.0
 10
191.7523755148986
 20
77.05612936118283
 30
0.0
 10
191.7558699758342
 20
77.05314932681897
 30
0.0
 10
191.7645623854605
 20
77.04749352746319
 30
0.0
 10
191.7697603341512
 20
77.04481776247128
 30
0.0
 10
191.779987515259
 20
77.03440806259607
 30
0.0
 10
191.7814172738377
 20
77.03052219334981
 30
0.0
 10
191.7813859864591
 20
77.03049090597115
 30
0.0
  0
LINE
  5
256
330
1F
100
AcDbEntity
  8
0
  6
Continuous
 62
     7
370
    25
100
AcDbLine
 10
191.7519054715
 20
76.9830553521
 30
0.0
 11
191.7516977866
 21
77.0083440197
 31
0.0
  0
SPLINE
  5
257
330
1F
100
AcDbEntity
  8
0
  6
Continuous
 62
     7
370
    25
100
AcDbSpline
210
0.0
220
0.0
230
1.0
 70
     8
 71
     3
 72
    14
 73
    10
 74
     0
 42
0.000000001
 43
0.00000001
 40
0.0
 40
0.0
 40
0.0
 40
0.0
 40
0.25
 40
0.25
 40
0.5
 40
0.5
 40
0.75
 40
0.75
 40
1.0
 40
1.0
 40
1.0
 40
1.0
 10
191.7523734300398
 20
77.0602077998851
 30
0.0
 10
191.7523713451809
 20
77.0642862385874
 30
0.0
 10
191.7558612716553
 20
77.07017659951475
 30
0.0
 10
191.7706346301269
 20
77.08298597538705
 30
0.0
 10
191.7819180621241
 20
77.089904990332
 30
0.0
 10
191.813087914498
 20
77.10217648380696
 30
0.0
 10
191.8311672719961
 20
77.10455897171344
 30
0.0
 10
191.8717004315234
 20
77.10213053762605
 30
0.0
 10
191.8941542335525
 20
77.09731961563217
 30
0.0
 10
191.9184880488015
 20
77.08906854256885
 30
0.0
  0
SPLINE
  5
258
330
1F
100
AcDbEntity
  8
0
  6
Continuous
 62
     7
370
    25
100
AcDbSpline
210
0.0
220
0.0
230
1.0
 70
     8
 71
     3
 72
    10
 73
     6
 74
     0
 42
0.000000001
 43
0.00000001
 40
0.0
 40
0.0
 40
0.0
 40
0.0
 40
0.5
 40
0.5
 40
1.0
 40
1.0
 40
1.0
 40
1.0
 10
200.7518198991199
 20
77.0602077998851
 30
0.0
 10
200.7518282385552
 20
77.07652155469425
 30
0.0
 10
200.7519232572752
 20
77.09388139855727
 30
0.0
 10
200.7502918477815
 20
77.12953247822318
 30
0.0
 10
200.7520966645798
 20
77.1427555418396
 30
0.0
 10
200.7520966645798
 20
77.15978022785457
 30
0.0
  0
SPLINE
  5
259
330
1F
100
AcDbEntity
  8
0
  6
Continuous
 62
     7
370
    25
100
AcDbSpline
210
0.0
220
0.0
230
1.0
 70
     8
 71
     3
 72
    10
 73
     6
 74
     0
 42
0.000000001
 43
0.00000001
 40
0.0
 40
0.0
 40
0.0
 40
0.0
 40
0.5
 40
0.5
 40
1.0
 40
1.0
 40
1.0
 40
1.0
 10
191.7523734300398
 20
77.0602077998851
 30
0.0
 10
191.7523650906044
 20
77.07652155469425
 30
0.0
 10
191.7522700718844
 20
77.09388139855727
 30
0.0
 10
191.7539014813782
 20
77.1295324782232
 30
0.0
 10
191.7520966645798
 20
77.1427555418396
 30
0.0
 10
191.7520966645798
 20
77.15978022785457
 30
0.0
  0
SPLINE
  5
25A
330
1F
100
AcDbEntity
  8
0
  6
Continuous
 62
     7
370
    25
100
AcDbSpline
210
0.0
220
0.0
230
1.0
 70
     8
 71
     3
 72
    20
 73
    16
 74
     0
 42
0.000000001
 43
0.00000001
 40
0.0
 40
0.0
 40
0.0
 40
0.0
 40
0.2499999999999998
 40
0.2499999999999998
 40
0.3749999999999998
 40
0.3749999999999998
 40
0.4374999999999998
 40
0.4374999999999998
 40
0.4999999999999998
 40
0.4999999999999998
 40
0.6249999999999998
 40
0.6249999999999998
 40
0.7499999999999998
 40
0.7499999999999998
 40
1.0
 40
1.0
 40
1.0
 40
1.0
 10
197.8592635705076
 20
71.36939603084492
 30
0.0
 10
197.6065334604648
 20
71.2377748808774
 30
0.0
 10
197.3492684752235
 20
71.10958041403518
 30
0.0
 10
196.9533678896019
 20
70.92485583087877
 30
0.0
 10
196.819596941938
 20
70.86381382289595
 30
0.0
 10
196.6134366732306
 20
70.78514811886153
 30
0.0
 10
196.5441037684127
 20
70.76136755534334
 30
0.0
 10
196.4018424948003
 20
70.72579217398933
 30
0.0
 10
196.3275243827587
 20
70.71447381756464
 30
0.0
 10
196.1079016166989
 20
70.71384966789086
 30
0.0
 10
195.9641441114407
 20
70.7574635953307
 30
0.0
 10
195.6908596657751
 20
70.86111801786193
 30
0.0
 10
195.5577747801895
 20
70.92169719872005
 30
0.0
 10
195.1595992477984
 20
71.10723732537848
 30
0.0
 10
194.8977265214004
 20
71.23774016833069
 30
0.0
 10
194.644929758652
 20
71.36939603084491
 30
0.0
  0
LINE
  5
25B
330
1F
100
AcDbEntity
  8
0
  6
Continuous
 62
     8
370
    25
100
AcDbLine
 10
196.2520966646
 20
80.2597801861
 30
0.0
 11
191.7520968583
 21
80.2597801861
 31
0.0
  0
LINE
  5
25C
330
1F
100
AcDbEntity
  8
0
  6
Continuous
 62
     8
370
    25
100
AcDbLine
 10
200.7520964709
 20
80.2597801861
 30
0.0
 11
196.2520966646
 21
80.2597801861
 31
0.0
  0
LINE
  5
25D
330
1F
100
AcDbEntity
  8
0
  6
Continuous
 62
     8
370
    25
100
AcDbLine
 10
200.2991351638
 20
77.1597803299
 30
0.0
 11
200.5564446901
 21
77.1597803299
 31
0.0
  0
LINE
  5
25E
330
1F
100
AcDbEntity
  8
0
  6
Continuous
 62
     8
370
    25
100
AcDbLine
 10
191.9477486391
 20
77.1597803299
 30
0.0
 11
192.2161083077
 21
77.1597803299
 31
0.0
  0
LINE
  5
25F
330
1F
100
AcDbEntity
  8
0
  6
Continuous
 62
     8
370
    25
100
AcDbLine
 10
200.6520966407
 20
76.9476422769
 30
0.0
 11
200.6520966407
 21
77.0597800341
 31
0.0
  0
SPLINE
  5
260
330
1F
100
AcDbEntity
  8
0
  6
Continuous
 62
     8
370
    25
100
AcDbSpline
210
0.0
220
0.0
230
1.0
 70
     8
 71
     3
 72
     9
 73
     5
 74
     0
 42
0.000000001
 43
0.00000001
 40
0.0
 40
0.0
 40
0.0
 40
0.0
 40
0.1248448109001593
 40
1.0
 40
1.0
 40
1.0
 40
1.0
 10
200.7524955425879
 20
77.00834401966604
 30
0.0
 10
200.7525165054519
 20
77.01050252779044
 30
0.0
 10
200.7526844168274
 20
77.02779205795864
 30
0.0
 10
200.7522233623118
 20
77.04507911723368
 30
0.0
 10
200.75181986806
 20
77.06020797686251
 30
0.0
  0
SPLINE
  5
261
330
1F
100
AcDbEntity
  8
0
  6
Continuous
 62
     8
370
    25
100
AcDbSpline
210
0.0
220
0.0
230
1.0
 70
     8
 71
     3
 72
     9
 73
     5
 74
     0
 42
0.000000001
 43
0.00000001
 40
0.0
 40
0.0
 40
0.0
 40
0.0
 40
0.1248448109001593
 40
1.0
 40
1.0
 40
1.0
 40
1.0
 10
191.7516977865717
 20
77.00834401966604
 30
0.0
 10
191.7516768237078
 20
77.01050252779044
 30
0.0
 10
191.7515089123322
 20
77.02779205795864
 30
0.0
 10
191.7519699668478
 20
77.04507911723368
 30
0.0
 10
191.7523734610996
 20
77.06020797686251
 30
0.0
  0
INSERT
  5
26D
330
1F
100
AcDbEntity
  8
0
  6
Continuous
 62
     7
370
    18
100
AcDbBlockReference
  2
SW_CENTERMARKSYMBOL_1
 10
196.2520966646
 20
72.5597802279
 30
0.0
  0
LINE
  5
26E
330
1F
100
AcDbEntity
  8
0
  6
Continuous
 62
     7
370
     0
100
AcDbLine
 10
200.5512910349
 20
89.0415603771
 30
0.0
 11
200.8160341646
 21
80.5697802279
 31
0.0
  0
LINE
  5
26F
330
1F
100
AcDbEntity
  8
0
  6
Continuous
 62
     7
370
     0
100
AcDbLine
 10
191.9529022942
 20
89.0415603771
 30
0.0
 11
191.6881591646
 21
80.5697802279
 31
0.0
  0
LINE
  5
270
330
1F
100
AcDbEntity
  8
0
  6
Continuous
 62
     7
370
     0
100
AcDbLine
 10
191.2312216646
 20
80.5697802279
 30
0.0
 11
201.2729716646
 21
80.5697802279
 31
0.0
  0
ARC
  5
271
330
1F
100
AcDbEntity
  8
0
  6
Continuous
 62
     7
370
     0
100
AcDbCircle
 10
196.2520966646
 20
72.5597802279
 30
0.0
 40
4.864000000000002
100
AcDbArc
 50
75.0
 51
345.0
  0
ENDSEC
  0
SECTION
  2
OBJECTS
  0
DICTIONARY
  5
C
330
0
100
AcDbDictionary
281
     1
  3
ACAD_GROUP
350
D
  3
ACAD_LAYOUT
350
1A
  3
ACAD_MLINESTYLE
350
17
  3
ACAD_PLOTSETTINGS
350
19
  3
ACAD_PLOTSTYLENAME
350
E
  3
ACAD_SCALELIST
350
47
  0
DICTIONARY
  5
D
102
{ACAD_REACTORS
330
C
102
}
330
C
100
AcDbDictionary
281
     1
  0
DICTIONARY
  5
1A
102
{ACAD_REACTORS
330
C
102
}
330
C
100
AcDbDictionary
281
     1
  3
Layout1
350
1E
  3
Layout2
350
26
  3
Model
350
22
  0
DICTIONARY
  5
17
102
{ACAD_REACTORS
330
C
102
}
330
C
100
AcDbDictionary
281
     1
  3
Standard
350
18
  0
DICTIONARY
  5
19
102
{ACAD_REACTORS
330
C
102
}
330
C
100
AcDbDictionary
281
     1
  0
ACDBDICTIONARYWDFLT
  5
E
102
{ACAD_REACTORS
330
C
102
}
330
C
100
AcDbDictionary
281
     1
  3
Normal
350
F
100
AcDbDictionaryWithDefault
340
F
  0
DICTIONARY
  5
47
102
{ACAD_REACTORS
330
C
102
}
330
C
100
AcDbDictionary
281
     1
  3
A0
350
48
  3
A1
350
49
  3
A2
350
4A
  3
A3
350
4B
  3
A4
350
4C
  3
A5
350
4D
  3
A6
350
4E
  3
A7
350
4F
  3
A8
350
50
  3
A9
350
51
  3
B0
350
52
  3
B1
350
53
  3
B2
350
54
  3
B3
350
55
  3
B4
350
56
  3
B5
350
57
  3
B6
350
58
  3
B7
350
59
  3
B8
350
5A
  3
B9
350
5B
  3
C0
350
5C
  3
C1
350
5D
  3
C2
350
5E
  3
C3
350
5F
  3
C4
350
60
  3
C5
350
61
  3
C6
350
62
  3
C7
350
63
  3
C8
350
64
  3
C9
350
65
  3
D0
350
66
  3
D1
350
67
  3
D2
350
68
  0
LAYOUT
  5
1E
102
{ACAD_REACTORS
330
1A
102
}
330
1A
100
AcDbPlotSettings
  1

  2
none_device
  4

  6

 40
0.0
 41
0.0
 42
0.0
 43
0.0
 44
0.0
 45
0.0
 46
0.0
 47
0.0
 48
0.0
 49
0.0
140
0.0
141
0.0
142
1.0
143
1.0
 70
   688
 72
     1
 73
     0
 74
     5
  7

 75
    16
147
1.0
148
0.0
149
0.0
100
AcDbLayout
  1
Layout1
 70
     1
 71
     1
 10
0.0
 20
0.0
 11
420.0
 21
297.0
 12
0.0
 22
0.0
 32
0.0
 14
1.0000000000E+20
 24
1.0000000000E+20
 34
1.0000000000E+20
 15
-1.0000000000E+20
 25
-1.0000000000E+20
 35
-1.0000000000E+20
146
0.0
 13
0.0
 23
0.0
 33
0.0
 16
1.0
 26
0.0
 36
0.0
 17
0.0
 27
1.0
 37
0.0
 76
     0
330
1B
  0
LAYOUT
  5
26
102
{ACAD_REACTORS
330
1A
102
}
330
1A
100
AcDbPlotSettings
  1

  2
none_device
  4

  6

 40
0.0
 41
0.0
 42
0.0
 43
0.0
 44
0.0
 45
0.0
 46
0.0
 47
0.0
 48
0.0
 49
0.0
140
0.0
141
0.0
142
1.0
143
1.0
 70
   688
 72
     1
 73
     0
 74
     5
  7

 75
    16
147
1.0
148
0.0
149
0.0
100
AcDbLayout
  1
Layout2
 70
     1
 71
     2
 10
0.0
 20
0.0
 11
0.0
 21
0.0
 12
0.0
 22
0.0
 32
0.0
 14
0.0
 24
0.0
 34
0.0
 15
0.0
 25
0.0
 35
0.0
146
0.0
 13
0.0
 23
0.0
 33
0.0
 16
1.0
 26
0.0
 36
0.0
 17
0.0
 27
1.0
 37
0.0
 76
     0
330
23
  0
LAYOUT
  5
22
102
{ACAD_REACTORS
330
1A
102
}
330
1A
100
AcDbPlotSettings
  1

  2
none_device
  4
Letter_(8.50_x_11.00_Inches)
  6

 40
6.35
 41
6.35
 42
6.35000508
 43
6.35000508
 44
215.9
 45
279.4
 46
0.0
 47
0.0
 48
0.0
 49
0.0
140
0.0
141
0.0
142
1.0
143
1.0
 70
  1712
 72
     1
 73
     0
 74
     0
  7

 75
     0
147
1.0
148
0.0
149
0.0
100
AcDbLayout
  1
Model
 70
     1
 71
     0
 10
0.0
 20
0.0
 11
431.8
 21
279.4
 12
0.0
 22
0.0
 32
0.0
 14
0.0
 24
0.0
 34
0.0
 15
431.8
 25
279.4
 35
0.0
146
0.0
 13
0.0
 23
0.0
 33
0.0
 16
1.0
 26
0.0
 36
0.0
 17
0.0
 27
1.0
 37
0.0
 76
     0
330
1F
331
29
  0
MLINESTYLE
  5
18
102
{ACAD_REACTORS
330
17
102
}
330
17
100
AcDbMlineStyle
  2
Standard
 70
     0
  3

 62
   256
 51
90.0
 52
90.0
 71
     2
 49
0.5
 62
   256
  6
BYLAYER
 49
-0.5
 62
   256
  6
BYLAYER
  0
ACDBPLACEHOLDER
  5
F
102
{ACAD_REACTORS
330
E
102
}
330
E
  0
SCALE
  5
48
102
{ACAD_REACTORS
330
47
102
}
330
47
100
AcDbScale
 70
     0
300
1:1
140
1.0
141
1.0
290
     1
  0
SCALE
  5
49
102
{ACAD_REACTORS
330
47
102
}
330
47
100
AcDbScale
 70
     0
300
1:2
140
1.0
141
2.0
290
     0
  0
SCALE
  5
4A
102
{ACAD_REACTORS
330
47
102
}
330
47
100
AcDbScale
 70
     0
300
1:4
140
1.0
141
4.0
290
     0
  0
SCALE
  5
4B
102
{ACAD_REACTORS
330
47
102
}
330
47
100
AcDbScale
 70
     0
300
1:5
140
1.0
141
5.0
290
     0
  0
SCALE
  5
4C
102
{ACAD_REACTORS
330
47
102
}
330
47
100
AcDbScale
 70
     0
300
1:8
140
1.0
141
8.0
290
     0
  0
SCALE
  5
4D
102
{ACAD_REACTORS
330
47
102
}
330
47
100
AcDbScale
 70
     0
300
1:10
140
1.0
141
10.0
290
     0
  0
SCALE
  5
4E
102
{ACAD_REACTORS
330
47
102
}
330
47
100
AcDbScale
 70
     0
300
1:16
140
1.0
141
16.0
290
     0
  0
SCALE
  5
4F
102
{ACAD_REACTORS
330
47
102
}
330
47
100
AcDbScale
 70
     0
300
1:20
140
1.0
141
20.0
290
     0
  0
SCALE
  5
50
102
{ACAD_REACTORS
330
47
102
}
330
47
100
AcDbScale
 70
     0
300
1:30
140
1.0
141
30.0
290
     0
  0
SCALE
  5
51
102
{ACAD_REACTORS
330
47
102
}
330
47
100
AcDbScale
 70
     0
300
1:40
140
1.0
141
40.0
290
     0
  0
SCALE
  5
52
102
{ACAD_REACTORS
330
47
102
}
330
47
100
AcDbScale
 70
     0
300
1:50
140
1.0
141
50.0
290
     0
  0
SCALE
  5
53
102
{ACAD_REACTORS
330
47
102
}
330
47
100
AcDbScale
 70
     0
300
1:100
140
1.0
141
100.0
290
     0
  0
SCALE
  5
54
102
{ACAD_REACTORS
330
47
102
}
330
47
100
AcDbScale
 70
     0
300
2:1
140
2.0
141
1.0
290
     0
  0
SCALE
  5
55
102
{ACAD_REACTORS
330
47
102
}
330
47
100
AcDbScale
 70
     0
300
4:1
140
4.0
141
1.0
290
     0
  0
SCALE
  5
56
102
{ACAD_REACTORS
330
47
102
}
330
47
100
AcDbScale
 70
     0
300
8:1
140
8.0
141
1.0
290
     0
  0
SCALE
  5
57
102
{ACAD_REACTORS
330
47
102
}
330
47
100
AcDbScale
 70
     0
300
10:1
140
10.0
141
1.0
290
     0
  0
SCALE
  5
58
102
{ACAD_REACTORS
330
47
102
}
330
47
100
AcDbScale
 70
     0
300
100:1
140
100.0
141
1.0
290
     0
  0
SCALE
  5
59
102
{ACAD_REACTORS
330
47
102
}
330
47
100
AcDbScale
 70
     0
300
1/128" = 1'-0"
140
0.0078125
141
12.0
290
     0
  0
SCALE
  5
5A
102
{ACAD_REACTORS
330
47
102
}
330
47
100
AcDbScale
 70
     0
300
1/64" = 1'-0"
140
0.015625
141
12.0
290
     0
  0
SCALE
  5
5B
102
{ACAD_REACTORS
330
47
102
}
330
47
100
AcDbScale
 70
     0
300
1/32" = 1'-0"
140
0.03125
141
12.0
290
     0
  0
SCALE
  5
5C
102
{ACAD_REACTORS
330
47
102
}
330
47
100
AcDbScale
 70
     0
300
1/16" = 1'-0"
140
0.0625
141
12.0
290
     0
  0
SCALE
  5
5D
102
{ACAD_REACTORS
330
47
102
}
330
47
100
AcDbScale
 70
     0
300
3/32" = 1'-0"
140
0.09375
141
12.0
290
     0
  0
SCALE
  5
5E
102
{ACAD_REACTORS
330
47
102
}
330
47
100
AcDbScale
 70
     0
300
1/8" = 1'-0"
140
0.125
141
12.0
290
     0
  0
SCALE
  5
5F
102
{ACAD_REACTORS
330
47
102
}
330
47
100
AcDbScale
 70
     0
300
3/16" = 1'-0"
140
0.1875
141
12.0
290
     0
  0
SCALE
  5
60
102
{ACAD_REACTORS
330
47
102
}
330
47
100
AcDbScale
 70
     0
300
1/4" = 1'-0"
140
0.25
141
12.0
290
     0
  0
SCALE
  5
61
102
{ACAD_REACTORS
330
47
102
}
330
47
100
AcDbScale
 70
     0
300
3/8" = 1'-0"
140
0.375
141
12.0
290
     0
  0
SCALE
  5
62
102
{ACAD_REACTORS
330
47
102
}
330
47
100
AcDbScale
 70
     0
300
1/2" = 1'-0"
140
0.5
141
12.0
290
     0
  0
SCALE
  5
63
102
{ACAD_REACTORS
330
47
102
}
330
47
100
AcDbScale
 70
     0
300
3/4" = 1'-0"
140
0.75
141
12.0
290
     0
  0
SCALE
  5
64
102
{ACAD_REACTORS
330
47
102
}
330
47
100
AcDbScale
 70
     0
300
1" = 1'-0"
140
1.0
141
12.0
290
     0
  0
SCALE
  5
65
102
{ACAD_REACTORS
330
47
102
}
330
47
100
AcDbScale
 70
     0
300
1-1/2" = 1'-0"
140
1.5
141
12.0
290
     0
  0
SCALE
  5
66
102
{ACAD_REACTORS
330
47
102
}
330
47
100
AcDbScale
 70
     0
300
3" = 1'-0"
140
3.0
141
12.0
290
     0
  0
SCALE
  5
67
102
{ACAD_REACTORS
330
47
102
}
330
47
100
AcDbScale
 70
     0
300
6" = 1'-0"
140
6.0
141
12.0
290
     0
  0
SCALE
  5
68
102
{ACAD_REACTORS
330
47
102
}
330
47
100
AcDbScale
 70
     0
300
1'-0" = 1'-0"
140
12.0
141
12.0
290
     0
  0
ENDSEC
  0
EOF
