  0
SECTION
  2
HEADER
  9
$ACADVER
  1
AC1015
  9
$ACADMAINTVER
 70
     6
  9
$DWGCODEPAGE
  3
DOS932
  9
$INSBASE
 10
0.0
 20
0.0
 30
0.0
  9
$EXTMIN
 10
0.0
 20
0.0
 30
0.0
  9
$EXTMAX
 10
431.8
 20
279.4
 30
0.0
  9
$LIMMIN
 10
0.0
 20
0.0
  9
$LIMMAX
 10
431.8
 20
279.4
  9
$ORTHOMODE
 70
     0
  9
$REGENMODE
 70
     1
  9
$FILLMODE
 70
     1
  9
$QTEXTMODE
 70
     0
  9
$MIRRTEXT
 70
     1
  9
$LTSCALE
 40
1.0
  9
$ATTMODE
 70
     1
  9
$TEXTSIZE
 40
3.5
  9
$TRACEWID
 40
1.0
  9
$TEXTSTYLE
  7
Standard
  9
$CLAYER
  8
0
  9
$CELTYPE
  6
ByLayer
  9
$CECOLOR
 62
   256
  9
$CELTSCALE
 40
1.0
  9
$DISPSILH
 70
     0
  9
$DIMSCALE
 40
1.0
  9
$DIMASZ
 40
3.302
  9
$DIMEXO
 40
1.0
  9
$DIMDLI
 40
3.75
  9
$DIMRND
 40
0.0
  9
$DIMDLE
 40
0.0
  9
$DIMEXE
 40
1.0
  9
$DIMTP
 40
0.0
  9
$DIMTM
 40
0.0
  9
$DIMTXT
 40
3.5
  9
$DIMCEN
 40
2.5
  9
$DIMTSZ
 40
0.0
  9
$DIMTOL
 70
     0
  9
$DIMLIM
 70
     0
  9
$DIMTIH
 70
     1
  9
$DIMTOH
 70
     1
  9
$DIMSE1
 70
     0
  9
$DIMSE2
 70
     0
  9
$DIMTAD
 70
     1
  9
$DIMZIN
 70
     1
  9
$DIMBLK
  1

  9
$DIMASO
 70
     1
  9
$DIMSHO
 70
     1
  9
$DIMPOST
  1

  9
$DIMAPOST
  1

  9
$DIMALT
 70
     0
  9
$DIMALTD
 70
     3
  9
$DIMALTF
 40
0.0393700787
  9
$DIMLFAC
 40
1.0
  9
$DIMTOFL
 70
     1
  9
$DIMTVP
 40
0.0
  9
$DIMTIX
 70
     0
  9
$DIMSOXD
 70
     0
  9
$DIMSAH
 70
     0
  9
$DIMBLK1
  1

  9
$DIMBLK2
  1

  9
$DIMSTYLE
  2
ISO-25
  9
$DIMCLRD
 70
     0
  9
$DIMCLRE
 70
     0
  9
$DIMCLRT
 70
     0
  9
$DIMTFAC
 40
1.0
  9
$DIMGAP
 40
1.524
  9
$DIMJUST
 70
     0
  9
$DIMSD1
 70
     0
  9
$DIMSD2
 70
     0
  9
$DIMTOLJ
 70
     0
  9
$DIMTZIN
 70
     1
  9
$DIMALTZ
 70
     0
  9
$DIMALTTZ
 70
     0
  9
$DIMUPT
 70
     0
  9
$DIMDEC
 70
     2
  9
$DIMTDEC
 70
     2
  9
$DIMALTU
 70
     2
  9
$DIMALTTD
 70
     3
  9
$DIMTXSTY
  7
Standard
  9
$DIMAUNIT
 70
     0
  9
$DIMADEC
 70
     2
  9
$DIMALTRND
 40
0.0
  9
$DIMAZIN
 70
     0
  9
$DIMDSEP
 70
    44
  9
$DIMATFIT
 70
     3
  9
$DIMFRAC
 70
     0
  9
$DIMLDRBLK
  1

  9
$DIMLUNIT
 70
     2
  9
$DIMLWD
 70
    -2
  9
$DIMLWE
 70
    -2
  9
$DIMTMOVE
 70
     0
  9
$LUNITS
 70
     2
  9
$LUPREC
 70
     2
  9
$SKETCHINC
 40
1.0
  9
$FILLETRAD
 40
10.0
  9
$AUNITS
 70
     0
  9
$AUPREC
 70
     2
  9
$MENU
  1
.
  9
$ELEVATION
 40
0.0
  9
$PELEVATION
 40
0.0
  9
$THICKNESS
 40
0.0
  9
$LIMCHECK
 70
     0
  9
$CHAMFERA
 40
0.0
  9
$CHAMFERB
 40
0.0
  9
$CHAMFERC
 40
0.0
  9
$CHAMFERD
 40
0.0
  9
$SKPOLY
 70
     0
  9
$TDCREATE
 40
2460062.732783414
  9
$TDUCREATE
 40
2460062.357783414
  9
$TDUPDATE
 40
2460062.732783877
  9
$TDUUPDATE
 40
2460062.357783877
  9
$TDINDWG
 40
0.0000000116
  9
$TDUSRTIMER
 40
0.0000000116
  9
$USRTIMER
 70
     1
  9
$ANGBASE
 50
0.0
  9
$ANGDIR
 70
     0
  9
$PDMODE
 70
     0
  9
$PDSIZE
 40
-1.0
  9
$PLINEWID
 40
0.0
  9
$SPLFRAME
 70
     0
  9
$SPLINETYPE
 70
     6
  9
$SPLINESEGS
 70
     8
  9
$HANDSEED
  5
F0
  9
$SURFTAB1
 70
     6
  9
$SURFTAB2
 70
     6
  9
$SURFTYPE
 70
     6
  9
$SURFU
 70
     6
  9
$SURFV
 70
     6
  9
$UCSBASE
  2

  9
$UCSNAME
  2

  9
$UCSORG
 10
0.0
 20
0.0
 30
0.0
  9
$UCSXDIR
 10
1.0
 20
0.0
 30
0.0
  9
$UCSYDIR
 10
0.0
 20
1.0
 30
0.0
  9
$UCSORTHOREF
  2

  9
$UCSORTHOVIEW
 70
     0
  9
$UCSORGTOP
 10
0.0
 20
0.0
 30
0.0
  9
$UCSORGBOTTOM
 10
0.0
 20
0.0
 30
0.0
  9
$UCSORGLEFT
 10
0.0
 20
0.0
 30
0.0
  9
$UCSORGRIGHT
 10
0.0
 20
0.0
 30
0.0
  9
$UCSORGFRONT
 10
0.0
 20
0.0
 30
0.0
  9
$UCSORGBACK
 10
0.0
 20
0.0
 30
0.0
  9
$PUCSBASE
  2

  9
$PUCSNAME
  2

  9
$PUCSORG
 10
0.0
 20
0.0
 30
0.0
  9
$PUCSXDIR
 10
1.0
 20
0.0
 30
0.0
  9
$PUCSYDIR
 10
0.0
 20
1.0
 30
0.0
  9
$PUCSORTHOREF
  2

  9
$PUCSORTHOVIEW
 70
     0
  9
$PUCSORGTOP
 10
0.0
 20
0.0
 30
0.0
  9
$PUCSORGBOTTOM
 10
0.0
 20
0.0
 30
0.0
  9
$PUCSORGLEFT
 10
0.0
 20
0.0
 30
0.0
  9
$PUCSORGRIGHT
 10
0.0
 20
0.0
 30
0.0
  9
$PUCSORGFRONT
 10
0.0
 20
0.0
 30
0.0
  9
$PUCSORGBACK
 10
0.0
 20
0.0
 30
0.0
  9
$USERI1
 70
     0
  9
$USERI2
 70
     0
  9
$USERI3
 70
     0
  9
$USERI4
 70
     0
  9
$USERI5
 70
     0
  9
$USERR1
 40
0.0
  9
$USERR2
 40
0.0
  9
$USERR3
 40
0.0
  9
$USERR4
 40
0.0
  9
$USERR5
 40
0.0
  9
$WORLDVIEW
 70
     1
  9
$SHADEDGE
 70
     3
  9
$SHADEDIF
 70
    70
  9
$TILEMODE
 70
     1
  9
$MAXACTVP
 70
    64
  9
$PINSBASE
 10
0.0
 20
0.0
 30
0.0
  9
$PLIMCHECK
 70
     0
  9
$PEXTMIN
 10
1.0000000000E+20
 20
1.0000000000E+20
 30
1.0000000000E+20
  9
$PEXTMAX
 10
-1.0000000000E+20
 20
-1.0000000000E+20
 30
-1.0000000000E+20
  9
$PLIMMIN
 10
0.0
 20
0.0
  9
$PLIMMAX
 10
420.0
 20
297.0
  9
$UNITMODE
 70
     0
  9
$VISRETAIN
 70
     1
  9
$PLINEGEN
 70
     0
  9
$PSLTSCALE
 70
     1
  9
$TREEDEPTH
 70
  3020
  9
$CMLSTYLE
  2
Standard
  9
$CMLJUST
 70
     0
  9
$CMLSCALE
 40
20.0
  9
$PROXYGRAPHICS
 70
     1
  9
$MEASUREMENT
 70
     1
  9
$CELWEIGHT
370
    -1
  9
$ENDCAPS
280
     0
  9
$JOINSTYLE
280
     0
  9
$LWDISPLAY
290
     1
  9
$INSUNITS
 70
     4
  9
$HYPERLINKBASE
  1

  9
$STYLESHEET
  1

  9
$XEDIT
290
     1
  9
$CEPSNTYPE
380
     0
  9
$PSTYLEMODE
290
     1
  9
$FINGERPRINTGUID
  2
{547C7A7F-B806-4EC4-879F-BEC407AA5AA9}
  9
$VERSIONGUID
  2
{FAEB1C32-E019-11D5-929B-00C0DF256EC4}
  9
$EXTNAMES
290
     1
  9
$PSVPSCALE
 40
0.0
  9
$OLESTARTUP
290
     0
  0
ENDSEC
  0
SECTION
  2
CLASSES
  0
CLASS
  1
ACDBDICTIONARYWDFLT
  2
AcDbDictionaryWithDefault
  3
ObjectDBX Classes
 90
        0
280
     0
281
     0
  0
CLASS
  1
VISUALSTYLE
  2
AcDbVisualStyle
  3
ObjectDBX Classes
 90
     4095
280
     0
281
     0
  0
CLASS
  1
MATERIAL
  2
AcDbMaterial
  3
ObjectDBX Classes
 90
     1153
280
     0
281
     0
  0
CLASS
  1
SCALE
  2
AcDbScale
  3
ObjectDBX Classes
 90
     1153
280
     0
281
     0
  0
CLASS
  1
TABLESTYLE
  2
AcDbTableStyle
  3
ObjectDBX Classes
 90
     4095
280
     0
281
     0
  0
CLASS
  1
MLEADERSTYLE
  2
AcDbMLeaderStyle
  3
ACDB_MLEADERSTYLE_CLASS
 90
     4095
280
     0
281
     0
  0
CLASS
  1
SUN
  2
AcDbSun
  3
SCENEOE
 90
     1153
280
     0
281
     0
  0
CLASS
  1
ACDBPLACEHOLDER
  2
AcDbPlaceHolder
  3
ObjectDBX Classes
 90
        0
280
     0
281
     0
  0
CLASS
  1
LAYOUT
  2
AcDbLayout
  3
ObjectDBX Classes
 90
        0
280
     0
281
     0
  0
ENDSEC
  0
SECTION
  2
TABLES
  0
TABLE
  2
VPORT
  5
8
330
0
100
AcDbSymbolTable
 70
     1
  0
VPORT
  5
29
330
8
100
AcDbSymbolTableRecord
100
AcDbViewportTableRecord
  2
*Active
 70
     0
 10
0.0
 20
0.0
 11
1.0
 21
1.0
 12
215.9
 22
139.7
 13
0.0
 23
0.0
 14
10.0
 24
10.0
 15
10.0
 25
10.0
 16
0.0
 26
0.0
 36
1.0
 17
0.0
 27
0.0
 37
0.0
 40
279.4
 41
1.5454545455
 42
50.0
 43
0.0
 44
0.0
 50
0.0
 51
0.0
 71
     0
 72
  2000
 73
     1
 74
     3
 75
     0
 76
     0
 77
     0
 78
     0
281
     0
 65
     1
110
0.0
120
0.0
130
0.0
111
1.0
121
0.0
131
0.0
112
0.0
122
1.0
132
0.0
 79
     0
146
0.0
  0
ENDTAB
  0
TABLE
  2
LTYPE
  5
5
330
0
100
AcDbSymbolTable
 70
     6
  0
LTYPE
  5
14
330
5
100
AcDbSymbolTableRecord
100
AcDbLinetypeTableRecord
  2
ByBlock
 70
     0
  3

 72
    65
 73
     0
 40
0.0
  0
LTYPE
  5
15
330
5
100
AcDbSymbolTableRecord
100
AcDbLinetypeTableRecord
  2
ByLayer
 70
     0
  3

 72
    65
 73
     0
 40
0.0
  0
LTYPE
  5
16
330
5
100
AcDbSymbolTableRecord
100
AcDbLinetypeTableRecord
  2
Continuous
 70
     0
  3
Solid line
 72
    65
 73
     0
 40
0.0
  0
LTYPE
  5
6E
330
5
100
AcDbSymbolTableRecord
100
AcDbLinetypeTableRecord
  2
HIDDEN
 70
     0
  3
Hidden __ __ __ __ __ __ __ __ __ __ __ __ __ __
 72
    65
 73
     2
 40
1.905
 49
1.27
 74
     0
 49
-0.635
 74
     0
  0
LTYPE
  5
6F
330
5
100
AcDbSymbolTableRecord
100
AcDbLinetypeTableRecord
  2
PHANTOM
 70
     0
  3
Phantom ______  __  __  ______  __  __  ______
 72
    65
 73
     6
 40
12.7
 49
6.35
 74
     0
 49
-1.27
 74
     0
 49
1.27
 74
     0
 49
-1.27
 74
     0
 49
1.27
 74
     0
 49
-1.27
 74
     0
  0
LTYPE
  5
70
330
5
100
AcDbSymbolTableRecord
100
AcDbLinetypeTableRecord
  2
CENTER
 70
     0
  3
Center ____ _ ____ _ ____ _ ____ _ ____ _ ____
 72
    65
 73
     4
 40
10.16
 49
6.35
 74
     0
 49
-1.27
 74
     0
 49
1.27
 74
     0
 49
-1.27
 74
     0
  0
LTYPE
  5
71
330
5
100
AcDbSymbolTableRecord
100
AcDbLinetypeTableRecord
  2
CENTERX2
 70
     0
  3
Center (2x) ________  __  ________  __  _____
 72
    65
 73
     4
 40
20.32
 49
12.7
 74
     0
 49
-2.54
 74
     0
 49
2.54
 74
     0
 49
-2.54
 74
     0
  0
LTYPE
  5
72
330
5
100
AcDbSymbolTableRecord
100
AcDbLinetypeTableRecord
  2
DOT2
 70
     0
  3
Dot (.5x) ........................................
 72
    65
 73
     2
 40
0.635
 49
0.0
 74
     0
 49
-0.635
 74
     0
  0
ENDTAB
  0
TABLE
  2
LAYER
  5
2
330
0
100
AcDbSymbolTable
 70
     1
  0
LAYER
  5
10
330
2
100
AcDbSymbolTableRecord
100
AcDbLayerTableRecord
  2
0
 70
     0
 62
     7
  6
Continuous
370
    -3
390
F
  0
ENDTAB
  0
TABLE
  2
STYLE
  5
3
330
0
100
AcDbSymbolTable
 70
     2
  0
STYLE
  5
11
330
3
100
AcDbSymbolTableRecord
100
AcDbTextStyleTableRecord
  2
Standard
 70
     0
 40
0.0
 41
1.0
 50
0.0
 71
     0
 42
3.5
  3
txt
  4
bigfont
  0
STYLE
  5
73
330
3
100
AcDbSymbolTableRecord
100
AcDbTextStyleTableRecord
  2
SLDTEXTSTYLE0
 70
     0
 40
0.0
 41
0.7
 50
0.0
 71
     0
 42
3.5
  3
TXT
  4
bigfont
  0
ENDTAB
  0
TABLE
  2
VIEW
  5
6
330
0
100
AcDbSymbolTable
 70
     0
  0
ENDTAB
  0
TABLE
  2
UCS
  5
7
330
0
100
AcDbSymbolTable
 70
     0
  0
ENDTAB
  0
TABLE
  2
APPID
  5
9
330
0
100
AcDbSymbolTable
 70
     1
  0
APPID
  5
12
330
9
100
AcDbSymbolTableRecord
100
AcDbRegAppTableRecord
  2
ACAD
 70
     0
  0
ENDTAB
  0
TABLE
  2
DIMSTYLE
  5
A
330
0
100
AcDbSymbolTable
 70
     1
100
AcDbDimStyleTable
  0
DIMSTYLE
105
27
330
A
100
AcDbSymbolTableRecord
100
AcDbDimStyleTableRecord
  2
ISO-25
 70
     0
 41
2.5
 42
0.625
 43
3.75
 44
1.25
 73
     0
 74
     0
 77
     1
 78
     8
140
2.5
141
2.5
143
0.0393700787
147
0.625
171
     3
172
     1
178
     0
271
     2
272
     2
274
     3
278
    44
283
     0
284
     8
340
11
  0
ENDTAB
  0
TABLE
  2
BLOCK_RECORD
  5
1
330
0
100
AcDbSymbolTable
 70
     3
  0
BLOCK_RECORD
  5
1F
330
1
100
AcDbSymbolTableRecord
100
AcDbBlockTableRecord
  2
*Model_Space
340
22
  0
BLOCK_RECORD
  5
1B
330
1
100
AcDbSymbolTableRecord
100
AcDbBlockTableRecord
  2
*Paper_Space
340
1E
  0
BLOCK_RECORD
  5
23
330
1
100
AcDbSymbolTableRecord
100
AcDbBlockTableRecord
  2
*Paper_Space0
340
26
  0
BLOCK_RECORD
  5
C8
330
1
100
AcDbSymbolTableRecord
100
AcDbBlockTableRecord
  2
SW_CENTERMARKSYMBOL_0
340
0
102
{BLKREFS
331
D3
102
}
  0
BLOCK_RECORD
  5
D4
330
1
100
AcDbSymbolTableRecord
100
AcDbBlockTableRecord
  2
SW_CENTERMARKSYMBOL_1
340
0
102
{BLKREFS
331
DF
102
}
  0
ENDTAB
  0
ENDSEC
  0
SECTION
  2
BLOCKS
  0
BLOCK
  5
20
330
1F
100
AcDbEntity
  8
0
100
AcDbBlockBegin
  2
*Model_Space
 70
     0
 10
0.0
 20
0.0
 30
0.0
  3
*Model_Space
  1

  0
ENDBLK
  5
21
330
1F
100
AcDbEntity
  8
0
100
AcDbBlockEnd
  0
BLOCK
  5
1C
330
1B
100
AcDbEntity
 67
     1
  8
0
100
AcDbBlockBegin
  2
*Paper_Space
 70
     0
 10
0.0
 20
0.0
 30
0.0
  3
*Paper_Space
  1

  0
ENDBLK
  5
1D
330
1B
100
AcDbEntity
 67
     1
  8
0
100
AcDbBlockEnd
  0
BLOCK
  5
24
330
23
100
AcDbEntity
  8
0
100
AcDbBlockBegin
  2
*Paper_Space0
 70
     0
 10
0.0
 20
0.0
 30
0.0
  3
*Paper_Space0
  1

  0
ENDBLK
  5
25
330
23
100
AcDbEntity
  8
0
100
AcDbBlockEnd
  0
BLOCK
  5
C9
330
C8
100
AcDbEntity
  8
0
100
AcDbBlockBegin
  2
SW_CENTERMARKSYMBOL_0
 70
     0
 10
0.0
 20
0.0
 30
0.0
  3
SW_CENTERMARKSYMBOL_0
  1

  0
LINE
  5
CB
330
C8
100
AcDbEntity
  8
0
  6
Continuous
 62
     0
370
    18
100
AcDbLine
 10
0.0
 20
0.0
 30
0.0
 11
0.0
 21
2.5
 31
0.0
  0
LINE
  5
CC
330
C8
100
AcDbEntity
  8
0
  6
Continuous
 62
     0
370
    18
100
AcDbLine
 10
0.0
 20
0.0
 30
0.0
 11
-2.5
 21
0.0
 31
0.0
  0
LINE
  5
CD
330
C8
100
AcDbEntity
  8
0
  6
Continuous
 62
     0
370
    18
100
AcDbLine
 10
0.0
 20
0.0
 30
0.0
 11
0.0
 21
-2.5
 31
0.0
  0
LINE
  5
CE
330
C8
100
AcDbEntity
  8
0
  6
Continuous
 62
     0
370
    18
100
AcDbLine
 10
0.0
 20
0.0
 30
0.0
 11
2.5
 21
0.0
 31
0.0
  0
LINE
  5
CF
330
C8
100
AcDbEntity
  8
0
  6
Continuous
 62
     0
370
    18
100
AcDbLine
 10
0.0
 20
5.0
 30
0.0
 11
0.0
 21
17.875
 31
0.0
  0
LINE
  5
D0
330
C8
100
AcDbEntity
  8
0
  6
Continuous
 62
     0
370
    18
100
AcDbLine
 10
-5.0
 20
0.0
 30
0.0
 11
-17.875
 21
0.0
 31
0.0
  0
LINE
  5
D1
330
C8
100
AcDbEntity
  8
0
  6
Continuous
 62
     0
370
    18
100
AcDbLine
 10
0.0
 20
-5.0
 30
0.0
 11
0.0
 21
-17.875
 31
0.0
  0
LINE
  5
D2
330
C8
100
AcDbEntity
  8
0
  6
Continuous
 62
     0
370
    18
100
AcDbLine
 10
5.0
 20
0.0
 30
0.0
 11
17.875
 21
0.0
 31
0.0
  0
ENDBLK
  5
CA
330
C8
100
AcDbEntity
  8
0
100
AcDbBlockEnd
  0
BLOCK
  5
D5
330
D4
100
AcDbEntity
  8
0
100
AcDbBlockBegin
  2
SW_CENTERMARKSYMBOL_1
 70
     0
 10
0.0
 20
0.0
 30
0.0
  3
SW_CENTERMARKSYMBOL_1
  1

  0
LINE
  5
D7
330
D4
100
AcDbEntity
  8
0
  6
Continuous
 62
     0
370
    18
100
AcDbLine
 10
0.0
 20
0.0
 30
0.0
 11
0.0
 21
2.5
 31
0.0
  0
LINE
  5
D8
330
D4
100
AcDbEntity
  8
0
  6
Continuous
 62
     0
370
    18
100
AcDbLine
 10
0.0
 20
0.0
 30
0.0
 11
-2.5
 21
0.0
 31
0.0
  0
LINE
  5
D9
330
D4
100
AcDbEntity
  8
0
  6
Continuous
 62
     0
370
    18
100
AcDbLine
 10
0.0
 20
0.0
 30
0.0
 11
0.0
 21
-2.5
 31
0.0
  0
LINE
  5
DA
330
D4
100
AcDbEntity
  8
0
  6
Continuous
 62
     0
370
    18
100
AcDbLine
 10
0.0
 20
0.0
 30
0.0
 11
2.5
 21
0.0
 31
0.0
  0
LINE
  5
DB
330
D4
100
AcDbEntity
  8
0
  6
Continuous
 62
     0
370
    18
100
AcDbLine
 10
0.0
 20
5.0
 30
0.0
 11
0.0
 21
29.4057888393
 31
0.0
  0
LINE
  5
DC
330
D4
100
AcDbEntity
  8
0
  6
Continuous
 62
     0
370
    18
100
AcDbLine
 10
-5.0
 20
0.0
 30
0.0
 11
-25.5
 21
0.0
 31
0.0
  0
LINE
  5
DD
330
D4
100
AcDbEntity
  8
0
  6
Continuous
 62
     0
370
    18
100
AcDbLine
 10
0.0
 20
-5.0
 30
0.0
 11
0.0
 21
-29.2518318297
 31
0.0
  0
LINE
  5
DE
330
D4
100
AcDbEntity
  8
0
  6
Continuous
 62
     0
370
    18
100
AcDbLine
 10
5.0
 20
0.0
 30
0.0
 11
25.5
 21
0.0
 31
0.0
  0
ENDBLK
  5
D6
330
D4
100
AcDbEntity
  8
0
100
AcDbBlockEnd
  0
ENDSEC
  0
SECTION
  2
ENTITIES
  0
MTEXT
  5
74
330
1F
100
AcDbEntity
  8
0
  6
Continuous
 62
     7
370
     0
100
AcDbMText
 10
183.7121859034
 20
117.7109909574
 30
0.0
 40
3.7041666667
 41
0.0
 71
     1
 72
     1
  1
ロックナット　NR-7008
  7
SLDTEXTSTYLE0
 73
     1
 44
1.0
  0
LINE
  5
75
330
1F
100
AcDbEntity
  8
0
  6
Continuous
 62
     7
370
    25
100
AcDbLine
 10
163.4360719328
 20
48.1374146359
 30
0.0
 11
165.4903490748
 21
51.6955270186
 31
0.0
  0
LINE
  5
76
330
1F
100
AcDbEntity
  8
0
  6
Continuous
 62
     7
370
    25
100
AcDbLine
 10
165.4903490748
 20
97.6955270186
 30
0.0
 11
163.4360719328
 21
101.2536394014
 31
0.0
  0
LINE
  5
77
330
1F
100
AcDbEntity
  8
0
  6
Continuous
 62
     7
370
    25
100
AcDbLine
 10
156.9903490748
 20
80.6955270186
 30
0.0
 11
156.9903490748
 21
68.6955270186
 31
0.0
  0
LINE
  5
78
330
1F
100
AcDbEntity
  8
0
  6
Continuous
 62
     7
370
    25
100
AcDbLine
 10
156.9903490748
 20
68.6955270186
 30
0.0
 11
162.9903490748
 21
68.6955270186
 31
0.0
  0
LINE
  5
79
330
1F
100
AcDbEntity
  8
0
  6
Continuous
 62
     7
370
    25
100
AcDbLine
 10
162.9903490748
 20
80.6955270186
 30
0.0
 11
162.9903490748
 21
68.6955270186
 31
0.0
  0
LINE
  5
7A
330
1F
100
AcDbEntity
  8
0
  6
Continuous
 62
     7
370
    25
100
AcDbLine
 10
156.9903490748
 20
80.6955270186
 30
0.0
 11
162.9903490748
 21
80.6955270186
 31
0.0
  0
LINE
  5
7B
330
1F
100
AcDbEntity
  8
0
  6
Continuous
 62
     7
370
    25
100
AcDbLine
 10
154.4903490748
 20
87.97458321
 30
0.0
 11
154.4903490748
 21
61.4164708273
 31
0.0
  0
LINE
  5
7C
330
1F
100
AcDbEntity
  8
0
  6
Continuous
 62
     7
370
    25
100
AcDbLine
 10
154.4903490748
 20
87.97458321
 30
0.0
 11
163.4360719328
 21
87.97458321
 31
0.0
  0
SPLINE
  5
7D
330
1F
100
AcDbEntity
  8
0
  6
Continuous
 62
     7
370
    25
100
AcDbSpline
210
0.0
220
0.0
230
1.0
 70
     8
 71
     3
 72
    12
 73
     8
 74
     0
 42
0.000000001
 43
0.00000001
 40
0.0
 40
0.0
 40
0.0
 40
0.0
 40
0.2499999999999999
 40
0.2499999999999999
 40
0.4999999999999999
 40
0.4999999999999999
 40
1.0
 40
1.0
 40
1.0
 40
1.0
 10
165.490349074816
 20
74.69552701863701
 30
0.0
 10
165.490349074816
 20
75.81866934942146
 30
0.0
 10
165.442597123413
 20
76.94563257209634
 30
0.0
 10
165.2527136172424
 20
79.20711083994814
 30
0.0
 10
165.1119573246555
 20
80.32662309123708
 30
0.0
 10
164.5720606168013
 20
83.65209700331104
 30
0.0
 10
164.0559561619044
 20
85.82724125091177
 30
0.0
 10
163.436071932844
 20
87.97458320999841
 30
0.0
  0
SPLINE
  5
7E
330
1F
100
AcDbEntity
  8
0
  6
Continuous
 62
     7
370
    25
100
AcDbSpline
210
0.0
220
0.0
230
1.0
 70
     8
 71
     3
 72
    12
 73
     8
 74
     0
 42
0.000000001
 43
0.00000001
 40
0.0
 40
0.0
 40
0.0
 40
0.0
 40
0.25
 40
0.25
 40
0.5
 40
0.5
 40
1.0
 40
1.0
 40
1.0
 40
1.0
 10
163.436071932844
 20
61.41647082727562
 30
0.0
 10
163.747933152725
 20
62.49678978276408
 30
0.0
 10
164.0344241717796
 20
63.58785600805277
 30
0.0
 10
164.5420816523579
 20
65.79206907469043
 30
0.0
 10
164.7612447413028
 20
66.8969493942569
 30
0.0
 10
165.2973335015789
 20
70.221304264061
 30
0.0
 10
165.490349074816
 20
72.4506935313949
 30
0.0
 10
165.490349074816
 20
74.69552701863702
 30
0.0
  0
LINE
  5
7F
330
1F
100
AcDbEntity
  8
0
  6
Continuous
 62
     7
370
    25
100
AcDbLine
 10
154.4903490748
 20
61.4164708273
 30
0.0
 11
163.4360719328
 21
61.4164708273
 31
0.0
  0
LINE
  5
80
330
1F
100
AcDbEntity
  8
0
  6
Continuous
 62
     7
370
    25
100
AcDbLine
 10
154.4903490748
 20
101.2536394014
 30
0.0
 11
154.4903490748
 21
87.97458321
 31
0.0
  0
LINE
  5
81
330
1F
100
AcDbEntity
  8
0
  6
Continuous
 62
     7
370
    25
100
AcDbLine
 10
154.4903490748
 20
101.2536394014
 30
0.0
 11
163.4360719328
 21
101.2536394014
 31
0.0
  0
SPLINE
  5
82
330
1F
100
AcDbEntity
  8
0
  6
Continuous
 62
     7
370
    25
100
AcDbSpline
210
0.0
220
0.0
230
1.0
 70
     8
 71
     3
 72
    14
 73
    10
 74
     0
 42
0.000000001
 43
0.00000001
 40
0.0
 40
0.0
 40
0.0
 40
0.0
 40
0.125
 40
0.125
 40
0.25
 40
0.25
 40
0.5
 40
0.5
 40
1.0
 40
1.0
 40
1.0
 40
1.0
 10
165.490349074816
 20
94.61411130567912
 30
0.0
 10
165.490349074816
 20
94.89584827395909
 30
0.0
 10
165.4783007830147
 20
95.17899474141588
 30
0.0
 10
165.4305093756279
 20
95.74265337108778
 30
0.0
 10
165.3948177337895
 20
96.02350573231763
 30
0.0
 10
165.2538897364519
 20
96.86325906439473
 30
0.0
 10
165.1147217892711
 20
97.4193497805215
 30
0.0
 10
164.5779656174013
 20
99.07774530927921
 30
0.0
 10
164.0615890737752
 20
100.170211932262
 30
0.0
 10
163.4360719328441
 20
101.2536394013598
 30
0.0
  0
SPLINE
  5
83
330
1F
100
AcDbEntity
  8
0
  6
Continuous
 62
     7
370
    25
100
AcDbSpline
210
0.0
220
0.0
230
1.0
 70
     8
 71
     3
 72
    10
 73
     6
 74
     0
 42
0.000000001
 43
0.00000001
 40
0.0
 40
0.0
 40
0.0
 40
0.0
 40
0.5000000000000001
 40
0.5000000000000001
 40
1.0
 40
1.0
 40
1.0
 40
1.0
 10
163.4360719328442
 20
87.9745832099984
 30
0.0
 10
164.0631552983609
 20
89.06072345965468
 30
0.0
 10
164.5797785723548
 20
90.1547970835892
 30
0.0
 10
165.2945657170971
 20
92.36581646204894
 30
0.0
 10
165.490349074816
 20
93.48293318783246
 30
0.0
 10
165.490349074816
 20
94.61411130567912
 30
0.0
  0
SPLINE
  5
84
330
1F
100
AcDbEntity
  8
0
  6
Continuous
 62
     7
370
    25
100
AcDbSpline
210
0.0
220
0.0
230
1.0
 70
     8
 71
     3
 72
    14
 73
    10
 74
     0
 42
0.000000001
 43
0.00000001
 40
0.0
 40
0.0
 40
0.0
 40
0.0
 40
0.1249999999999999
 40
0.1249999999999999
 40
0.2499999999999998
 40
0.2499999999999998
 40
0.5000000000000001
 40
0.5000000000000001
 40
1.0
 40
1.0
 40
1.0
 40
1.0
 10
165.490349074816
 20
54.77694273159494
 30
0.0
 10
165.490349074816
 20
55.05867969987491
 30
0.0
 10
165.4783007830147
 20
55.3418261673317
 30
0.0
 10
165.4305093756279
 20
55.9054847970036
 30
0.0
 10
165.3948177337896
 20
56.18633715823345
 30
0.0
 10
165.253889736452
 20
57.02609049031053
 30
0.0
 10
165.1147217892711
 20
57.5821812064373
 30
0.0
 10
164.5779656174013
 20
59.24057673519502
 30
0.0
 10
164.0615890737752
 20
60.33304335817778
 30
0.0
 10
163.4360719328441
 20
61.41647082727563
 30
0.0
  0
LINE
  5
85
330
1F
100
AcDbEntity
  8
0
  6
Continuous
 62
     7
370
    25
100
AcDbLine
 10
165.4903490748
 20
74.6955270186
 30
0.0
 11
165.4903490748
 21
54.7769427316
 31
0.0
  0
LINE
  5
86
330
1F
100
AcDbEntity
  8
0
  6
Continuous
 62
     7
370
    25
100
AcDbLine
 10
165.4903490748
 20
94.6141113057
 30
0.0
 11
165.4903490748
 21
74.6955270186
 31
0.0
  0
SPLINE
  5
87
330
1F
100
AcDbEntity
  8
0
  6
Continuous
 62
     7
370
    25
100
AcDbSpline
210
0.0
220
0.0
230
1.0
 70
     8
 71
     3
 72
    31
 73
    27
 74
     0
 42
0.000000001
 43
0.00000001
 40
0.0
 40
0.0
 40
0.0
 40
0.0
 40
0.0339502110781211
 40
0.067232912161326
 40
0.100285195545381
 40
0.1328717560866791
 40
0.1656126382025742
 40
0.1984143020951524
 40
0.2319803791781297
 40
0.2657493034654438
 40
0.3000852706599996
 40
0.3350128356127914
 40
0.3707276124325701
 40
0.4072426904682681
 40
0.4447344002219943
 40
0.4838550686041199
 40
0.5242809168028184
 40
0.5664047064396794
 40
0.6105232789836176
 40
0.6571713761395421
 40
0.7066905256858504
 40
0.7588195408743702
 40
0.8143476779909851
 40
0.8730252167393551
 40
0.9346941578931792
 40
1.0
 40
1.0
 40
1.0
 40
1.0
 10
162.0712785619954
 20
74.5767550191468
 30
0.0
 10
162.0707649128704
 20
74.54493576824697
 30
0.0
 10
162.0697477137012
 20
74.48192287869927
 30
0.0
 10
162.0584954875692
 20
74.38854762754023
 30
0.0
 10
162.042581048523
 20
74.29715677202017
 30
0.0
 10
162.0168452300848
 20
74.20851906294531
 30
0.0
 10
161.9857689002618
 20
74.12196927679877
 30
0.0
 10
161.9480314665216
 20
74.03701102397666
 30
0.0
 10
161.9022268491209
 20
73.95504545144101
 30
0.0
 10
161.8501735783349
 20
73.87516557562434
 30
0.0
 10
161.7904055179831
 20
73.79928289519185
 30
0.0
 10
161.7250672877156
 20
73.72563124354673
 30
0.0
 10
161.650716819987
 20
73.65797448001422
 30
0.0
 10
161.5704454261432
 20
73.59371465131008
 30
0.0
 10
161.4833959557286
 20
73.53309795645283
 30
0.0
 10
161.3888043254098
 20
73.47751472032577
 30
0.0
 10
161.2874862694593
 20
73.4251958375247
 30
0.0
 10
161.1789723057801
 20
73.37705775669002
 30
0.0
 10
161.0623616951701
 20
73.33315933995117
 30
0.0
 10
160.935897153849
 20
73.2971160130106
 30
0.0
 10
160.8007721605028
 20
73.26462773957698
 30
0.0
 10
160.6555937178186
 20
73.23970238154955
 30
0.0
 10
160.5011977255316
 20
73.21844104028733
 30
0.0
 10
160.3369680396081
 20
73.2046952503489
 30
0.0
 10
160.1632619941575
 20
73.19558673735078
 30
0.0
 10
160.0443146798049
 20
73.1943686744111
 30
0.0
 10
159.9831375363544
 20
73.19374219863397
 30
0.0
  0
SPLINE
  5
88
330
1F
100
AcDbEntity
  8
0
  6
Continuous
 62
     7
370
    25
100
AcDbSpline
210
0.0
220
0.0
230
1.0
 70
     8
 71
     3
 72
    31
 73
    27
 74
     0
 42
0.000000001
 43
0.00000001
 40
0.0
 40
0.0
 40
0.0
 40
0.0
 40
0.065054749926597
 40
0.1267600908173989
 40
0.1851636743975467
 40
0.240368175996
 40
0.292478779561434
 40
0.3416842694399408
 40
0.3882804851059475
 40
0.4319607614163524
 40
0.4737330795845325
 40
0.5140527851450162
 40
0.5528057342986216
 40
0.5905542635423501
 40
0.6271376491872421
 40
0.6630677275804013
 40
0.6979972705385017
 40
0.73275394016551
 40
0.7669379730898745
 40
0.8005238623563327
 40
0.8335821150233282
 40
0.8667080105333033
 40
0.8995885028236209
 40
0.9324330797648361
 40
0.9660189690312941
 40
1.0
 40
1.0
 40
1.0
 40
1.0
 10
159.9831375363544
 20
73.19374219863397
 30
0.0
 10
159.9222259168189
 20
73.1940197911681
 30
0.0
 10
159.8035387735608
 20
73.19456068410639
 30
0.0
 10
159.6304035730664
 20
73.2040639437311
 30
0.0
 10
159.4667663276497
 20
73.21708074040221
 30
0.0
 10
159.3127827759212
 20
73.23636002142051
 30
0.0
 10
159.1681872987427
 20
73.26059212163194
 30
0.0
 10
159.0333450988798
 20
73.2923796431161
 30
0.0
 10
158.9075573951196
 20
73.32766506760882
 30
0.0
 10
158.791138339321
 20
73.36962102573563
 30
0.0
 10
158.6834769202043
 20
73.41746652548456
 30
0.0
 10
158.5824398148844
 20
73.46845962083896
 30
0.0
 10
158.4879794233295
 20
73.5237992412744
 30
0.0
 10
158.4010217179622
 20
73.58426961636685
 30
0.0
 10
158.3189938976521
 20
73.64712136036945
 30
0.0
 10
158.2458633327106
 20
73.71638024502741
 30
0.0
 10
158.1784731020254
 20
73.78884111042423
 30
0.0
 10
158.1186567326318
 20
73.86565901775076
 30
0.0
 10
158.0656320927345
 20
73.9457931615092
 30
0.0
 10
158.0201995291717
 20
74.02861509653424
 30
0.0
 10
157.9801716534813
 20
74.11310764415181
 30
0.0
 10
157.9484431576204
 20
74.2003843167204
 30
0.0
 10
157.9234375508996
 20
74.28957300817935
 30
0.0
 10
157.9056539555629
 20
74.38093139823276
 30
0.0
 10
157.8952728592996
 20
74.47448611280528
 30
0.0
 10
157.8934895391827
 20
74.53773439617456
 30
0.0
 10
157.8925926645595
 20
74.56954348068525
 30
0.0
  0
SPLINE
  5
89
330
1F
100
AcDbEntity
  8
0
  6
Continuous
 62
     7
370
    25
100
AcDbSpline
210
0.0
220
0.0
230
1.0
 70
     8
 71
     3
 72
    15
 73
    11
 74
     0
 42
0.000000001
 43
0.00000001
 40
0.0
 40
0.0
 40
0.0
 40
0.0
 40
0.110152175066822
 40
0.224222242628491
 40
0.3419129278445883
 40
0.4640474506958245
 40
0.5908700504788368
 40
0.722598892489626
 40
0.858657206917353
 40
1.0
 40
1.0
 40
1.0
 40
1.0
 10
158.9518875363544
 20
73.71377424991603
 30
0.0
 10
158.9880857289165
 20
73.70185961479301
 30
0.0
 10
159.0617696113315
 20
73.67760656481225
 30
0.0
 10
159.1765286057748
 20
73.64876650235773
 30
0.0
 10
159.2961403656353
 20
73.6226964080063
 30
0.0
 10
159.4213182927379
 20
73.60207896940048
 30
0.0
 10
159.5520420766604
 20
73.5861027188459
 30
0.0
 10
159.6881047804102
 20
73.57501689771617
 30
0.0
 10
159.829497439899
 20
73.56867021960298
 30
0.0
 10
159.9254388758097
 20
73.56765626813194
 30
0.0
 10
159.9743234337903
 20
73.56713963453142
 30
0.0
  0
SPLINE
  5
8A
330
1F
100
AcDbEntity
  8
0
  6
Continuous
 62
     7
370
    25
100
AcDbSpline
210
0.0
220
0.0
230
1.0
 70
     8
 71
     3
 72
    27
 73
    23
 74
     0
 42
0.000000001
 43
0.00000001
 40
0.0
 40
0.0
 40
0.0
 40
0.0
 40
0.0664232513051476
 40
0.1300005482133332
 40
0.1904591131003911
 40
0.2478107805595826
 40
0.3025828249597598
 40
0.3547537329664127
 40
0.4042227801398763
 40
0.4510520956160166
 40
0.4956100193804413
 40
0.5385021681669531
 40
0.5789184683159948
 40
0.6180061295108086
 40
0.6549634153425246
 40
0.6905110368767465
 40
0.724898527990893
 40
0.7584013550537381
 40
0.8226217585105128
 40
0.8832032853019796
 40
0.9417414765410408
 40
1.0
 40
1.0
 40
1.0
 40
1.0
 10
159.9743234337903
 20
73.56713963453142
 30
0.0
 10
160.0232062123123
 20
73.56767058130443
 30
0.0
 10
160.1188773497708
 20
73.56870972603474
 30
0.0
 10
160.2589646859802
 20
73.57478338916127
 30
0.0
 10
160.3919556168743
 20
73.58652845397644
 30
0.0
 10
160.5182774782103
 20
73.6001622700217
 30
0.0
 10
160.6375859790766
 20
73.62002276394188
 30
0.0
 10
160.7506831732995
 20
73.64165321348919
 30
0.0
 10
160.8565485159195
 20
73.66903004715527
 30
0.0
 10
160.9553601529124
 20
73.70048059195088
 30
0.0
 10
161.0481125488286
 20
73.73475609155894
 30
0.0
 10
161.1340669018069
 20
73.77318921887588
 30
0.0
 10
161.21440367505
 20
73.81407008973906
 30
0.0
 10
161.2876270703152
 20
73.85876860183244
 30
0.0
 10
161.3547871822859
 20
73.90616749278068
 30
0.0
 10
161.4151286361938
 20
73.95678048895434
 30
0.0
 10
161.4691980051456
 20
74.01054065134615
 30
0.0
 10
161.5310802102688
 20
74.08565566366866
 30
0.0
 10
161.5955616593363
 20
74.18326942645695
 30
0.0
 10
161.6517692533014
 20
74.30641061826026
 30
0.0
 10
161.6866165793604
 20
74.43328376268438
 30
0.0
 10
161.6903899727219
 20
74.51938460471939
 30
0.0
 10
161.692272151739
 20
74.56233194222372
 30
0.0
  0
SPLINE
  5
8B
330
1F
100
AcDbEntity
  8
0
  6
Continuous
 62
     7
370
    25
100
AcDbSpline
210
0.0
220
0.0
230
1.0
 70
     8
 71
     3
 72
    19
 73
    15
 74
     0
 42
0.000000001
 43
0.00000001
 40
0.0
 40
0.0
 40
0.0
 40
0.0
 40
0.1111411066451685
 40
0.2220507786476907
 40
0.336147592012781
 40
0.4552056890189062
 40
0.5173410957670577
 40
0.580171860525767
 40
0.6441520638355012
 40
0.7103395595588102
 40
0.7784473430435114
 40
0.8493743306228045
 40
0.9227998277839432
 40
0.9999999999999999
 40
0.9999999999999999
 40
0.9999999999999999
 40
0.9999999999999999
 10
158.2523683055852
 20
74.55672296786476
 30
0.0
 10
158.2545764597142
 20
74.51325032307693
 30
0.0
 10
158.2589881698234
 20
74.4263955587472
 30
0.0
 10
158.2934239354277
 20
74.29859955551588
 30
0.0
 10
158.3496999103883
 20
74.17599265479751
 30
0.0
 10
158.4130119980709
 20
74.0790088986064
 30
0.0
 10
158.4735438831287
 20
74.00515892177062
 30
0.0
 10
158.5262357934745
 20
73.95331547030841
 30
0.0
 10
158.5831049641712
 20
73.90363366711631
 30
0.0
 10
158.6468455966873
 20
73.85939515865964
 30
0.0
 10
158.7151522414342
 20
73.81728868874191
 30
0.0
 10
158.7890148306599
 20
73.77926972948833
 30
0.0
 10
158.8678171104709
 20
73.74320821541713
 30
0.0
 10
158.9233997611701
 20
73.72374812816352
 30
0.0
 10
158.9518875363544
 20
73.71377424991603
 30
0.0
  0
SPLINE
  5
8C
330
1F
100
AcDbEntity
  8
0
  6
Continuous
 62
     7
370
    25
100
AcDbSpline
210
0.0
220
0.0
230
1.0
 70
     8
 71
     3
 72
    31
 73
    27
 74
     0
 42
0.000000001
 43
0.00000001
 40
0.0
 40
0.0
 40
0.0
 40
0.0
 40
0.0686229361946743
 40
0.1329858155696743
 40
0.1937383892668944
 40
0.2506817797979176
 40
0.303877180682789
 40
0.3534861573449564
 40
0.3996677569169308
 40
0.4425240170357792
 40
0.4830502605263777
 40
0.5222111025764758
 40
0.5600302691416033
 40
0.5968197585823112
 40
0.6326017786981911
 40
0.6673459431853854
 40
0.7018795098001501
 40
0.7360495487490988
 40
0.7695730081982992
 40
0.8028694884205134
 40
0.8354945064175363
 40
0.8679218566478648
 40
0.9003796956573772
 40
0.9331496668309186
 40
0.9660914888278855
 40
1.0
 40
1.0
 40
1.0
 40
1.0
 10
159.9783298440467
 20
75.90928707042885
 30
0.0
 10
160.0421719846595
 20
75.90884345962571
 30
0.0
 10
160.1658929970191
 20
75.90798377702217
 30
0.0
 10
160.3460246094749
 20
75.90086069093053
 30
0.0
 10
160.5149784855424
 20
75.8883590370787
 30
0.0
 10
160.6729173725513
 20
75.86983262072462
 30
0.0
 10
160.8198259577794
 20
75.84706314535099
 30
0.0
 10
160.9555223735999
 20
75.81842607056079
 30
0.0
 10
161.079933440249
 20
75.78406508925232
 30
0.0
 10
161.1939180377812
 20
75.74461098379628
 30
0.0
 10
161.2989967127052
 20
75.70016783452685
 30
0.0
 10
161.396771110407
 20
75.65115033654276
 30
0.0
 10
161.488654301827
 20
75.59844351038116
 30
0.0
 10
161.5735510350076
 20
75.54051054320104
 30
0.0
 10
161.6523805278509
 20
75.47908704556272
 30
0.0
 10
161.7241429361274
 20
75.41260653183073
 30
0.0
 10
161.7902647836155
 20
75.34250141011299
 30
0.0
 10
161.8481277910795
 20
75.2668810405445
 30
0.0
 10
161.9007651643904
 20
75.18898379414058
 30
0.0
 10
161.9462157963406
 20
75.10828424483064
 30
0.0
 10
161.9850520469786
 20
75.02534195856876
 30
0.0
 10
162.0164576447648
 20
74.9401058999045
 30
0.0
 10
162.0403233510713
 20
74.85235230529446
 30
0.0
 10
162.0581163611849
 20
74.76269743580175
 30
0.0
 10
162.0686759785637
 20
74.67048679389843
 30
0.0
 10
162.0704027110471
 20
74.60829870101541
 30
0.0
 10
162.0712785619954
 20
74.5767550191468
 30
0.0
  0
SPLINE
  5
8D
330
1F
100
AcDbEntity
  8
0
  6
Continuous
 62
     7
370
    25
100
AcDbSpline
210
0.0
220
0.0
230
1.0
 70
     8
 71
     3
 72
    31
 73
    27
 74
     0
 42
0.000000001
 43
0.00000001
 40
0.0
 40
0.0
 40
0.0
 40
0.0
 40
0.0339343666938296
 40
0.0669119475124989
 40
0.0996633074995975
 40
0.1321563799603165
 40
0.1642504040377381
 40
0.1967904749664072
 40
0.2295922410779639
 40
0.2629929477835144
 40
0.2967968276865476
 40
0.3311725864285024
 40
0.3659544662061021
 40
0.4017753282196035
 40
0.4386047531803793
 40
0.4766097919540501
 40
0.5161989590608016
 40
0.5571461663915848
 40
0.6005114497932925
 40
0.6470973969094161
 40
0.6968209002679959
 40
0.7501197866674869
 40
0.8068737398436215
 40
0.8674281868282306
 40
0.9318731115023735
 40
1.0
 40
1.0
 40
1.0
 40
1.0
 10
157.8925926645595
 20
74.56954348068525
 30
0.0
 10
157.8931039081635
 20
74.60109487676931
 30
0.0
 10
157.8941119807614
 20
74.66330807136845
 30
0.0
 10
157.9052926680842
 20
74.75537679162927
 30
0.0
 10
157.9216331875463
 20
74.84525410757574
 30
0.0
 10
157.9459097349598
 20
74.9325115370855
 30
0.0
 10
157.9764945964395
 20
75.01752965686723
 30
0.0
 10
158.0143572002866
 20
75.09988105312593
 30
0.0
 10
158.0584145872369
 20
75.18047931206347
 30
0.0
 10
158.1098782129911
 20
75.25797840336644
 30
0.0
 10
158.1674794973887
 20
75.33288810178301
 30
0.0
 10
158.232489309958
 20
75.40326493368364
 30
0.0
 10
158.3043306227167
 20
75.46941847556617
 30
0.0
 10
158.383067740989
 20
75.53095451980087
 30
0.0
 10
158.4682314722723
 20
75.58871403622906
 30
0.0
 10
158.5599978697397
 20
75.64257770371229
 30
0.0
 10
158.6584540151239
 20
75.69217453292458
 30
0.0
 10
158.7644879085487
 20
75.73720630195965
 30
0.0
 10
158.8789215401772
 20
75.7787345808196
 30
0.0
 10
159.0041077746236
 20
75.81343621084864
 30
0.0
 10
159.1399987103094
 20
75.84312983335947
 30
0.0
 10
159.2866735327152
 20
75.86657202659863
 30
0.0
 10
159.4440613465644
 20
75.88599493792898
 30
0.0
 10
159.61248784638
 20
75.8993065266138
 30
0.0
 10
159.7918232734885
 20
75.90718049862416
 30
0.0
 10
159.915020454246
 20
75.9085719976294
 30
0.0
 10
159.9783298440467
 20
75.90928707042885
 30
0.0
  0
SPLINE
  5
8E
330
1F
100
AcDbEntity
  8
0
  6
Continuous
 62
     7
370
    25
100
AcDbSpline
210
0.0
220
0.0
230
1.0
 70
     8
 71
     3
 72
    27
 73
    23
 74
     0
 42
0.000000001
 43
0.00000001
 40
0.0
 40
0.0
 40
0.0
 40
0.0
 40
0.0593293019684135
 40
0.1185254540357435
 40
0.1792124512750439
 40
0.2433848028065205
 40
0.2765844550939955
 40
0.3101779018677913
 40
0.3443612289795339
 40
0.3793957551171861
 40
0.4157221804151908
 40
0.4535229359415116
 40
0.4924802062971825
 40
0.532889054049553
 40
0.5761355259604363
 40
0.6235440730885567
 40
0.6751829461800856
 40
0.7311883336936793
 40
0.7916669331314445
 40
0.8563414681220455
 40
0.926016196803594
 40
1.0
 40
1.0
 40
1.0
 40
1.0
 10
161.692272151739
 20
74.56233194222372
 30
0.0
 10
161.6900373864751
 20
74.60605799458743
 30
0.0
 10
161.6855728713234
 20
74.69341196703695
 30
0.0
 10
161.6515848093954
 20
74.82205788792677
 30
0.0
 10
161.5935947274237
 20
74.94508638811969
 30
0.0
 10
161.529965079267
 20
75.04313786671288
 30
0.0
 10
161.4676152298937
 20
75.11687683854298
 30
0.0
 10
161.4153153971658
 20
75.16983121773383
 30
0.0
 10
161.3584076000237
 20
75.21992316942709
 30
0.0
 10
161.2953529103983
 20
75.26555411611898
 30
0.0
 10
161.2270451285619
 20
75.30804902238177
 30
0.0
 10
161.15349320525
 20
75.34729324523315
 30
0.0
 10
161.0745493246487
 20
75.38225116576257
 30
0.0
 10
160.9903820886581
 20
75.41514136743531
 30
0.0
 10
160.8978731124967
 20
75.44300170963083
 30
0.0
 10
160.7960212784775
 20
75.46787886790092
 30
0.0
 10
160.6836249907897
 20
75.48841890211482
 30
0.0
 10
160.560892034762
 20
75.50506385762638
 30
0.0
 10
160.4280336484807
 20
75.51773407929456
 30
0.0
 10
160.2847726394789
 20
75.52614889776484
 30
0.0
 10
160.1314244641982
 20
75.53206913141587
 30
0.0
 10
160.0256116525985
 20
75.53247532011144
 30
0.0
 10
159.9711183055852
 20
75.53268450632629
 30
0.0
  0
SPLINE
  5
8F
330
1F
100
AcDbEntity
  8
0
  6
Continuous
 62
     7
370
    25
100
AcDbSpline
210
0.0
220
0.0
230
1.0
 70
     8
 71
     3
 72
    27
 73
    23
 74
     0
 42
0.000000001
 43
0.00000001
 40
0.0
 40
0.0
 40
0.0
 40
0.0
 40
0.0740068800135492
 40
0.1433366578346471
 40
0.2080508668119511
 40
0.268183640747015
 40
0.3242536094743633
 40
0.3755488883916821
 40
0.4229693747249084
 40
0.4662267376782198
 40
0.5066457618555316
 40
0.545612843075895
 40
0.583103345373998
 40
0.6193264864456972
 40
0.6548768181198287
 40
0.6893428073149621
 40
0.7232041168768296
 40
0.7566903068900831
 40
0.8211825110656593
 40
0.8820644388783615
 40
0.9410171575677732
 40
1.0
 40
1.0
 40
1.0
 40
1.0
 10
159.9711183055852
 20
75.53268450632629
 30
0.0
 10
159.9166278825907
 20
75.53210759167249
 30
0.0
 10
159.8110907336853
 20
75.53099022233717
 30
0.0
 10
159.6579582304762
 20
75.52570346605422
 30
0.0
 10
159.5153130612457
 20
75.51581720078471
 30
0.0
 10
159.382604094375
 20
75.50376029006522
 30
0.0
 10
159.2605364762881
 20
75.48584908760711
 30
0.0
 10
159.1483631660102
 20
75.46543350902846
 30
0.0
 10
159.0467678409132
 20
75.44059207901402
 30
0.0
 10
158.9542572604605
 20
75.41274187708986
 30
0.0
 10
158.8700947919383
 20
75.37983606886725
 30
0.0
 10
158.7913497518366
 20
75.34502360556164
 30
0.0
 10
158.718126327831
 20
75.30577658518644
 30
0.0
 10
158.6506211441192
 20
75.26189735945718
 30
0.0
 10
158.587309183366
 20
75.21587799052226
 30
0.0
 10
158.5290948418861
 20
75.16608929157312
 30
0.0
 10
158.4770497563384
 20
75.11199928667287
 30
0.0
 10
158.4148486019353
 20
75.03738963287185
 30
0.0
 10
158.3506690323894
 20
74.93892170447718
 30
0.0
 10
158.2946370879899
 20
74.814912852043
 30
0.0
 10
158.2587186702845
 20
74.68719325315466
 30
0.0
 10
158.254485454242
 20
74.60022046798208
 30
0.0
 10
158.2523683055852
 20
74.55672296786476
 30
0.0
  0
LINE
  5
90
330
1F
100
AcDbEntity
  8
0
  6
Continuous
 62
     7
370
    25
100
AcDbLine
 10
161.0480413825
 20
78.7615958239
 30
0.0
 11
161.0472401005
 21
79.1678458239
 31
0.0
  0
SPLINE
  5
91
330
1F
100
AcDbEntity
  8
0
  6
Continuous
 62
     7
370
    25
100
AcDbSpline
210
0.0
220
0.0
230
1.0
 70
     8
 71
     3
 72
    23
 73
    19
 74
     0
 42
0.000000001
 43
0.00000001
 40
0.0
 40
0.0
 40
0.0
 40
0.0
 40
0.0730186031256832
 40
0.1431450342826866
 40
0.2108685250690169
 40
0.2758529921314155
 40
0.3393775786396914
 40
0.4014896731374407
 40
0.46269297076423
 40
0.5235137498083658
 40
0.5837365428428315
 40
0.6424828441266818
 40
0.700892322166798
 40
0.7590076610242049
 40
0.8177309275530393
 40
0.8769645997526948
 40
0.9377482929525022
 40
1.0
 40
1.0
 40
1.0
 40
1.0
 10
161.047240100457
 20
79.1678458239125
 30
0.0
 10
161.0872257635029
 20
79.15835983690434
 30
0.0
 10
161.1656133094502
 20
79.13976359050463
 30
0.0
 10
161.2778827410771
 20
79.10109885761466
 30
0.0
 10
161.3838762260518
 20
79.05866841125118
 30
0.0
 10
161.4822880683777
 20
79.00837634155079
 30
0.0
 10
161.5739183046612
 20
78.95247992318289
 30
0.0
 10
161.6584091095445
 20
78.8897383536212
 30
0.0
 10
161.7357734801907
 20
78.82063704079465
 30
0.0
 10
161.8052549102561
 20
78.74508868994309
 30
0.0
 10
161.8677326942936
 20
78.66542187457104
 30
0.0
 10
161.9218425271865
 20
78.58142270217431
 30
0.0
 10
161.9675284946964
 20
78.49391673229938
 30
0.0
 10
162.0054598381574
 20
78.40280971501073
 30
0.0
 10
162.0353015959226
 20
78.30820250113665
 30
0.0
 10
162.0558328447336
 20
78.20967575438691
 30
0.0
 10
162.0692679724072
 20
78.10785485764457
 30
0.0
 10
162.0706030555565
 20
78.03861566713178
 30
0.0
 10
162.0712785619954
 20
78.00358300339968
 30
0.0
  0
SPLINE
  5
92
330
1F
100
AcDbEntity
  8
0
  6
Continuous
 62
     7
370
    25
100
AcDbSpline
210
0.0
220
0.0
230
1.0
 70
     8
 71
     3
 72
    19
 73
    15
 74
     0
 42
0.000000001
 43
0.00000001
 40
0.0
 40
0.0
 40
0.0
 40
0.0
 40
0.0898644634927054
 40
0.1775895521150331
 40
0.2652391566373746
 40
0.3537566807950155
 40
0.440998807096247
 40
0.5248467744535982
 40
0.6072414837135922
 40
0.6893652937674903
 40
0.7700471770848268
 40
0.8477834412405071
 40
0.923697491629296
 40
0.9999999999999999
 40
0.9999999999999999
 40
0.9999999999999999
 40
0.9999999999999999
 10
162.0712785619954
 20
78.00358300339968
 30
0.0
 10
162.0695240005928
 20
77.95247239288177
 30
0.0
 10
162.0660566480762
 20
77.85146794599119
 30
0.0
 10
162.0401690029962
 20
77.70228638103906
 30
0.0
 10
161.9943376858791
 20
77.55902404991427
 30
0.0
 10
161.9332674095089
 20
77.42193612879412
 30
0.0
 10
161.8572458521667
 20
77.29486974613218
 30
0.0
 10
161.7663671257135
 20
77.1824310950477
 30
0.0
 10
161.6640515804281
 20
77.08450768286106
 30
0.0
 10
161.5504636484527
 20
77.0027795936768
 30
0.0
 10
161.4288471918831
 20
76.93936547168506
 30
0.0
 10
161.3040323332559
 20
76.89181159458067
 30
0.0
 10
161.175621623297
 20
76.86366259234183
 30
0.0
 10
161.0890392183521
 20
76.8597239946034
 30
0.0
 10
161.0456375363544
 20
76.85774967006634
 30
0.0
  0
SPLINE
  5
93
330
1F
100
AcDbEntity
  8
0
  6
Continuous
 62
     7
370
    25
100
AcDbSpline
210
0.0
220
0.0
230
1.0
 70
     8
 71
     3
 72
    15
 73
    11
 74
     0
 42
0.000000001
 43
0.00000001
 40
0.0
 40
0.0
 40
0.0
 40
0.0
 40
0.1240120616548137
 40
0.2436563139321582
 40
0.3608451373568502
 40
0.4793769364499217
 40
0.5998207045945018
 40
0.7249467942085719
 40
0.8585195054390143
 40
1.0
 40
1.0
 40
1.0
 40
1.0
 10
161.0456375363544
 20
76.85774967006634
 30
0.0
 10
161.0038708182049
 20
76.85932417306344
 30
0.0
 10
160.9218084409363
 20
76.86241772373448
 30
0.0
 10
160.8019933749924
 20
76.88580424839105
 30
0.0
 10
160.6891114021289
 20
76.92668713168189
 30
0.0
 10
160.5828931993838
 20
76.98313563287141
 30
0.0
 10
160.4832070511522
 20
77.05521569179047
 30
0.0
 10
160.3912999238815
 20
77.14425764669491
 30
0.0
 10
160.3051974248289
 20
77.24837949174909
 30
0.0
 10
160.2560261599171
 20
77.3269502304428
 30
0.0
 10
160.2307336902006
 20
77.36736505468173
 30
0.0
  0
SPLINE
  5
94
330
1F
100
AcDbEntity
  8
0
  6
Continuous
 62
     7
370
    25
100
AcDbSpline
210
0.0
220
0.0
230
1.0
 70
     8
 71
     3
 72
    11
 73
     7
 74
     0
 42
0.000000001
 43
0.00000001
 40
0.0
 40
0.0
 40
0.0
 40
0.0
 40
0.2584317084777974
 40
0.5081706827419565
 40
0.7545708308982124
 40
1.0
 40
1.0
 40
1.0
 40
1.0
 10
160.2307336902006
 20
77.36736505468173
 30
0.0
 10
160.2101976841165
 20
77.32112641108485
 30
0.0
 10
160.1698164310031
 20
77.23020442931998
 30
0.0
 10
160.0909325714359
 20
77.1049379310656
 30
0.0
 10
159.9987899308689
 20
76.99223269034142
 30
0.0
 10
159.9268760526661
 20
76.9281762152839
 30
0.0
 10
159.890990100457
 20
76.89621120852789
 30
0.0
  0
SPLINE
  5
95
330
1F
100
AcDbEntity
  8
0
  6
Continuous
 62
     7
370
    25
100
AcDbSpline
210
0.0
220
0.0
230
1.0
 70
     8
 71
     3
 72
    15
 73
    11
 74
     0
 42
0.000000001
 43
0.00000001
 40
0.0
 40
0.0
 40
0.0
 40
0.0
 40
0.1306423407152709
 40
0.257882400599113
 40
0.3825759848001573
 40
0.5056320390703238
 40
0.6276817356858377
 40
0.7503150669859457
 40
0.8740374788263675
 40
1.0
 40
1.0
 40
1.0
 40
1.0
 10
159.890990100457
 20
76.89621120852789
 30
0.0
 10
159.8646133668336
 20
76.87545479764633
 30
0.0
 10
159.8125468212596
 20
76.83448252911035
 30
0.0
 10
159.7295355534404
 20
76.78162876854734
 30
0.0
 10
159.6443589288259
 20
76.73654636290553
 30
0.0
 10
159.5568669200219
 20
76.69920518080143
 30
0.0
 10
159.4664420249429
 20
76.67156497457921
 30
0.0
 10
159.3741895988106
 20
76.65019643339967
 30
0.0
 10
159.2791329128459
 20
76.63811894313127
 30
0.0
 10
159.2150072553615
 20
76.63657396267436
 30
0.0
 10
159.1826567671237
 20
76.63579454186122
 30
0.0
  0
SPLINE
  5
96
330
1F
100
AcDbEntity
  8
0
  6
Continuous
 62
     7
370
    25
100
AcDbSpline
210
0.0
220
0.0
230
1.0
 70
     8
 71
     3
 72
    19
 73
    15
 74
     0
 42
0.000000001
 43
0.00000001
 40
0.0
 40
0.0
 40
0.0
 40
0.0
 40
0.0805837841055691
 40
0.1603576603781786
 40
0.2417742204000994
 40
0.3252421411441939
 40
0.4090261606311749
 40
0.4910624318901208
 40
0.5724143947194859
 40
0.6554687862101186
 40
0.7394875570886766
 40
0.8241979388352174
 40
0.9105582787213381
 40
1.0
 40
1.0
 40
1.0
 40
1.0
 10
159.1826567671237
 20
76.63579454186122
 30
0.0
 10
159.1266455667355
 20
76.63754126564709
 30
0.0
 10
159.0151861068837
 20
76.64101715776036
 30
0.0
 10
158.8505137896764
 20
76.67716364067098
 30
0.0
 10
158.6894291898839
 20
76.73200374855519
 30
0.0
 10
158.5349351180208
 20
76.81006979660728
 30
0.0
 10
158.3901815097862
 20
76.90572944585236
 30
0.0
 10
158.2619815614683
 20
77.02062071014136
 30
0.0
 10
158.15067874727
 20
77.15118511824079
 30
0.0
 10
158.0580082636243
 20
77.29723016540291
 30
0.0
 10
157.9841799173682
 20
77.45617513889435
 30
0.0
 10
157.9311035496227
 20
77.62556086387349
 30
0.0
 10
157.8993422949057
 20
77.80421547134354
 30
0.0
 10
157.8948686785365
 20
77.92626451271589
 30
0.0
 10
157.8925926645595
 20
77.98835864442533
 30
0.0
  0
SPLINE
  5
97
330
1F
100
AcDbEntity
  8
0
  6
Continuous
 62
     7
370
    25
100
AcDbSpline
210
0.0
220
0.0
230
1.0
 70
     8
 71
     3
 72
    23
 73
    19
 74
     0
 42
0.000000001
 43
0.00000001
 40
0.0
 40
0.0
 40
0.0
 40
0.0
 40
0.0654319102705883
 40
0.1283007822384561
 40
0.1893941642270051
 40
0.2489493645792656
 40
0.3071062948687989
 40
0.3652199663904763
 40
0.4230973842619333
 40
0.4815755109838811
 40
0.5407846058224667
 40
0.6001399828655153
 40
0.6608017450363894
 40
0.7236664787616077
 40
0.7881249774445688
 40
0.8555863152329698
 40
0.92623487909401
 40
1.0
 40
1.0
 40
1.0
 40
1.0
 10
157.8925926645595
 20
77.98835864442533
 30
0.0
 10
157.8935181559372
 20
78.03033524227162
 30
0.0
 10
157.8953328861997
 20
78.11264416947729
 30
0.0
 10
157.9095402546304
 20
78.23341700614827
 30
0.0
 10
157.9310695001699
 20
78.34930871255287
 30
0.0
 10
157.9648083906166
 20
78.45908505115389
 30
0.0
 10
158.0052113923804
 20
78.5645168900837
 30
0.0
 10
158.0569307965585
 20
78.66377214265357
 30
0.0
 10
158.1174767688
 20
78.75800525029952
 30
0.0
 10
158.1862446234646
 20
78.84738629022496
 30
0.0
 10
158.2647681444363
 20
78.9296983179151
 30
0.0
 10
158.3520603155033
 20
79.00473457302462
 30
0.0
 10
158.4480142269211
 20
79.07254238952166
 30
0.0
 10
158.5530995218657
 20
79.131917498944
 30
0.0
 10
158.6660051815191
 20
79.18573055613464
 30
0.0
 10
158.7883361853817
 20
79.22991913882153
 30
0.0
 10
158.9189366027267
 20
79.26789560897046
 30
0.0
 10
159.0096954545952
 20
79.28653177684764
 30
0.0
 10
159.0560542030211
 20
79.29605095211762
 30
0.0
  0
LINE
  5
98
330
1F
100
AcDbEntity
  8
0
  6
Continuous
 62
     7
370
    25
100
AcDbLine
 10
159.056054203
 20
79.2960509521
 30
0.0
 11
159.0568554851
 21
78.9066278752
 31
0.0
  0
SPLINE
  5
99
330
1F
100
AcDbEntity
  8
0
  6
Continuous
 62
     7
370
    25
100
AcDbSpline
210
0.0
220
0.0
230
1.0
 70
     8
 71
     3
 72
    15
 73
    11
 74
     0
 42
0.000000001
 43
0.00000001
 40
0.0
 40
0.0
 40
0.0
 40
0.0
 40
0.1522783863742221
 40
0.2949607722455527
 40
0.4300398780838037
 40
0.5569198968591857
 40
0.6767529970999909
 40
0.79010847644238
 40
0.8974841170435975
 40
1.0
 40
1.0
 40
1.0
 40
1.0
 10
159.0568554850724
 20
78.90662787519454
 30
0.0
 10
159.0255133231787
 20
78.89785043847075
 30
0.0
 10
158.9648040623562
 20
78.8808486854575
 30
0.0
 10
158.8778050293872
 20
78.8510760706472
 30
0.0
 10
158.797601393306
 20
78.81857437680655
 30
0.0
 10
158.7244621220107
 20
78.78225389346541
 30
0.0
 10
158.6577468124888
 20
78.74382325953476
 30
0.0
 10
158.5972398527389
 20
78.70323346585853
 30
0.0
 10
158.5439306289256
 20
78.65903765782875
 30
0.0
 10
158.5127768437437
 20
78.62673309513576
 30
0.0
 10
158.4975606132775
 20
78.61095479827148
 30
0.0
  0
SPLINE
  5
9A
330
1F
100
AcDbEntity
  8
0
  6
Continuous
 62
     7
370
    25
100
AcDbSpline
210
0.0
220
0.0
230
1.0
 70
     8
 71
     3
 72
    15
 73
    11
 74
     0
 42
0.000000001
 43
0.00000001
 40
0.0
 40
0.0
 40
0.0
 40
0.0
 40
0.1198931461413823
 40
0.2392806937666597
 40
0.3590113515423823
 40
0.4796675668761692
 40
0.6039123464581456
 40
0.7313397220394215
 40
0.8631284656774941
 40
0.9999999999999999
 40
0.9999999999999999
 40
0.9999999999999999
 40
0.9999999999999999
 10
158.4975606132775
 20
78.61095479827148
 30
0.0
 10
158.4799562591172
 20
78.59023748918214
 30
0.0
 10
158.4448217896972
 20
78.54889023747164
 30
0.0
 10
158.4012564962138
 20
78.47998494861562
 30
0.0
 10
158.3630905581751
 20
78.40787758878136
 30
0.0
 10
158.3327191280706
 20
78.33092058523901
 30
0.0
 10
158.3084777266445
 20
78.25001787837488
 30
0.0
 10
158.2921118597707
 20
78.16462347166879
 30
0.0
 10
158.281123522395
 20
78.07545135284512
 30
0.0
 10
158.2801220864152
 20
78.01456836794404
 30
0.0
 10
158.2796118953288
 20
77.98355095211764
 30
0.0
  0
SPLINE
  5
9B
330
1F
100
AcDbEntity
  8
0
  6
Continuous
 62
     7
370
    25
100
AcDbSpline
210
0.0
220
0.0
230
1.0
 70
     8
 71
     3
 72
    23
 73
    19
 74
     0
 42
0.000000001
 43
0.00000001
 40
0.0
 40
0.0
 40
0.0
 40
0.0
 40
0.07335305771863
 40
0.1433327250572915
 40
0.2103134005005162
 40
0.2756416461811969
 40
0.3390779991051269
 40
0.4017563649200039
 40
0.4646312151222131
 40
0.5279483609728383
 40
0.5908183065492583
 40
0.6510172462753788
 40
0.7098797615356185
 40
0.7679936142463302
 40
0.8249281294360246
 40
0.8821678388245865
 40
0.9405173410835234
 40
1.0
 40
1.0
 40
1.0
 40
1.0
 10
158.2796118953288
 20
77.98355095211764
 30
0.0
 10
158.2802396551206
 20
77.9482447092835
 30
0.0
 10
158.2814663050305
 20
77.87925590153183
 30
0.0
 10
158.2951608557685
 20
77.77886555102705
 30
0.0
 10
158.3144581227788
 20
77.68336619584439
 30
0.0
 10
158.34384026616
 20
77.59375042732496
 30
0.0
 10
158.3794662007915
 20
77.50865915082822
 30
0.0
 10
158.425103894174
 20
77.42980959276326
 30
0.0
 10
158.4778961453597
 20
77.35568634256128
 30
0.0
 10
158.5389412427756
 20
77.28805685748996
 30
0.0
 10
158.6046540863139
 20
77.22691397777035
 30
0.0
 10
158.6741165204848
 20
77.17348005773577
 30
0.0
 10
158.7465272611674
 20
77.12824504981147
 30
0.0
 10
158.8218746235496
 20
77.09165477274944
 30
0.0
 10
158.8994273738137
 20
77.06197157079401
 30
0.0
 10
158.9802108675189
 20
77.04230468891427
 30
0.0
 10
159.0636772555798
 20
77.02985731147842
 30
0.0
 10
159.1203792703997
 20
77.02837150995455
 30
0.0
 10
159.1490029209698
 20
77.02762146493814
 30
0.0
  0
SPLINE
  5
9C
330
1F
100
AcDbEntity
  8
0
  6
Continuous
 62
     7
370
    25
100
AcDbSpline
210
0.0
220
0.0
230
1.0
 70
     8
 71
     3
 72
    23
 73
    19
 74
     0
 42
0.000000001
 43
0.00000001
 40
0.0
 40
0.0
 40
0.0
 40
0.0
 40
0.0704183407439888
 40
0.1398983262899648
 40
0.2098714827322012
 40
0.2824432280442453
 40
0.3554410066549698
 40
0.4273446434274996
 40
0.498869726689061
 40
0.5720655821253934
 40
0.6108359218932057
 40
0.6538660897937576
 40
0.7010477945875468
 40
0.7523061298909998
 40
0.8075456450906865
 40
0.8669527487086179
 40
0.9310849584641525
 40
1.0
 40
1.0
 40
1.0
 40
1.0
 10
159.1490029209698
 20
77.02762146493814
 30
0.0
 10
159.1873414868381
 20
77.0290557007475
 30
0.0
 10
159.2635077404116
 20
77.03190506054658
 30
0.0
 10
159.3752101588809
 20
77.05814713375824
 30
0.0
 10
159.4832537913204
 20
77.0992880508365
 30
0.0
 10
159.585585527216
 20
77.15714817669453
 30
0.0
 10
159.6811146352702
 20
77.22753579013731
 30
0.0
 10
159.7635682807472
 20
77.31203820227039
 30
0.0
 10
159.8357080088857
 20
77.40559112195956
 30
0.0
 10
159.8830318067463
 20
77.4939617921304
 30
0.0
 10
159.9148345023241
 20
77.57202471883382
 30
0.0
 10
159.9375480646374
 20
77.63846072612203
 30
0.0
 10
159.9558776949675
 20
77.7132139291639
 30
0.0
 10
159.974043796003
 20
77.79479389294488
 30
0.0
 10
159.9879234568398
 20
77.88397535917663
 30
0.0
 10
159.9999861257823
 20
77.98043339695758
 30
0.0
 10
160.0095752529257
 20
78.08466035199814
 30
0.0
 10
160.0138011795556
 20
78.15688014381007
 30
0.0
 10
160.015990100457
 20
78.19428813160481
 30
0.0
  0
LINE
  5
9D
330
1F
100
AcDbEntity
  8
0
  6
Continuous
 62
     7
370
    25
100
AcDbLine
 10
160.0159901005
 20
78.1942881316
 30
0.0
 11
160.3805734338
 21
78.1950894137
 31
0.0
  0
SPLINE
  5
9E
330
1F
100
AcDbEntity
  8
0
  6
Continuous
 62
     7
370
    25
100
AcDbSpline
210
0.0
220
0.0
230
1.0
 70
     8
 71
     3
 72
    19
 73
    15
 74
     0
 42
0.000000001
 43
0.00000001
 40
0.0
 40
0.0
 40
0.0
 40
0.0
 40
0.1056842280274474
 40
0.2071480086812805
 40
0.3055733798927367
 40
0.402350962750404
 40
0.4942253225812857
 40
0.5778581972337956
 40
0.6553406227623815
 40
0.7281025018592052
 40
0.7974913200268977
 40
0.8647514252589548
 40
0.9322191330556123
 40
1.0
 40
1.0
 40
1.0
 40
1.0
 10
160.3805734337903
 20
78.19508941365609
 30
0.0
 10
160.3819122878138
 20
78.15043510890952
 30
0.0
 10
160.3845365293876
 20
78.0629097469899
 30
0.0
 10
160.4019734417669
 20
77.93464049390394
 30
0.0
 10
160.4331013772284
 20
77.81302685099317
 30
0.0
 10
160.4735563520594
 20
77.69838985546652
 30
0.0
 10
160.525528075638
 20
77.59548098618421
 30
0.0
 10
160.5828091442414
 20
77.50491682815046
 30
0.0
 10
160.6481601359089
 20
77.43018677551309
 30
0.0
 10
160.7201260965784
 20
77.37093467089002
 30
0.0
 10
160.7971177193135
 20
77.32651804517079
 30
0.0
 10
160.8776217023264
 20
77.29501716660037
 30
0.0
 10
160.9612895832534
 20
77.27463841794163
 30
0.0
 10
161.0185457371074
 20
77.27288914980495
 30
0.0
 10
161.047240100457
 20
77.27201249057916
 30
0.0
  0
SPLINE
  5
9F
330
1F
100
AcDbEntity
  8
0
  6
Continuous
 62
     7
370
    25
100
AcDbSpline
210
0.0
220
0.0
230
1.0
 70
     8
 71
     3
 72
    23
 73
    19
 74
     0
 42
0.000000001
 43
0.00000001
 40
0.0
 40
0.0
 40
0.0
 40
0.0
 40
0.0594442432234904
 40
0.1172777151826477
 40
0.1741654339188963
 40
0.2310821893488618
 40
0.2888394266768146
 40
0.3477064372637325
 40
0.408804636041596
 40
0.4717761120603867
 40
0.5361060630023162
 40
0.5997084660918863
 40
0.6631417885019432
 40
0.7273646334607881
 40
0.7924055282557357
 40
0.8592174762568222
 40
0.927979361400402
 40
1.0
 40
1.0
 40
1.0
 40
1.0
 10
161.047240100457
 20
77.27201249057916
 30
0.0
 10
161.0686474800393
 20
77.27260224363252
 30
0.0
 10
161.11088215962
 20
77.27376576909556
 30
0.0
 10
161.1729123602589
 20
77.28379358080662
 30
0.0
 10
161.2328189645609
 20
77.29947444339106
 30
0.0
 10
161.2898478507587
 20
77.3235154103539
 30
0.0
 10
161.3454387385931
 20
77.35212278118347
 30
0.0
 10
161.3988430633713
 20
77.38764596359661
 30
0.0
 10
161.4489235377306
 20
77.43053424026128
 30
0.0
 10
161.4971834554439
 20
77.47828038339014
 30
0.0
 10
161.54070748126
 20
77.53160788428748
 30
0.0
 10
161.5793391284565
 20
77.58872062629425
 30
0.0
 10
161.612644713572
 20
77.64909937523757
 30
0.0
 10
161.6390813747368
 20
77.71339368876632
 30
0.0
 10
161.6587048314052
 20
77.78126197760204
 30
0.0
 10
161.6743395276208
 20
77.85181211127826
 30
0.0
 10
161.6832915535597
 20
77.92615999846839
 30
0.0
 10
161.6839317986614
 20
77.97685003240323
 30
0.0
 10
161.6842593312262
 20
78.00278172134838
 30
0.0
  0
SPLINE
  5
A0
330
1F
100
AcDbEntity
  8
0
  6
Continuous
 62
     7
370
    25
100
AcDbSpline
210
0.0
220
0.0
230
1.0
 70
     8
 71
     3
 72
    19
 73
    15
 74
     0
 42
0.000000001
 43
0.00000001
 40
0.0
 40
0.0
 40
0.0
 40
0.0
 40
0.1168369218480487
 40
0.2280869752807119
 40
0.3361953307148093
 40
0.4454791507184101
 40
0.5019964931800737
 40
0.5615530752350176
 40
0.6241413224319317
 40
0.6910980318533922
 40
0.7612462993947782
 40
0.8365748255986287
 40
0.915666945786284
 40
1.0
 40
1.0
 40
1.0
 40
1.0
 10
161.6842593312262
 20
78.00278172134838
 30
0.0
 10
161.682712348699
 20
78.04433304518761
 30
0.0
 10
161.679692356732
 20
78.12544880571512
 30
0.0
 10
161.6517988557835
 20
78.24245438310916
 30
0.0
 10
161.6050974210254
 20
78.34994216567983
 30
0.0
 10
161.5522347105901
 20
78.43227656793702
 30
0.0
 10
161.4999074991417
 20
78.49298706639487
 30
0.0
 10
161.4542109593827
 20
78.5371930931
 30
0.0
 10
161.4013186144799
 20
78.57871597623513
 30
0.0
 10
161.3432683558755
 20
78.61955455127229
 30
0.0
 10
161.2783852808195
 20
78.6582201971492
 30
0.0
 10
161.2074349830316
 20
78.69478289301625
 30
0.0
 10
161.1298833168548
 20
78.72921552776458
 30
0.0
 10
161.0758991062447
 20
78.75057407385493
 30
0.0
 10
161.0480413825083
 20
78.7615958239125
 30
0.0
  0
SPLINE
  5
A1
330
1F
100
AcDbEntity
  8
0
  6
Continuous
 62
     7
370
    25
100
AcDbSpline
210
0.0
220
0.0
230
1.0
 70
     8
 71
     3
 72
    10
 73
     6
 74
     0
 42
0.000000001
 43
0.00000001
 40
0.0
 40
0.0
 40
0.0
 40
0.0
 40
0.5
 40
0.5
 40
1.0
 40
1.0
 40
1.0
 40
1.0
 10
163.4360719328442
 20
48.13741463591423
 30
0.0
 10
164.0631552983609
 20
49.22355488557051
 30
0.0
 10
164.5797785723548
 20
50.31762850950503
 30
0.0
 10
165.2945657170971
 20
52.52864788796477
 30
0.0
 10
165.490349074816
 20
53.64576461374827
 30
0.0
 10
165.490349074816
 20
54.77694273159494
 30
0.0
  0
LINE
  5
A2
330
1F
100
AcDbEntity
  8
0
  6
Continuous
 62
     7
370
    25
100
AcDbLine
 10
154.4903490748
 20
48.1374146359
 30
0.0
 11
163.4360719328
 21
48.1374146359
 31
0.0
  0
LINE
  5
A3
330
1F
100
AcDbEntity
  8
0
  6
Continuous
 62
     7
370
    25
100
AcDbLine
 10
154.4903490748
 20
61.4164708273
 30
0.0
 11
154.4903490748
 21
48.1374146359
 31
0.0
  0
LINE
  5
A4
330
1F
100
AcDbEntity
  8
0
  6
Continuous
 62
     7
370
    25
100
AcDbLine
 10
162.0728811261
 20
70.5159116998
 30
0.0
 11
162.0728811261
 21
70.4349822126
 31
0.0
  0
LINE
  5
A5
330
1F
100
AcDbEntity
  8
0
  6
Continuous
 62
     7
370
    25
100
AcDbLine
 10
162.0728811261
 20
70.4349822126
 30
0.0
 11
159.3004452287
 21
70.4301745203
 31
0.0
  0
LINE
  5
A6
330
1F
100
AcDbEntity
  8
0
  6
Continuous
 62
     7
370
    25
100
AcDbLine
 10
159.3004452287
 20
70.4301745203
 30
0.0
 11
159.3012465107
 21
69.9486040075
 31
0.0
  0
LINE
  5
A7
330
1F
100
AcDbEntity
  8
0
  6
Continuous
 62
     7
370
    25
100
AcDbLine
 10
158.9182336902
 20
70.8268091357
 30
0.0
 11
158.915028562
 21
72.7274501613
 31
0.0
  0
LINE
  5
A8
330
1F
100
AcDbEntity
  8
0
  6
Continuous
 62
     7
370
    25
100
AcDbLine
 10
158.915028562
 20
72.7274501613
 30
0.0
 11
162.0728811261
 21
70.5159116998
 31
0.0
  0
LINE
  5
A9
330
1F
100
AcDbEntity
  8
0
  6
Continuous
 62
     7
370
    25
100
AcDbLine
 10
159.2980413825
 20
71.9982834947
 30
0.0
 11
159.2996439466
 21
70.8276104178
 31
0.0
  0
LINE
  5
AA
330
1F
100
AcDbEntity
  8
0
  6
Continuous
 62
     7
370
    25
100
AcDbLine
 10
159.2996439466
 20
70.8276104178
 30
0.0
 11
160.9574965107
 21
70.8300142639
 31
0.0
  0
LINE
  5
AB
330
1F
100
AcDbEntity
  8
0
  6
Continuous
 62
     7
370
    25
100
AcDbLine
 10
160.9574965107
 20
70.8300142639
 30
0.0
 11
159.2980413825
 21
71.9982834947
 31
0.0
  0
LINE
  5
AC
330
1F
100
AcDbEntity
  8
0
  6
Continuous
 62
     7
370
    25
100
AcDbLine
 10
157.9943554851
 20
70.4277706742
 30
0.0
 11
157.993554203
 21
70.8252065716
 31
0.0
  0
LINE
  5
AD
330
1F
100
AcDbEntity
  8
0
  6
Continuous
 62
     7
370
    25
100
AcDbLine
 10
158.9190349723
 20
70.4293732383
 30
0.0
 11
157.9943554851
 21
70.4277706742
 31
0.0
  0
LINE
  5
AE
330
1F
100
AcDbEntity
  8
0
  6
Continuous
 62
     7
370
    25
100
AcDbLine
 10
158.9198362543
 20
69.9478027254
 30
0.0
 11
158.9190349723
 21
70.4293732383
 31
0.0
  0
LINE
  5
AF
330
1F
100
AcDbEntity
  8
0
  6
Continuous
 62
     7
370
    25
100
AcDbLine
 10
159.3012465107
 20
69.9486040075
 30
0.0
 11
158.9198362543
 21
69.9478027254
 31
0.0
  0
LINE
  5
B0
330
1F
100
AcDbEntity
  8
0
  6
Continuous
 62
     7
370
    25
100
AcDbLine
 10
157.993554203
 20
70.8252065716
 30
0.0
 11
158.9182336902
 21
70.8268091357
 31
0.0
  0
LINE
  5
B1
330
1F
100
AcDbEntity
  8
0
  6
Continuous
 62
     7
370
    25
100
AcDbLine
 10
165.4903490748
 20
54.7769427316
 30
0.0
 11
165.4903490748
 21
51.6955270186
 31
0.0
  0
LINE
  5
B2
330
1F
100
AcDbEntity
  8
0
  6
Continuous
 62
     7
370
    25
100
AcDbLine
 10
165.4903490748
 20
97.6955270186
 30
0.0
 11
165.4903490748
 21
94.6141113057
 31
0.0
  0
LINE
  5
B3
330
1F
100
AcDbEntity
  8
0
  6
CENTERX2
 62
     7
370
    18
100
AcDbLine
 10
152.4903490748
 20
74.6955270186
 30
0.0
 11
167.2263285274
 21
74.6955270186
 31
0.0
  0
SPLINE
  5
B4
330
1F
100
AcDbEntity
  8
0
  6
Continuous
 62
     7
370
    25
100
AcDbSpline
210
0.0
220
0.0
230
1.0
 70
    24
 71
     3
 72
    12
 73
     8
 74
     0
 42
0.000000001
 43
0.00000001
 40
0.0
 40
0.0
 40
0.0
 40
0.0
 40
0.2500000000000001
 40
0.2500000000000001
 40
0.5000000000000001
 40
0.5000000000000001
 40
1.0
 40
1.0
 40
1.0
 40
1.0
 10
250.1156052733862
 20
61.41647082727562
 30
0.0
 10
250.1156052733862
 20
62.49678978276407
 30
0.0
 10
250.1156052733862
 20
63.58785600805275
 30
0.0
 10
250.1156052733862
 20
65.79206907469043
 30
0.0
 10
250.1156052733862
 20
66.89694939425688
 30
0.0
 10
250.1156052733862
 20
70.221304264061
 30
0.0
 10
250.1156052733862
 20
72.4506935313949
 30
0.0
 10
250.1156052733862
 20
74.69552701863702
 30
0.0
  0
SPLINE
  5
B5
330
1F
100
AcDbEntity
  8
0
  6
Continuous
 62
     7
370
    25
100
AcDbSpline
210
0.0
220
0.0
230
1.0
 70
    24
 71
     3
 72
    10
 73
     6
 74
     0
 42
0.000000001
 43
0.00000001
 40
0.0
 40
0.0
 40
0.0
 40
0.0
 40
0.5000000000000002
 40
0.5000000000000002
 40
1.0
 40
1.0
 40
1.0
 40
1.0
 10
250.1156052733863
 20
61.41647082727562
 30
0.0
 10
248.234355176836
 20
60.33033057761934
 30
0.0
 10
246.3393640729604
 20
59.23625695368483
 30
0.0
 10
242.5097661729488
 20
57.0252375752251
 30
0.0
 10
240.5748632459068
 20
55.90812084944159
 30
0.0
 10
238.6156052733863
 20
54.77694273159493
 30
0.0
  0
ARC
  5
B6
330
1F
100
AcDbEntity
  8
0
  6
Continuous
 62
     7
370
    25
100
AcDbCircle
 10
227.1156052734
 20
74.6955270186
 30
0.0
 40
23.00000000000002
100
AcDbArc
 50
300.0
 51
0.0
  0
SPLINE
  5
B7
330
1F
100
AcDbEntity
  8
0
  6
Continuous
 62
     7
370
    25
100
AcDbSpline
210
0.0
220
0.0
230
1.0
 70
    24
 71
     3
 72
    14
 73
    10
 74
     0
 42
0.000000001
 43
0.00000001
 40
0.0
 40
0.0
 40
0.0
 40
0.0
 40
0.1250000000000001
 40
0.1250000000000001
 40
0.2500000000000002
 40
0.2500000000000002
 40
0.5000000000000003
 40
0.5000000000000003
 40
1.0
 40
1.0
 40
1.0
 40
1.0
 10
238.6156052733863
 20
94.6141113056791
 30
0.0
 10
239.1035880168176
 20
94.33237433739913
 30
0.0
 10
239.5940120844364
 20
94.04922786994234
 30
0.0
 10
240.5702974691528
 20
93.48556924027044
 30
0.0
 10
241.0567480282286
 20
93.20471687904059
 30
0.0
 10
242.5112434652113
 20
92.36496354696351
 30
0.0
 10
243.4744208391603
 20
91.80887283083675
 30
0.0
 10
246.3468461540137
 20
90.15047730207903
 30
0.0
 10
248.239053850593
 20
89.05801067909626
 30
0.0
 10
250.1156052733862
 20
87.97458320999841
 30
0.0
  0
SPLINE
  5
B8
330
1F
100
AcDbEntity
  8
0
  6
Continuous
 62
     7
370
    25
100
AcDbSpline
210
0.0
220
0.0
230
1.0
 70
    24
 71
     3
 72
    12
 73
     8
 74
     0
 42
0.000000001
 43
0.00000001
 40
0.0
 40
0.0
 40
0.0
 40
0.0
 40
0.2500000000000001
 40
0.2500000000000001
 40
0.5000000000000001
 40
0.5000000000000001
 40
1.0
 40
1.0
 40
1.0
 40
1.0
 10
250.1156052733862
 20
74.69552701863702
 30
0.0
 10
250.1156052733862
 20
75.81866934942146
 30
0.0
 10
250.1156052733862
 20
76.94563257209636
 30
0.0
 10
250.1156052733862
 20
79.20711083994816
 30
0.0
 10
250.1156052733862
 20
80.3266230912371
 30
0.0
 10
250.1156052733862
 20
83.65209700331106
 30
0.0
 10
250.1156052733862
 20
85.82724125091178
 30
0.0
 10
250.1156052733862
 20
87.97458320999841
 30
0.0
  0
ARC
  5
B9
330
1F
100
AcDbEntity
  8
0
  6
Continuous
 62
     7
370
    25
100
AcDbCircle
 10
227.1156052734
 20
74.6955270186
 30
0.0
 40
23.00000000000001
100
AcDbArc
 50
0.0
 51
60.0
  0
ARC
  5
BA
330
1F
100
AcDbEntity
  8
0
  6
Continuous
 62
     7
370
    25
100
AcDbCircle
 10
227.1156052734
 20
74.6955270186
 30
0.0
 40
23.00000000000002
100
AcDbArc
 50
240.0
 51
300.0
  0
ARC
  5
BB
330
1F
100
AcDbEntity
  8
0
  6
Continuous
 62
     7
370
    25
100
AcDbCircle
 10
227.1156052734
 20
74.6955270186
 30
0.0
 40
23.0
100
AcDbArc
 50
180.0
 51
240.0
  0
ARC
  5
BC
330
1F
100
AcDbEntity
  8
0
  6
Continuous
 62
     7
370
    25
100
AcDbCircle
 10
227.1156052734
 20
74.6955270186
 30
0.0
 40
23.0
100
AcDbArc
 50
120.0
 51
180.0
  0
ARC
  5
BD
330
1F
100
AcDbEntity
  8
0
  6
Continuous
 62
     7
370
    25
100
AcDbCircle
 10
227.1156052734
 20
74.6955270186
 30
0.0
 40
23.00000000000001
100
AcDbArc
 50
60.0
 51
120.0
  0
CIRCLE
  5
BE
330
1F
100
AcDbEntity
  8
0
  6
Continuous
 62
     7
370
    25
100
AcDbCircle
 10
227.1156052734
 20
74.6955270186
 30
0.0
 40
16.07500000000005
  0
CIRCLE
  5
BF
330
1F
100
AcDbEntity
  8
0
  6
Continuous
 62
     7
370
    25
100
AcDbCircle
 10
227.1156052734
 20
74.6955270186
 30
0.0
 40
15.375
  0
SPLINE
  5
C0
330
1F
100
AcDbEntity
  8
0
  6
Continuous
 62
     7
370
    25
100
AcDbSpline
210
0.0
220
0.0
230
1.0
 70
    24
 71
     3
 72
    14
 73
    10
 74
     0
 42
0.000000001
 43
0.00000001
 40
0.0
 40
0.0
 40
0.0
 40
0.0
 40
0.125
 40
0.125
 40
0.25
 40
0.25
 40
0.5
 40
0.5
 40
1.0
 40
1.0
 40
1.0
 40
1.0
 10
215.6156052733863
 20
94.61411130567912
 30
0.0
 10
216.1035880168176
 20
94.89584827395909
 30
0.0
 10
216.5940120844364
 20
95.17899474141588
 30
0.0
 10
217.5702974691528
 20
95.74265337108778
 30
0.0
 10
218.0567480282286
 20
96.02350573231763
 30
0.0
 10
219.5112434652114
 20
96.86325906439473
 30
0.0
 10
220.4744208391602
 20
97.4193497805215
 30
0.0
 10
223.3468461540137
 20
99.07774530927921
 30
0.0
 10
225.239053850593
 20
100.170211932262
 30
0.0
 10
227.1156052733863
 20
101.2536394013598
 30
0.0
  0
SPLINE
  5
C1
330
1F
100
AcDbEntity
  8
0
  6
Continuous
 62
     7
370
    25
100
AcDbSpline
210
0.0
220
0.0
230
1.0
 70
    24
 71
     3
 72
    10
 73
     6
 74
     0
 42
0.000000001
 43
0.00000001
 40
0.0
 40
0.0
 40
0.0
 40
0.0
 40
0.5
 40
0.5
 40
1.0
 40
1.0
 40
1.0
 40
1.0
 10
227.1156052733862
 20
101.2536394013598
 30
0.0
 10
228.9968553699364
 20
100.1674991517035
 30
0.0
 10
230.891846473812
 20
99.07342552776902
 30
0.0
 10
234.7214443738237
 20
96.86240614930927
 30
0.0
 10
236.6563473008657
 20
95.74528942352576
 30
0.0
 10
238.6156052733863
 20
94.6141113056791
 30
0.0
  0
SPLINE
  5
C2
330
1F
100
AcDbEntity
  8
0
  6
Continuous
 62
     7
370
    25
100
AcDbSpline
210
0.0
220
0.0
230
1.0
 70
    24
 71
     3
 72
    10
 73
     6
 74
     0
 42
0.000000001
 43
0.00000001
 40
0.0
 40
0.0
 40
0.0
 40
0.0
 40
0.5
 40
0.5
 40
1.0
 40
1.0
 40
1.0
 40
1.0
 10
227.1156052733863
 20
48.13741463591423
 30
0.0
 10
225.234355176836
 20
49.22355488557051
 30
0.0
 10
223.3393640729604
 20
50.31762850950503
 30
0.0
 10
219.5097661729488
 20
52.52864788796477
 30
0.0
 10
217.5748632459068
 20
53.64576461374827
 30
0.0
 10
215.6156052733863
 20
54.77694273159494
 30
0.0
  0
SPLINE
  5
C3
330
1F
100
AcDbEntity
  8
0
  6
Continuous
 62
     7
370
    25
100
AcDbSpline
210
0.0
220
0.0
230
1.0
 70
    24
 71
     3
 72
    14
 73
    10
 74
     0
 42
0.000000001
 43
0.00000001
 40
0.0
 40
0.0
 40
0.0
 40
0.0
 40
0.125
 40
0.125
 40
0.25
 40
0.25
 40
0.5
 40
0.5
 40
1.0
 40
1.0
 40
1.0
 40
1.0
 10
238.6156052733863
 20
54.77694273159493
 30
0.0
 10
238.1276225299549
 20
54.49520576331495
 30
0.0
 10
237.6371984623361
 20
54.21205929585816
 30
0.0
 10
236.6609130776197
 20
53.64840066618626
 30
0.0
 10
236.1744625185439
 20
53.3675483049564
 30
0.0
 10
234.7199670815612
 20
52.52779497287932
 30
0.0
 10
233.7567897076122
 20
51.97170425675255
 30
0.0
 10
230.8843643927588
 20
50.31330872799484
 30
0.0
 10
228.9921566961794
 20
49.22084210501207
 30
0.0
 10
227.1156052733862
 20
48.13741463591423
 30
0.0
  0
SPLINE
  5
C4
330
1F
100
AcDbEntity
  8
0
  6
Continuous
 62
     7
370
    25
100
AcDbSpline
210
0.0
220
0.0
230
1.0
 70
    24
 71
     3
 72
    12
 73
     8
 74
     0
 42
0.000000001
 43
0.00000001
 40
0.0
 40
0.0
 40
0.0
 40
0.0
 40
0.25
 40
0.25
 40
0.5
 40
0.5
 40
1.0
 40
1.0
 40
1.0
 40
1.0
 10
204.1156052733862
 20
61.41647082727562
 30
0.0
 10
204.1156052733862
 20
62.49678978276408
 30
0.0
 10
204.1156052733862
 20
63.58785600805277
 30
0.0
 10
204.1156052733862
 20
65.79206907469043
 30
0.0
 10
204.1156052733862
 20
66.8969493942569
 30
0.0
 10
204.1156052733862
 20
70.221304264061
 30
0.0
 10
204.1156052733862
 20
72.4506935313949
 30
0.0
 10
204.1156052733862
 20
74.69552701863702
 30
0.0
  0
SPLINE
  5
C5
330
1F
100
AcDbEntity
  8
0
  6
Continuous
 62
     7
370
    25
100
AcDbSpline
210
0.0
220
0.0
230
1.0
 70
    24
 71
     3
 72
    14
 73
    10
 74
     0
 42
0.000000001
 43
0.00000001
 40
0.0
 40
0.0
 40
0.0
 40
0.0
 40
0.1249999999999999
 40
0.1249999999999999
 40
0.2499999999999998
 40
0.2499999999999998
 40
0.5000000000000001
 40
0.5000000000000001
 40
1.0
 40
1.0
 40
1.0
 40
1.0
 10
215.6156052733863
 20
54.77694273159494
 30
0.0
 10
215.1276225299549
 20
55.05867969987491
 30
0.0
 10
214.6371984623361
 20
55.3418261673317
 30
0.0
 10
213.6609130776197
 20
55.9054847970036
 30
0.0
 10
213.1744625185439
 20
56.18633715823345
 30
0.0
 10
211.7199670815612
 20
57.02609049031053
 30
0.0
 10
210.7567897076122
 20
57.5821812064373
 30
0.0
 10
207.8843643927588
 20
59.24057673519502
 30
0.0
 10
205.9921566961794
 20
60.33304335817778
 30
0.0
 10
204.1156052733862
 20
61.41647082727563
 30
0.0
  0
SPLINE
  5
C6
330
1F
100
AcDbEntity
  8
0
  6
Continuous
 62
     7
370
    25
100
AcDbSpline
210
0.0
220
0.0
230
1.0
 70
    24
 71
     3
 72
    12
 73
     8
 74
     0
 42
0.000000001
 43
0.00000001
 40
0.0
 40
0.0
 40
0.0
 40
0.0
 40
0.2499999999999999
 40
0.2499999999999999
 40
0.4999999999999999
 40
0.4999999999999999
 40
1.0
 40
1.0
 40
1.0
 40
1.0
 10
204.1156052733862
 20
74.69552701863701
 30
0.0
 10
204.1156052733862
 20
75.81866934942146
 30
0.0
 10
204.1156052733862
 20
76.94563257209634
 30
0.0
 10
204.1156052733862
 20
79.20711083994814
 30
0.0
 10
204.1156052733862
 20
80.32662309123708
 30
0.0
 10
204.1156052733862
 20
83.65209700331104
 30
0.0
 10
204.1156052733862
 20
85.82724125091177
 30
0.0
 10
204.1156052733862
 20
87.97458320999841
 30
0.0
  0
SPLINE
  5
C7
330
1F
100
AcDbEntity
  8
0
  6
Continuous
 62
     7
370
    25
100
AcDbSpline
210
0.0
220
0.0
230
1.0
 70
    24
 71
     3
 72
    10
 73
     6
 74
     0
 42
0.000000001
 43
0.00000001
 40
0.0
 40
0.0
 40
0.0
 40
0.0
 40
0.5000000000000001
 40
0.5000000000000001
 40
1.0
 40
1.0
 40
1.0
 40
1.0
 10
204.1156052733862
 20
87.9745832099984
 30
0.0
 10
205.9968553699364
 20
89.06072345965468
 30
0.0
 10
207.891846473812
 20
90.1547970835892
 30
0.0
 10
211.7214443738237
 20
92.36581646204894
 30
0.0
 10
213.6563473008657
 20
93.48293318783246
 30
0.0
 10
215.6156052733863
 20
94.61411130567912
 30
0.0
  0
INSERT
  5
D3
330
1F
100
AcDbEntity
  8
0
  6
Continuous
 62
     7
370
    18
100
AcDbBlockReference
  2
SW_CENTERMARKSYMBOL_0
 10
227.1156052734
 20
74.6955270186
 30
0.0
  0
INSERT
  5
DF
330
1F
100
AcDbEntity
  8
0
  6
Continuous
 62
     7
370
    18
100
AcDbBlockReference
  2
SW_CENTERMARKSYMBOL_1
 10
227.1156052734
 20
74.6955270186
 30
0.0
  0
ARC
  5
E0
330
1F
100
AcDbEntity
  8
0
  6
Continuous
 62
     7
370
    18
100
AcDbCircle
 10
227.1156052734
 20
74.6955270186
 30
0.0
 40
16.62450000000002
100
AcDbArc
 50
75.0
 51
345.0
  0
LINE
  5
E1
330
1F
100
AcDbEntity
  8
0
  6
Continuous
 62
     7
370
    25
100
AcDbLine
 10
154.4903490748
 20
170.6711495831
 30
0.0
 11
163.4360719328
 21
170.6711495831
 31
0.0
  0
SPLINE
  5
E2
330
1F
100
AcDbEntity
  8
0
  6
Continuous
 62
     7
370
    25
100
AcDbSpline
210
0.0
220
0.0
230
1.0
 70
     8
 71
     3
 72
    14
 73
    10
 74
     0
 42
0.000000001
 43
0.00000001
 40
0.0
 40
0.0
 40
0.0
 40
0.0
 40
0.1250000000000001
 40
0.1250000000000001
 40
0.2500000000000002
 40
0.2500000000000002
 40
0.5000000000000003
 40
0.5000000000000003
 40
1.0
 40
1.0
 40
1.0
 40
1.0
 10
165.490349074816
 20
159.1711495831378
 30
0.0
 10
165.490349074816
 20
159.6591323265691
 30
0.0
 10
165.4783007830147
 20
160.1495563941879
 30
0.0
 10
165.4305093756279
 20
161.1258417789043
 30
0.0
 10
165.3948177337895
 20
161.6122923379801
 30
0.0
 10
165.253889736452
 20
163.0667877749629
 30
0.0
 10
165.1147217892711
 20
164.0299651489118
 30
0.0
 10
164.5779656174013
 20
166.9023904637652
 30
0.0
 10
164.0615890737752
 20
168.7945981603445
 30
0.0
 10
163.4360719328441
 20
170.6711495831378
 30
0.0
  0
SPLINE
  5
E3
330
1F
100
AcDbEntity
  8
0
  6
Continuous
 62
     7
370
    25
100
AcDbSpline
210
0.0
220
0.0
230
1.0
 70
     8
 71
     3
 72
    10
 73
     6
 74
     0
 42
0.000000001
 43
0.00000001
 40
0.0
 40
0.0
 40
0.0
 40
0.0
 40
0.5
 40
0.5
 40
1.0
 40
1.0
 40
1.0
 40
1.0
 10
163.4360719328442
 20
147.6711495831378
 30
0.0
 10
164.0631552983609
 20
149.552399679688
 30
0.0
 10
164.5797785723548
 20
151.4473907835635
 30
0.0
 10
165.2945657170971
 20
155.2769886835752
 30
0.0
 10
165.490349074816
 20
157.2118916106172
 30
0.0
 10
165.490349074816
 20
159.1711495831378
 30
0.0
  0
LINE
  5
E4
330
1F
100
AcDbEntity
  8
0
  6
Continuous
 62
     7
370
    25
100
AcDbLine
 10
154.4903490748
 20
147.6711495831
 30
0.0
 11
163.4360719328
 21
147.6711495831
 31
0.0
  0
LINE
  5
E5
330
1F
100
AcDbEntity
  8
0
  6
Continuous
 62
     7
370
    25
100
AcDbLine
 10
154.4903490748
 20
170.6711495831
 30
0.0
 11
154.4903490748
 21
147.6711495831
 31
0.0
  0
SPLINE
  5
E6
330
1F
100
AcDbEntity
  8
0
  6
Continuous
 62
     7
370
    25
100
AcDbSpline
210
0.0
220
0.0
230
1.0
 70
     8
 71
     3
 72
    14
 73
    10
 74
     0
 42
0.000000001
 43
0.00000001
 40
0.0
 40
0.0
 40
0.0
 40
0.0
 40
0.125
 40
0.125
 40
0.25
 40
0.25
 40
0.5
 40
0.5
 40
1.0
 40
1.0
 40
1.0
 40
1.0
 10
165.490349074816
 20
136.1711495831378
 30
0.0
 10
165.490349074816
 20
136.6591323265691
 30
0.0
 10
165.4783007830147
 20
137.1495563941879
 30
0.0
 10
165.4305093756279
 20
138.1258417789043
 30
0.0
 10
165.3948177337895
 20
138.6122923379801
 30
0.0
 10
165.2538897364519
 20
140.0667877749629
 30
0.0
 10
165.1147217892711
 20
141.0299651489118
 30
0.0
 10
164.5779656174013
 20
143.9023904637652
 30
0.0
 10
164.0615890737752
 20
145.7945981603445
 30
0.0
 10
163.4360719328441
 20
147.6711495831378
 30
0.0
  0
LINE
  5
E7
330
1F
100
AcDbEntity
  8
0
  6
Continuous
 62
     7
370
    25
100
AcDbLine
 10
165.4903490748
 20
159.1711495831
 30
0.0
 11
165.4903490748
 21
136.1711495831
 31
0.0
  0
SPLINE
  5
E8
330
1F
100
AcDbEntity
  8
0
  6
Continuous
 62
     7
370
    25
100
AcDbSpline
210
0.0
220
0.0
230
1.0
 70
     8
 71
     3
 72
    10
 73
     6
 74
     0
 42
0.000000001
 43
0.00000001
 40
0.0
 40
0.0
 40
0.0
 40
0.0
 40
0.5000000000000001
 40
0.5000000000000001
 40
1.0
 40
1.0
 40
1.0
 40
1.0
 10
163.4360719328442
 20
124.6711495831377
 30
0.0
 10
164.0631552983609
 20
126.552399679688
 30
0.0
 10
164.5797785723548
 20
128.4473907835635
 30
0.0
 10
165.2945657170971
 20
132.2769886835752
 30
0.0
 10
165.490349074816
 20
134.2118916106172
 30
0.0
 10
165.490349074816
 20
136.1711495831378
 30
0.0
  0
LINE
  5
E9
330
1F
100
AcDbEntity
  8
0
  6
Continuous
 62
     7
370
    25
100
AcDbLine
 10
154.4903490748
 20
124.6711495831
 30
0.0
 11
163.4360719328
 21
124.6711495831
 31
0.0
  0
LINE
  5
EA
330
1F
100
AcDbEntity
  8
0
  6
Continuous
 62
     7
370
    25
100
AcDbLine
 10
154.4903490748
 20
147.6711495831
 30
0.0
 11
154.4903490748
 21
124.6711495831
 31
0.0
  0
SPLINE
  5
EB
330
1F
100
AcDbEntity
  8
0
  6
Continuous
 62
     7
370
    25
100
AcDbSpline
210
0.0
220
0.0
230
1.0
 70
    24
 71
     3
 72
    12
 73
     8
 74
     0
 42
0.000000001
 43
0.00000001
 40
0.0
 40
0.0
 40
0.0
 40
0.0
 40
0.2500000000000001
 40
0.2500000000000001
 40
0.5000000000000001
 40
0.5000000000000001
 40
1.0
 40
1.0
 40
1.0
 40
1.0
 10
165.490349074816
 20
170.6711495831377
 30
0.0
 10
165.490349074816
 20
170.6711495831377
 30
0.0
 10
165.442597123413
 20
170.6711495831377
 30
0.0
 10
165.2527136172424
 20
170.6711495831377
 30
0.0
 10
165.1119573246555
 20
170.6711495831377
 30
0.0
 10
164.5720606168013
 20
170.6711495831377
 30
0.0
 10
164.0559561619045
 20
170.6711495831377
 30
0.0
 10
163.436071932844
 20
170.6711495831377
 30
0.0
  0
LINE
  5
EC
330
1F
100
AcDbEntity
  8
0
  6
Continuous
 62
     7
370
    25
100
AcDbLine
 10
165.4903490748
 20
170.6711495831
 30
0.0
 11
165.4903490748
 21
159.1711495831
 31
0.0
  0
SPLINE
  5
ED
330
1F
100
AcDbEntity
  8
0
  6
Continuous
 62
     7
370
    25
100
AcDbSpline
210
0.0
220
0.0
230
1.0
 70
    24
 71
     3
 72
    12
 73
     8
 74
     0
 42
0.000000001
 43
0.00000001
 40
0.0
 40
0.0
 40
0.0
 40
0.0
 40
0.2499999999999999
 40
0.2499999999999999
 40
0.4999999999999999
 40
0.4999999999999999
 40
1.0
 40
1.0
 40
1.0
 40
1.0
 10
165.490349074816
 20
124.6711495831378
 30
0.0
 10
165.490349074816
 20
124.6711495831378
 30
0.0
 10
165.442597123413
 20
124.6711495831378
 30
0.0
 10
165.2527136172424
 20
124.6711495831378
 30
0.0
 10
165.1119573246555
 20
124.6711495831378
 30
0.0
 10
164.5720606168013
 20
124.6711495831378
 30
0.0
 10
164.0559561619044
 20
124.6711495831378
 30
0.0
 10
163.436071932844
 20
124.6711495831378
 30
0.0
  0
LINE
  5
EE
330
1F
100
AcDbEntity
  8
0
  6
Continuous
 62
     7
370
    25
100
AcDbLine
 10
165.4903490748
 20
136.1711495831
 30
0.0
 11
165.4903490748
 21
124.6711495831
 31
0.0
  0
LINE
  5
EF
330
1F
100
AcDbEntity
  8
0
  6
CENTERX2
 62
     7
370
    18
100
AcDbLine
 10
152.4903490748
 20
147.6711495831
 30
0.0
 11
167.380285537
 21
147.6711495831
 31
0.0
  0
ENDSEC
  0
SECTION
  2
OBJECTS
  0
DICTIONARY
  5
C
330
0
100
AcDbDictionary
281
     1
  3
ACAD_GROUP
350
D
  3
ACAD_LAYOUT
350
1A
  3
ACAD_MLINESTYLE
350
17
  3
ACAD_PLOTSETTINGS
350
19
  3
ACAD_PLOTSTYLENAME
350
E
  3
ACAD_SCALELIST
350
47
  0
DICTIONARY
  5
D
102
{ACAD_REACTORS
330
C
102
}
330
C
100
AcDbDictionary
281
     1
  0
DICTIONARY
  5
1A
102
{ACAD_REACTORS
330
C
102
}
330
C
100
AcDbDictionary
281
     1
  3
Layout1
350
1E
  3
Layout2
350
26
  3
Model
350
22
  0
DICTIONARY
  5
17
102
{ACAD_REACTORS
330
C
102
}
330
C
100
AcDbDictionary
281
     1
  3
Standard
350
18
  0
DICTIONARY
  5
19
102
{ACAD_REACTORS
330
C
102
}
330
C
100
AcDbDictionary
281
     1
  0
ACDBDICTIONARYWDFLT
  5
E
102
{ACAD_REACTORS
330
C
102
}
330
C
100
AcDbDictionary
281
     1
  3
Normal
350
F
100
AcDbDictionaryWithDefault
340
F
  0
DICTIONARY
  5
47
102
{ACAD_REACTORS
330
C
102
}
330
C
100
AcDbDictionary
281
     1
  3
A0
350
48
  3
A1
350
49
  3
A2
350
4A
  3
A3
350
4B
  3
A4
350
4C
  3
A5
350
4D
  3
A6
350
4E
  3
A7
350
4F
  3
A8
350
50
  3
A9
350
51
  3
B0
350
52
  3
B1
350
53
  3
B2
350
54
  3
B3
350
55
  3
B4
350
56
  3
B5
350
57
  3
B6
350
58
  3
B7
350
59
  3
B8
350
5A
  3
B9
350
5B
  3
C0
350
5C
  3
C1
350
5D
  3
C2
350
5E
  3
C3
350
5F
  3
C4
350
60
  3
C5
350
61
  3
C6
350
62
  3
C7
350
63
  3
C8
350
64
  3
C9
350
65
  3
D0
350
66
  3
D1
350
67
  3
D2
350
68
  0
LAYOUT
  5
1E
102
{ACAD_REACTORS
330
1A
102
}
330
1A
100
AcDbPlotSettings
  1

  2
none_device
  4

  6

 40
0.0
 41
0.0
 42
0.0
 43
0.0
 44
0.0
 45
0.0
 46
0.0
 47
0.0
 48
0.0
 49
0.0
140
0.0
141
0.0
142
1.0
143
1.0
 70
   688
 72
     1
 73
     0
 74
     5
  7

 75
    16
147
1.0
148
0.0
149
0.0
100
AcDbLayout
  1
Layout1
 70
     1
 71
     1
 10
0.0
 20
0.0
 11
420.0
 21
297.0
 12
0.0
 22
0.0
 32
0.0
 14
1.0000000000E+20
 24
1.0000000000E+20
 34
1.0000000000E+20
 15
-1.0000000000E+20
 25
-1.0000000000E+20
 35
-1.0000000000E+20
146
0.0
 13
0.0
 23
0.0
 33
0.0
 16
1.0
 26
0.0
 36
0.0
 17
0.0
 27
1.0
 37
0.0
 76
     0
330
1B
  0
LAYOUT
  5
26
102
{ACAD_REACTORS
330
1A
102
}
330
1A
100
AcDbPlotSettings
  1

  2
none_device
  4

  6

 40
0.0
 41
0.0
 42
0.0
 43
0.0
 44
0.0
 45
0.0
 46
0.0
 47
0.0
 48
0.0
 49
0.0
140
0.0
141
0.0
142
1.0
143
1.0
 70
   688
 72
     1
 73
     0
 74
     5
  7

 75
    16
147
1.0
148
0.0
149
0.0
100
AcDbLayout
  1
Layout2
 70
     1
 71
     2
 10
0.0
 20
0.0
 11
0.0
 21
0.0
 12
0.0
 22
0.0
 32
0.0
 14
0.0
 24
0.0
 34
0.0
 15
0.0
 25
0.0
 35
0.0
146
0.0
 13
0.0
 23
0.0
 33
0.0
 16
1.0
 26
0.0
 36
0.0
 17
0.0
 27
1.0
 37
0.0
 76
     0
330
23
  0
LAYOUT
  5
22
102
{ACAD_REACTORS
330
1A
102
}
330
1A
100
AcDbPlotSettings
  1

  2
none_device
  4
Letter_(8.50_x_11.00_Inches)
  6

 40
6.35
 41
6.35
 42
6.35000508
 43
6.35000508
 44
215.9
 45
279.4
 46
0.0
 47
0.0
 48
0.0
 49
0.0
140
0.0
141
0.0
142
1.0
143
1.0
 70
  1712
 72
     1
 73
     0
 74
     0
  7

 75
     0
147
1.0
148
0.0
149
0.0
100
AcDbLayout
  1
Model
 70
     1
 71
     0
 10
0.0
 20
0.0
 11
431.8
 21
279.4
 12
0.0
 22
0.0
 32
0.0
 14
0.0
 24
0.0
 34
0.0
 15
431.8
 25
279.4
 35
0.0
146
0.0
 13
0.0
 23
0.0
 33
0.0
 16
1.0
 26
0.0
 36
0.0
 17
0.0
 27
1.0
 37
0.0
 76
     0
330
1F
331
29
  0
MLINESTYLE
  5
18
102
{ACAD_REACTORS
330
17
102
}
330
17
100
AcDbMlineStyle
  2
Standard
 70
     0
  3

 62
   256
 51
90.0
 52
90.0
 71
     2
 49
0.5
 62
   256
  6
BYLAYER
 49
-0.5
 62
   256
  6
BYLAYER
  0
ACDBPLACEHOLDER
  5
F
102
{ACAD_REACTORS
330
E
102
}
330
E
  0
SCALE
  5
48
102
{ACAD_REACTORS
330
47
102
}
330
47
100
AcDbScale
 70
     0
300
1:1
140
1.0
141
1.0
290
     1
  0
SCALE
  5
49
102
{ACAD_REACTORS
330
47
102
}
330
47
100
AcDbScale
 70
     0
300
1:2
140
1.0
141
2.0
290
     0
  0
SCALE
  5
4A
102
{ACAD_REACTORS
330
47
102
}
330
47
100
AcDbScale
 70
     0
300
1:4
140
1.0
141
4.0
290
     0
  0
SCALE
  5
4B
102
{ACAD_REACTORS
330
47
102
}
330
47
100
AcDbScale
 70
     0
300
1:5
140
1.0
141
5.0
290
     0
  0
SCALE
  5
4C
102
{ACAD_REACTORS
330
47
102
}
330
47
100
AcDbScale
 70
     0
300
1:8
140
1.0
141
8.0
290
     0
  0
SCALE
  5
4D
102
{ACAD_REACTORS
330
47
102
}
330
47
100
AcDbScale
 70
     0
300
1:10
140
1.0
141
10.0
290
     0
  0
SCALE
  5
4E
102
{ACAD_REACTORS
330
47
102
}
330
47
100
AcDbScale
 70
     0
300
1:16
140
1.0
141
16.0
290
     0
  0
SCALE
  5
4F
102
{ACAD_REACTORS
330
47
102
}
330
47
100
AcDbScale
 70
     0
300
1:20
140
1.0
141
20.0
290
     0
  0
SCALE
  5
50
102
{ACAD_REACTORS
330
47
102
}
330
47
100
AcDbScale
 70
     0
300
1:30
140
1.0
141
30.0
290
     0
  0
SCALE
  5
51
102
{ACAD_REACTORS
330
47
102
}
330
47
100
AcDbScale
 70
     0
300
1:40
140
1.0
141
40.0
290
     0
  0
SCALE
  5
52
102
{ACAD_REACTORS
330
47
102
}
330
47
100
AcDbScale
 70
     0
300
1:50
140
1.0
141
50.0
290
     0
  0
SCALE
  5
53
102
{ACAD_REACTORS
330
47
102
}
330
47
100
AcDbScale
 70
     0
300
1:100
140
1.0
141
100.0
290
     0
  0
SCALE
  5
54
102
{ACAD_REACTORS
330
47
102
}
330
47
100
AcDbScale
 70
     0
300
2:1
140
2.0
141
1.0
290
     0
  0
SCALE
  5
55
102
{ACAD_REACTORS
330
47
102
}
330
47
100
AcDbScale
 70
     0
300
4:1
140
4.0
141
1.0
290
     0
  0
SCALE
  5
56
102
{ACAD_REACTORS
330
47
102
}
330
47
100
AcDbScale
 70
     0
300
8:1
140
8.0
141
1.0
290
     0
  0
SCALE
  5
57
102
{ACAD_REACTORS
330
47
102
}
330
47
100
AcDbScale
 70
     0
300
10:1
140
10.0
141
1.0
290
     0
  0
SCALE
  5
58
102
{ACAD_REACTORS
330
47
102
}
330
47
100
AcDbScale
 70
     0
300
100:1
140
100.0
141
1.0
290
     0
  0
SCALE
  5
59
102
{ACAD_REACTORS
330
47
102
}
330
47
100
AcDbScale
 70
     0
300
1/128" = 1'-0"
140
0.0078125
141
12.0
290
     0
  0
SCALE
  5
5A
102
{ACAD_REACTORS
330
47
102
}
330
47
100
AcDbScale
 70
     0
300
1/64" = 1'-0"
140
0.015625
141
12.0
290
     0
  0
SCALE
  5
5B
102
{ACAD_REACTORS
330
47
102
}
330
47
100
AcDbScale
 70
     0
300
1/32" = 1'-0"
140
0.03125
141
12.0
290
     0
  0
SCALE
  5
5C
102
{ACAD_REACTORS
330
47
102
}
330
47
100
AcDbScale
 70
     0
300
1/16" = 1'-0"
140
0.0625
141
12.0
290
     0
  0
SCALE
  5
5D
102
{ACAD_REACTORS
330
47
102
}
330
47
100
AcDbScale
 70
     0
300
3/32" = 1'-0"
140
0.09375
141
12.0
290
     0
  0
SCALE
  5
5E
102
{ACAD_REACTORS
330
47
102
}
330
47
100
AcDbScale
 70
     0
300
1/8" = 1'-0"
140
0.125
141
12.0
290
     0
  0
SCALE
  5
5F
102
{ACAD_REACTORS
330
47
102
}
330
47
100
AcDbScale
 70
     0
300
3/16" = 1'-0"
140
0.1875
141
12.0
290
     0
  0
SCALE
  5
60
102
{ACAD_REACTORS
330
47
102
}
330
47
100
AcDbScale
 70
     0
300
1/4" = 1'-0"
140
0.25
141
12.0
290
     0
  0
SCALE
  5
61
102
{ACAD_REACTORS
330
47
102
}
330
47
100
AcDbScale
 70
     0
300
3/8" = 1'-0"
140
0.375
141
12.0
290
     0
  0
SCALE
  5
62
102
{ACAD_REACTORS
330
47
102
}
330
47
100
AcDbScale
 70
     0
300
1/2" = 1'-0"
140
0.5
141
12.0
290
     0
  0
SCALE
  5
63
102
{ACAD_REACTORS
330
47
102
}
330
47
100
AcDbScale
 70
     0
300
3/4" = 1'-0"
140
0.75
141
12.0
290
     0
  0
SCALE
  5
64
102
{ACAD_REACTORS
330
47
102
}
330
47
100
AcDbScale
 70
     0
300
1" = 1'-0"
140
1.0
141
12.0
290
     0
  0
SCALE
  5
65
102
{ACAD_REACTORS
330
47
102
}
330
47
100
AcDbScale
 70
     0
300
1-1/2" = 1'-0"
140
1.5
141
12.0
290
     0
  0
SCALE
  5
66
102
{ACAD_REACTORS
330
47
102
}
330
47
100
AcDbScale
 70
     0
300
3" = 1'-0"
140
3.0
141
12.0
290
     0
  0
SCALE
  5
67
102
{ACAD_REACTORS
330
47
102
}
330
47
100
AcDbScale
 70
     0
300
6" = 1'-0"
140
6.0
141
12.0
290
     0
  0
SCALE
  5
68
102
{ACAD_REACTORS
330
47
102
}
330
47
100
AcDbScale
 70
     0
300
1'-0" = 1'-0"
140
12.0
141
12.0
290
     0
  0
ENDSEC
  0
EOF
