  0
SECTION
  2
HEADER
  9
$ACADVER
  1
AC1015
  9
$ACADMAINTVER
 70
     6
  9
$DWGCODEPAGE
  3
DOS932
  9
$INSBASE
 10
0.0
 20
0.0
 30
0.0
  9
$EXTMIN
 10
0.0
 20
0.0
 30
0.0
  9
$EXTMAX
 10
431.8
 20
279.4
 30
0.0
  9
$LIMMIN
 10
0.0
 20
0.0
  9
$LIMMAX
 10
431.8
 20
279.4
  9
$ORTHOMODE
 70
     0
  9
$REGENMODE
 70
     1
  9
$FILLMODE
 70
     1
  9
$QTEXTMODE
 70
     0
  9
$MIRRTEXT
 70
     1
  9
$LTSCALE
 40
1.0
  9
$ATTMODE
 70
     1
  9
$TEXTSIZE
 40
3.5
  9
$TRACEWID
 40
1.0
  9
$TEXTSTYLE
  7
Standard
  9
$CLAYER
  8
0
  9
$CELTYPE
  6
ByLayer
  9
$CECOLOR
 62
   256
  9
$CELTSCALE
 40
1.0
  9
$DISPSILH
 70
     0
  9
$DIMSCALE
 40
1.0
  9
$DIMASZ
 40
3.302
  9
$DIMEXO
 40
1.0
  9
$DIMDLI
 40
3.75
  9
$DIMRND
 40
0.0
  9
$DIMDLE
 40
0.0
  9
$DIMEXE
 40
1.0
  9
$DIMTP
 40
0.0
  9
$DIMTM
 40
0.0
  9
$DIMTXT
 40
3.5
  9
$DIMCEN
 40
2.5
  9
$DIMTSZ
 40
0.0
  9
$DIMTOL
 70
     0
  9
$DIMLIM
 70
     0
  9
$DIMTIH
 70
     1
  9
$DIMTOH
 70
     1
  9
$DIMSE1
 70
     0
  9
$DIMSE2
 70
     0
  9
$DIMTAD
 70
     1
  9
$DIMZIN
 70
     1
  9
$DIMBLK
  1

  9
$DIMASO
 70
     1
  9
$DIMSHO
 70
     1
  9
$DIMPOST
  1

  9
$DIMAPOST
  1

  9
$DIMALT
 70
     0
  9
$DIMALTD
 70
     3
  9
$DIMALTF
 40
0.0393700787
  9
$DIMLFAC
 40
1.0
  9
$DIMTOFL
 70
     1
  9
$DIMTVP
 40
0.0
  9
$DIMTIX
 70
     0
  9
$DIMSOXD
 70
     0
  9
$DIMSAH
 70
     0
  9
$DIMBLK1
  1

  9
$DIMBLK2
  1

  9
$DIMSTYLE
  2
ISO-25
  9
$DIMCLRD
 70
     0
  9
$DIMCLRE
 70
     0
  9
$DIMCLRT
 70
     0
  9
$DIMTFAC
 40
1.0
  9
$DIMGAP
 40
1.524
  9
$DIMJUST
 70
     0
  9
$DIMSD1
 70
     0
  9
$DIMSD2
 70
     0
  9
$DIMTOLJ
 70
     0
  9
$DIMTZIN
 70
     1
  9
$DIMALTZ
 70
     0
  9
$DIMALTTZ
 70
     0
  9
$DIMUPT
 70
     0
  9
$DIMDEC
 70
     2
  9
$DIMTDEC
 70
     2
  9
$DIMALTU
 70
     2
  9
$DIMALTTD
 70
     3
  9
$DIMTXSTY
  7
Standard
  9
$DIMAUNIT
 70
     0
  9
$DIMADEC
 70
     2
  9
$DIMALTRND
 40
0.0
  9
$DIMAZIN
 70
     0
  9
$DIMDSEP
 70
    44
  9
$DIMATFIT
 70
     3
  9
$DIMFRAC
 70
     0
  9
$DIMLDRBLK
  1

  9
$DIMLUNIT
 70
     2
  9
$DIMLWD
 70
    -2
  9
$DIMLWE
 70
    -2
  9
$DIMTMOVE
 70
     0
  9
$LUNITS
 70
     2
  9
$LUPREC
 70
     2
  9
$SKETCHINC
 40
1.0
  9
$FILLETRAD
 40
10.0
  9
$AUNITS
 70
     0
  9
$AUPREC
 70
     2
  9
$MENU
  1
.
  9
$ELEVATION
 40
0.0
  9
$PELEVATION
 40
0.0
  9
$THICKNESS
 40
0.0
  9
$LIMCHECK
 70
     0
  9
$CHAMFERA
 40
0.0
  9
$CHAMFERB
 40
0.0
  9
$CHAMFERC
 40
0.0
  9
$CHAMFERD
 40
0.0
  9
$SKPOLY
 70
     0
  9
$TDCREATE
 40
2460062.731794873
  9
$TDUCREATE
 40
2460062.356794873
  9
$TDUPDATE
 40
2460062.731795428
  9
$TDUUPDATE
 40
2460062.356795428
  9
$TDINDWG
 40
0.0000000116
  9
$TDUSRTIMER
 40
0.0000000116
  9
$USRTIMER
 70
     1
  9
$ANGBASE
 50
0.0
  9
$ANGDIR
 70
     0
  9
$PDMODE
 70
     0
  9
$PDSIZE
 40
-1.0
  9
$PLINEWID
 40
0.0
  9
$SPLFRAME
 70
     0
  9
$SPLINETYPE
 70
     6
  9
$SPLINESEGS
 70
     8
  9
$HANDSEED
  5
F0
  9
$SURFTAB1
 70
     6
  9
$SURFTAB2
 70
     6
  9
$SURFTYPE
 70
     6
  9
$SURFU
 70
     6
  9
$SURFV
 70
     6
  9
$UCSBASE
  2

  9
$UCSNAME
  2

  9
$UCSORG
 10
0.0
 20
0.0
 30
0.0
  9
$UCSXDIR
 10
1.0
 20
0.0
 30
0.0
  9
$UCSYDIR
 10
0.0
 20
1.0
 30
0.0
  9
$UCSORTHOREF
  2

  9
$UCSORTHOVIEW
 70
     0
  9
$UCSORGTOP
 10
0.0
 20
0.0
 30
0.0
  9
$UCSORGBOTTOM
 10
0.0
 20
0.0
 30
0.0
  9
$UCSORGLEFT
 10
0.0
 20
0.0
 30
0.0
  9
$UCSORGRIGHT
 10
0.0
 20
0.0
 30
0.0
  9
$UCSORGFRONT
 10
0.0
 20
0.0
 30
0.0
  9
$UCSORGBACK
 10
0.0
 20
0.0
 30
0.0
  9
$PUCSBASE
  2

  9
$PUCSNAME
  2

  9
$PUCSORG
 10
0.0
 20
0.0
 30
0.0
  9
$PUCSXDIR
 10
1.0
 20
0.0
 30
0.0
  9
$PUCSYDIR
 10
0.0
 20
1.0
 30
0.0
  9
$PUCSORTHOREF
  2

  9
$PUCSORTHOVIEW
 70
     0
  9
$PUCSORGTOP
 10
0.0
 20
0.0
 30
0.0
  9
$PUCSORGBOTTOM
 10
0.0
 20
0.0
 30
0.0
  9
$PUCSORGLEFT
 10
0.0
 20
0.0
 30
0.0
  9
$PUCSORGRIGHT
 10
0.0
 20
0.0
 30
0.0
  9
$PUCSORGFRONT
 10
0.0
 20
0.0
 30
0.0
  9
$PUCSORGBACK
 10
0.0
 20
0.0
 30
0.0
  9
$USERI1
 70
     0
  9
$USERI2
 70
     0
  9
$USERI3
 70
     0
  9
$USERI4
 70
     0
  9
$USERI5
 70
     0
  9
$USERR1
 40
0.0
  9
$USERR2
 40
0.0
  9
$USERR3
 40
0.0
  9
$USERR4
 40
0.0
  9
$USERR5
 40
0.0
  9
$WORLDVIEW
 70
     1
  9
$SHADEDGE
 70
     3
  9
$SHADEDIF
 70
    70
  9
$TILEMODE
 70
     1
  9
$MAXACTVP
 70
    64
  9
$PINSBASE
 10
0.0
 20
0.0
 30
0.0
  9
$PLIMCHECK
 70
     0
  9
$PEXTMIN
 10
1.0000000000E+20
 20
1.0000000000E+20
 30
1.0000000000E+20
  9
$PEXTMAX
 10
-1.0000000000E+20
 20
-1.0000000000E+20
 30
-1.0000000000E+20
  9
$PLIMMIN
 10
0.0
 20
0.0
  9
$PLIMMAX
 10
420.0
 20
297.0
  9
$UNITMODE
 70
     0
  9
$VISRETAIN
 70
     1
  9
$PLINEGEN
 70
     0
  9
$PSLTSCALE
 70
     1
  9
$TREEDEPTH
 70
  3020
  9
$CMLSTYLE
  2
Standard
  9
$CMLJUST
 70
     0
  9
$CMLSCALE
 40
20.0
  9
$PROXYGRAPHICS
 70
     1
  9
$MEASUREMENT
 70
     1
  9
$CELWEIGHT
370
    -1
  9
$ENDCAPS
280
     0
  9
$JOINSTYLE
280
     0
  9
$LWDISPLAY
290
     1
  9
$INSUNITS
 70
     4
  9
$HYPERLINKBASE
  1

  9
$STYLESHEET
  1

  9
$XEDIT
290
     1
  9
$CEPSNTYPE
380
     0
  9
$PSTYLEMODE
290
     1
  9
$FINGERPRINTGUID
  2
{95A05252-340C-4591-AF86-5C439AFD943B}
  9
$VERSIONGUID
  2
{FAEB1C32-E019-11D5-929B-00C0DF256EC4}
  9
$EXTNAMES
290
     1
  9
$PSVPSCALE
 40
0.0
  9
$OLESTARTUP
290
     0
  0
ENDSEC
  0
SECTION
  2
CLASSES
  0
CLASS
  1
ACDBDICTIONARYWDFLT
  2
AcDbDictionaryWithDefault
  3
ObjectDBX Classes
 90
        0
280
     0
281
     0
  0
CLASS
  1
VISUALSTYLE
  2
AcDbVisualStyle
  3
ObjectDBX Classes
 90
     4095
280
     0
281
     0
  0
CLASS
  1
MATERIAL
  2
AcDbMaterial
  3
ObjectDBX Classes
 90
     1153
280
     0
281
     0
  0
CLASS
  1
SCALE
  2
AcDbScale
  3
ObjectDBX Classes
 90
     1153
280
     0
281
     0
  0
CLASS
  1
TABLESTYLE
  2
AcDbTableStyle
  3
ObjectDBX Classes
 90
     4095
280
     0
281
     0
  0
CLASS
  1
MLEADERSTYLE
  2
AcDbMLeaderStyle
  3
ACDB_MLEADERSTYLE_CLASS
 90
     4095
280
     0
281
     0
  0
CLASS
  1
SUN
  2
AcDbSun
  3
SCENEOE
 90
     1153
280
     0
281
     0
  0
CLASS
  1
ACDBPLACEHOLDER
  2
AcDbPlaceHolder
  3
ObjectDBX Classes
 90
        0
280
     0
281
     0
  0
CLASS
  1
LAYOUT
  2
AcDbLayout
  3
ObjectDBX Classes
 90
        0
280
     0
281
     0
  0
ENDSEC
  0
SECTION
  2
TABLES
  0
TABLE
  2
VPORT
  5
8
330
0
100
AcDbSymbolTable
 70
     1
  0
VPORT
  5
29
330
8
100
AcDbSymbolTableRecord
100
AcDbViewportTableRecord
  2
*Active
 70
     0
 10
0.0
 20
0.0
 11
1.0
 21
1.0
 12
215.9
 22
139.7
 13
0.0
 23
0.0
 14
10.0
 24
10.0
 15
10.0
 25
10.0
 16
0.0
 26
0.0
 36
1.0
 17
0.0
 27
0.0
 37
0.0
 40
279.4
 41
1.5454545455
 42
50.0
 43
0.0
 44
0.0
 50
0.0
 51
0.0
 71
     0
 72
  2000
 73
     1
 74
     3
 75
     0
 76
     0
 77
     0
 78
     0
281
     0
 65
     1
110
0.0
120
0.0
130
0.0
111
1.0
121
0.0
131
0.0
112
0.0
122
1.0
132
0.0
 79
     0
146
0.0
  0
ENDTAB
  0
TABLE
  2
LTYPE
  5
5
330
0
100
AcDbSymbolTable
 70
     6
  0
LTYPE
  5
14
330
5
100
AcDbSymbolTableRecord
100
AcDbLinetypeTableRecord
  2
ByBlock
 70
     0
  3

 72
    65
 73
     0
 40
0.0
  0
LTYPE
  5
15
330
5
100
AcDbSymbolTableRecord
100
AcDbLinetypeTableRecord
  2
ByLayer
 70
     0
  3

 72
    65
 73
     0
 40
0.0
  0
LTYPE
  5
16
330
5
100
AcDbSymbolTableRecord
100
AcDbLinetypeTableRecord
  2
Continuous
 70
     0
  3
Solid line
 72
    65
 73
     0
 40
0.0
  0
LTYPE
  5
6E
330
5
100
AcDbSymbolTableRecord
100
AcDbLinetypeTableRecord
  2
HIDDEN
 70
     0
  3
Hidden __ __ __ __ __ __ __ __ __ __ __ __ __ __
 72
    65
 73
     2
 40
1.905
 49
1.27
 74
     0
 49
-0.635
 74
     0
  0
LTYPE
  5
6F
330
5
100
AcDbSymbolTableRecord
100
AcDbLinetypeTableRecord
  2
PHANTOM
 70
     0
  3
Phantom ______  __  __  ______  __  __  ______
 72
    65
 73
     6
 40
12.7
 49
6.35
 74
     0
 49
-1.27
 74
     0
 49
1.27
 74
     0
 49
-1.27
 74
     0
 49
1.27
 74
     0
 49
-1.27
 74
     0
  0
LTYPE
  5
70
330
5
100
AcDbSymbolTableRecord
100
AcDbLinetypeTableRecord
  2
CENTER
 70
     0
  3
Center ____ _ ____ _ ____ _ ____ _ ____ _ ____
 72
    65
 73
     4
 40
10.16
 49
6.35
 74
     0
 49
-1.27
 74
     0
 49
1.27
 74
     0
 49
-1.27
 74
     0
  0
LTYPE
  5
71
330
5
100
AcDbSymbolTableRecord
100
AcDbLinetypeTableRecord
  2
CENTERX2
 70
     0
  3
Center (2x) ________  __  ________  __  _____
 72
    65
 73
     4
 40
20.32
 49
12.7
 74
     0
 49
-2.54
 74
     0
 49
2.54
 74
     0
 49
-2.54
 74
     0
  0
LTYPE
  5
72
330
5
100
AcDbSymbolTableRecord
100
AcDbLinetypeTableRecord
  2
DOT2
 70
     0
  3
Dot (.5x) ........................................
 72
    65
 73
     2
 40
0.635
 49
0.0
 74
     0
 49
-0.635
 74
     0
  0
ENDTAB
  0
TABLE
  2
LAYER
  5
2
330
0
100
AcDbSymbolTable
 70
     1
  0
LAYER
  5
10
330
2
100
AcDbSymbolTableRecord
100
AcDbLayerTableRecord
  2
0
 70
     0
 62
     7
  6
Continuous
370
    -3
390
F
  0
ENDTAB
  0
TABLE
  2
STYLE
  5
3
330
0
100
AcDbSymbolTable
 70
     2
  0
STYLE
  5
11
330
3
100
AcDbSymbolTableRecord
100
AcDbTextStyleTableRecord
  2
Standard
 70
     0
 40
0.0
 41
1.0
 50
0.0
 71
     0
 42
3.5
  3
txt
  4
bigfont
  0
STYLE
  5
73
330
3
100
AcDbSymbolTableRecord
100
AcDbTextStyleTableRecord
  2
SLDTEXTSTYLE0
 70
     0
 40
0.0
 41
0.7
 50
0.0
 71
     0
 42
3.5
  3
TXT
  4
bigfont
  0
ENDTAB
  0
TABLE
  2
VIEW
  5
6
330
0
100
AcDbSymbolTable
 70
     0
  0
ENDTAB
  0
TABLE
  2
UCS
  5
7
330
0
100
AcDbSymbolTable
 70
     0
  0
ENDTAB
  0
TABLE
  2
APPID
  5
9
330
0
100
AcDbSymbolTable
 70
     1
  0
APPID
  5
12
330
9
100
AcDbSymbolTableRecord
100
AcDbRegAppTableRecord
  2
ACAD
 70
     0
  0
ENDTAB
  0
TABLE
  2
DIMSTYLE
  5
A
330
0
100
AcDbSymbolTable
 70
     1
100
AcDbDimStyleTable
  0
DIMSTYLE
105
27
330
A
100
AcDbSymbolTableRecord
100
AcDbDimStyleTableRecord
  2
ISO-25
 70
     0
 41
2.5
 42
0.625
 43
3.75
 44
1.25
 73
     0
 74
     0
 77
     1
 78
     8
140
2.5
141
2.5
143
0.0393700787
147
0.625
171
     3
172
     1
178
     0
271
     2
272
     2
274
     3
278
    44
283
     0
284
     8
340
11
  0
ENDTAB
  0
TABLE
  2
BLOCK_RECORD
  5
1
330
0
100
AcDbSymbolTable
 70
     3
  0
BLOCK_RECORD
  5
1F
330
1
100
AcDbSymbolTableRecord
100
AcDbBlockTableRecord
  2
*Model_Space
340
22
  0
BLOCK_RECORD
  5
1B
330
1
100
AcDbSymbolTableRecord
100
AcDbBlockTableRecord
  2
*Paper_Space
340
1E
  0
BLOCK_RECORD
  5
23
330
1
100
AcDbSymbolTableRecord
100
AcDbBlockTableRecord
  2
*Paper_Space0
340
26
  0
BLOCK_RECORD
  5
C8
330
1
100
AcDbSymbolTableRecord
100
AcDbBlockTableRecord
  2
SW_CENTERMARKSYMBOL_0
340
0
102
{BLKREFS
331
D3
102
}
  0
BLOCK_RECORD
  5
D4
330
1
100
AcDbSymbolTableRecord
100
AcDbBlockTableRecord
  2
SW_CENTERMARKSYMBOL_1
340
0
102
{BLKREFS
331
DF
102
}
  0
ENDTAB
  0
ENDSEC
  0
SECTION
  2
BLOCKS
  0
BLOCK
  5
20
330
1F
100
AcDbEntity
  8
0
100
AcDbBlockBegin
  2
*Model_Space
 70
     0
 10
0.0
 20
0.0
 30
0.0
  3
*Model_Space
  1

  0
ENDBLK
  5
21
330
1F
100
AcDbEntity
  8
0
100
AcDbBlockEnd
  0
BLOCK
  5
1C
330
1B
100
AcDbEntity
 67
     1
  8
0
100
AcDbBlockBegin
  2
*Paper_Space
 70
     0
 10
0.0
 20
0.0
 30
0.0
  3
*Paper_Space
  1

  0
ENDBLK
  5
1D
330
1B
100
AcDbEntity
 67
     1
  8
0
100
AcDbBlockEnd
  0
BLOCK
  5
24
330
23
100
AcDbEntity
  8
0
100
AcDbBlockBegin
  2
*Paper_Space0
 70
     0
 10
0.0
 20
0.0
 30
0.0
  3
*Paper_Space0
  1

  0
ENDBLK
  5
25
330
23
100
AcDbEntity
  8
0
100
AcDbBlockEnd
  0
BLOCK
  5
C9
330
C8
100
AcDbEntity
  8
0
100
AcDbBlockBegin
  2
SW_CENTERMARKSYMBOL_0
 70
     0
 10
0.0
 20
0.0
 30
0.0
  3
SW_CENTERMARKSYMBOL_0
  1

  0
LINE
  5
CB
330
C8
100
AcDbEntity
  8
0
  6
Continuous
 62
     0
370
    18
100
AcDbLine
 10
0.0
 20
0.0
 30
0.0
 11
0.0
 21
2.5
 31
0.0
  0
LINE
  5
CC
330
C8
100
AcDbEntity
  8
0
  6
Continuous
 62
     0
370
    18
100
AcDbLine
 10
0.0
 20
0.0
 30
0.0
 11
-2.5
 21
0.0
 31
0.0
  0
LINE
  5
CD
330
C8
100
AcDbEntity
  8
0
  6
Continuous
 62
     0
370
    18
100
AcDbLine
 10
0.0
 20
0.0
 30
0.0
 11
0.0
 21
-2.5
 31
0.0
  0
LINE
  5
CE
330
C8
100
AcDbEntity
  8
0
  6
Continuous
 62
     0
370
    18
100
AcDbLine
 10
0.0
 20
0.0
 30
0.0
 11
2.5
 21
0.0
 31
0.0
  0
LINE
  5
CF
330
C8
100
AcDbEntity
  8
0
  6
Continuous
 62
     0
370
    18
100
AcDbLine
 10
0.0
 20
5.0
 30
0.0
 11
0.0
 21
14.75
 31
0.0
  0
LINE
  5
D0
330
C8
100
AcDbEntity
  8
0
  6
Continuous
 62
     0
370
    18
100
AcDbLine
 10
-5.0
 20
0.0
 30
0.0
 11
-14.75
 21
0.0
 31
0.0
  0
LINE
  5
D1
330
C8
100
AcDbEntity
  8
0
  6
Continuous
 62
     0
370
    18
100
AcDbLine
 10
0.0
 20
-5.0
 30
0.0
 11
0.0
 21
-14.75
 31
0.0
  0
LINE
  5
D2
330
C8
100
AcDbEntity
  8
0
  6
Continuous
 62
     0
370
    18
100
AcDbLine
 10
5.0
 20
0.0
 30
0.0
 11
14.75
 21
0.0
 31
0.0
  0
ENDBLK
  5
CA
330
C8
100
AcDbEntity
  8
0
100
AcDbBlockEnd
  0
BLOCK
  5
D5
330
D4
100
AcDbEntity
  8
0
100
AcDbBlockBegin
  2
SW_CENTERMARKSYMBOL_1
 70
     0
 10
0.0
 20
0.0
 30
0.0
  3
SW_CENTERMARKSYMBOL_1
  1

  0
LINE
  5
D7
330
D4
100
AcDbEntity
  8
0
  6
Continuous
 62
     0
370
    18
100
AcDbLine
 10
0.0
 20
0.0
 30
0.0
 11
0.0
 21
2.5
 31
0.0
  0
LINE
  5
D8
330
D4
100
AcDbEntity
  8
0
  6
Continuous
 62
     0
370
    18
100
AcDbLine
 10
0.0
 20
0.0
 30
0.0
 11
-2.5
 21
0.0
 31
0.0
  0
LINE
  5
D9
330
D4
100
AcDbEntity
  8
0
  6
Continuous
 62
     0
370
    18
100
AcDbLine
 10
0.0
 20
0.0
 30
0.0
 11
0.0
 21
-2.5
 31
0.0
  0
LINE
  5
DA
330
D4
100
AcDbEntity
  8
0
  6
Continuous
 62
     0
370
    18
100
AcDbLine
 10
0.0
 20
0.0
 30
0.0
 11
2.5
 21
0.0
 31
0.0
  0
LINE
  5
DB
330
D4
100
AcDbEntity
  8
0
  6
Continuous
 62
     0
370
    18
100
AcDbLine
 10
0.0
 20
5.0
 30
0.0
 11
0.0
 21
24.4111307867
 31
0.0
  0
LINE
  5
DC
330
D4
100
AcDbEntity
  8
0
  6
Continuous
 62
     0
370
    18
100
AcDbLine
 10
-5.0
 20
0.0
 30
0.0
 11
-21.5
 21
0.0
 31
0.0
  0
LINE
  5
DD
330
D4
100
AcDbEntity
  8
0
  6
Continuous
 62
     0
370
    18
100
AcDbLine
 10
0.0
 20
-5.0
 30
0.0
 11
0.0
 21
-24.2857551509
 31
0.0
  0
LINE
  5
DE
330
D4
100
AcDbEntity
  8
0
  6
Continuous
 62
     0
370
    18
100
AcDbLine
 10
5.0
 20
0.0
 30
0.0
 11
21.5
 21
0.0
 31
0.0
  0
ENDBLK
  5
D6
330
D4
100
AcDbEntity
  8
0
100
AcDbBlockEnd
  0
ENDSEC
  0
SECTION
  2
ENTITIES
  0
MTEXT
  5
74
330
1F
100
AcDbEntity
  8
0
  6
Continuous
 62
     7
370
     0
100
AcDbMText
 10
183.7121859034
 20
117.7109909574
 30
0.0
 40
3.7041666667
 41
0.0
 71
     1
 72
     1
  1
ロックナット　NR-7006
  7
SLDTEXTSTYLE0
 73
     1
 44
1.0
  0
LINE
  5
75
330
1F
100
AcDbEntity
  8
0
  6
Continuous
 62
     7
370
    25
100
AcDbLine
 10
167.1593931762
 20
60.1617096256
 30
0.0
 11
168.8564047282
 21
63.1010198548
 31
0.0
  0
LINE
  5
76
330
1F
100
AcDbEntity
  8
0
  6
Continuous
 62
     7
370
    25
100
AcDbLine
 10
168.8564047282
 20
101.1010198548
 30
0.0
 11
167.1593931762
 21
104.040330084
 31
0.0
  0
LINE
  5
77
330
1F
100
AcDbEntity
  8
0
  6
Continuous
 62
     7
370
    25
100
AcDbLine
 10
160.8564047282
 20
88.1010198548
 30
0.0
 11
160.8564047282
 21
76.1010198548
 31
0.0
  0
LINE
  5
78
330
1F
100
AcDbEntity
  8
0
  6
Continuous
 62
     7
370
    25
100
AcDbLine
 10
160.8564047282
 20
76.1010198548
 30
0.0
 11
166.8564047282
 21
76.1010198548
 31
0.0
  0
LINE
  5
79
330
1F
100
AcDbEntity
  8
0
  6
Continuous
 62
     7
370
    25
100
AcDbLine
 10
166.8564047282
 20
88.1010198548
 30
0.0
 11
166.8564047282
 21
76.1010198548
 31
0.0
  0
LINE
  5
7A
330
1F
100
AcDbEntity
  8
0
  6
Continuous
 62
     7
370
    25
100
AcDbLine
 10
160.8564047282
 20
88.1010198548
 30
0.0
 11
166.8564047282
 21
88.1010198548
 31
0.0
  0
LINE
  5
7B
330
1F
100
AcDbEntity
  8
0
  6
Continuous
 62
     7
370
    25
100
AcDbLine
 10
158.8564047282
 20
93.0706749694
 30
0.0
 11
158.8564047282
 21
71.1313647402
 31
0.0
  0
LINE
  5
7C
330
1F
100
AcDbEntity
  8
0
  6
Continuous
 62
     7
370
    25
100
AcDbLine
 10
158.8564047282
 20
93.0706749694
 30
0.0
 11
167.1593931762
 21
93.0706749694
 31
0.0
  0
SPLINE
  5
7D
330
1F
100
AcDbEntity
  8
0
  6
Continuous
 62
     7
370
    25
100
AcDbSpline
210
0.0
220
0.0
230
1.0
 70
     8
 71
     3
 72
    12
 73
     8
 74
     0
 42
0.000000001
 43
0.00000001
 40
0.0
 40
0.0
 40
0.0
 40
0.0
 40
0.25
 40
0.25
 40
0.5
 40
0.5
 40
1.0
 40
1.0
 40
1.0
 40
1.0
 10
168.8564047282371
 20
82.10101985481178
 30
0.0
 10
168.8564047282371
 20
83.02933101945077
 30
0.0
 10
168.8168229216088
 20
83.96207352858629
 30
0.0
 10
168.6598882505946
 20
85.8297987562312
 30
0.0
 10
168.5436850483047
 20
86.75371566076578
 30
0.0
 10
168.0978055304959
 20
89.49982980261075
 30
0.0
 10
167.6715336841446
 20
91.29656820857387
 30
0.0
 10
167.1593931761733
 20
93.0706749694147
 30
0.0
  0
SPLINE
  5
7E
330
1F
100
AcDbEntity
  8
0
  6
Continuous
 62
     7
370
    25
100
AcDbSpline
210
0.0
220
0.0
230
1.0
 70
     8
 71
     3
 72
    12
 73
     8
 74
     0
 42
0.000000001
 43
0.00000001
 40
0.0
 40
0.0
 40
0.0
 40
0.0
 40
0.2499999999999999
 40
0.2499999999999999
 40
0.5
 40
0.5
 40
1.0
 40
1.0
 40
1.0
 40
1.0
 10
167.1593931761733
 20
71.1313647402089
 30
0.0
 10
167.4171377316785
 20
72.02421807122738
 30
0.0
 10
167.6541218979874
 20
72.92691083639225
 30
0.0
 10
168.0731510375416
 20
74.74652106571685
 30
0.0
 10
168.2541012147778
 20
75.65875941731267
 30
0.0
 10
168.6968225726749
 20
78.40400390270125
 30
0.0
 10
168.8564047282371
 20
80.24571493402385
 30
0.0
 10
168.8564047282371
 20
82.10101985481178
 30
0.0
  0
LINE
  5
7F
330
1F
100
AcDbEntity
  8
0
  6
Continuous
 62
     7
370
    25
100
AcDbLine
 10
158.8564047282
 20
71.1313647402
 30
0.0
 11
167.1593931762
 21
71.1313647402
 31
0.0
  0
LINE
  5
80
330
1F
100
AcDbEntity
  8
0
  6
Continuous
 62
     7
370
    25
100
AcDbLine
 10
158.8564047282
 20
71.1313647402
 30
0.0
 11
158.8564047282
 21
60.1617096256
 31
0.0
  0
SPLINE
  5
81
330
1F
100
AcDbEntity
  8
0
  6
Continuous
 62
     7
370
    25
100
AcDbSpline
210
0.0
220
0.0
230
1.0
 70
     8
 71
     3
 72
    14
 73
    10
 74
     0
 42
0.000000001
 43
0.00000001
 40
0.0
 40
0.0
 40
0.0
 40
0.0
 40
0.125
 40
0.125
 40
0.2499999999999998
 40
0.2499999999999998
 40
0.4999999999999997
 40
0.4999999999999997
 40
1.0
 40
1.0
 40
1.0
 40
1.0
 10
168.8564047282371
 20
65.64653718290744
 30
0.0
 10
168.8564047282371
 20
65.87927647746405
 30
0.0
 10
168.846451785539
 20
66.1131801250231
 30
0.0
 10
168.8069719222318
 20
66.57881115982373
 30
0.0
 10
168.7774875202878
 20
66.810819628382
 30
0.0
 10
168.6610687345972
 20
67.50452889083209
 30
0.0
 10
168.5461039067806
 20
67.96390816936656
 30
0.0
 10
168.1026966341603
 20
69.33388705635022
 30
0.0
 10
167.6761247140692
 20
70.23635946270016
 30
0.0
 10
167.1593931761734
 20
71.1313647402089
 30
0.0
  0
SPLINE
  5
82
330
1F
100
AcDbEntity
  8
0
  6
Continuous
 62
     7
370
    25
100
AcDbSpline
210
0.0
220
0.0
230
1.0
 70
     8
 71
     3
 72
    10
 73
     6
 74
     0
 42
0.000000001
 43
0.00000001
 40
0.0
 40
0.0
 40
0.0
 40
0.0
 40
0.5
 40
0.5
 40
1.0
 40
1.0
 40
1.0
 40
1.0
 10
167.1593931761735
 20
60.16170962560599
 30
0.0
 10
167.6774185037245
 20
61.05895581253182
 30
0.0
 10
168.1041942395091
 20
61.96275569588673
 30
0.0
 10
168.6946706073482
 20
63.78924995115837
 30
0.0
 10
168.8564047282371
 20
64.71208556115576
 30
0.0
 10
168.8564047282371
 20
65.64653718290744
 30
0.0
  0
LINE
  5
83
330
1F
100
AcDbEntity
  8
0
  6
Continuous
 62
     7
370
    25
100
AcDbLine
 10
158.8564047282
 20
60.1617096256
 30
0.0
 11
167.1593931762
 21
60.1617096256
 31
0.0
  0
LINE
  5
84
330
1F
100
AcDbEntity
  8
0
  6
Continuous
 62
     7
370
    25
100
AcDbLine
 10
158.8564047282
 20
104.040330084
 30
0.0
 11
158.8564047282
 21
93.0706749694
 31
0.0
  0
LINE
  5
85
330
1F
100
AcDbEntity
  8
0
  6
Continuous
 62
     7
370
    25
100
AcDbLine
 10
158.8564047282
 20
104.040330084
 30
0.0
 11
167.1593931762
 21
104.040330084
 31
0.0
  0
SPLINE
  5
86
330
1F
100
AcDbEntity
  8
0
  6
Continuous
 62
     7
370
    25
100
AcDbSpline
210
0.0
220
0.0
230
1.0
 70
     8
 71
     3
 72
    14
 73
    10
 74
     0
 42
0.000000001
 43
0.00000001
 40
0.0
 40
0.0
 40
0.0
 40
0.0
 40
0.1250000000000003
 40
0.1250000000000003
 40
0.2500000000000006
 40
0.2500000000000006
 40
0.5000000000000004
 40
0.5000000000000004
 40
1.0
 40
1.0
 40
1.0
 40
1.0
 10
168.8564047282371
 20
98.55550252671613
 30
0.0
 10
168.8564047282371
 20
98.78824182127272
 30
0.0
 10
168.846451785539
 20
99.02214546883178
 30
0.0
 10
168.8069719222318
 20
99.48777650363242
 30
0.0
 10
168.7774875202878
 20
99.71978497219068
 30
0.0
 10
168.6610687345972
 20
100.4134942346408
 30
0.0
 10
168.5461039067806
 20
100.8728735131752
 30
0.0
 10
168.1026966341603
 20
102.2428524001589
 30
0.0
 10
167.6761247140692
 20
103.1453248065088
 30
0.0
 10
167.1593931761734
 20
104.0403300840176
 30
0.0
  0
SPLINE
  5
87
330
1F
100
AcDbEntity
  8
0
  6
Continuous
 62
     7
370
    25
100
AcDbSpline
210
0.0
220
0.0
230
1.0
 70
     8
 71
     3
 72
    10
 73
     6
 74
     0
 42
0.000000001
 43
0.00000001
 40
0.0
 40
0.0
 40
0.0
 40
0.0
 40
0.4999999999999998
 40
0.4999999999999998
 40
1.0
 40
1.0
 40
1.0
 40
1.0
 10
167.1593931761735
 20
93.07067496941468
 30
0.0
 10
167.6774185037245
 20
93.9679211563405
 30
0.0
 10
168.1041942395091
 20
94.8717210396954
 30
0.0
 10
168.6946706073482
 20
96.69821529496704
 30
0.0
 10
168.8564047282371
 20
97.62105090496445
 30
0.0
 10
168.8564047282371
 20
98.55550252671613
 30
0.0
  0
SPLINE
  5
88
330
1F
100
AcDbEntity
  8
0
  6
Continuous
 62
     7
370
    25
100
AcDbSpline
210
0.0
220
0.0
230
1.0
 70
     8
 71
     3
 72
    23
 73
    19
 74
     0
 42
0.000000001
 43
0.00000001
 40
0.0
 40
0.0
 40
0.0
 40
0.0
 40
0.0730186031256832
 40
0.1431450342826866
 40
0.2108685250690166
 40
0.2758529921314155
 40
0.3393775786396916
 40
0.4014896731374407
 40
0.46269297076423
 40
0.5235137498083658
 40
0.5837365428428315
 40
0.6424828441266818
 40
0.700892322166798
 40
0.7590076610242049
 40
0.8177309275530393
 40
0.8769645997526948
 40
0.9377482929525022
 40
1.0
 40
1.0
 40
1.0
 40
1.0
 10
164.9132957538781
 20
86.57521477918735
 30
0.0
 10
164.953281416924
 20
86.56572879217919
 30
0.0
 10
165.0316689628713
 20
86.54713254577949
 30
0.0
 10
165.1439383944983
 20
86.5084678128895
 30
0.0
 10
165.249931879473
 20
86.46603736652602
 30
0.0
 10
165.3483437217988
 20
86.41574529682563
 30
0.0
 10
165.4399739580823
 20
86.35984887845775
 30
0.0
 10
165.5244647629656
 20
86.29710730889606
 30
0.0
 10
165.6018291336119
 20
86.2280059960695
 30
0.0
 10
165.6713105636772
 20
86.15245764521795
 30
0.0
 10
165.7337883477147
 20
86.0727908298459
 30
0.0
 10
165.7878981806076
 20
85.98879165744916
 30
0.0
 10
165.8335841481175
 20
85.90128568757424
 30
0.0
 10
165.8715154915785
 20
85.8101786702856
 30
0.0
 10
165.9013572493438
 20
85.71557145641151
 30
0.0
 10
165.9218884981547
 20
85.61704470966177
 30
0.0
 10
165.9353236258283
 20
85.51522381291943
 30
0.0
 10
165.9366587089776
 20
85.44598462240663
 30
0.0
 10
165.9373342154166
 20
85.41095195867453
 30
0.0
  0
SPLINE
  5
89
330
1F
100
AcDbEntity
  8
0
  6
Continuous
 62
     7
370
    25
100
AcDbSpline
210
0.0
220
0.0
230
1.0
 70
     8
 71
     3
 72
    19
 73
    15
 74
     0
 42
0.000000001
 43
0.00000001
 40
0.0
 40
0.0
 40
0.0
 40
0.0
 40
0.0898644634927054
 40
0.1775895521150331
 40
0.2652391566373746
 40
0.3537566807950155
 40
0.440998807096247
 40
0.5248467744535982
 40
0.6072414837135922
 40
0.6893652937674901
 40
0.7700471770848267
 40
0.8477834412405074
 40
0.9236974916292959
 40
1.0
 40
1.0
 40
1.0
 40
1.0
 10
165.9373342154166
 20
85.41095195867453
 30
0.0
 10
165.935579654014
 20
85.35984134815664
 30
0.0
 10
165.9321123014973
 20
85.25883690126605
 30
0.0
 10
165.9062246564173
 20
85.1096553363139
 30
0.0
 10
165.8603933393003
 20
84.96639300518913
 30
0.0
 10
165.79932306293
 20
84.82930508406896
 30
0.0
 10
165.7233015055878
 20
84.70223870140703
 30
0.0
 10
165.6324227791347
 20
84.58980005032255
 30
0.0
 10
165.5301072338492
 20
84.4918766381359
 30
0.0
 10
165.4165193018738
 20
84.41014854895167
 30
0.0
 10
165.2949028453043
 20
84.34673442695991
 30
0.0
 10
165.1700879866771
 20
84.29918054985552
 30
0.0
 10
165.0416772767181
 20
84.27103154761669
 30
0.0
 10
164.9550948717733
 20
84.26709294987826
 30
0.0
 10
164.9116931897755
 20
84.2651186253412
 30
0.0
  0
SPLINE
  5
8A
330
1F
100
AcDbEntity
  8
0
  6
Continuous
 62
     7
370
    25
100
AcDbSpline
210
0.0
220
0.0
230
1.0
 70
     8
 71
     3
 72
    15
 73
    11
 74
     0
 42
0.000000001
 43
0.00000001
 40
0.0
 40
0.0
 40
0.0
 40
0.0
 40
0.1240120616548137
 40
0.2436563139321582
 40
0.3608451373568502
 40
0.4793769364499217
 40
0.5998207045945018
 40
0.7249467942085719
 40
0.8585195054390143
 40
1.0
 40
1.0
 40
1.0
 40
1.0
 10
164.9116931897755
 20
84.2651186253412
 30
0.0
 10
164.869926471626
 20
84.2666931283383
 30
0.0
 10
164.7878640943574
 20
84.26978667900933
 30
0.0
 10
164.6680490284135
 20
84.29317320366592
 30
0.0
 10
164.55516705555
 20
84.33405608695674
 30
0.0
 10
164.4489488528049
 20
84.39050458814626
 30
0.0
 10
164.3492627045733
 20
84.46258464706533
 30
0.0
 10
164.2573555773027
 20
84.55162660196977
 30
0.0
 10
164.17125307825
 20
84.65574844702395
 30
0.0
 10
164.1220818133382
 20
84.73431918571767
 30
0.0
 10
164.0967893436217
 20
84.77473400995657
 30
0.0
  0
SPLINE
  5
8B
330
1F
100
AcDbEntity
  8
0
  6
Continuous
 62
     7
370
    25
100
AcDbSpline
210
0.0
220
0.0
230
1.0
 70
     8
 71
     3
 72
    11
 73
     7
 74
     0
 42
0.000000001
 43
0.00000001
 40
0.0
 40
0.0
 40
0.0
 40
0.0
 40
0.2584317084777974
 40
0.5081706827419565
 40
0.7545708308982124
 40
1.0
 40
1.0
 40
1.0
 40
1.0
 10
164.0967893436217
 20
84.77473400995657
 30
0.0
 10
164.0762533375376
 20
84.72849536635971
 30
0.0
 10
164.0358720844243
 20
84.63757338459482
 30
0.0
 10
163.956988224857
 20
84.51230688634045
 30
0.0
 10
163.86484558429
 20
84.39960164561629
 30
0.0
 10
163.7929317060873
 20
84.33554517055876
 30
0.0
 10
163.7570457538781
 20
84.30358016380274
 30
0.0
  0
SPLINE
  5
8C
330
1F
100
AcDbEntity
  8
0
  6
Continuous
 62
     7
370
    25
100
AcDbSpline
210
0.0
220
0.0
230
1.0
 70
     8
 71
     3
 72
    15
 73
    11
 74
     0
 42
0.000000001
 43
0.00000001
 40
0.0
 40
0.0
 40
0.0
 40
0.0
 40
0.1306423407152709
 40
0.257882400599113
 40
0.3825759848001573
 40
0.5056320390703238
 40
0.6276817356858377
 40
0.7503150669859457
 40
0.8740374788263675
 40
1.0
 40
1.0
 40
1.0
 40
1.0
 10
163.7570457538781
 20
84.30358016380274
 30
0.0
 10
163.7306690202548
 20
84.28282375292119
 30
0.0
 10
163.6786024746807
 20
84.24185148438521
 30
0.0
 10
163.5955912068615
 20
84.1889977238222
 30
0.0
 10
163.510414582247
 20
84.14391531818039
 30
0.0
 10
163.422922573443
 20
84.10657413607628
 30
0.0
 10
163.332497678364
 20
84.07893392985405
 30
0.0
 10
163.2402452522318
 20
84.05756538867452
 30
0.0
 10
163.1451885662671
 20
84.04548789840612
 30
0.0
 10
163.0810629087827
 20
84.0439429179492
 30
0.0
 10
163.0487124205448
 20
84.04316349713608
 30
0.0
  0
SPLINE
  5
8D
330
1F
100
AcDbEntity
  8
0
  6
Continuous
 62
     7
370
    25
100
AcDbSpline
210
0.0
220
0.0
230
1.0
 70
     8
 71
     3
 72
    19
 73
    15
 74
     0
 42
0.000000001
 43
0.00000001
 40
0.0
 40
0.0
 40
0.0
 40
0.0
 40
0.0805837841055691
 40
0.1603576603781786
 40
0.2417742204000994
 40
0.3252421411441939
 40
0.4090261606311749
 40
0.4910624318901208
 40
0.5724143947194859
 40
0.6554687862101186
 40
0.7394875570886766
 40
0.8241979388352174
 40
0.9105582787213381
 40
1.0
 40
1.0
 40
1.0
 40
1.0
 10
163.0487124205448
 20
84.04316349713608
 30
0.0
 10
162.9927012201566
 20
84.04491022092195
 30
0.0
 10
162.8812417603048
 20
84.0483861130352
 30
0.0
 10
162.7165694430975
 20
84.08453259594583
 30
0.0
 10
162.555484843305
 20
84.13937270383003
 30
0.0
 10
162.400990771442
 20
84.21743875188211
 30
0.0
 10
162.2562371632073
 20
84.31309840112722
 30
0.0
 10
162.1280372148894
 20
84.42798966541622
 30
0.0
 10
162.0167344006911
 20
84.55855407351565
 30
0.0
 10
161.9240639170455
 20
84.70459912067776
 30
0.0
 10
161.8502355707893
 20
84.86354409416921
 30
0.0
 10
161.7971592030438
 20
85.03292981914834
 30
0.0
 10
161.7653979483268
 20
85.2115844266184
 30
0.0
 10
161.7609243319577
 20
85.33363346799075
 30
0.0
 10
161.7586483179807
 20
85.39572759970017
 30
0.0
  0
SPLINE
  5
8E
330
1F
100
AcDbEntity
  8
0
  6
Continuous
 62
     7
370
    25
100
AcDbSpline
210
0.0
220
0.0
230
1.0
 70
     8
 71
     3
 72
    23
 73
    19
 74
     0
 42
0.000000001
 43
0.00000001
 40
0.0
 40
0.0
 40
0.0
 40
0.0
 40
0.0654319102705883
 40
0.1283007822384561
 40
0.1893941642270051
 40
0.2489493645792656
 40
0.3071062948687989
 40
0.3652199663904763
 40
0.4230973842619333
 40
0.4815755109838811
 40
0.5407846058224667
 40
0.6001399828655153
 40
0.6608017450363894
 40
0.7236664787616077
 40
0.7881249774445688
 40
0.8555863152329698
 40
0.92623487909401
 40
1.0
 40
1.0
 40
1.0
 40
1.0
 10
161.7586483179807
 20
85.39572759970017
 30
0.0
 10
161.7595738093583
 20
85.43770419754647
 30
0.0
 10
161.7613885396208
 20
85.52001312475213
 30
0.0
 10
161.7755959080515
 20
85.64078596142313
 30
0.0
 10
161.797125153591
 20
85.75667766782773
 30
0.0
 10
161.8308640440377
 20
85.86645400642875
 30
0.0
 10
161.8712670458015
 20
85.97188584535854
 30
0.0
 10
161.9229864499796
 20
86.07114109792843
 30
0.0
 10
161.9835324222211
 20
86.16537420557438
 30
0.0
 10
162.0523002768857
 20
86.25475524549982
 30
0.0
 10
162.1308237978574
 20
86.33706727318996
 30
0.0
 10
162.2181159689244
 20
86.41210352829948
 30
0.0
 10
162.3140698803422
 20
86.47991134479652
 30
0.0
 10
162.4191551752868
 20
86.53928645421887
 30
0.0
 10
162.5320608349402
 20
86.5930995114095
 30
0.0
 10
162.6543918388028
 20
86.63728809409639
 30
0.0
 10
162.7849922561478
 20
86.67526456424532
 30
0.0
 10
162.8757511080163
 20
86.69390073212247
 30
0.0
 10
162.9221098564422
 20
86.70341990739249
 30
0.0
  0
LINE
  5
8F
330
1F
100
AcDbEntity
  8
0
  6
Continuous
 62
     7
370
    25
100
AcDbLine
 10
162.9221098564
 20
86.7034199074
 30
0.0
 11
162.9229111385
 21
86.3139968305
 31
0.0
  0
SPLINE
  5
90
330
1F
100
AcDbEntity
  8
0
  6
Continuous
 62
     7
370
    25
100
AcDbSpline
210
0.0
220
0.0
230
1.0
 70
     8
 71
     3
 72
    15
 73
    11
 74
     0
 42
0.000000001
 43
0.00000001
 40
0.0
 40
0.0
 40
0.0
 40
0.0
 40
0.1522783863742221
 40
0.2949607722455527
 40
0.4300398780838037
 40
0.5569198968591857
 40
0.6767529970999909
 40
0.79010847644238
 40
0.8974841170435975
 40
1.0
 40
1.0
 40
1.0
 40
1.0
 10
162.9229111384935
 20
86.3139968304694
 30
0.0
 10
162.8915689765998
 20
86.30521939374559
 30
0.0
 10
162.8308597157773
 20
86.28821764073236
 30
0.0
 10
162.7438606828083
 20
86.25844502592206
 30
0.0
 10
162.6636570467271
 20
86.2259433320814
 30
0.0
 10
162.5905177754318
 20
86.18962284874027
 30
0.0
 10
162.5238024659099
 20
86.15119221480961
 30
0.0
 10
162.46329550616
 20
86.1106024211334
 30
0.0
 10
162.4099862823467
 20
86.0664066131036
 30
0.0
 10
162.3788324971648
 20
86.03410205041062
 30
0.0
 10
162.3636162666986
 20
86.01832375354633
 30
0.0
  0
SPLINE
  5
91
330
1F
100
AcDbEntity
  8
0
  6
Continuous
 62
     7
370
    25
100
AcDbSpline
210
0.0
220
0.0
230
1.0
 70
     8
 71
     3
 72
    15
 73
    11
 74
     0
 42
0.000000001
 43
0.00000001
 40
0.0
 40
0.0
 40
0.0
 40
0.0
 40
0.1198931461413823
 40
0.2392806937666597
 40
0.3590113515423823
 40
0.4796675668761692
 40
0.6039123464581456
 40
0.7313397220394215
 40
0.8631284656774941
 40
0.9999999999999999
 40
0.9999999999999999
 40
0.9999999999999999
 40
0.9999999999999999
 10
162.3636162666986
 20
86.01832375354633
 30
0.0
 10
162.3460119125384
 20
85.997606444457
 30
0.0
 10
162.3108774431183
 20
85.95625919274647
 30
0.0
 10
162.267312149635
 20
85.88735390389047
 30
0.0
 10
162.2291462115962
 20
85.81524654405621
 30
0.0
 10
162.1987747814917
 20
85.73828954051385
 30
0.0
 10
162.1745333800657
 20
85.65738683364974
 30
0.0
 10
162.1581675131918
 20
85.57199242694365
 30
0.0
 10
162.1471791758161
 20
85.48282030811997
 30
0.0
 10
162.1461777398363
 20
85.4219373232189
 30
0.0
 10
162.1456675487499
 20
85.39091990739247
 30
0.0
  0
SPLINE
  5
92
330
1F
100
AcDbEntity
  8
0
  6
Continuous
 62
     7
370
    25
100
AcDbSpline
210
0.0
220
0.0
230
1.0
 70
     8
 71
     3
 72
    23
 73
    19
 74
     0
 42
0.000000001
 43
0.00000001
 40
0.0
 40
0.0
 40
0.0
 40
0.0
 40
0.07335305771863
 40
0.1433327250572915
 40
0.2103134005005162
 40
0.2756416461811969
 40
0.3390779991051269
 40
0.4017563649200039
 40
0.4646312151222131
 40
0.5279483609728383
 40
0.5908183065492583
 40
0.6510172462753788
 40
0.7098797615356185
 40
0.7679936142463302
 40
0.8249281294360246
 40
0.8821678388245865
 40
0.9405173410835234
 40
1.0
 40
1.0
 40
1.0
 40
1.0
 10
162.1456675487499
 20
85.39091990739247
 30
0.0
 10
162.1462953085417
 20
85.35561366455836
 30
0.0
 10
162.1475219584516
 20
85.28662485680668
 30
0.0
 10
162.1612165091896
 20
85.1862345063019
 30
0.0
 10
162.1805137761999
 20
85.09073515111925
 30
0.0
 10
162.2098959195812
 20
85.00111938259981
 30
0.0
 10
162.2455218542126
 20
84.91602810610307
 30
0.0
 10
162.2911595475952
 20
84.83717854803811
 30
0.0
 10
162.3439517987808
 20
84.76305529783615
 30
0.0
 10
162.4049968961968
 20
84.69542581276482
 30
0.0
 10
162.470709739735
 20
84.6342829330452
 30
0.0
 10
162.5401721739059
 20
84.58084901301063
 30
0.0
 10
162.6125829145886
 20
84.53561400508633
 30
0.0
 10
162.6879302769707
 20
84.49902372802428
 30
0.0
 10
162.7654830272348
 20
84.46934052606886
 30
0.0
 10
162.84626652094
 20
84.44967364418912
 30
0.0
 10
162.9297329090009
 20
84.43722626675327
 30
0.0
 10
162.9864349238208
 20
84.4357404652294
 30
0.0
 10
163.0150585743909
 20
84.434990420213
 30
0.0
  0
LINE
  5
93
330
1F
100
AcDbEntity
  8
0
  6
Continuous
 62
     7
370
    25
100
AcDbLine
 10
163.8820457539
 20
85.6016570869
 30
0.0
 11
164.2466290872
 21
85.6024583689
 31
0.0
  0
SPLINE
  5
94
330
1F
100
AcDbEntity
  8
0
  6
Continuous
 62
     7
370
    25
100
AcDbSpline
210
0.0
220
0.0
230
1.0
 70
     8
 71
     3
 72
    19
 73
    15
 74
     0
 42
0.000000001
 43
0.00000001
 40
0.0
 40
0.0
 40
0.0
 40
0.0
 40
0.1056842280274474
 40
0.2071480086812805
 40
0.3055733798927367
 40
0.402350962750404
 40
0.4942253225812857
 40
0.5778581972337956
 40
0.6553406227623815
 40
0.7281025018592052
 40
0.7974913200268977
 40
0.8647514252589548
 40
0.9322191330556123
 40
1.0
 40
1.0
 40
1.0
 40
1.0
 10
164.2466290872114
 20
85.60245836893095
 30
0.0
 10
164.2479679412349
 20
85.55780406418438
 30
0.0
 10
164.2505921828088
 20
85.47027870226475
 30
0.0
 10
164.268029095188
 20
85.3420094491788
 30
0.0
 10
164.2991570306495
 20
85.22039580626803
 30
0.0
 10
164.3396120054805
 20
85.10575881074136
 30
0.0
 10
164.3915837290591
 20
85.00284994145908
 30
0.0
 10
164.4488647976625
 20
84.91228578342532
 30
0.0
 10
164.51421578933
 20
84.83755573078795
 30
0.0
 10
164.5861817499996
 20
84.77830362616488
 30
0.0
 10
164.6631733727346
 20
84.73388700044563
 30
0.0
 10
164.7436773557475
 20
84.70238612187524
 30
0.0
 10
164.8273452366745
 20
84.68200737321649
 30
0.0
 10
164.8846013905286
 20
84.68025810507982
 30
0.0
 10
164.9132957538781
 20
84.67938144585402
 30
0.0
  0
SPLINE
  5
95
330
1F
100
AcDbEntity
  8
0
  6
Continuous
 62
     7
370
    25
100
AcDbSpline
210
0.0
220
0.0
230
1.0
 70
     8
 71
     3
 72
    23
 73
    19
 74
     0
 42
0.000000001
 43
0.00000001
 40
0.0
 40
0.0
 40
0.0
 40
0.0
 40
0.0594442432234899
 40
0.1172777151826481
 40
0.1741654339188967
 40
0.2310821893488622
 40
0.2888394266768146
 40
0.3477064372637329
 40
0.4088046360415961
 40
0.4717761120603864
 40
0.5361060630023167
 40
0.5997084660918862
 40
0.6631417885019433
 40
0.7273646334607882
 40
0.7924055282557358
 40
0.8592174762568223
 40
0.927979361400402
 40
1.0
 40
1.0
 40
1.0
 40
1.0
 10
164.9132957538781
 20
84.67938144585402
 30
0.0
 10
164.9347031334604
 20
84.67997119890738
 30
0.0
 10
164.9769378130411
 20
84.68113472437041
 30
0.0
 10
165.03896801368
 20
84.69116253608148
 30
0.0
 10
165.0988746179821
 20
84.70684339866591
 30
0.0
 10
165.1559035041798
 20
84.73088436562875
 30
0.0
 10
165.2114943920143
 20
84.75949173645833
 30
0.0
 10
165.2648987167925
 20
84.79501491887147
 30
0.0
 10
165.3149791911518
 20
84.83790319553613
 30
0.0
 10
165.363239108865
 20
84.88564933866499
 30
0.0
 10
165.4067631346811
 20
84.93897683956233
 30
0.0
 10
165.4453947818776
 20
84.99608958156911
 30
0.0
 10
165.4787003669932
 20
85.05646833051242
 30
0.0
 10
165.5051370281579
 20
85.12076264404116
 30
0.0
 10
165.5247604848263
 20
85.1886309328769
 30
0.0
 10
165.5403951810419
 20
85.2591810665531
 30
0.0
 10
165.5493472069808
 20
85.33352895374324
 30
0.0
 10
165.5499874520825
 20
85.3842189876781
 30
0.0
 10
165.5503149846473
 20
85.41015067662325
 30
0.0
  0
LINE
  5
96
330
1F
100
AcDbEntity
  8
0
  6
Continuous
 62
     7
370
    25
100
AcDbLine
 10
164.9140970359
 20
86.1689647792
 30
0.0
 11
164.9132957539
 21
86.5752147792
 31
0.0
  0
SPLINE
  5
97
330
1F
100
AcDbEntity
  8
0
  6
Continuous
 62
     7
370
    25
100
AcDbSpline
210
0.0
220
0.0
230
1.0
 70
     8
 71
     3
 72
    19
 73
    15
 74
     0
 42
0.000000001
 43
0.00000001
 40
0.0
 40
0.0
 40
0.0
 40
0.0
 40
0.1168369218480487
 40
0.2280869752807119
 40
0.3361953307148093
 40
0.4454791507184101
 40
0.5019964931800733
 40
0.5615530752350173
 40
0.6241413224319317
 40
0.691098031853392
 40
0.7612462993947786
 40
0.8365748255986292
 40
0.9156669457862845
 40
1.0
 40
1.0
 40
1.0
 40
1.0
 10
165.5503149846473
 20
85.41015067662325
 30
0.0
 10
165.5487680021201
 20
85.45170200046246
 30
0.0
 10
165.5457480101531
 20
85.53281776098997
 30
0.0
 10
165.5178545092047
 20
85.64982333838401
 30
0.0
 10
165.4711530744465
 20
85.7573111209547
 30
0.0
 10
165.4182903640113
 20
85.83964552321189
 30
0.0
 10
165.3659631525628
 20
85.90035602166974
 30
0.0
 10
165.3202666128039
 20
85.94456204837486
 30
0.0
 10
165.267374267901
 20
85.98608493150998
 30
0.0
 10
165.2093240092966
 20
86.02692350654715
 30
0.0
 10
165.1444409342407
 20
86.06558915242405
 30
0.0
 10
165.0734906364528
 20
86.1021518482911
 30
0.0
 10
164.9959389702759
 20
86.13658448303943
 30
0.0
 10
164.9419547596659
 20
86.1579430291298
 30
0.0
 10
164.9140970359294
 20
86.16896477918735
 30
0.0
  0
SPLINE
  5
98
330
1F
100
AcDbEntity
  8
0
  6
Continuous
 62
     7
370
    25
100
AcDbSpline
210
0.0
220
0.0
230
1.0
 70
     8
 71
     3
 72
    23
 73
    19
 74
     0
 42
0.000000001
 43
0.00000001
 40
0.0
 40
0.0
 40
0.0
 40
0.0
 40
0.0704183407439888
 40
0.1398983262899648
 40
0.2098714827322012
 40
0.2824432280442453
 40
0.3554410066549698
 40
0.4273446434274996
 40
0.498869726689061
 40
0.5720655821253934
 40
0.6108359218932057
 40
0.6538660897937576
 40
0.7010477945875468
 40
0.7523061298909998
 40
0.8075456450906865
 40
0.8669527487086179
 40
0.9310849584641525
 40
1.0
 40
1.0
 40
1.0
 40
1.0
 10
163.0150585743909
 20
84.434990420213
 30
0.0
 10
163.0533971402592
 20
84.43642465602235
 30
0.0
 10
163.1295633938327
 20
84.43927401582144
 30
0.0
 10
163.241265812302
 20
84.46551608903309
 30
0.0
 10
163.3493094447415
 20
84.50665700611135
 30
0.0
 10
163.4516411806371
 20
84.56451713196938
 30
0.0
 10
163.5471702886913
 20
84.63490474541217
 30
0.0
 10
163.6296239341683
 20
84.71940715754523
 30
0.0
 10
163.7017636623068
 20
84.81296007723442
 30
0.0
 10
163.7490874601674
 20
84.90133074740524
 30
0.0
 10
163.7808901557452
 20
84.97939367410868
 30
0.0
 10
163.8036037180585
 20
85.04582968139688
 30
0.0
 10
163.8219333483886
 20
85.12058288443876
 30
0.0
 10
163.8400994494241
 20
85.20216284821973
 30
0.0
 10
163.853979110261
 20
85.29134431445148
 30
0.0
 10
163.8660417792035
 20
85.38780235223244
 30
0.0
 10
163.8756309063468
 20
85.492029307273
 30
0.0
 10
163.8798568329767
 20
85.56424909908493
 30
0.0
 10
163.8820457538781
 20
85.60165708687967
 30
0.0
  0
SPLINE
  5
99
330
1F
100
AcDbEntity
  8
0
  6
Continuous
 62
     7
370
    25
100
AcDbSpline
210
0.0
220
0.0
230
1.0
 70
     8
 71
     3
 72
    31
 73
    27
 74
     0
 42
0.000000001
 43
0.00000001
 40
0.0
 40
0.0
 40
0.0
 40
0.0
 40
0.065054749926597
 40
0.1267600908173989
 40
0.1851636743975467
 40
0.240368175996
 40
0.292478779561434
 40
0.3416842694399408
 40
0.3882804851059475
 40
0.4319607614163524
 40
0.4737330795845325
 40
0.5140527851450162
 40
0.5528057342986216
 40
0.5905542635423501
 40
0.6271376491872421
 40
0.6630677275804013
 40
0.6979972705385017
 40
0.73275394016551
 40
0.7669379730898745
 40
0.8005238623563327
 40
0.8335821150233282
 40
0.8667080105333033
 40
0.8995885028236209
 40
0.9324330797648361
 40
0.9660189690312941
 40
1.0
 40
1.0
 40
1.0
 40
1.0
 10
163.8491931897755
 20
80.61956440650569
 30
0.0
 10
163.78828157024
 20
80.61984199903982
 30
0.0
 10
163.6695944269819
 20
80.6203828919781
 30
0.0
 10
163.4964592264876
 20
80.62988615160282
 30
0.0
 10
163.3328219810708
 20
80.64290294827393
 30
0.0
 10
163.1788384293424
 20
80.66218222929223
 30
0.0
 10
163.0342429521639
 20
80.68641432950366
 30
0.0
 10
162.899400752301
 20
80.71820185098781
 30
0.0
 10
162.7736130485407
 20
80.75348727548052
 30
0.0
 10
162.6571939927422
 20
80.79544323360734
 30
0.0
 10
162.5495325736254
 20
80.84328873335627
 30
0.0
 10
162.4484954683055
 20
80.89428182871067
 30
0.0
 10
162.3540350767507
 20
80.94962144914612
 30
0.0
 10
162.2670773713834
 20
81.01009182423856
 30
0.0
 10
162.1850495510732
 20
81.07294356824117
 30
0.0
 10
162.1119189861317
 20
81.14220245289911
 30
0.0
 10
162.0445287554465
 20
81.21466331829595
 30
0.0
 10
161.9847123860529
 20
81.29148122562248
 30
0.0
 10
161.9316877461556
 20
81.3716153693809
 30
0.0
 10
161.8862551825928
 20
81.45443730440596
 30
0.0
 10
161.8462273069024
 20
81.53892985202353
 30
0.0
 10
161.8144988110416
 20
81.62620652459212
 30
0.0
 10
161.7894932043207
 20
81.71539521605106
 30
0.0
 10
161.771709608984
 20
81.80675360610448
 30
0.0
 10
161.7613285127208
 20
81.900308320677
 30
0.0
 10
161.7595451926038
 20
81.96355660404626
 30
0.0
 10
161.7586483179807
 20
81.99536568855697
 30
0.0
  0
SPLINE
  5
9A
330
1F
100
AcDbEntity
  8
0
  6
Continuous
 62
     7
370
    25
100
AcDbSpline
210
0.0
220
0.0
230
1.0
 70
     8
 71
     3
 72
    15
 73
    11
 74
     0
 42
0.000000001
 43
0.00000001
 40
0.0
 40
0.0
 40
0.0
 40
0.0
 40
0.110152175066822
 40
0.224222242628491
 40
0.3419129278445883
 40
0.4640474506958245
 40
0.5908700504788368
 40
0.722598892489626
 40
0.858657206917353
 40
1.0
 40
1.0
 40
1.0
 40
1.0
 10
162.8179431897755
 20
81.13959645778775
 30
0.0
 10
162.8541413823377
 20
81.12768182266473
 30
0.0
 10
162.9278252647526
 20
81.10342877268397
 30
0.0
 10
163.0425842591959
 20
81.07458871022945
 30
0.0
 10
163.1621960190564
 20
81.04851861587802
 30
0.0
 10
163.287373946159
 20
81.0279011772722
 30
0.0
 10
163.4180977300816
 20
81.0119249267176
 30
0.0
 10
163.5541604338313
 20
81.00083910558789
 30
0.0
 10
163.6955530933201
 20
80.9944924274747
 30
0.0
 10
163.7914945292308
 20
80.99347847600366
 30
0.0
 10
163.8403790872114
 20
80.99296184240312
 30
0.0
  0
SPLINE
  5
9B
330
1F
100
AcDbEntity
  8
0
  6
Continuous
 62
     7
370
    25
100
AcDbSpline
210
0.0
220
0.0
230
1.0
 70
     8
 71
     3
 72
    27
 73
    23
 74
     0
 42
0.000000001
 43
0.00000001
 40
0.0
 40
0.0
 40
0.0
 40
0.0
 40
0.0664232513051476
 40
0.1300005482133332
 40
0.1904591131003911
 40
0.2478107805595826
 40
0.3025828249597598
 40
0.3547537329664127
 40
0.4042227801398763
 40
0.4510520956160166
 40
0.4956100193804413
 40
0.5385021681669531
 40
0.5789184683159948
 40
0.6180061295108086
 40
0.6549634153425247
 40
0.6905110368767464
 40
0.724898527990893
 40
0.758401355053738
 40
0.8226217585105128
 40
0.8832032853019794
 40
0.9417414765410408
 40
1.0
 40
1.0
 40
1.0
 40
1.0
 10
163.8403790872114
 20
80.99296184240312
 30
0.0
 10
163.8892618657334
 20
80.99349278917614
 30
0.0
 10
163.9849330031919
 20
80.99453193390646
 30
0.0
 10
164.1250203394013
 20
81.00060559703299
 30
0.0
 10
164.2580112702954
 20
81.01235066184815
 30
0.0
 10
164.3843331316314
 20
81.02598447789342
 30
0.0
 10
164.5036416324977
 20
81.04584497181358
 30
0.0
 10
164.6167388267206
 20
81.0674754213609
 30
0.0
 10
164.7226041693406
 20
81.09485225502698
 30
0.0
 10
164.8214158063336
 20
81.12630279982258
 30
0.0
 10
164.9141682022498
 20
81.16057829943065
 30
0.0
 10
165.000122555228
 20
81.19901142674759
 30
0.0
 10
165.0804593284712
 20
81.23989229761078
 30
0.0
 10
165.1536827237363
 20
81.28459080970416
 30
0.0
 10
165.220842835707
 20
81.3319897006524
 30
0.0
 10
165.281184289615
 20
81.38260269682605
 30
0.0
 10
165.3352536585668
 20
81.43636285921787
 30
0.0
 10
165.39713586369
 20
81.51147787154038
 30
0.0
 10
165.4616173127574
 20
81.60909163432865
 30
0.0
 10
165.5178249067226
 20
81.73223282613198
 30
0.0
 10
165.5526722327815
 20
81.8591059705561
 30
0.0
 10
165.556445626143
 20
81.94520681259111
 30
0.0
 10
165.5583278051602
 20
81.98815415009543
 30
0.0
  0
SPLINE
  5
9C
330
1F
100
AcDbEntity
  8
0
  6
Continuous
 62
     7
370
    25
100
AcDbSpline
210
0.0
220
0.0
230
1.0
 70
     8
 71
     3
 72
    27
 73
    23
 74
     0
 42
0.000000001
 43
0.00000001
 40
0.0
 40
0.0
 40
0.0
 40
0.0
 40
0.0593293019684135
 40
0.1185254540357434
 40
0.1792124512750438
 40
0.2433848028065203
 40
0.2765844550939956
 40
0.3101779018677913
 40
0.3443612289795338
 40
0.379395755117186
 40
0.4157221804151907
 40
0.4535229359415115
 40
0.4924802062971825
 40
0.532889054049553
 40
0.5761355259604364
 40
0.6235440730885567
 40
0.6751829461800857
 40
0.7311883336936793
 40
0.7916669331314445
 40
0.8563414681220455
 40
0.9260161968035939
 40
1.0
 40
1.0
 40
1.0
 40
1.0
 10
165.5583278051602
 20
81.98815415009543
 30
0.0
 10
165.5560930398962
 20
82.03188020245913
 30
0.0
 10
165.5516285247445
 20
82.11923417490867
 30
0.0
 10
165.5176404628165
 20
82.24788009579848
 30
0.0
 10
165.4596503808448
 20
82.37090859599141
 30
0.0
 10
165.3960207326881
 20
82.4689600745846
 30
0.0
 10
165.3336708833149
 20
82.5426990464147
 30
0.0
 10
165.2813710505869
 20
82.59565342560553
 30
0.0
 10
165.2244632534448
 20
82.64574537729881
 30
0.0
 10
165.1614085638194
 20
82.6913763239907
 30
0.0
 10
165.093100781983
 20
82.73387123025347
 30
0.0
 10
165.0195488586712
 20
82.77311545310485
 30
0.0
 10
164.9406049780699
 20
82.80807337363429
 30
0.0
 10
164.8564377420792
 20
82.84096357530701
 30
0.0
 10
164.7639287659179
 20
82.86882391750254
 30
0.0
 10
164.6620769318987
 20
82.89370107577263
 30
0.0
 10
164.5496806442109
 20
82.91424110998652
 30
0.0
 10
164.4269476881832
 20
82.93088606549809
 30
0.0
 10
164.2940893019018
 20
82.94355628716626
 30
0.0
 10
164.1508282929
 20
82.95197110563655
 30
0.0
 10
163.9974801176193
 20
82.95789133928758
 30
0.0
 10
163.8916673060197
 20
82.95829752798316
 30
0.0
 10
163.8371739590063
 20
82.958506714198
 30
0.0
  0
SPLINE
  5
9D
330
1F
100
AcDbEntity
  8
0
  6
Continuous
 62
     7
370
    25
100
AcDbSpline
210
0.0
220
0.0
230
1.0
 70
     8
 71
     3
 72
    27
 73
    23
 74
     0
 42
0.000000001
 43
0.00000001
 40
0.0
 40
0.0
 40
0.0
 40
0.0
 40
0.0740068800135492
 40
0.1433366578346471
 40
0.2080508668119511
 40
0.268183640747015
 40
0.3242536094743633
 40
0.3755488883916821
 40
0.4229693747249084
 40
0.4662267376782198
 40
0.5066457618555316
 40
0.545612843075895
 40
0.583103345373998
 40
0.6193264864456972
 40
0.6548768181198287
 40
0.6893428073149621
 40
0.7232041168768296
 40
0.7566903068900831
 40
0.8211825110656593
 40
0.8820644388783615
 40
0.9410171575677732
 40
1.0
 40
1.0
 40
1.0
 40
1.0
 10
163.8371739590063
 20
82.958506714198
 30
0.0
 10
163.7826835360119
 20
82.9579297995442
 30
0.0
 10
163.6771463871064
 20
82.95681243020888
 30
0.0
 10
163.5240138838973
 20
82.95152567392594
 30
0.0
 10
163.3813687146668
 20
82.94163940865641
 30
0.0
 10
163.2486597477962
 20
82.92958249793692
 30
0.0
 10
163.1265921297093
 20
82.91167129547883
 30
0.0
 10
163.0144188194313
 20
82.89125571690018
 30
0.0
 10
162.9128234943343
 20
82.86641428688574
 30
0.0
 10
162.8203129138816
 20
82.83856408496156
 30
0.0
 10
162.7361504453594
 20
82.80565827673897
 30
0.0
 10
162.6574054052577
 20
82.77084581343335
 30
0.0
 10
162.5841819812521
 20
82.73159879305815
 30
0.0
 10
162.5166767975403
 20
82.6877195673289
 30
0.0
 10
162.4533648367872
 20
82.64170019839398
 30
0.0
 10
162.3951504953073
 20
82.59191149944482
 30
0.0
 10
162.3431054097595
 20
82.53782149454459
 30
0.0
 10
162.2809042553564
 20
82.46321184074357
 30
0.0
 10
162.2167246858105
 20
82.3647439123489
 30
0.0
 10
162.160692741411
 20
82.24073505991471
 30
0.0
 10
162.1247743237057
 20
82.11301546102636
 30
0.0
 10
162.1205411076631
 20
82.0260426758538
 30
0.0
 10
162.1184239590063
 20
81.98254517573646
 30
0.0
  0
SPLINE
  5
9E
330
1F
100
AcDbEntity
  8
0
  6
Continuous
 62
     7
370
    25
100
AcDbSpline
210
0.0
220
0.0
230
1.0
 70
     8
 71
     3
 72
    19
 73
    15
 74
     0
 42
0.000000001
 43
0.00000001
 40
0.0
 40
0.0
 40
0.0
 40
0.0
 40
0.1111411066451685
 40
0.2220507786476907
 40
0.336147592012781
 40
0.4552056890189062
 40
0.5173410957670577
 40
0.580171860525767
 40
0.6441520638355012
 40
0.7103395595588102
 40
0.7784473430435114
 40
0.8493743306228045
 40
0.9227998277839432
 40
0.9999999999999999
 40
0.9999999999999999
 40
0.9999999999999999
 40
0.9999999999999999
 10
162.1184239590063
 20
81.98254517573646
 30
0.0
 10
162.1206321131353
 20
81.93907253094864
 30
0.0
 10
162.1250438232445
 20
81.85221776661892
 30
0.0
 10
162.1594795888489
 20
81.7244217633876
 30
0.0
 10
162.2157555638094
 20
81.60181486266923
 30
0.0
 10
162.279067651492
 20
81.50483110647812
 30
0.0
 10
162.3395995365498
 20
81.43098112964232
 30
0.0
 10
162.3922914468957
 20
81.37913767818011
 30
0.0
 10
162.4491606175924
 20
81.32945587498801
 30
0.0
 10
162.5129012501085
 20
81.28521736653136
 30
0.0
 10
162.5812078948554
 20
81.24311089661362
 30
0.0
 10
162.655070484081
 20
81.20509193736005
 30
0.0
 10
162.733872763892
 20
81.16903042328883
 30
0.0
 10
162.7894554145912
 20
81.14957033603524
 30
0.0
 10
162.8179431897755
 20
81.13959645778775
 30
0.0
  0
SPLINE
  5
9F
330
1F
100
AcDbEntity
  8
0
  6
Continuous
 62
     7
370
    25
100
AcDbSpline
210
0.0
220
0.0
230
1.0
 70
     8
 71
     3
 72
    31
 73
    27
 74
     0
 42
0.000000001
 43
0.00000001
 40
0.0
 40
0.0
 40
0.0
 40
0.0
 40
0.0686229361946743
 40
0.1329858155696743
 40
0.1937383892668944
 40
0.2506817797979177
 40
0.303877180682789
 40
0.3534861573449565
 40
0.3996677569169308
 40
0.4425240170357794
 40
0.4830502605263776
 40
0.522211102576476
 40
0.5600302691416034
 40
0.5968197585823113
 40
0.6326017786981911
 40
0.6673459431853854
 40
0.7018795098001501
 40
0.7360495487490988
 40
0.7695730081982992
 40
0.8028694884205134
 40
0.8354945064175363
 40
0.8679218566478648
 40
0.9003796956573771
 40
0.9331496668309186
 40
0.9660914888278855
 40
1.0
 40
1.0
 40
1.0
 40
1.0
 10
163.8443854974678
 20
83.33510927830056
 30
0.0
 10
163.9082276380806
 20
83.33466566749742
 30
0.0
 10
164.0319486504402
 20
83.33380598489389
 30
0.0
 10
164.2120802628961
 20
83.32668289880225
 30
0.0
 10
164.3810341389636
 20
83.3141812449504
 30
0.0
 10
164.5389730259724
 20
83.29565482859634
 30
0.0
 10
164.6858816112005
 20
83.27288535322269
 30
0.0
 10
164.821578027021
 20
83.2442482784325
 30
0.0
 10
164.9459890936701
 20
83.20988729712403
 30
0.0
 10
165.0599736912023
 20
83.170433191668
 30
0.0
 10
165.1650523661264
 20
83.12599004239856
 30
0.0
 10
165.2628267638281
 20
83.07697254441446
 30
0.0
 10
165.3547099552481
 20
83.02426571825288
 30
0.0
 10
165.4396066884287
 20
82.96633275107276
 30
0.0
 10
165.5184361812721
 20
82.90490925343444
 30
0.0
 10
165.5901985895485
 20
82.83842873970245
 30
0.0
 10
165.6563204370366
 20
82.76832361798469
 30
0.0
 10
165.7141834445006
 20
82.69270324841621
 30
0.0
 10
165.7668208178115
 20
82.61480600201229
 30
0.0
 10
165.8122714497617
 20
82.53410645270236
 30
0.0
 10
165.8511077003997
 20
82.45116416644048
 30
0.0
 10
165.8825132981859
 20
82.3659281077762
 30
0.0
 10
165.9063790044924
 20
82.27817451316616
 30
0.0
 10
165.924172014606
 20
82.18851964367346
 30
0.0
 10
165.9347316319848
 20
82.09630900177015
 30
0.0
 10
165.9364583644682
 20
82.03412090888712
 30
0.0
 10
165.9373342154166
 20
82.0025772270185
 30
0.0
  0
SPLINE
  5
A0
330
1F
100
AcDbEntity
  8
0
  6
Continuous
 62
     7
370
    25
100
AcDbSpline
210
0.0
220
0.0
230
1.0
 70
     8
 71
     3
 72
    31
 73
    27
 74
     0
 42
0.000000001
 43
0.00000001
 40
0.0
 40
0.0
 40
0.0
 40
0.0
 40
0.0339343666938296
 40
0.0669119475124989
 40
0.0996633074995975
 40
0.1321563799603165
 40
0.1642504040377381
 40
0.1967904749664072
 40
0.2295922410779639
 40
0.2629929477835144
 40
0.2967968276865476
 40
0.3311725864285024
 40
0.3659544662061021
 40
0.4017753282196035
 40
0.4386047531803793
 40
0.4766097919540501
 40
0.5161989590608016
 40
0.5571461663915847
 40
0.6005114497932925
 40
0.6470973969094161
 40
0.6968209002679959
 40
0.7501197866674869
 40
0.8068737398436215
 40
0.8674281868282306
 40
0.9318731115023735
 40
1.0
 40
1.0
 40
1.0
 40
1.0
 10
161.7586483179807
 20
81.99536568855697
 30
0.0
 10
161.7591595615846
 20
82.02691708464103
 30
0.0
 10
161.7601676341825
 20
82.08913027924015
 30
0.0
 10
161.7713483215053
 20
82.18119899950098
 30
0.0
 10
161.7876888409674
 20
82.27107631544746
 30
0.0
 10
161.8119653883809
 20
82.35833374495722
 30
0.0
 10
161.8425502498606
 20
82.44335186473894
 30
0.0
 10
161.8804128537078
 20
82.52570326099763
 30
0.0
 10
161.924470240658
 20
82.60630151993519
 30
0.0
 10
161.9759338664122
 20
82.68380061123814
 30
0.0
 10
162.0335351508099
 20
82.75871030965472
 30
0.0
 10
162.0985449633791
 20
82.82908714155536
 30
0.0
 10
162.1703862761378
 20
82.89524068343789
 30
0.0
 10
162.2491233944101
 20
82.95677672767259
 30
0.0
 10
162.3342871256934
 20
83.01453624410077
 30
0.0
 10
162.4260535231608
 20
83.06839991158401
 30
0.0
 10
162.524509668545
 20
83.1179967407963
 30
0.0
 10
162.6305435619699
 20
83.16302850983136
 30
0.0
 10
162.7449771935983
 20
83.20455678869132
 30
0.0
 10
162.8701634280447
 20
83.23925841872034
 30
0.0
 10
163.0060543637306
 20
83.26895204123119
 30
0.0
 10
163.1527291861364
 20
83.29239423447035
 30
0.0
 10
163.3101169999856
 20
83.3118171458007
 30
0.0
 10
163.4785434998011
 20
83.32512873448552
 30
0.0
 10
163.6578789269097
 20
83.33300270649588
 30
0.0
 10
163.7810761076671
 20
83.33439420550111
 30
0.0
 10
163.8443854974678
 20
83.33510927830056
 30
0.0
  0
SPLINE
  5
A1
330
1F
100
AcDbEntity
  8
0
  6
Continuous
 62
     7
370
    25
100
AcDbSpline
210
0.0
220
0.0
230
1.0
 70
     8
 71
     3
 72
    31
 73
    27
 74
     0
 42
0.000000001
 43
0.00000001
 40
0.0
 40
0.0
 40
0.0
 40
0.0
 40
0.0339502110781211
 40
0.067232912161326
 40
0.100285195545381
 40
0.1328717560866791
 40
0.1656126382025742
 40
0.1984143020951524
 40
0.2319803791781297
 40
0.2657493034654438
 40
0.3000852706599996
 40
0.3350128356127914
 40
0.3707276124325701
 40
0.4072426904682681
 40
0.4447344002219943
 40
0.4838550686041198
 40
0.5242809168028184
 40
0.5664047064396796
 40
0.6105232789836176
 40
0.6571713761395421
 40
0.7066905256858504
 40
0.7588195408743702
 40
0.8143476779909851
 40
0.8730252167393551
 40
0.9346941578931792
 40
1.0
 40
1.0
 40
1.0
 40
1.0
 10
165.9373342154166
 20
82.0025772270185
 30
0.0
 10
165.9368205662915
 20
81.97075797611869
 30
0.0
 10
165.9358033671223
 20
81.90774508657098
 30
0.0
 10
165.9245511409904
 20
81.81436983541195
 30
0.0
 10
165.9086367019442
 20
81.72297897989189
 30
0.0
 10
165.882900883506
 20
81.63434127081703
 30
0.0
 10
165.8518245536829
 20
81.54779148467048
 30
0.0
 10
165.8140871199427
 20
81.46283323184836
 30
0.0
 10
165.768282502542
 20
81.38086765931273
 30
0.0
 10
165.716229231756
 20
81.30098778349605
 30
0.0
 10
165.6564611714043
 20
81.22510510306356
 30
0.0
 10
165.5911229411367
 20
81.15145345141845
 30
0.0
 10
165.5167724734081
 20
81.08379668788592
 30
0.0
 10
165.4365010795643
 20
81.0195368591818
 30
0.0
 10
165.3494516091498
 20
80.95892016432455
 30
0.0
 10
165.254859978831
 20
80.90333692819748
 30
0.0
 10
165.1535419228804
 20
80.8510180453964
 30
0.0
 10
165.0450279592012
 20
80.80287996456173
 30
0.0
 10
164.9284173485912
 20
80.75898154782287
 30
0.0
 10
164.8019528072701
 20
80.72293822088231
 30
0.0
 10
164.6668278139239
 20
80.69044994744868
 30
0.0
 10
164.5216493712398
 20
80.66552458942127
 30
0.0
 10
164.3672533789527
 20
80.64426324815905
 30
0.0
 10
164.2030236930293
 20
80.63051745822062
 30
0.0
 10
164.0293176475786
 20
80.6214089452225
 30
0.0
 10
163.9103703332261
 20
80.6201908822828
 30
0.0
 10
163.8491931897755
 20
80.61956440650569
 30
0.0
  0
LINE
  5
A2
330
1F
100
AcDbEntity
  8
0
  6
Continuous
 62
     7
370
    25
100
AcDbLine
 10
168.8564047282
 20
82.1010198548
 30
0.0
 11
168.8564047282
 21
65.6465371829
 31
0.0
  0
LINE
  5
A3
330
1F
100
AcDbEntity
  8
0
  6
Continuous
 62
     7
370
    25
100
AcDbLine
 10
168.8564047282
 20
98.5555025267
 30
0.0
 11
168.8564047282
 21
82.1010198548
 31
0.0
  0
LINE
  5
A4
330
1F
100
AcDbEntity
  8
0
  6
Continuous
 62
     7
370
    25
100
AcDbLine
 10
165.9389367795
 20
78.042819578
 30
0.0
 11
165.9389367795
 21
77.9618900908
 31
0.0
  0
LINE
  5
A5
330
1F
100
AcDbEntity
  8
0
  6
Continuous
 62
     7
370
    25
100
AcDbLine
 10
165.9389367795
 20
77.9618900908
 30
0.0
 11
163.1665008821
 21
77.9570823985
 31
0.0
  0
LINE
  5
A6
330
1F
100
AcDbEntity
  8
0
  6
Continuous
 62
     7
370
    25
100
AcDbLine
 10
163.1665008821
 20
77.9570823985
 30
0.0
 11
163.1673021641
 21
77.4755118857
 31
0.0
  0
LINE
  5
A7
330
1F
100
AcDbEntity
  8
0
  6
Continuous
 62
     7
370
    25
100
AcDbLine
 10
162.7842893436
 20
78.3537170139
 30
0.0
 11
162.7810842154
 21
80.2543580395
 31
0.0
  0
LINE
  5
A8
330
1F
100
AcDbEntity
  8
0
  6
Continuous
 62
     7
370
    25
100
AcDbLine
 10
162.7810842154
 20
80.2543580395
 30
0.0
 11
165.9389367795
 21
78.042819578
 31
0.0
  0
LINE
  5
A9
330
1F
100
AcDbEntity
  8
0
  6
Continuous
 62
     7
370
    25
100
AcDbLine
 10
163.1640970359
 20
79.5251913729
 30
0.0
 11
163.1656996
 21
78.3545182959
 31
0.0
  0
LINE
  5
AA
330
1F
100
AcDbEntity
  8
0
  6
Continuous
 62
     7
370
    25
100
AcDbLine
 10
163.1656996
 20
78.3545182959
 30
0.0
 11
164.8235521641
 21
78.3569221421
 31
0.0
  0
LINE
  5
AB
330
1F
100
AcDbEntity
  8
0
  6
Continuous
 62
     7
370
    25
100
AcDbLine
 10
164.8235521641
 20
78.3569221421
 30
0.0
 11
163.1640970359
 21
79.5251913729
 31
0.0
  0
LINE
  5
AC
330
1F
100
AcDbEntity
  8
0
  6
Continuous
 62
     7
370
    25
100
AcDbLine
 10
161.8604111385
 20
77.9546785523
 30
0.0
 11
161.8596098564
 21
78.3521144498
 31
0.0
  0
LINE
  5
AD
330
1F
100
AcDbEntity
  8
0
  6
Continuous
 62
     7
370
    25
100
AcDbLine
 10
162.7850906257
 20
77.9562811164
 30
0.0
 11
161.8604111385
 21
77.9546785523
 31
0.0
  0
LINE
  5
AE
330
1F
100
AcDbEntity
  8
0
  6
Continuous
 62
     7
370
    25
100
AcDbLine
 10
162.7858919077
 20
77.4747106036
 30
0.0
 11
162.7850906257
 21
77.9562811164
 31
0.0
  0
LINE
  5
AF
330
1F
100
AcDbEntity
  8
0
  6
Continuous
 62
     7
370
    25
100
AcDbLine
 10
163.1673021641
 20
77.4755118857
 30
0.0
 11
162.7858919077
 21
77.4747106036
 31
0.0
  0
LINE
  5
B0
330
1F
100
AcDbEntity
  8
0
  6
Continuous
 62
     7
370
    25
100
AcDbLine
 10
161.8596098564
 20
78.3521144498
 30
0.0
 11
162.7842893436
 21
78.3537170139
 31
0.0
  0
LINE
  5
B1
330
1F
100
AcDbEntity
  8
0
  6
Continuous
 62
     7
370
    25
100
AcDbLine
 10
168.8564047282
 20
65.6465371829
 30
0.0
 11
168.8564047282
 21
63.1010198548
 31
0.0
  0
LINE
  5
B2
330
1F
100
AcDbEntity
  8
0
  6
Continuous
 62
     7
370
    25
100
AcDbLine
 10
168.8564047282
 20
101.1010198548
 30
0.0
 11
168.8564047282
 21
98.5555025267
 31
0.0
  0
LINE
  5
B3
330
1F
100
AcDbEntity
  8
0
  6
CENTERX2
 62
     7
370
    18
100
AcDbLine
 10
156.8564047282
 20
82.1010198548
 30
0.0
 11
170.7801068638
 21
82.1010198548
 31
0.0
  0
SPLINE
  5
B4
330
1F
100
AcDbEntity
  8
0
  6
Continuous
 62
     7
370
    25
100
AcDbSpline
210
0.0
220
0.0
230
1.0
 70
    24
 71
     3
 72
    12
 73
     8
 74
     0
 42
0.000000001
 43
0.00000001
 40
0.0
 40
0.0
 40
0.0
 40
0.0
 40
0.2500000000000001
 40
0.2500000000000001
 40
0.5000000000000001
 40
0.5000000000000001
 40
1.0
 40
1.0
 40
1.0
 40
1.0
 10
243.5770493262098
 20
71.13136474020888
 30
0.0
 10
243.5770493262098
 20
72.02421807122737
 30
0.0
 10
243.5770493262098
 20
72.92691083639224
 30
0.0
 10
243.5770493262098
 20
74.74652106571683
 30
0.0
 10
243.5770493262098
 20
75.65875941731265
 30
0.0
 10
243.5770493262098
 20
78.40400390270123
 30
0.0
 10
243.5770493262098
 20
80.24571493402385
 30
0.0
 10
243.5770493262098
 20
82.10101985481178
 30
0.0
  0
SPLINE
  5
B5
330
1F
100
AcDbEntity
  8
0
  6
Continuous
 62
     7
370
    25
100
AcDbSpline
210
0.0
220
0.0
230
1.0
 70
    24
 71
     3
 72
    10
 73
     6
 74
     0
 42
0.000000001
 43
0.00000001
 40
0.0
 40
0.0
 40
0.0
 40
0.0
 40
0.5
 40
0.5
 40
1.0
 40
1.0
 40
1.0
 40
1.0
 10
243.5770493262098
 20
71.1313647402089
 30
0.0
 10
242.0229733435569
 20
70.23411855328307
 30
0.0
 10
240.4575460257113
 20
69.33031866992816
 30
0.0
 10
237.2939651758482
 20
67.50382441465653
 30
0.0
 10
235.6955670122989
 20
66.58098880465913
 30
0.0
 10
234.0770493262098
 20
65.64653718290744
 30
0.0
  0
ARC
  5
B6
330
1F
100
AcDbEntity
  8
0
  6
Continuous
 62
     7
370
    25
100
AcDbCircle
 10
224.5770493262
 20
82.1010198548
 30
0.0
 40
19.00000000000001
100
AcDbArc
 50
300.0
 51
0.0
  0
SPLINE
  5
B7
330
1F
100
AcDbEntity
  8
0
  6
Continuous
 62
     7
370
    25
100
AcDbSpline
210
0.0
220
0.0
230
1.0
 70
    24
 71
     3
 72
    14
 73
    10
 74
     0
 42
0.000000001
 43
0.00000001
 40
0.0
 40
0.0
 40
0.0
 40
0.0
 40
0.1249999999999997
 40
0.1249999999999997
 40
0.2499999999999996
 40
0.2499999999999996
 40
0.4999999999999993
 40
0.4999999999999993
 40
1.0
 40
1.0
 40
1.0
 40
1.0
 10
234.0770493262098
 20
98.55550252671613
 30
0.0
 10
234.4801656092996
 20
98.32276323215955
 30
0.0
 10
234.8852986109476
 20
98.08885958460047
 30
0.0
 10
235.6917952208031
 20
97.62322854979985
 30
0.0
 10
236.0936456761323
 20
97.39122008124157
 30
0.0
 10
237.295185364377
 20
96.69751081879149
 30
0.0
 10
238.0908536147431
 20
96.23813154025702
 30
0.0
 10
240.4637266522954
 20
94.86815265327337
 30
0.0
 10
242.0268547125224
 20
93.96568024692341
 30
0.0
 10
243.5770493262098
 20
93.07067496941468
 30
0.0
  0
SPLINE
  5
B8
330
1F
100
AcDbEntity
  8
0
  6
Continuous
 62
     7
370
    25
100
AcDbSpline
210
0.0
220
0.0
230
1.0
 70
    24
 71
     3
 72
    12
 73
     8
 74
     0
 42
0.000000001
 43
0.00000001
 40
0.0
 40
0.0
 40
0.0
 40
0.0
 40
0.2499999999999999
 40
0.2499999999999999
 40
0.4999999999999998
 40
0.4999999999999998
 40
1.0
 40
1.0
 40
1.0
 40
1.0
 10
243.5770493262098
 20
82.10101985481178
 30
0.0
 10
243.5770493262098
 20
83.02933101945075
 30
0.0
 10
243.5770493262098
 20
83.96207352858629
 30
0.0
 10
243.5770493262098
 20
85.8297987562312
 30
0.0
 10
243.5770493262098
 20
86.75371566076576
 30
0.0
 10
243.5770493262098
 20
89.49982980261073
 30
0.0
 10
243.5770493262098
 20
91.29656820857386
 30
0.0
 10
243.5770493262098
 20
93.07067496941468
 30
0.0
  0
ARC
  5
B9
330
1F
100
AcDbEntity
  8
0
  6
Continuous
 62
     7
370
    25
100
AcDbCircle
 10
224.5770493262
 20
82.1010198548
 30
0.0
 40
19.00000000000001
100
AcDbArc
 50
0.0
 51
60.0
  0
ARC
  5
BA
330
1F
100
AcDbEntity
  8
0
  6
Continuous
 62
     7
370
    25
100
AcDbCircle
 10
224.5770493262
 20
82.1010198548
 30
0.0
 40
19.00000000000001
100
AcDbArc
 50
240.0
 51
300.0
  0
ARC
  5
BB
330
1F
100
AcDbEntity
  8
0
  6
Continuous
 62
     7
370
    25
100
AcDbCircle
 10
224.5770493262
 20
82.1010198548
 30
0.0
 40
19.0
100
AcDbArc
 50
180.0
 51
240.0
  0
ARC
  5
BC
330
1F
100
AcDbEntity
  8
0
  6
Continuous
 62
     7
370
    25
100
AcDbCircle
 10
224.5770493262
 20
82.1010198548
 30
0.0
 40
19.00000000000001
100
AcDbArc
 50
120.0
 51
180.0
  0
ARC
  5
BD
330
1F
100
AcDbEntity
  8
0
  6
Continuous
 62
     7
370
    25
100
AcDbCircle
 10
224.5770493262
 20
82.1010198548
 30
0.0
 40
19.00000000000001
100
AcDbArc
 50
60.0
 51
120.0
  0
CIRCLE
  5
BE
330
1F
100
AcDbEntity
  8
0
  6
Continuous
 62
     7
370
    25
100
AcDbCircle
 10
224.5770493262
 20
82.1010198548
 30
0.0
 40
12.95000000000002
  0
CIRCLE
  5
BF
330
1F
100
AcDbEntity
  8
0
  6
Continuous
 62
     7
370
    25
100
AcDbCircle
 10
224.5770493262
 20
82.1010198548
 30
0.0
 40
12.25
  0
SPLINE
  5
C0
330
1F
100
AcDbEntity
  8
0
  6
Continuous
 62
     7
370
    25
100
AcDbSpline
210
0.0
220
0.0
230
1.0
 70
    24
 71
     3
 72
    14
 73
    10
 74
     0
 42
0.000000001
 43
0.00000001
 40
0.0
 40
0.0
 40
0.0
 40
0.0
 40
0.1250000000000003
 40
0.1250000000000003
 40
0.2500000000000006
 40
0.2500000000000006
 40
0.5000000000000004
 40
0.5000000000000004
 40
1.0
 40
1.0
 40
1.0
 40
1.0
 10
215.0770493262098
 20
98.55550252671613
 30
0.0
 10
215.4801656092996
 20
98.78824182127272
 30
0.0
 10
215.8852986109476
 20
99.02214546883178
 30
0.0
 10
216.6917952208032
 20
99.48777650363242
 30
0.0
 10
217.0936456761323
 20
99.71978497219068
 30
0.0
 10
218.295185364377
 20
100.4134942346408
 30
0.0
 10
219.090853614743
 20
100.8728735131752
 30
0.0
 10
221.4637266522954
 20
102.2428524001589
 30
0.0
 10
223.0268547125225
 20
103.1453248065088
 30
0.0
 10
224.5770493262099
 20
104.0403300840176
 30
0.0
  0
SPLINE
  5
C1
330
1F
100
AcDbEntity
  8
0
  6
Continuous
 62
     7
370
    25
100
AcDbSpline
210
0.0
220
0.0
230
1.0
 70
    24
 71
     3
 72
    10
 73
     6
 74
     0
 42
0.000000001
 43
0.00000001
 40
0.0
 40
0.0
 40
0.0
 40
0.0
 40
0.5
 40
0.5
 40
1.0
 40
1.0
 40
1.0
 40
1.0
 10
224.5770493262098
 20
104.0403300840176
 30
0.0
 10
226.1311253088628
 20
103.1430838970918
 30
0.0
 10
227.6965526267083
 20
102.2392840137368
 30
0.0
 10
230.8601334765715
 20
100.4127897584652
 30
0.0
 10
232.4585316401208
 20
99.48995414846782
 30
0.0
 10
234.0770493262098
 20
98.55550252671613
 30
0.0
  0
SPLINE
  5
C2
330
1F
100
AcDbEntity
  8
0
  6
Continuous
 62
     7
370
    25
100
AcDbSpline
210
0.0
220
0.0
230
1.0
 70
    24
 71
     3
 72
    10
 73
     6
 74
     0
 42
0.000000001
 43
0.00000001
 40
0.0
 40
0.0
 40
0.0
 40
0.0
 40
0.5
 40
0.5
 40
1.0
 40
1.0
 40
1.0
 40
1.0
 10
224.5770493262099
 20
60.16170962560599
 30
0.0
 10
223.0229733435569
 20
61.05895581253182
 30
0.0
 10
221.4575460257114
 20
61.96275569588673
 30
0.0
 10
218.2939651758482
 20
63.78924995115837
 30
0.0
 10
216.6955670122989
 20
64.71208556115576
 30
0.0
 10
215.0770493262098
 20
65.64653718290744
 30
0.0
  0
SPLINE
  5
C3
330
1F
100
AcDbEntity
  8
0
  6
Continuous
 62
     7
370
    25
100
AcDbSpline
210
0.0
220
0.0
230
1.0
 70
    24
 71
     3
 72
    14
 73
    10
 74
     0
 42
0.000000001
 43
0.00000001
 40
0.0
 40
0.0
 40
0.0
 40
0.0
 40
0.1250000000000003
 40
0.1250000000000003
 40
0.2500000000000007
 40
0.2500000000000007
 40
0.5000000000000004
 40
0.5000000000000004
 40
1.0
 40
1.0
 40
1.0
 40
1.0
 10
234.0770493262098
 20
65.64653718290744
 30
0.0
 10
233.6739330431201
 20
65.41379788835086
 30
0.0
 10
233.2688000414721
 20
65.1798942407918
 30
0.0
 10
232.4623034316166
 20
64.71426320599116
 30
0.0
 10
232.0604529762874
 20
64.48225473743288
 30
0.0
 10
230.8589132880427
 20
63.78854547498279
 30
0.0
 10
230.0632450376766
 20
63.32916619644832
 30
0.0
 10
227.6903720001243
 20
61.95918730946466
 30
0.0
 10
226.1272439398973
 20
61.05671490311473
 30
0.0
 10
224.5770493262098
 20
60.161709625606
 30
0.0
  0
SPLINE
  5
C4
330
1F
100
AcDbEntity
  8
0
  6
Continuous
 62
     7
370
    25
100
AcDbSpline
210
0.0
220
0.0
230
1.0
 70
    24
 71
     3
 72
    12
 73
     8
 74
     0
 42
0.000000001
 43
0.00000001
 40
0.0
 40
0.0
 40
0.0
 40
0.0
 40
0.2499999999999999
 40
0.2499999999999999
 40
0.5
 40
0.5
 40
1.0
 40
1.0
 40
1.0
 40
1.0
 10
205.5770493262098
 20
71.1313647402089
 30
0.0
 10
205.5770493262098
 20
72.02421807122738
 30
0.0
 10
205.5770493262098
 20
72.92691083639225
 30
0.0
 10
205.5770493262098
 20
74.74652106571685
 30
0.0
 10
205.5770493262098
 20
75.65875941731267
 30
0.0
 10
205.5770493262098
 20
78.40400390270125
 30
0.0
 10
205.5770493262098
 20
80.24571493402385
 30
0.0
 10
205.5770493262098
 20
82.10101985481178
 30
0.0
  0
SPLINE
  5
C5
330
1F
100
AcDbEntity
  8
0
  6
Continuous
 62
     7
370
    25
100
AcDbSpline
210
0.0
220
0.0
230
1.0
 70
    24
 71
     3
 72
    14
 73
    10
 74
     0
 42
0.000000001
 43
0.00000001
 40
0.0
 40
0.0
 40
0.0
 40
0.0
 40
0.125
 40
0.125
 40
0.2499999999999998
 40
0.2499999999999998
 40
0.4999999999999997
 40
0.4999999999999997
 40
1.0
 40
1.0
 40
1.0
 40
1.0
 10
215.0770493262098
 20
65.64653718290744
 30
0.0
 10
214.6739330431201
 20
65.87927647746405
 30
0.0
 10
214.2688000414721
 20
66.1131801250231
 30
0.0
 10
213.4623034316165
 20
66.57881115982373
 30
0.0
 10
213.0604529762874
 20
66.810819628382
 30
0.0
 10
211.8589132880427
 20
67.50452889083209
 30
0.0
 10
211.0632450376766
 20
67.96390816936656
 30
0.0
 10
208.6903720001243
 20
69.33388705635022
 30
0.0
 10
207.1272439398972
 20
70.23635946270016
 30
0.0
 10
205.5770493262098
 20
71.1313647402089
 30
0.0
  0
SPLINE
  5
C6
330
1F
100
AcDbEntity
  8
0
  6
Continuous
 62
     7
370
    25
100
AcDbSpline
210
0.0
220
0.0
230
1.0
 70
    24
 71
     3
 72
    12
 73
     8
 74
     0
 42
0.000000001
 43
0.00000001
 40
0.0
 40
0.0
 40
0.0
 40
0.0
 40
0.25
 40
0.25
 40
0.5
 40
0.5
 40
1.0
 40
1.0
 40
1.0
 40
1.0
 10
205.5770493262098
 20
82.10101985481178
 30
0.0
 10
205.5770493262098
 20
83.02933101945077
 30
0.0
 10
205.5770493262098
 20
83.96207352858629
 30
0.0
 10
205.5770493262098
 20
85.8297987562312
 30
0.0
 10
205.5770493262098
 20
86.75371566076578
 30
0.0
 10
205.5770493262098
 20
89.49982980261075
 30
0.0
 10
205.5770493262098
 20
91.29656820857387
 30
0.0
 10
205.5770493262098
 20
93.0706749694147
 30
0.0
  0
SPLINE
  5
C7
330
1F
100
AcDbEntity
  8
0
  6
Continuous
 62
     7
370
    25
100
AcDbSpline
210
0.0
220
0.0
230
1.0
 70
    24
 71
     3
 72
    10
 73
     6
 74
     0
 42
0.000000001
 43
0.00000001
 40
0.0
 40
0.0
 40
0.0
 40
0.0
 40
0.4999999999999998
 40
0.4999999999999998
 40
1.0
 40
1.0
 40
1.0
 40
1.0
 10
205.5770493262098
 20
93.07067496941468
 30
0.0
 10
207.1311253088628
 20
93.9679211563405
 30
0.0
 10
208.6965526267083
 20
94.8717210396954
 30
0.0
 10
211.8601334765715
 20
96.69821529496704
 30
0.0
 10
213.4585316401208
 20
97.62105090496445
 30
0.0
 10
215.0770493262098
 20
98.55550252671613
 30
0.0
  0
INSERT
  5
D3
330
1F
100
AcDbEntity
  8
0
  6
Continuous
 62
     7
370
    18
100
AcDbBlockReference
  2
SW_CENTERMARKSYMBOL_0
 10
224.5770493262
 20
82.1010198548
 30
0.0
  0
INSERT
  5
DF
330
1F
100
AcDbEntity
  8
0
  6
Continuous
 62
     7
370
    18
100
AcDbBlockReference
  2
SW_CENTERMARKSYMBOL_1
 10
224.5770493262
 20
82.1010198548
 30
0.0
  0
ARC
  5
E0
330
1F
100
AcDbEntity
  8
0
  6
Continuous
 62
     7
370
    18
100
AcDbCircle
 10
224.5770493262
 20
82.1010198548
 30
0.0
 40
13.2205
100
AcDbArc
 50
75.0
 51
345.0
  0
LINE
  5
E1
330
1F
100
AcDbEntity
  8
0
  6
Continuous
 62
     7
370
    25
100
AcDbLine
 10
158.8564047282
 20
159.9372306549
 30
0.0
 11
167.1593931762
 21
159.9372306549
 31
0.0
  0
SPLINE
  5
E2
330
1F
100
AcDbEntity
  8
0
  6
Continuous
 62
     7
370
    25
100
AcDbSpline
210
0.0
220
0.0
230
1.0
 70
     8
 71
     3
 72
    14
 73
    10
 74
     0
 42
0.000000001
 43
0.00000001
 40
0.0
 40
0.0
 40
0.0
 40
0.0
 40
0.1249999999999997
 40
0.1249999999999997
 40
0.2499999999999996
 40
0.2499999999999996
 40
0.4999999999999993
 40
0.4999999999999993
 40
1.0
 40
1.0
 40
1.0
 40
1.0
 10
168.8564047282371
 20
150.4372306549164
 30
0.0
 10
168.8564047282371
 20
150.8403469380061
 30
0.0
 10
168.8464517855391
 20
151.2454799396542
 30
0.0
 10
168.8069719222318
 20
152.0519765495097
 30
0.0
 10
168.7774875202878
 20
152.4538270048389
 30
0.0
 10
168.6610687345972
 20
153.6553666930836
 30
0.0
 10
168.5461039067806
 20
154.4510349434496
 30
0.0
 10
168.1026966341603
 20
156.823907981002
 30
0.0
 10
167.6761247140692
 20
158.387036041229
 30
0.0
 10
167.1593931761734
 20
159.9372306549164
 30
0.0
  0
SPLINE
  5
E3
330
1F
100
AcDbEntity
  8
0
  6
Continuous
 62
     7
370
    25
100
AcDbSpline
210
0.0
220
0.0
230
1.0
 70
     8
 71
     3
 72
    10
 73
     6
 74
     0
 42
0.000000001
 43
0.00000001
 40
0.0
 40
0.0
 40
0.0
 40
0.0
 40
0.5
 40
0.5
 40
1.0
 40
1.0
 40
1.0
 40
1.0
 10
167.1593931761735
 20
140.9372306549164
 30
0.0
 10
167.6774185037245
 20
142.4913066375694
 30
0.0
 10
168.1041942395091
 20
144.0567339554149
 30
0.0
 10
168.6946706073482
 20
147.2203148052781
 30
0.0
 10
168.8564047282371
 20
148.8187129688274
 30
0.0
 10
168.8564047282371
 20
150.4372306549164
 30
0.0
  0
LINE
  5
E4
330
1F
100
AcDbEntity
  8
0
  6
Continuous
 62
     7
370
    25
100
AcDbLine
 10
158.8564047282
 20
140.9372306549
 30
0.0
 11
167.1593931762
 21
140.9372306549
 31
0.0
  0
LINE
  5
E5
330
1F
100
AcDbEntity
  8
0
  6
Continuous
 62
     7
370
    25
100
AcDbLine
 10
158.8564047282
 20
159.9372306549
 30
0.0
 11
158.8564047282
 21
140.9372306549
 31
0.0
  0
SPLINE
  5
E6
330
1F
100
AcDbEntity
  8
0
  6
Continuous
 62
     7
370
    25
100
AcDbSpline
210
0.0
220
0.0
230
1.0
 70
     8
 71
     3
 72
    14
 73
    10
 74
     0
 42
0.000000001
 43
0.00000001
 40
0.0
 40
0.0
 40
0.0
 40
0.0
 40
0.1250000000000003
 40
0.1250000000000003
 40
0.2500000000000006
 40
0.2500000000000006
 40
0.5000000000000004
 40
0.5000000000000004
 40
1.0
 40
1.0
 40
1.0
 40
1.0
 10
168.8564047282371
 20
131.4372306549164
 30
0.0
 10
168.8564047282371
 20
131.8403469380062
 30
0.0
 10
168.846451785539
 20
132.2454799396542
 30
0.0
 10
168.8069719222318
 20
133.0519765495097
 30
0.0
 10
168.7774875202878
 20
133.4538270048389
 30
0.0
 10
168.6610687345972
 20
134.6553666930836
 30
0.0
 10
168.5461039067806
 20
135.4510349434496
 30
0.0
 10
168.1026966341603
 20
137.823907981002
 30
0.0
 10
167.6761247140692
 20
139.387036041229
 30
0.0
 10
167.1593931761734
 20
140.9372306549164
 30
0.0
  0
LINE
  5
E7
330
1F
100
AcDbEntity
  8
0
  6
Continuous
 62
     7
370
    25
100
AcDbLine
 10
168.8564047282
 20
150.4372306549
 30
0.0
 11
168.8564047282
 21
131.4372306549
 31
0.0
  0
SPLINE
  5
E8
330
1F
100
AcDbEntity
  8
0
  6
Continuous
 62
     7
370
    25
100
AcDbSpline
210
0.0
220
0.0
230
1.0
 70
     8
 71
     3
 72
    10
 73
     6
 74
     0
 42
0.000000001
 43
0.00000001
 40
0.0
 40
0.0
 40
0.0
 40
0.0
 40
0.4999999999999998
 40
0.4999999999999998
 40
1.0
 40
1.0
 40
1.0
 40
1.0
 10
167.1593931761735
 20
121.9372306549164
 30
0.0
 10
167.6774185037245
 20
123.4913066375694
 30
0.0
 10
168.1041942395091
 20
125.0567339554149
 30
0.0
 10
168.6946706073482
 20
128.2203148052781
 30
0.0
 10
168.8564047282371
 20
129.8187129688274
 30
0.0
 10
168.8564047282371
 20
131.4372306549164
 30
0.0
  0
LINE
  5
E9
330
1F
100
AcDbEntity
  8
0
  6
Continuous
 62
     7
370
    25
100
AcDbLine
 10
158.8564047282
 20
121.9372306549
 30
0.0
 11
167.1593931762
 21
121.9372306549
 31
0.0
  0
LINE
  5
EA
330
1F
100
AcDbEntity
  8
0
  6
Continuous
 62
     7
370
    25
100
AcDbLine
 10
158.8564047282
 20
140.9372306549
 30
0.0
 11
158.8564047282
 21
121.9372306549
 31
0.0
  0
SPLINE
  5
EB
330
1F
100
AcDbEntity
  8
0
  6
Continuous
 62
     7
370
    25
100
AcDbSpline
210
0.0
220
0.0
230
1.0
 70
    24
 71
     3
 72
    12
 73
     8
 74
     0
 42
0.000000001
 43
0.00000001
 40
0.0
 40
0.0
 40
0.0
 40
0.0
 40
0.2499999999999999
 40
0.2499999999999999
 40
0.4999999999999998
 40
0.4999999999999998
 40
1.0
 40
1.0
 40
1.0
 40
1.0
 10
168.8564047282371
 20
159.9372306549164
 30
0.0
 10
168.8564047282371
 20
159.9372306549164
 30
0.0
 10
168.8168229216088
 20
159.9372306549164
 30
0.0
 10
168.6598882505947
 20
159.9372306549164
 30
0.0
 10
168.5436850483047
 20
159.9372306549164
 30
0.0
 10
168.0978055304959
 20
159.9372306549164
 30
0.0
 10
167.6715336841446
 20
159.9372306549164
 30
0.0
 10
167.1593931761733
 20
159.9372306549164
 30
0.0
  0
LINE
  5
EC
330
1F
100
AcDbEntity
  8
0
  6
Continuous
 62
     7
370
    25
100
AcDbLine
 10
168.8564047282
 20
159.9372306549
 30
0.0
 11
168.8564047282
 21
150.4372306549
 31
0.0
  0
SPLINE
  5
ED
330
1F
100
AcDbEntity
  8
0
  6
Continuous
 62
     7
370
    25
100
AcDbSpline
210
0.0
220
0.0
230
1.0
 70
    24
 71
     3
 72
    12
 73
     8
 74
     0
 42
0.000000001
 43
0.00000001
 40
0.0
 40
0.0
 40
0.0
 40
0.0
 40
0.25
 40
0.25
 40
0.5
 40
0.5
 40
1.0
 40
1.0
 40
1.0
 40
1.0
 10
168.8564047282371
 20
121.9372306549164
 30
0.0
 10
168.8564047282371
 20
121.9372306549164
 30
0.0
 10
168.8168229216088
 20
121.9372306549164
 30
0.0
 10
168.6598882505946
 20
121.9372306549164
 30
0.0
 10
168.5436850483047
 20
121.9372306549164
 30
0.0
 10
168.0978055304959
 20
121.9372306549164
 30
0.0
 10
167.6715336841446
 20
121.9372306549164
 30
0.0
 10
167.1593931761733
 20
121.9372306549164
 30
0.0
  0
LINE
  5
EE
330
1F
100
AcDbEntity
  8
0
  6
Continuous
 62
     7
370
    25
100
AcDbLine
 10
168.8564047282
 20
131.4372306549
 30
0.0
 11
168.8564047282
 21
121.9372306549
 31
0.0
  0
LINE
  5
EF
330
1F
100
AcDbEntity
  8
0
  6
CENTERX2
 62
     7
370
    18
100
AcDbLine
 10
156.8564047282
 20
140.9372306549
 30
0.0
 11
170.3278138056
 21
140.9372306549
 31
0.0
  0
ENDSEC
  0
SECTION
  2
OBJECTS
  0
DICTIONARY
  5
C
330
0
100
AcDbDictionary
281
     1
  3
ACAD_GROUP
350
D
  3
ACAD_LAYOUT
350
1A
  3
ACAD_MLINESTYLE
350
17
  3
ACAD_PLOTSETTINGS
350
19
  3
ACAD_PLOTSTYLENAME
350
E
  3
ACAD_SCALELIST
350
47
  0
DICTIONARY
  5
D
102
{ACAD_REACTORS
330
C
102
}
330
C
100
AcDbDictionary
281
     1
  0
DICTIONARY
  5
1A
102
{ACAD_REACTORS
330
C
102
}
330
C
100
AcDbDictionary
281
     1
  3
Layout1
350
1E
  3
Layout2
350
26
  3
Model
350
22
  0
DICTIONARY
  5
17
102
{ACAD_REACTORS
330
C
102
}
330
C
100
AcDbDictionary
281
     1
  3
Standard
350
18
  0
DICTIONARY
  5
19
102
{ACAD_REACTORS
330
C
102
}
330
C
100
AcDbDictionary
281
     1
  0
ACDBDICTIONARYWDFLT
  5
E
102
{ACAD_REACTORS
330
C
102
}
330
C
100
AcDbDictionary
281
     1
  3
Normal
350
F
100
AcDbDictionaryWithDefault
340
F
  0
DICTIONARY
  5
47
102
{ACAD_REACTORS
330
C
102
}
330
C
100
AcDbDictionary
281
     1
  3
A0
350
48
  3
A1
350
49
  3
A2
350
4A
  3
A3
350
4B
  3
A4
350
4C
  3
A5
350
4D
  3
A6
350
4E
  3
A7
350
4F
  3
A8
350
50
  3
A9
350
51
  3
B0
350
52
  3
B1
350
53
  3
B2
350
54
  3
B3
350
55
  3
B4
350
56
  3
B5
350
57
  3
B6
350
58
  3
B7
350
59
  3
B8
350
5A
  3
B9
350
5B
  3
C0
350
5C
  3
C1
350
5D
  3
C2
350
5E
  3
C3
350
5F
  3
C4
350
60
  3
C5
350
61
  3
C6
350
62
  3
C7
350
63
  3
C8
350
64
  3
C9
350
65
  3
D0
350
66
  3
D1
350
67
  3
D2
350
68
  0
LAYOUT
  5
1E
102
{ACAD_REACTORS
330
1A
102
}
330
1A
100
AcDbPlotSettings
  1

  2
none_device
  4

  6

 40
0.0
 41
0.0
 42
0.0
 43
0.0
 44
0.0
 45
0.0
 46
0.0
 47
0.0
 48
0.0
 49
0.0
140
0.0
141
0.0
142
1.0
143
1.0
 70
   688
 72
     1
 73
     0
 74
     5
  7

 75
    16
147
1.0
148
0.0
149
0.0
100
AcDbLayout
  1
Layout1
 70
     1
 71
     1
 10
0.0
 20
0.0
 11
420.0
 21
297.0
 12
0.0
 22
0.0
 32
0.0
 14
1.0000000000E+20
 24
1.0000000000E+20
 34
1.0000000000E+20
 15
-1.0000000000E+20
 25
-1.0000000000E+20
 35
-1.0000000000E+20
146
0.0
 13
0.0
 23
0.0
 33
0.0
 16
1.0
 26
0.0
 36
0.0
 17
0.0
 27
1.0
 37
0.0
 76
     0
330
1B
  0
LAYOUT
  5
26
102
{ACAD_REACTORS
330
1A
102
}
330
1A
100
AcDbPlotSettings
  1

  2
none_device
  4

  6

 40
0.0
 41
0.0
 42
0.0
 43
0.0
 44
0.0
 45
0.0
 46
0.0
 47
0.0
 48
0.0
 49
0.0
140
0.0
141
0.0
142
1.0
143
1.0
 70
   688
 72
     1
 73
     0
 74
     5
  7

 75
    16
147
1.0
148
0.0
149
0.0
100
AcDbLayout
  1
Layout2
 70
     1
 71
     2
 10
0.0
 20
0.0
 11
0.0
 21
0.0
 12
0.0
 22
0.0
 32
0.0
 14
0.0
 24
0.0
 34
0.0
 15
0.0
 25
0.0
 35
0.0
146
0.0
 13
0.0
 23
0.0
 33
0.0
 16
1.0
 26
0.0
 36
0.0
 17
0.0
 27
1.0
 37
0.0
 76
     0
330
23
  0
LAYOUT
  5
22
102
{ACAD_REACTORS
330
1A
102
}
330
1A
100
AcDbPlotSettings
  1

  2
none_device
  4
Letter_(8.50_x_11.00_Inches)
  6

 40
6.35
 41
6.35
 42
6.35000508
 43
6.35000508
 44
215.9
 45
279.4
 46
0.0
 47
0.0
 48
0.0
 49
0.0
140
0.0
141
0.0
142
1.0
143
1.0
 70
  1712
 72
     1
 73
     0
 74
     0
  7

 75
     0
147
1.0
148
0.0
149
0.0
100
AcDbLayout
  1
Model
 70
     1
 71
     0
 10
0.0
 20
0.0
 11
431.8
 21
279.4
 12
0.0
 22
0.0
 32
0.0
 14
0.0
 24
0.0
 34
0.0
 15
431.8
 25
279.4
 35
0.0
146
0.0
 13
0.0
 23
0.0
 33
0.0
 16
1.0
 26
0.0
 36
0.0
 17
0.0
 27
1.0
 37
0.0
 76
     0
330
1F
331
29
  0
MLINESTYLE
  5
18
102
{ACAD_REACTORS
330
17
102
}
330
17
100
AcDbMlineStyle
  2
Standard
 70
     0
  3

 62
   256
 51
90.0
 52
90.0
 71
     2
 49
0.5
 62
   256
  6
BYLAYER
 49
-0.5
 62
   256
  6
BYLAYER
  0
ACDBPLACEHOLDER
  5
F
102
{ACAD_REACTORS
330
E
102
}
330
E
  0
SCALE
  5
48
102
{ACAD_REACTORS
330
47
102
}
330
47
100
AcDbScale
 70
     0
300
1:1
140
1.0
141
1.0
290
     1
  0
SCALE
  5
49
102
{ACAD_REACTORS
330
47
102
}
330
47
100
AcDbScale
 70
     0
300
1:2
140
1.0
141
2.0
290
     0
  0
SCALE
  5
4A
102
{ACAD_REACTORS
330
47
102
}
330
47
100
AcDbScale
 70
     0
300
1:4
140
1.0
141
4.0
290
     0
  0
SCALE
  5
4B
102
{ACAD_REACTORS
330
47
102
}
330
47
100
AcDbScale
 70
     0
300
1:5
140
1.0
141
5.0
290
     0
  0
SCALE
  5
4C
102
{ACAD_REACTORS
330
47
102
}
330
47
100
AcDbScale
 70
     0
300
1:8
140
1.0
141
8.0
290
     0
  0
SCALE
  5
4D
102
{ACAD_REACTORS
330
47
102
}
330
47
100
AcDbScale
 70
     0
300
1:10
140
1.0
141
10.0
290
     0
  0
SCALE
  5
4E
102
{ACAD_REACTORS
330
47
102
}
330
47
100
AcDbScale
 70
     0
300
1:16
140
1.0
141
16.0
290
     0
  0
SCALE
  5
4F
102
{ACAD_REACTORS
330
47
102
}
330
47
100
AcDbScale
 70
     0
300
1:20
140
1.0
141
20.0
290
     0
  0
SCALE
  5
50
102
{ACAD_REACTORS
330
47
102
}
330
47
100
AcDbScale
 70
     0
300
1:30
140
1.0
141
30.0
290
     0
  0
SCALE
  5
51
102
{ACAD_REACTORS
330
47
102
}
330
47
100
AcDbScale
 70
     0
300
1:40
140
1.0
141
40.0
290
     0
  0
SCALE
  5
52
102
{ACAD_REACTORS
330
47
102
}
330
47
100
AcDbScale
 70
     0
300
1:50
140
1.0
141
50.0
290
     0
  0
SCALE
  5
53
102
{ACAD_REACTORS
330
47
102
}
330
47
100
AcDbScale
 70
     0
300
1:100
140
1.0
141
100.0
290
     0
  0
SCALE
  5
54
102
{ACAD_REACTORS
330
47
102
}
330
47
100
AcDbScale
 70
     0
300
2:1
140
2.0
141
1.0
290
     0
  0
SCALE
  5
55
102
{ACAD_REACTORS
330
47
102
}
330
47
100
AcDbScale
 70
     0
300
4:1
140
4.0
141
1.0
290
     0
  0
SCALE
  5
56
102
{ACAD_REACTORS
330
47
102
}
330
47
100
AcDbScale
 70
     0
300
8:1
140
8.0
141
1.0
290
     0
  0
SCALE
  5
57
102
{ACAD_REACTORS
330
47
102
}
330
47
100
AcDbScale
 70
     0
300
10:1
140
10.0
141
1.0
290
     0
  0
SCALE
  5
58
102
{ACAD_REACTORS
330
47
102
}
330
47
100
AcDbScale
 70
     0
300
100:1
140
100.0
141
1.0
290
     0
  0
SCALE
  5
59
102
{ACAD_REACTORS
330
47
102
}
330
47
100
AcDbScale
 70
     0
300
1/128" = 1'-0"
140
0.0078125
141
12.0
290
     0
  0
SCALE
  5
5A
102
{ACAD_REACTORS
330
47
102
}
330
47
100
AcDbScale
 70
     0
300
1/64" = 1'-0"
140
0.015625
141
12.0
290
     0
  0
SCALE
  5
5B
102
{ACAD_REACTORS
330
47
102
}
330
47
100
AcDbScale
 70
     0
300
1/32" = 1'-0"
140
0.03125
141
12.0
290
     0
  0
SCALE
  5
5C
102
{ACAD_REACTORS
330
47
102
}
330
47
100
AcDbScale
 70
     0
300
1/16" = 1'-0"
140
0.0625
141
12.0
290
     0
  0
SCALE
  5
5D
102
{ACAD_REACTORS
330
47
102
}
330
47
100
AcDbScale
 70
     0
300
3/32" = 1'-0"
140
0.09375
141
12.0
290
     0
  0
SCALE
  5
5E
102
{ACAD_REACTORS
330
47
102
}
330
47
100
AcDbScale
 70
     0
300
1/8" = 1'-0"
140
0.125
141
12.0
290
     0
  0
SCALE
  5
5F
102
{ACAD_REACTORS
330
47
102
}
330
47
100
AcDbScale
 70
     0
300
3/16" = 1'-0"
140
0.1875
141
12.0
290
     0
  0
SCALE
  5
60
102
{ACAD_REACTORS
330
47
102
}
330
47
100
AcDbScale
 70
     0
300
1/4" = 1'-0"
140
0.25
141
12.0
290
     0
  0
SCALE
  5
61
102
{ACAD_REACTORS
330
47
102
}
330
47
100
AcDbScale
 70
     0
300
3/8" = 1'-0"
140
0.375
141
12.0
290
     0
  0
SCALE
  5
62
102
{ACAD_REACTORS
330
47
102
}
330
47
100
AcDbScale
 70
     0
300
1/2" = 1'-0"
140
0.5
141
12.0
290
     0
  0
SCALE
  5
63
102
{ACAD_REACTORS
330
47
102
}
330
47
100
AcDbScale
 70
     0
300
3/4" = 1'-0"
140
0.75
141
12.0
290
     0
  0
SCALE
  5
64
102
{ACAD_REACTORS
330
47
102
}
330
47
100
AcDbScale
 70
     0
300
1" = 1'-0"
140
1.0
141
12.0
290
     0
  0
SCALE
  5
65
102
{ACAD_REACTORS
330
47
102
}
330
47
100
AcDbScale
 70
     0
300
1-1/2" = 1'-0"
140
1.5
141
12.0
290
     0
  0
SCALE
  5
66
102
{ACAD_REACTORS
330
47
102
}
330
47
100
AcDbScale
 70
     0
300
3" = 1'-0"
140
3.0
141
12.0
290
     0
  0
SCALE
  5
67
102
{ACAD_REACTORS
330
47
102
}
330
47
100
AcDbScale
 70
     0
300
6" = 1'-0"
140
6.0
141
12.0
290
     0
  0
SCALE
  5
68
102
{ACAD_REACTORS
330
47
102
}
330
47
100
AcDbScale
 70
     0
300
1'-0" = 1'-0"
140
12.0
141
12.0
290
     0
  0
ENDSEC
  0
EOF
