  0
SECTION
  2
HEADER
  9
$ACADVER
  1
AC1015
  9
$ACADMAINTVER
 70
     6
  9
$DWGCODEPAGE
  3
DOS932
  9
$INSBASE
 10
0.0
 20
0.0
 30
0.0
  9
$EXTMIN
 10
0.0
 20
0.0
 30
0.0
  9
$EXTMAX
 10
215.9
 20
139.7
 30
0.0
  9
$LIMMIN
 10
0.0
 20
0.0
  9
$LIMMAX
 10
215.9
 20
139.7
  9
$ORTHOMODE
 70
     0
  9
$REGENMODE
 70
     1
  9
$FILLMODE
 70
     1
  9
$QTEXTMODE
 70
     0
  9
$MIRRTEXT
 70
     1
  9
$LTSCALE
 40
0.5
  9
$ATTMODE
 70
     1
  9
$TEXTSIZE
 40
1.75
  9
$TRACEWID
 40
1.0
  9
$TEXTSTYLE
  7
Standard
  9
$CLAYER
  8
0
  9
$CELTYPE
  6
ByLayer
  9
$CECOLOR
 62
   256
  9
$CELTSCALE
 40
1.0
  9
$DISPSILH
 70
     0
  9
$DIMSCALE
 40
1.0
  9
$DIMASZ
 40
1.651
  9
$DIMEXO
 40
0.5
  9
$DIMDLI
 40
3.75
  9
$DIMRND
 40
0.0
  9
$DIMDLE
 40
0.0
  9
$DIMEXE
 40
0.5
  9
$DIMTP
 40
0.0
  9
$DIMTM
 40
0.0
  9
$DIMTXT
 40
1.75
  9
$DIMCEN
 40
2.5
  9
$DIMTSZ
 40
0.0
  9
$DIMTOL
 70
     0
  9
$DIMLIM
 70
     0
  9
$DIMTIH
 70
     1
  9
$DIMTOH
 70
     1
  9
$DIMSE1
 70
     0
  9
$DIMSE2
 70
     0
  9
$DIMTAD
 70
     1
  9
$DIMZIN
 70
     1
  9
$DIMBLK
  1

  9
$DIMASO
 70
     1
  9
$DIMSHO
 70
     1
  9
$DIMPOST
  1

  9
$DIMAPOST
  1

  9
$DIMALT
 70
     0
  9
$DIMALTD
 70
     3
  9
$DIMALTF
 40
0.0393700787
  9
$DIMLFAC
 40
1.0
  9
$DIMTOFL
 70
     1
  9
$DIMTVP
 40
0.0
  9
$DIMTIX
 70
     0
  9
$DIMSOXD
 70
     0
  9
$DIMSAH
 70
     0
  9
$DIMBLK1
  1

  9
$DIMBLK2
  1

  9
$DIMSTYLE
  2
ISO-25
  9
$DIMCLRD
 70
     0
  9
$DIMCLRE
 70
     0
  9
$DIMCLRT
 70
     0
  9
$DIMTFAC
 40
1.0
  9
$DIMGAP
 40
0.762
  9
$DIMJUST
 70
     0
  9
$DIMSD1
 70
     0
  9
$DIMSD2
 70
     0
  9
$DIMTOLJ
 70
     0
  9
$DIMTZIN
 70
     1
  9
$DIMALTZ
 70
     0
  9
$DIMALTTZ
 70
     0
  9
$DIMUPT
 70
     0
  9
$DIMDEC
 70
     2
  9
$DIMTDEC
 70
     2
  9
$DIMALTU
 70
     2
  9
$DIMALTTD
 70
     3
  9
$DIMTXSTY
  7
Standard
  9
$DIMAUNIT
 70
     0
  9
$DIMADEC
 70
     2
  9
$DIMALTRND
 40
0.0
  9
$DIMAZIN
 70
     0
  9
$DIMDSEP
 70
    44
  9
$DIMATFIT
 70
     3
  9
$DIMFRAC
 70
     0
  9
$DIMLDRBLK
  1

  9
$DIMLUNIT
 70
     2
  9
$DIMLWD
 70
    -2
  9
$DIMLWE
 70
    -2
  9
$DIMTMOVE
 70
     0
  9
$LUNITS
 70
     2
  9
$LUPREC
 70
     2
  9
$SKETCHINC
 40
1.0
  9
$FILLETRAD
 40
10.0
  9
$AUNITS
 70
     0
  9
$AUPREC
 70
     2
  9
$MENU
  1
.
  9
$ELEVATION
 40
0.0
  9
$PELEVATION
 40
0.0
  9
$THICKNESS
 40
0.0
  9
$LIMCHECK
 70
     0
  9
$CHAMFERA
 40
0.0
  9
$CHAMFERB
 40
0.0
  9
$CHAMFERC
 40
0.0
  9
$CHAMFERD
 40
0.0
  9
$SKPOLY
 70
     0
  9
$TDCREATE
 40
2460062.730802824
  9
$TDUCREATE
 40
2460062.355802824
  9
$TDUPDATE
 40
2460062.73080331
  9
$TDUUPDATE
 40
2460062.35580331
  9
$TDINDWG
 40
0.0000000116
  9
$TDUSRTIMER
 40
0.0000000116
  9
$USRTIMER
 70
     1
  9
$ANGBASE
 50
0.0
  9
$ANGDIR
 70
     0
  9
$PDMODE
 70
     0
  9
$PDSIZE
 40
-1.0
  9
$PLINEWID
 40
0.0
  9
$SPLFRAME
 70
     0
  9
$SPLINETYPE
 70
     6
  9
$SPLINESEGS
 70
     8
  9
$HANDSEED
  5
F0
  9
$SURFTAB1
 70
     6
  9
$SURFTAB2
 70
     6
  9
$SURFTYPE
 70
     6
  9
$SURFU
 70
     6
  9
$SURFV
 70
     6
  9
$UCSBASE
  2

  9
$UCSNAME
  2

  9
$UCSORG
 10
0.0
 20
0.0
 30
0.0
  9
$UCSXDIR
 10
1.0
 20
0.0
 30
0.0
  9
$UCSYDIR
 10
0.0
 20
1.0
 30
0.0
  9
$UCSORTHOREF
  2

  9
$UCSORTHOVIEW
 70
     0
  9
$UCSORGTOP
 10
0.0
 20
0.0
 30
0.0
  9
$UCSORGBOTTOM
 10
0.0
 20
0.0
 30
0.0
  9
$UCSORGLEFT
 10
0.0
 20
0.0
 30
0.0
  9
$UCSORGRIGHT
 10
0.0
 20
0.0
 30
0.0
  9
$UCSORGFRONT
 10
0.0
 20
0.0
 30
0.0
  9
$UCSORGBACK
 10
0.0
 20
0.0
 30
0.0
  9
$PUCSBASE
  2

  9
$PUCSNAME
  2

  9
$PUCSORG
 10
0.0
 20
0.0
 30
0.0
  9
$PUCSXDIR
 10
1.0
 20
0.0
 30
0.0
  9
$PUCSYDIR
 10
0.0
 20
1.0
 30
0.0
  9
$PUCSORTHOREF
  2

  9
$PUCSORTHOVIEW
 70
     0
  9
$PUCSORGTOP
 10
0.0
 20
0.0
 30
0.0
  9
$PUCSORGBOTTOM
 10
0.0
 20
0.0
 30
0.0
  9
$PUCSORGLEFT
 10
0.0
 20
0.0
 30
0.0
  9
$PUCSORGRIGHT
 10
0.0
 20
0.0
 30
0.0
  9
$PUCSORGFRONT
 10
0.0
 20
0.0
 30
0.0
  9
$PUCSORGBACK
 10
0.0
 20
0.0
 30
0.0
  9
$USERI1
 70
     0
  9
$USERI2
 70
     0
  9
$USERI3
 70
     0
  9
$USERI4
 70
     0
  9
$USERI5
 70
     0
  9
$USERR1
 40
0.0
  9
$USERR2
 40
0.0
  9
$USERR3
 40
0.0
  9
$USERR4
 40
0.0
  9
$USERR5
 40
0.0
  9
$WORLDVIEW
 70
     1
  9
$SHADEDGE
 70
     3
  9
$SHADEDIF
 70
    70
  9
$TILEMODE
 70
     1
  9
$MAXACTVP
 70
    64
  9
$PINSBASE
 10
0.0
 20
0.0
 30
0.0
  9
$PLIMCHECK
 70
     0
  9
$PEXTMIN
 10
1.0000000000E+20
 20
1.0000000000E+20
 30
1.0000000000E+20
  9
$PEXTMAX
 10
-1.0000000000E+20
 20
-1.0000000000E+20
 30
-1.0000000000E+20
  9
$PLIMMIN
 10
0.0
 20
0.0
  9
$PLIMMAX
 10
420.0
 20
297.0
  9
$UNITMODE
 70
     0
  9
$VISRETAIN
 70
     1
  9
$PLINEGEN
 70
     0
  9
$PSLTSCALE
 70
     1
  9
$TREEDEPTH
 70
  3020
  9
$CMLSTYLE
  2
Standard
  9
$CMLJUST
 70
     0
  9
$CMLSCALE
 40
20.0
  9
$PROXYGRAPHICS
 70
     1
  9
$MEASUREMENT
 70
     1
  9
$CELWEIGHT
370
    -1
  9
$ENDCAPS
280
     0
  9
$JOINSTYLE
280
     0
  9
$LWDISPLAY
290
     1
  9
$INSUNITS
 70
     4
  9
$HYPERLINKBASE
  1

  9
$STYLESHEET
  1

  9
$XEDIT
290
     1
  9
$CEPSNTYPE
380
     0
  9
$PSTYLEMODE
290
     1
  9
$FINGERPRINTGUID
  2
{6040E55D-33AD-488C-93A4-2D0D5E0C5A27}
  9
$VERSIONGUID
  2
{FAEB1C32-E019-11D5-929B-00C0DF256EC4}
  9
$EXTNAMES
290
     1
  9
$PSVPSCALE
 40
0.0
  9
$OLESTARTUP
290
     0
  0
ENDSEC
  0
SECTION
  2
CLASSES
  0
CLASS
  1
ACDBDICTIONARYWDFLT
  2
AcDbDictionaryWithDefault
  3
ObjectDBX Classes
 90
        0
280
     0
281
     0
  0
CLASS
  1
VISUALSTYLE
  2
AcDbVisualStyle
  3
ObjectDBX Classes
 90
     4095
280
     0
281
     0
  0
CLASS
  1
MATERIAL
  2
AcDbMaterial
  3
ObjectDBX Classes
 90
     1153
280
     0
281
     0
  0
CLASS
  1
SCALE
  2
AcDbScale
  3
ObjectDBX Classes
 90
     1153
280
     0
281
     0
  0
CLASS
  1
TABLESTYLE
  2
AcDbTableStyle
  3
ObjectDBX Classes
 90
     4095
280
     0
281
     0
  0
CLASS
  1
MLEADERSTYLE
  2
AcDbMLeaderStyle
  3
ACDB_MLEADERSTYLE_CLASS
 90
     4095
280
     0
281
     0
  0
CLASS
  1
SUN
  2
AcDbSun
  3
SCENEOE
 90
     1153
280
     0
281
     0
  0
CLASS
  1
ACDBPLACEHOLDER
  2
AcDbPlaceHolder
  3
ObjectDBX Classes
 90
        0
280
     0
281
     0
  0
CLASS
  1
LAYOUT
  2
AcDbLayout
  3
ObjectDBX Classes
 90
        0
280
     0
281
     0
  0
ENDSEC
  0
SECTION
  2
TABLES
  0
TABLE
  2
VPORT
  5
8
330
0
100
AcDbSymbolTable
 70
     1
  0
VPORT
  5
29
330
8
100
AcDbSymbolTableRecord
100
AcDbViewportTableRecord
  2
*Active
 70
     0
 10
0.0
 20
0.0
 11
1.0
 21
1.0
 12
107.95
 22
69.85
 13
0.0
 23
0.0
 14
10.0
 24
10.0
 15
10.0
 25
10.0
 16
0.0
 26
0.0
 36
1.0
 17
0.0
 27
0.0
 37
0.0
 40
139.7
 41
1.5454545455
 42
50.0
 43
0.0
 44
0.0
 50
0.0
 51
0.0
 71
     0
 72
  2000
 73
     1
 74
     3
 75
     0
 76
     0
 77
     0
 78
     0
281
     0
 65
     1
110
0.0
120
0.0
130
0.0
111
1.0
121
0.0
131
0.0
112
0.0
122
1.0
132
0.0
 79
     0
146
0.0
  0
ENDTAB
  0
TABLE
  2
LTYPE
  5
5
330
0
100
AcDbSymbolTable
 70
     6
  0
LTYPE
  5
14
330
5
100
AcDbSymbolTableRecord
100
AcDbLinetypeTableRecord
  2
ByBlock
 70
     0
  3

 72
    65
 73
     0
 40
0.0
  0
LTYPE
  5
15
330
5
100
AcDbSymbolTableRecord
100
AcDbLinetypeTableRecord
  2
ByLayer
 70
     0
  3

 72
    65
 73
     0
 40
0.0
  0
LTYPE
  5
16
330
5
100
AcDbSymbolTableRecord
100
AcDbLinetypeTableRecord
  2
Continuous
 70
     0
  3
Solid line
 72
    65
 73
     0
 40
0.0
  0
LTYPE
  5
6E
330
5
100
AcDbSymbolTableRecord
100
AcDbLinetypeTableRecord
  2
HIDDEN
 70
     0
  3
Hidden __ __ __ __ __ __ __ __ __ __ __ __ __ __
 72
    65
 73
     2
 40
1.905
 49
1.27
 74
     0
 49
-0.635
 74
     0
  0
LTYPE
  5
6F
330
5
100
AcDbSymbolTableRecord
100
AcDbLinetypeTableRecord
  2
PHANTOM
 70
     0
  3
Phantom ______  __  __  ______  __  __  ______
 72
    65
 73
     6
 40
12.7
 49
6.35
 74
     0
 49
-1.27
 74
     0
 49
1.27
 74
     0
 49
-1.27
 74
     0
 49
1.27
 74
     0
 49
-1.27
 74
     0
  0
LTYPE
  5
70
330
5
100
AcDbSymbolTableRecord
100
AcDbLinetypeTableRecord
  2
CENTER
 70
     0
  3
Center ____ _ ____ _ ____ _ ____ _ ____ _ ____
 72
    65
 73
     4
 40
10.16
 49
6.35
 74
     0
 49
-1.27
 74
     0
 49
1.27
 74
     0
 49
-1.27
 74
     0
  0
LTYPE
  5
71
330
5
100
AcDbSymbolTableRecord
100
AcDbLinetypeTableRecord
  2
CENTERX2
 70
     0
  3
Center (2x) ________  __  ________  __  _____
 72
    65
 73
     4
 40
20.32
 49
12.7
 74
     0
 49
-2.54
 74
     0
 49
2.54
 74
     0
 49
-2.54
 74
     0
  0
LTYPE
  5
72
330
5
100
AcDbSymbolTableRecord
100
AcDbLinetypeTableRecord
  2
DOT2
 70
     0
  3
Dot (.5x) ........................................
 72
    65
 73
     2
 40
0.635
 49
0.0
 74
     0
 49
-0.635
 74
     0
  0
ENDTAB
  0
TABLE
  2
LAYER
  5
2
330
0
100
AcDbSymbolTable
 70
     1
  0
LAYER
  5
10
330
2
100
AcDbSymbolTableRecord
100
AcDbLayerTableRecord
  2
0
 70
     0
 62
     7
  6
Continuous
370
    -3
390
F
  0
ENDTAB
  0
TABLE
  2
STYLE
  5
3
330
0
100
AcDbSymbolTable
 70
     2
  0
STYLE
  5
11
330
3
100
AcDbSymbolTableRecord
100
AcDbTextStyleTableRecord
  2
Standard
 70
     0
 40
0.0
 41
1.0
 50
0.0
 71
     0
 42
1.75
  3
txt
  4
bigfont
  0
STYLE
  5
73
330
3
100
AcDbSymbolTableRecord
100
AcDbTextStyleTableRecord
  2
SLDTEXTSTYLE0
 70
     0
 40
0.0
 41
0.7
 50
0.0
 71
     0
 42
1.75
  3
TXT
  4
bigfont
  0
ENDTAB
  0
TABLE
  2
VIEW
  5
6
330
0
100
AcDbSymbolTable
 70
     0
  0
ENDTAB
  0
TABLE
  2
UCS
  5
7
330
0
100
AcDbSymbolTable
 70
     0
  0
ENDTAB
  0
TABLE
  2
APPID
  5
9
330
0
100
AcDbSymbolTable
 70
     1
  0
APPID
  5
12
330
9
100
AcDbSymbolTableRecord
100
AcDbRegAppTableRecord
  2
ACAD
 70
     0
  0
ENDTAB
  0
TABLE
  2
DIMSTYLE
  5
A
330
0
100
AcDbSymbolTable
 70
     1
100
AcDbDimStyleTable
  0
DIMSTYLE
105
27
330
A
100
AcDbSymbolTableRecord
100
AcDbDimStyleTableRecord
  2
ISO-25
 70
     0
 41
2.5
 42
0.625
 43
3.75
 44
1.25
 73
     0
 74
     0
 77
     1
 78
     8
140
2.5
141
2.5
143
0.0393700787
147
0.625
171
     3
172
     1
178
     0
271
     2
272
     2
274
     3
278
    44
283
     0
284
     8
340
11
  0
ENDTAB
  0
TABLE
  2
BLOCK_RECORD
  5
1
330
0
100
AcDbSymbolTable
 70
     3
  0
BLOCK_RECORD
  5
1F
330
1
100
AcDbSymbolTableRecord
100
AcDbBlockTableRecord
  2
*Model_Space
340
22
  0
BLOCK_RECORD
  5
1B
330
1
100
AcDbSymbolTableRecord
100
AcDbBlockTableRecord
  2
*Paper_Space
340
1E
  0
BLOCK_RECORD
  5
23
330
1
100
AcDbSymbolTableRecord
100
AcDbBlockTableRecord
  2
*Paper_Space0
340
26
  0
BLOCK_RECORD
  5
C8
330
1
100
AcDbSymbolTableRecord
100
AcDbBlockTableRecord
  2
SW_CENTERMARKSYMBOL_0
340
0
102
{BLKREFS
331
D3
102
}
  0
BLOCK_RECORD
  5
D4
330
1
100
AcDbSymbolTableRecord
100
AcDbBlockTableRecord
  2
SW_CENTERMARKSYMBOL_1
340
0
102
{BLKREFS
331
DF
102
}
  0
ENDTAB
  0
ENDSEC
  0
SECTION
  2
BLOCKS
  0
BLOCK
  5
20
330
1F
100
AcDbEntity
  8
0
100
AcDbBlockBegin
  2
*Model_Space
 70
     0
 10
0.0
 20
0.0
 30
0.0
  3
*Model_Space
  1

  0
ENDBLK
  5
21
330
1F
100
AcDbEntity
  8
0
100
AcDbBlockEnd
  0
BLOCK
  5
1C
330
1B
100
AcDbEntity
 67
     1
  8
0
100
AcDbBlockBegin
  2
*Paper_Space
 70
     0
 10
0.0
 20
0.0
 30
0.0
  3
*Paper_Space
  1

  0
ENDBLK
  5
1D
330
1B
100
AcDbEntity
 67
     1
  8
0
100
AcDbBlockEnd
  0
BLOCK
  5
24
330
23
100
AcDbEntity
  8
0
100
AcDbBlockBegin
  2
*Paper_Space0
 70
     0
 10
0.0
 20
0.0
 30
0.0
  3
*Paper_Space0
  1

  0
ENDBLK
  5
25
330
23
100
AcDbEntity
  8
0
100
AcDbBlockEnd
  0
BLOCK
  5
C9
330
C8
100
AcDbEntity
  8
0
100
AcDbBlockBegin
  2
SW_CENTERMARKSYMBOL_0
 70
     0
 10
0.0
 20
0.0
 30
0.0
  3
SW_CENTERMARKSYMBOL_0
  1

  0
LINE
  5
CB
330
C8
100
AcDbEntity
  8
0
  6
Continuous
 62
     0
370
    18
100
AcDbLine
 10
0.0
 20
0.0
 30
0.0
 11
0.0
 21
2.5
 31
0.0
  0
LINE
  5
CC
330
C8
100
AcDbEntity
  8
0
  6
Continuous
 62
     0
370
    18
100
AcDbLine
 10
0.0
 20
0.0
 30
0.0
 11
-2.5
 21
0.0
 31
0.0
  0
LINE
  5
CD
330
C8
100
AcDbEntity
  8
0
  6
Continuous
 62
     0
370
    18
100
AcDbLine
 10
0.0
 20
0.0
 30
0.0
 11
0.0
 21
-2.5
 31
0.0
  0
LINE
  5
CE
330
C8
100
AcDbEntity
  8
0
  6
Continuous
 62
     0
370
    18
100
AcDbLine
 10
0.0
 20
0.0
 30
0.0
 11
2.5
 21
0.0
 31
0.0
  0
LINE
  5
CF
330
C8
100
AcDbEntity
  8
0
  6
Continuous
 62
     0
370
    18
100
AcDbLine
 10
0.0
 20
5.0
 30
0.0
 11
0.0
 21
12.0
 31
0.0
  0
LINE
  5
D0
330
C8
100
AcDbEntity
  8
0
  6
Continuous
 62
     0
370
    18
100
AcDbLine
 10
-5.0
 20
0.0
 30
0.0
 11
-12.0
 21
0.0
 31
0.0
  0
LINE
  5
D1
330
C8
100
AcDbEntity
  8
0
  6
Continuous
 62
     0
370
    18
100
AcDbLine
 10
0.0
 20
-5.0
 30
0.0
 11
0.0
 21
-12.0
 31
0.0
  0
LINE
  5
D2
330
C8
100
AcDbEntity
  8
0
  6
Continuous
 62
     0
370
    18
100
AcDbLine
 10
5.0
 20
0.0
 30
0.0
 11
12.0
 21
0.0
 31
0.0
  0
ENDBLK
  5
CA
330
C8
100
AcDbEntity
  8
0
100
AcDbBlockEnd
  0
BLOCK
  5
D5
330
D4
100
AcDbEntity
  8
0
100
AcDbBlockBegin
  2
SW_CENTERMARKSYMBOL_1
 70
     0
 10
0.0
 20
0.0
 30
0.0
  3
SW_CENTERMARKSYMBOL_1
  1

  0
LINE
  5
D7
330
D4
100
AcDbEntity
  8
0
  6
Continuous
 62
     0
370
    18
100
AcDbLine
 10
0.0
 20
0.0
 30
0.0
 11
0.0
 21
2.5
 31
0.0
  0
LINE
  5
D8
330
D4
100
AcDbEntity
  8
0
  6
Continuous
 62
     0
370
    18
100
AcDbLine
 10
0.0
 20
0.0
 30
0.0
 11
-2.5
 21
0.0
 31
0.0
  0
LINE
  5
D9
330
D4
100
AcDbEntity
  8
0
  6
Continuous
 62
     0
370
    18
100
AcDbLine
 10
0.0
 20
0.0
 30
0.0
 11
0.0
 21
-2.5
 31
0.0
  0
LINE
  5
DA
330
D4
100
AcDbEntity
  8
0
  6
Continuous
 62
     0
370
    18
100
AcDbLine
 10
0.0
 20
0.0
 30
0.0
 11
2.5
 21
0.0
 31
0.0
  0
LINE
  5
DB
330
D4
100
AcDbEntity
  8
0
  6
Continuous
 62
     0
370
    18
100
AcDbLine
 10
0.0
 20
5.0
 30
0.0
 11
0.0
 21
19.5259921299
 31
0.0
  0
LINE
  5
DC
330
D4
100
AcDbEntity
  8
0
  6
Continuous
 62
     0
370
    18
100
AcDbLine
 10
-5.0
 20
0.0
 30
0.0
 11
-18.5
 21
0.0
 31
0.0
  0
LINE
  5
DD
330
D4
100
AcDbEntity
  8
0
  6
Continuous
 62
     0
370
    18
100
AcDbLine
 10
0.0
 20
-5.0
 30
0.0
 11
0.0
 21
-19.7379086887
 31
0.0
  0
LINE
  5
DE
330
D4
100
AcDbEntity
  8
0
  6
Continuous
 62
     0
370
    18
100
AcDbLine
 10
5.0
 20
0.0
 30
0.0
 11
18.5
 21
0.0
 31
0.0
  0
ENDBLK
  5
D6
330
D4
100
AcDbEntity
  8
0
100
AcDbBlockEnd
  0
ENDSEC
  0
SECTION
  2
ENTITIES
  0
MTEXT
  5
74
330
1F
100
AcDbEntity
  8
0
  6
Continuous
 62
     7
370
     0
100
AcDbMText
 10
91.8560929517
 20
58.8437833991
 30
0.0
 40
2.1166666667
 41
0.0
 71
     1
 72
     1
  1
ロックナット　NR-7004
  7
SLDTEXTSTYLE0
 73
     1
 44
1.0
  0
LINE
  5
75
330
1F
100
AcDbEntity
  8
0
  6
Continuous
 62
     7
370
    25
100
AcDbLine
 10
74.3681682192
 20
11.8031550083
 30
0.0
 11
75.7972305788
 21
14.2783636224
 31
0.0
  0
LINE
  5
76
330
1F
100
AcDbEntity
  8
0
  6
Continuous
 62
     7
370
    25
100
AcDbLine
 10
75.7972305788
 20
46.2783636224
 30
0.0
 11
74.3681682192
 21
48.7535722365
 31
0.0
  0
LINE
  5
77
330
1F
100
AcDbEntity
  8
0
  6
Continuous
 62
     7
370
    25
100
AcDbLine
 10
68.7972305788
 20
35.2783636224
 30
0.0
 11
68.7972305788
 21
25.2783636224
 31
0.0
  0
LINE
  5
78
330
1F
100
AcDbEntity
  8
0
  6
Continuous
 62
     7
370
    25
100
AcDbLine
 10
68.7972305788
 20
25.2783636224
 30
0.0
 11
73.7972305788
 21
25.2783636224
 31
0.0
  0
LINE
  5
79
330
1F
100
AcDbEntity
  8
0
  6
Continuous
 62
     7
370
    25
100
AcDbLine
 10
73.7972305788
 20
35.2783636224
 30
0.0
 11
73.7972305788
 21
25.2783636224
 31
0.0
  0
LINE
  5
7A
330
1F
100
AcDbEntity
  8
0
  6
Continuous
 62
     7
370
    25
100
AcDbLine
 10
68.7972305788
 20
35.2783636224
 30
0.0
 11
73.7972305788
 21
35.2783636224
 31
0.0
  0
LINE
  5
7B
330
1F
100
AcDbEntity
  8
0
  6
Continuous
 62
     7
370
    25
100
AcDbLine
 10
66.7972305788
 20
39.5159679294
 30
0.0
 11
66.7972305788
 21
21.0407593154
 31
0.0
  0
LINE
  5
7C
330
1F
100
AcDbEntity
  8
0
  6
Continuous
 62
     7
370
    25
100
AcDbLine
 10
66.7972305788
 20
39.5159679294
 30
0.0
 11
74.3681682192
 21
39.5159679294
 31
0.0
  0
SPLINE
  5
7D
330
1F
100
AcDbEntity
  8
0
  6
Continuous
 62
     7
370
    25
100
AcDbSpline
210
0.0
220
0.0
230
1.0
 70
     8
 71
     3
 72
    12
 73
     8
 74
     0
 42
0.000000001
 43
0.00000001
 40
0.0
 40
0.0
 40
0.0
 40
0.0
 40
0.2499999999999999
 40
0.2499999999999999
 40
0.4999999999999998
 40
0.4999999999999998
 40
1.0
 40
1.0
 40
1.0
 40
1.0
 10
75.79723057880278
 20
30.27836362240809
 30
0.0
 10
75.79723057880278
 20
31.06058181173508
 30
0.0
 10
75.76375460964091
 20
31.84783182012193
 30
0.0
 10
75.63160255692098
 20
33.4195061940423
 30
0.0
 10
75.53378381862969
 20
34.19712565613283
 30
0.0
 10
75.15841615370921
 20
36.50877836339335
 30
0.0
 10
74.79951181574711
 20
38.02174987986046
 30
0.0
 10
74.36816821917013
 20
39.51596792944211
 30
0.0
  0
SPLINE
  5
7E
330
1F
100
AcDbEntity
  8
0
  6
Continuous
 62
     7
370
    25
100
AcDbSpline
210
0.0
220
0.0
230
1.0
 70
     8
 71
     3
 72
    12
 73
     8
 74
     0
 42
0.000000001
 43
0.00000001
 40
0.0
 40
0.0
 40
0.0
 40
0.0
 40
0.2500000000000001
 40
0.2500000000000001
 40
0.5000000000000001
 40
0.5000000000000001
 40
1.0
 40
1.0
 40
1.0
 40
1.0
 10
74.36816821917016
 20
21.04075931537407
 30
0.0
 10
74.58532397970238
 20
21.79300893617024
 30
0.0
 10
74.78510868729542
 20
22.55414292918501
 30
0.0
 10
75.13769203417279
 20
24.08536485273668
 30
0.0
 10
75.28999328762782
 20
24.85315219241579
 30
0.0
 10
75.66271494231022
 20
27.16415109629233
 30
0.0
 10
75.79723057880278
 20
28.71515582258872
 30
0.0
 10
75.79723057880278
 20
30.27836362240809
 30
0.0
  0
LINE
  5
7F
330
1F
100
AcDbEntity
  8
0
  6
Continuous
 62
     7
370
    25
100
AcDbLine
 10
66.7972305788
 20
21.0407593154
 30
0.0
 11
74.3681682192
 21
21.0407593154
 31
0.0
  0
LINE
  5
80
330
1F
100
AcDbEntity
  8
0
  6
Continuous
 62
     7
370
    25
100
AcDbLine
 10
66.7972305788
 20
21.0407593154
 30
0.0
 11
66.7972305788
 21
11.8031550083
 31
0.0
  0
SPLINE
  5
81
330
1F
100
AcDbEntity
  8
0
  6
Continuous
 62
     7
370
    25
100
AcDbSpline
210
0.0
220
0.0
230
1.0
 70
     8
 71
     3
 72
    12
 73
     8
 74
     0
 42
0.000000001
 43
0.00000001
 40
0.0
 40
0.0
 40
0.0
 40
0.0
 40
0.25
 40
0.25
 40
0.5
 40
0.5
 40
1.0
 40
1.0
 40
1.0
 40
1.0
 10
75.79723057880278
 20
16.42195716185707
 30
0.0
 10
75.79723057880278
 20
16.81393924038627
 30
0.0
 10
75.76345292964676
 20
17.20768021804561
 30
0.0
 10
75.63273709370652
 20
17.98658183168605
 30
0.0
 10
75.53592460541324
 20
18.3734275320266
 30
0.0
 10
75.16252900722992
 20
19.52709393768063
 30
0.0
 10
74.80331055478993
 20
20.28707068155658
 30
0.0
 10
74.36816821917023
 20
21.04075931537409
 30
0.0
  0
SPLINE
  5
82
330
1F
100
AcDbEntity
  8
0
  6
Continuous
 62
     7
370
    25
100
AcDbSpline
210
0.0
220
0.0
230
1.0
 70
     8
 71
     3
 72
    10
 73
     6
 74
     0
 42
0.000000001
 43
0.00000001
 40
0.0
 40
0.0
 40
0.0
 40
0.0
 40
0.5
 40
0.5
 40
1.0
 40
1.0
 40
1.0
 40
1.0
 10
74.36816821917034
 20
11.80315500834005
 30
0.0
 10
74.80440001824714
 20
12.55873064821825
 30
0.0
 10
75.16379010037471
 20
13.31982522613857
 30
0.0
 10
75.66103338553644
 20
14.85792563901912
 30
0.0
 10
75.79723057880278
 20
15.63505041217682
 30
0.0
 10
75.79723057880278
 20
16.42195716185707
 30
0.0
  0
LINE
  5
83
330
1F
100
AcDbEntity
  8
0
  6
Continuous
 62
     7
370
    25
100
AcDbLine
 10
66.7972305788
 20
11.8031550083
 30
0.0
 11
74.3681682192
 21
11.8031550083
 31
0.0
  0
LINE
  5
84
330
1F
100
AcDbEntity
  8
0
  6
Continuous
 62
     7
370
    25
100
AcDbLine
 10
66.7972305788
 20
48.7535722365
 30
0.0
 11
66.7972305788
 21
39.5159679294
 31
0.0
  0
LINE
  5
85
330
1F
100
AcDbEntity
  8
0
  6
Continuous
 62
     7
370
    25
100
AcDbLine
 10
66.7972305788
 20
48.7535722365
 30
0.0
 11
74.3681682192
 21
48.7535722365
 31
0.0
  0
SPLINE
  5
86
330
1F
100
AcDbEntity
  8
0
  6
Continuous
 62
     7
370
    25
100
AcDbSpline
210
0.0
220
0.0
230
1.0
 70
     8
 71
     3
 72
    12
 73
     8
 74
     0
 42
0.000000001
 43
0.00000001
 40
0.0
 40
0.0
 40
0.0
 40
0.0
 40
0.2499999999999999
 40
0.2499999999999999
 40
0.4999999999999999
 40
0.4999999999999999
 40
1.0
 40
1.0
 40
1.0
 40
1.0
 10
75.79723057880278
 20
44.13477008295911
 30
0.0
 10
75.79723057880278
 20
44.52675216148831
 30
0.0
 10
75.76345292964677
 20
44.92049313914766
 30
0.0
 10
75.63273709370652
 20
45.69939475278809
 30
0.0
 10
75.53592460541324
 20
46.08624045312865
 30
0.0
 10
75.16252900722992
 20
47.23990685878267
 30
0.0
 10
74.80331055478993
 20
47.99988360265862
 30
0.0
 10
74.36816821917023
 20
48.75357223647612
 30
0.0
  0
SPLINE
  5
87
330
1F
100
AcDbEntity
  8
0
  6
Continuous
 62
     7
370
    25
100
AcDbSpline
210
0.0
220
0.0
230
1.0
 70
     8
 71
     3
 72
    10
 73
     6
 74
     0
 42
0.000000001
 43
0.00000001
 40
0.0
 40
0.0
 40
0.0
 40
0.0
 40
0.5
 40
0.5
 40
1.0
 40
1.0
 40
1.0
 40
1.0
 10
74.36816821917034
 20
39.51596792944209
 30
0.0
 10
74.80440001824714
 20
40.27154356932029
 30
0.0
 10
75.16379010037471
 20
41.03263814724062
 30
0.0
 10
75.66103338553644
 20
42.57073856012116
 30
0.0
 10
75.79723057880278
 20
43.34786333327887
 30
0.0
 10
75.79723057880278
 20
44.13477008295911
 30
0.0
  0
SPLINE
  5
88
330
1F
100
AcDbEntity
  8
0
  6
Continuous
 62
     7
370
    25
100
AcDbSpline
210
0.0
220
0.0
230
1.0
 70
     8
 71
     3
 72
    23
 73
    19
 74
     0
 42
0.000000001
 43
0.00000001
 40
0.0
 40
0.0
 40
0.0
 40
0.0
 40
0.0730186031256834
 40
0.1431450342826867
 40
0.2108685250690167
 40
0.2758529921314155
 40
0.3393775786396916
 40
0.4014896731374407
 40
0.4626929707642301
 40
0.5235137498083662
 40
0.5837365428428315
 40
0.642482844126682
 40
0.7008923221667984
 40
0.7590076610242051
 40
0.8177309275530394
 40
0.8769645997526954
 40
0.9377482929525023
 40
1.0
 40
1.0
 40
1.0
 40
1.0
 10
72.22201022623867
 20
33.94416000522262
 30
0.0
 10
72.25699768140383
 20
33.93585976659048
 30
0.0
 10
72.32558678410768
 20
33.91958805099073
 30
0.0
 10
72.42382253678133
 20
33.88575640971202
 30
0.0
 10
72.51656683613415
 20
33.84862976914395
 30
0.0
 10
72.60267719816929
 20
33.80462420815611
 30
0.0
 10
72.68285365491734
 20
33.75571484208422
 30
0.0
 10
72.75678310919021
 20
33.70081596871774
 30
0.0
 10
72.8244769335057
 20
33.64035231999449
 30
0.0
 10
72.88527318481287
 20
33.57424751299939
 30
0.0
 10
72.93994124584566
 20
33.50453904954885
 30
0.0
 10
72.987287349627
 20
33.43103977370171
 30
0.0
 10
73.02726257119811
 20
33.35447205006115
 30
0.0
 10
73.0604524967265
 20
33.27475340993358
 30
0.0
 10
73.08656403477113
 20
33.19197209779375
 30
0.0
 10
73.10452887748067
 20
33.10576119438772
 30
0.0
 10
73.11628461419508
 20
33.01666790973819
 30
0.0
 10
73.1174528119507
 20
32.95608361803949
 30
0.0
 10
73.11804388008481
 20
32.92543003727391
 30
0.0
  0
SPLINE
  5
89
330
1F
100
AcDbEntity
  8
0
  6
Continuous
 62
     7
370
    25
100
AcDbSpline
210
0.0
220
0.0
230
1.0
 70
     8
 71
     3
 72
    19
 73
    15
 74
     0
 42
0.000000001
 43
0.00000001
 40
0.0
 40
0.0
 40
0.0
 40
0.0
 40
0.0898644634927058
 40
0.1775895521150333
 40
0.2652391566373749
 40
0.3537566807950157
 40
0.4409988070962472
 40
0.5248467744535984
 40
0.6072414837135927
 40
0.6893652937674905
 40
0.7700471770848268
 40
0.8477834412405076
 40
0.9236974916292963
 40
1.0
 40
1.0
 40
1.0
 40
1.0
 10
73.11804388008481
 20
32.92543003727391
 30
0.0
 10
73.11650863885752
 20
32.88070825307074
 30
0.0
 10
73.11347470540544
 20
32.79232936204148
 30
0.0
 10
73.09082301596048
 20
32.66179549270835
 30
0.0
 10
73.05072061348307
 20
32.53644095297418
 30
0.0
 10
72.99728412165906
 20
32.41648902199404
 30
0.0
 10
72.93076525898468
 20
32.30530593716483
 30
0.0
 10
72.85124637333816
 20
32.20692211746592
 30
0.0
 10
72.76172027121339
 20
32.12123913180261
 30
0.0
 10
72.6623308307349
 20
32.0497270537664
 30
0.0
 10
72.55591643123655
 20
31.99423969702362
 30
0.0
 10
72.44670342993777
 20
31.95263005455727
 30
0.0
 10
72.3343440587237
 20
31.92799967759829
 30
0.0
 10
72.25858445439691
 20
31.92455340457716
 30
0.0
 10
72.22060798264893
 20
31.92282587060724
 30
0.0
  0
SPLINE
  5
8A
330
1F
100
AcDbEntity
  8
0
  6
Continuous
 62
     7
370
    25
100
AcDbSpline
210
0.0
220
0.0
230
1.0
 70
     8
 71
     3
 72
    15
 73
    11
 74
     0
 42
0.000000001
 43
0.00000001
 40
0.0
 40
0.0
 40
0.0
 40
0.0
 40
0.1240120616548135
 40
0.2436563139321583
 40
0.3608451373568509
 40
0.4793769364499221
 40
0.5998207045945024
 40
0.724946794208572
 40
0.8585195054390143
 40
1.0
 40
1.0
 40
1.0
 40
1.0
 10
72.22060798264893
 20
31.92282587060724
 30
0.0
 10
72.18406210426807
 20
31.9242035607297
 30
0.0
 10
72.11225752415808
 20
31.92691041756685
 30
0.0
 10
72.00741934145714
 20
31.94737362664137
 30
0.0
 10
71.90864761520159
 20
31.98314614952084
 30
0.0
 10
71.81570668779962
 20
32.03253858806166
 30
0.0
 10
71.72848130809693
 20
32.09560863961585
 30
0.0
 10
71.64806257173517
 20
32.17352035015723
 30
0.0
 10
71.57272288506408
 20
32.26462696457963
 30
0.0
 10
71.52969802826625
 20
32.33337636093665
 30
0.0
 10
71.5075671172643
 20
32.3687393321457
 30
0.0
  0
SPLINE
  5
8B
330
1F
100
AcDbEntity
  8
0
  6
Continuous
 62
     7
370
    25
100
AcDbSpline
210
0.0
220
0.0
230
1.0
 70
     8
 71
     3
 72
    11
 73
     7
 74
     0
 42
0.000000001
 43
0.00000001
 40
0.0
 40
0.0
 40
0.0
 40
0.0
 40
0.2584317084777976
 40
0.5081706827419571
 40
0.7545708308982126
 40
1.0
 40
1.0
 40
1.0
 40
1.0
 10
71.5075671172643
 20
32.3687393321457
 30
0.0
 10
71.48959811194072
 20
32.32828051899843
 30
0.0
 10
71.45426451546656
 20
32.24872378495417
 30
0.0
 10
71.38524113834518
 20
32.13911559898159
 30
0.0
 10
71.30461632784909
 20
32.04049851334794
 30
0.0
 10
71.24169168442168
 20
31.9844490976726
 30
0.0
 10
71.21029147623867
 20
31.95647971676108
 30
0.0
  0
SPLINE
  5
8C
330
1F
100
AcDbEntity
  8
0
  6
Continuous
 62
     7
370
    25
100
AcDbSpline
210
0.0
220
0.0
230
1.0
 70
     8
 71
     3
 72
    15
 73
    11
 74
     0
 42
0.000000001
 43
0.00000001
 40
0.0
 40
0.0
 40
0.0
 40
0.0
 40
0.1306423407152709
 40
0.2578824005991132
 40
0.3825759848001575
 40
0.5056320390703242
 40
0.6276817356858381
 40
0.7503150669859459
 40
0.8740374788263688
 40
1.0
 40
1.0
 40
1.0
 40
1.0
 10
71.21029147623867
 20
31.95647971676108
 30
0.0
 10
71.18721183431823
 20
31.93831785723973
 30
0.0
 10
71.14165360694092
 20
31.90246712227075
 30
0.0
 10
71.06901874759916
 20
31.85622008177812
 30
0.0
 10
70.99448920106144
 20
31.81677297684152
 30
0.0
 10
70.91793369335791
 20
31.78409944250043
 30
0.0
 10
70.83881191016386
 20
31.75991426205599
 30
0.0
 10
70.75809103729812
 20
31.74121678852389
 30
0.0
 10
70.67491643707899
 20
31.73064898453904
 30
0.0
 10
70.61880648678014
 20
31.72929712663925
 30
0.0
 10
70.59049980957201
 20
31.72861513342775
 30
0.0
  0
SPLINE
  5
8D
330
1F
100
AcDbEntity
  8
0
  6
Continuous
 62
     7
370
    25
100
AcDbSpline
210
0.0
220
0.0
230
1.0
 70
     8
 71
     3
 72
    19
 73
    15
 74
     0
 42
0.000000001
 43
0.00000001
 40
0.0
 40
0.0
 40
0.0
 40
0.0
 40
0.0805837841055695
 40
0.1603576603781791
 40
0.2417742204000993
 40
0.3252421411441939
 40
0.4090261606311749
 40
0.4910624318901211
 40
0.5724143947194857
 40
0.6554687862101186
 40
0.7394875570886768
 40
0.8241979388352174
 40
0.9105582787213383
 40
0.9999999999999999
 40
0.9999999999999999
 40
0.9999999999999999
 40
0.9999999999999999
 10
70.59049980957201
 20
31.72861513342775
 30
0.0
 10
70.54149000923235
 20
31.73014351674039
 30
0.0
 10
70.443962981862
 20
31.73318492233949
 30
0.0
 10
70.29987470430567
 20
31.76481309488629
 30
0.0
 10
70.15892567948721
 20
31.81279818928498
 30
0.0
 10
70.02374336660702
 20
31.88110598133055
 30
0.0
 10
69.8970839594017
 20
31.96480817442
 30
0.0
 10
69.78490900462356
 20
32.06533803067287
 30
0.0
 10
69.68751904220004
 20
32.17958188775988
 30
0.0
 10
69.6064323690101
 20
32.30737130402673
 30
0.0
 10
69.54183256603595
 20
32.44644815583175
 30
0.0
 10
69.49539074425864
 20
32.59466066518849
 30
0.0
 10
69.46759964638125
 20
32.75098344672478
 30
0.0
 10
69.46368523205827
 20
32.85777635792559
 30
0.0
 10
69.4616937198284
 20
32.91210872317134
 30
0.0
  0
SPLINE
  5
8E
330
1F
100
AcDbEntity
  8
0
  6
Continuous
 62
     7
370
    25
100
AcDbSpline
210
0.0
220
0.0
230
1.0
 70
     8
 71
     3
 72
    23
 73
    19
 74
     0
 42
0.000000001
 43
0.00000001
 40
0.0
 40
0.0
 40
0.0
 40
0.0
 40
0.0654319102705884
 40
0.1283007822384561
 40
0.1893941642270051
 40
0.2489493645792659
 40
0.3071062948687989
 40
0.3652199663904765
 40
0.4230973842619336
 40
0.4815755109838811
 40
0.5407846058224668
 40
0.6001399828655152
 40
0.6608017450363896
 40
0.7236664787616075
 40
0.7881249774445687
 40
0.8555863152329701
 40
0.9262348790940098
 40
1.0
 40
1.0
 40
1.0
 40
1.0
 10
69.4616937198284
 20
32.91210872317134
 30
0.0
 10
69.46250352478383
 20
32.94883824628685
 30
0.0
 10
69.46409141376354
 20
33.02085855759181
 30
0.0
 10
69.47652286114038
 20
33.12653478967894
 30
0.0
 10
69.49536095098743
 20
33.22794003278294
 30
0.0
 10
69.52488248012834
 20
33.32399432905886
 30
0.0
 10
69.56023510667166
 20
33.41624718812242
 30
0.0
 10
69.60548958532749
 20
33.50309553412107
 30
0.0
 10
69.65846731103878
 20
33.58554950331127
 30
0.0
 10
69.7186391838703
 20
33.66375791324602
 30
0.0
 10
69.78734726472055
 20
33.73578093747491
 30
0.0
 10
69.86372791440414
 20
33.80143766069573
 30
0.0
 10
69.94768758689474
 20
33.86076950013064
 30
0.0
 10
70.03963721997131
 20
33.91272272087519
 30
0.0
 10
70.13842967216799
 20
33.95980914591701
 30
0.0
 10
70.24546930054781
 20
33.99847415576803
 30
0.0
 10
70.35974466572463
 20
34.03170356714834
 30
0.0
 10
70.4391586611096
 20
34.04801021404086
 30
0.0
 10
70.47972256598226
 20
34.05633949240211
 30
0.0
  0
LINE
  5
8F
330
1F
100
AcDbEntity
  8
0
  6
Continuous
 62
     7
370
    25
100
AcDbLine
 10
70.479722566
 20
34.0563394924
 30
0.0
 11
70.4804236878
 21
33.7155943001
 31
0.0
  0
SPLINE
  5
90
330
1F
100
AcDbEntity
  8
0
  6
Continuous
 62
     7
370
    25
100
AcDbSpline
210
0.0
220
0.0
230
1.0
 70
     8
 71
     3
 72
    15
 73
    11
 74
     0
 42
0.000000001
 43
0.00000001
 40
0.0
 40
0.0
 40
0.0
 40
0.0
 40
0.1522783863742212
 40
0.2949607722455517
 40
0.4300398780838038
 40
0.5569198968591851
 40
0.6767529970999909
 40
0.79010847644238
 40
0.8974841170435964
 40
1.0
 40
1.0
 40
1.0
 40
1.0
 10
70.48042368777713
 20
33.71559430009442
 30
0.0
 10
70.45299929612014
 20
33.70791404296109
 30
0.0
 10
70.39987869290051
 20
33.6930375090745
 30
0.0
 10
70.32375453905259
 20
33.66698647111549
 30
0.0
 10
70.25357635748156
 20
33.63854748900492
 30
0.0
 10
70.18957949509813
 20
33.60676706608142
 30
0.0
 10
70.13120359926651
 20
33.5731402613921
 30
0.0
 10
70.0782600094853
 20
33.5376241919254
 30
0.0
 10
70.03161443864866
 20
33.49895285989934
 30
0.0
 10
70.00435487661454
 20
33.47068636754298
 30
0.0
 10
69.99104067495662
 20
33.45688035778672
 30
0.0
  0
SPLINE
  5
91
330
1F
100
AcDbEntity
  8
0
  6
Continuous
 62
     7
370
    25
100
AcDbSpline
210
0.0
220
0.0
230
1.0
 70
     8
 71
     3
 72
    15
 73
    11
 74
     0
 42
0.000000001
 43
0.00000001
 40
0.0
 40
0.0
 40
0.0
 40
0.0
 40
0.1198931461413826
 40
0.2392806937666594
 40
0.3590113515423826
 40
0.4796675668761693
 40
0.6039123464581454
 40
0.7313397220394207
 40
0.8631284656774939
 40
1.0
 40
1.0
 40
1.0
 40
1.0
 10
69.99104067495662
 20
33.45688035778672
 30
0.0
 10
69.97563686506639
 20
33.43875271233356
 30
0.0
 10
69.94489420432383
 20
33.40257386708686
 30
0.0
 10
69.90677457252592
 20
33.34228173933786
 30
0.0
 10
69.87337937674197
 20
33.27918779948288
 30
0.0
 10
69.8468043754006
 20
33.21185042138331
 30
0.0
 10
69.82559314915277
 20
33.1410605528772
 30
0.0
 10
69.81127301563811
 20
33.06634044700938
 30
0.0
 10
69.8016582204344
 20
32.98831484303867
 30
0.0
 10
69.80078196395208
 20
32.93504223125022
 30
0.0
 10
69.8003355467515
 20
32.90790199240211
 30
0.0
  0
SPLINE
  5
92
330
1F
100
AcDbEntity
  8
0
  6
Continuous
 62
     7
370
    25
100
AcDbSpline
210
0.0
220
0.0
230
1.0
 70
     8
 71
     3
 72
    23
 73
    19
 74
     0
 42
0.000000001
 43
0.00000001
 40
0.0
 40
0.0
 40
0.0
 40
0.0
 40
0.0733530577186299
 40
0.1433327250572918
 40
0.2103134005005161
 40
0.2756416461811971
 40
0.339077999105127
 40
0.4017563649200039
 40
0.4646312151222131
 40
0.5279483609728384
 40
0.5908183065492587
 40
0.6510172462753792
 40
0.7098797615356192
 40
0.7679936142463303
 40
0.8249281294360252
 40
0.8821678388245866
 40
0.9405173410835237
 40
1.0
 40
1.0
 40
1.0
 40
1.0
 10
69.8003355467515
 20
32.90790199240211
 30
0.0
 10
69.80088483656932
 20
32.87700902992226
 30
0.0
 10
69.80195815524047
 20
32.81664382313954
 30
0.0
 10
69.81394088713623
 20
32.72880226644786
 30
0.0
 10
69.83082599577024
 20
32.64524033066303
 30
0.0
 10
69.85653537122884
 20
32.56682653320852
 30
0.0
 10
69.88770806403136
 20
32.49237166627388
 30
0.0
 10
69.9276410457411
 20
32.42337830296704
 30
0.0
 10
69.97383426552852
 20
32.35852045904032
 30
0.0
 10
70.02724872576752
 20
32.2993446596029
 30
0.0
 10
70.08474746386347
 20
32.24584463984824
 30
0.0
 10
70.14552709376296
 20
32.19908995981799
 30
0.0
 10
70.2088864918603
 20
32.15950932788423
 30
0.0
 10
70.27481543394474
 20
32.12749283545494
 30
0.0
 10
70.34267409042577
 20
32.10152003374395
 30
0.0
 10
70.41335964741783
 20
32.08431151209916
 30
0.0
 10
70.48639273697113
 20
32.0734200568428
 30
0.0
 10
70.53600699993852
 20
32.07211998050941
 30
0.0
 10
70.56105269418738
 20
32.07146369112006
 30
0.0
  0
LINE
  5
93
330
1F
100
AcDbEntity
  8
0
  6
Continuous
 62
     7
370
    25
100
AcDbLine
 10
71.3196664762
 20
33.0922970245
 30
0.0
 11
71.6386768929
 21
33.0929981462
 31
0.0
  0
SPLINE
  5
94
330
1F
100
AcDbEntity
  8
0
  6
Continuous
 62
     7
370
    25
100
AcDbSpline
210
0.0
220
0.0
230
1.0
 70
     8
 71
     3
 72
    19
 73
    15
 74
     0
 42
0.000000001
 43
0.00000001
 40
0.0
 40
0.0
 40
0.0
 40
0.0
 40
0.1056842280274477
 40
0.2071480086812809
 40
0.3055733798927368
 40
0.4023509627504038
 40
0.4942253225812859
 40
0.5778581972337958
 40
0.6553406227623808
 40
0.7281025018592053
 40
0.7974913200268973
 40
0.8647514252589543
 40
0.9322191330556121
 40
0.9999999999999999
 40
0.9999999999999999
 40
0.9999999999999999
 40
0.9999999999999999
 10
71.63867689290534
 20
33.09299814624826
 30
0.0
 10
71.6398483901759
 20
33.05392562959502
 30
0.0
 10
71.64214460155299
 20
32.97734093791535
 30
0.0
 10
71.65740189988482
 20
32.86510534146513
 30
0.0
 10
71.68463884341361
 20
32.75869340391821
 30
0.0
 10
71.7200369463908
 20
32.65838603283238
 30
0.0
 10
71.76551220452207
 20
32.56834077221037
 30
0.0
 10
71.81563313955003
 20
32.48909713393083
 30
0.0
 10
71.87281525725909
 20
32.42370833787315
 30
0.0
 10
71.93578547284493
 20
32.37186274632796
 30
0.0
 10
72.00315314273809
 20
32.33299819882362
 30
0.0
 10
72.0735941278744
 20
32.30543493007452
 30
0.0
 10
72.14680352368553
 20
32.28760352499811
 30
0.0
 10
72.19690265830782
 20
32.28607291537852
 30
0.0
 10
72.22201022623867
 20
32.28530583855596
 30
0.0
  0
SPLINE
  5
95
330
1F
100
AcDbEntity
  8
0
  6
Continuous
 62
     7
370
    25
100
AcDbSpline
210
0.0
220
0.0
230
1.0
 70
     8
 71
     3
 72
    23
 73
    19
 74
     0
 42
0.000000001
 43
0.00000001
 40
0.0
 40
0.0
 40
0.0
 40
0.0
 40
0.0594442432234896
 40
0.1172777151826483
 40
0.1741654339188966
 40
0.2310821893488619
 40
0.2888394266768148
 40
0.3477064372637326
 40
0.4088046360415958
 40
0.4717761120603865
 40
0.5361060630023163
 40
0.5997084660918863
 40
0.6631417885019429
 40
0.7273646334607884
 40
0.7924055282557355
 40
0.8592174762568222
 40
0.9279793614004025
 40
1.0
 40
1.0
 40
1.0
 40
1.0
 10
72.22201022623867
 20
32.28530583855596
 30
0.0
 10
72.24074168337319
 20
32.28582187247765
 30
0.0
 10
72.27769702800627
 20
32.2868399572578
 30
0.0
 10
72.33197345356534
 20
32.29561429250497
 30
0.0
 10
72.38439173232962
 20
32.30933504726637
 30
0.0
 10
72.43429200775265
 20
32.33037089335885
 30
0.0
 10
72.48293403460781
 20
32.35540234283472
 30
0.0
 10
72.52966281878872
 20
32.38648512744622
 30
0.0
 10
72.57348323385311
 20
32.42401236952782
 30
0.0
 10
72.61571066185219
 20
32.46579024476555
 30
0.0
 10
72.6537941844413
 20
32.51245180805073
 30
0.0
 10
72.68759687573824
 20
32.56242545730666
 30
0.0
 10
72.71673926271436
 20
32.61525686263205
 30
0.0
 10
72.73987134123352
 20
32.67151438696972
 30
0.0
 10
72.75704186581834
 20
32.73089913970098
 30
0.0
 10
72.770722225007
 20
32.79263050666766
 30
0.0
 10
72.77855524770352
 20
32.85768490795903
 30
0.0
 10
72.77911546216752
 20
32.90203868765202
 30
0.0
 10
72.77940205316175
 20
32.92472891547904
 30
0.0
  0
LINE
  5
96
330
1F
100
AcDbEntity
  8
0
  6
Continuous
 62
     7
370
    25
100
AcDbLine
 10
72.222711348
 20
33.5886912552
 30
0.0
 11
72.2220102262
 21
33.9441600052
 31
0.0
  0
SPLINE
  5
97
330
1F
100
AcDbEntity
  8
0
  6
Continuous
 62
     7
370
    25
100
AcDbSpline
210
0.0
220
0.0
230
1.0
 70
     8
 71
     3
 72
    19
 73
    15
 74
     0
 42
0.000000001
 43
0.00000001
 40
0.0
 40
0.0
 40
0.0
 40
0.0
 40
0.1168369218480489
 40
0.2280869752807117
 40
0.3361953307148091
 40
0.4454791507184102
 40
0.5019964931800734
 40
0.5615530752350177
 40
0.6241413224319318
 40
0.691098031853392
 40
0.7612462993947786
 40
0.8365748255986293
 40
0.9156669457862847
 40
1.0
 40
1.0
 40
1.0
 40
1.0
 10
72.77940205316175
 20
32.92472891547904
 30
0.0
 10
72.77804844345046
 20
32.96108632383835
 30
0.0
 10
72.77540595047928
 20
33.03206261429992
 30
0.0
 10
72.7509991371494
 20
33.1344424945197
 30
0.0
 10
72.71013538173604
 20
33.22849430426903
 30
0.0
 10
72.66388051010517
 20
33.30053690624408
 30
0.0
 10
72.61809420008775
 20
33.3536585923947
 30
0.0
 10
72.57810972779869
 20
33.39233886576169
 30
0.0
 10
72.53182892600873
 20
33.42867138850492
 30
0.0
 10
72.48103494972983
 20
33.46440514166244
 30
0.0
 10
72.42426225905594
 20
33.49823758180474
 30
0.0
 10
72.3621807484915
 20
33.5302299406884
 30
0.0
 10
72.29432304058676
 20
33.56035849609319
 30
0.0
 10
72.24708685630297
 20
33.57904722392226
 30
0.0
 10
72.22271134803354
 20
33.58869125522263
 30
0.0
  0
SPLINE
  5
98
330
1F
100
AcDbEntity
  8
0
  6
Continuous
 62
     7
370
    25
100
AcDbSpline
210
0.0
220
0.0
230
1.0
 70
     8
 71
     3
 72
    23
 73
    19
 74
     0
 42
0.000000001
 43
0.00000001
 40
0.0
 40
0.0
 40
0.0
 40
0.0
 40
0.0704183407439892
 40
0.1398983262899653
 40
0.2098714827322015
 40
0.2824432280442451
 40
0.35544100665497
 40
0.4273446434274999
 40
0.4988697266890611
 40
0.5720655821253936
 40
0.6108359218932056
 40
0.6538660897937575
 40
0.701047794587547
 40
0.7523061298910001
 40
0.8075456450906867
 40
0.866952748708618
 40
0.9310849584641524
 40
1.0
 40
1.0
 40
1.0
 40
1.0
 10
70.56105269418738
 20
32.07146369112006
 30
0.0
 10
70.59459893932215
 20
32.07271864745324
 30
0.0
 10
70.66124441119898
 20
32.07521183727744
 30
0.0
 10
70.7589840273596
 20
32.09817365133765
 30
0.0
 10
70.85352220574413
 20
32.13417195378113
 30
0.0
 10
70.9430624746528
 20
32.1847995639069
 30
0.0
 10
71.02665044420021
 20
32.24638872566935
 30
0.0
 10
71.09879738399258
 20
32.32032833628577
 30
0.0
 10
71.16191964611379
 20
32.4021871410138
 30
0.0
 10
71.20332796924178
 20
32.47951147741328
 30
0.0
 10
71.2311553278724
 20
32.54781653827877
 30
0.0
 10
71.25102969489649
 20
32.60594804465597
 30
0.0
 10
71.26706812143536
 20
32.6713570973176
 30
0.0
 10
71.28296345984143
 20
32.74273956562595
 30
0.0
 10
71.29510816307365
 20
32.82077334857874
 30
0.0
 10
71.30566299839835
 20
32.90517413163707
 30
0.0
 10
71.3140534846488
 20
32.99637271729756
 30
0.0
 10
71.31775117044994
 20
33.05956503513301
 30
0.0
 10
71.31966647623867
 20
33.09229702445339
 30
0.0
  0
SPLINE
  5
99
330
1F
100
AcDbEntity
  8
0
  6
Continuous
 62
     7
370
    25
100
AcDbSpline
210
0.0
220
0.0
230
1.0
 70
     8
 71
     3
 72
    31
 73
    27
 74
     0
 42
0.000000001
 43
0.00000001
 40
0.0
 40
0.0
 40
0.0
 40
0.0
 40
0.0339502110781211
 40
0.0672329121613261
 40
0.100285195545381
 40
0.132871756086679
 40
0.1656126382025741
 40
0.1984143020951524
 40
0.2319803791781298
 40
0.2657493034654437
 40
0.3000852706599994
 40
0.3350128356127912
 40
0.37072761243257
 40
0.4072426904682681
 40
0.4447344002219941
 40
0.4838550686041196
 40
0.5242809168028183
 40
0.5664047064396793
 40
0.6105232789836175
 40
0.6571713761395421
 40
0.7066905256858502
 40
0.75881954087437
 40
0.8143476779909847
 40
0.8730252167393548
 40
0.9346941578931789
 40
1.0
 40
1.0
 40
1.0
 40
1.0
 10
72.6877599518212
 20
30.37529043298309
 30
0.0
 10
72.68737471497744
 20
30.35142599480823
 30
0.0
 10
72.68661181560049
 20
30.30416632764744
 30
0.0
 10
72.67817264600153
 20
30.23413488927817
 30
0.0
 10
72.6662368167169
 20
30.16559174763813
 30
0.0
 10
72.64693495288824
 20
30.09911346583198
 30
0.0
 10
72.62362770552096
 20
30.03420112622207
 30
0.0
 10
72.59532463021583
 20
29.97048243660548
 30
0.0
 10
72.56097116716526
 20
29.90900825720375
 30
0.0
 10
72.5219312140758
 20
29.84909835034125
 30
0.0
 10
72.47710516881196
 20
29.79218634001688
 30
0.0
 10
72.42810149611132
 20
29.73694760128304
 30
0.0
 10
72.37233864531487
 20
29.68620502863366
 30
0.0
 10
72.31213509993201
 20
29.63801015710556
 30
0.0
 10
72.24684799712111
 20
29.59254763596262
 30
0.0
 10
72.17590427438198
 20
29.55086020886731
 30
0.0
 10
72.09991573241906
 20
29.51162104676652
 30
0.0
 10
72.01853025965971
 20
29.47551748614051
 30
0.0
 10
71.9310723017022
 20
29.44259367358636
 30
0.0
 10
71.83622389571138
 20
29.41556117838093
 30
0.0
 10
71.73488015070173
 20
29.39119497330573
 30
0.0
 10
71.6259963186886
 20
29.37250095478516
 30
0.0
 10
71.5101993244733
 20
29.35655494883849
 30
0.0
 10
71.38702706003073
 20
29.34624560638467
 30
0.0
 10
71.2567475259427
 20
29.33941422163609
 30
0.0
 10
71.16753704017832
 20
29.33850067443131
 30
0.0
 10
71.12165418259043
 20
29.33803081759848
 30
0.0
  0
SPLINE
  5
9A
330
1F
100
AcDbEntity
  8
0
  6
Continuous
 62
     7
370
    25
100
AcDbSpline
210
0.0
220
0.0
230
1.0
 70
     8
 71
     3
 72
    31
 73
    27
 74
     0
 42
0.000000001
 43
0.00000001
 40
0.0
 40
0.0
 40
0.0
 40
0.0
 40
0.0650547499265971
 40
0.1267600908173988
 40
0.1851636743975464
 40
0.2403681759960003
 40
0.2924787795614343
 40
0.3416842694399411
 40
0.3882804851059473
 40
0.4319607614163524
 40
0.4737330795845327
 40
0.5140527851450162
 40
0.5528057342986216
 40
0.5905542635423502
 40
0.6271376491872425
 40
0.6630677275804017
 40
0.6979972705385018
 40
0.7327539401655101
 40
0.7669379730898747
 40
0.8005238623563328
 40
0.8335821150233285
 40
0.8667080105333034
 40
0.899588502823621
 40
0.9324330797648364
 40
0.9660189690312943
 40
1.0
 40
1.0
 40
1.0
 40
1.0
 10
71.12165418259043
 20
29.33803081759848
 30
0.0
 10
71.07597046793879
 20
29.33823901199908
 30
0.0
 10
70.9869551104952
 20
29.33864468170278
 30
0.0
 10
70.85710371012445
 20
29.34577212642132
 30
0.0
 10
70.73437577606185
 20
29.35553472392466
 30
0.0
 10
70.61888811226557
 20
29.36999418468837
 30
0.0
 10
70.51044150438166
 20
29.38816825984696
 30
0.0
 10
70.40930985448452
 20
29.41200890096007
 30
0.0
 10
70.31496907666431
 20
29.43847296932961
 30
0.0
 10
70.2276547848154
 20
29.46993993792472
 30
0.0
 10
70.14690872047785
 20
29.50582406273641
 30
0.0
 10
70.07113089148793
 20
29.54406888425222
 30
0.0
 10
70.00028559782177
 20
29.5855735995788
 30
0.0
 10
69.93506731879631
 20
29.63092638089813
 30
0.0
 10
69.87354645356366
 20
29.67806518890008
 30
0.0
 10
69.81869852985757
 20
29.73000935239355
 30
0.0
 10
69.76815585684365
 20
29.78435500144117
 30
0.0
 10
69.72329357979844
 20
29.84196843193607
 30
0.0
 10
69.68352509987551
 20
29.9020690397549
 30
0.0
 10
69.64945067720335
 20
29.96418549102368
 30
0.0
 10
69.61942977043556
 20
30.02755490173686
 30
0.0
 10
69.59563339853995
 20
30.0930124061633
 30
0.0
 10
69.57687919349932
 20
30.1599039247575
 30
0.0
 10
69.56354149699676
 20
30.22842271729757
 30
0.0
 10
69.55575567479936
 20
30.29858875322696
 30
0.0
 10
69.55441818471162
 20
30.34602496575391
 30
0.0
 10
69.55374552874429
 20
30.36988177913694
 30
0.0
  0
SPLINE
  5
9B
330
1F
100
AcDbEntity
  8
0
  6
Continuous
 62
     7
370
    25
100
AcDbSpline
210
0.0
220
0.0
230
1.0
 70
     8
 71
     3
 72
    15
 73
    11
 74
     0
 42
0.000000001
 43
0.00000001
 40
0.0
 40
0.0
 40
0.0
 40
0.0
 40
0.1101521750668211
 40
0.2242222426284907
 40
0.3419129278445886
 40
0.4640474506958248
 40
0.5908700504788367
 40
0.7225988924896259
 40
0.8586572069173528
 40
1.0
 40
1.0
 40
1.0
 40
1.0
 10
70.34821668259043
 20
29.72805485606002
 30
0.0
 10
70.375365327012
 20
29.71911887971775
 30
0.0
 10
70.43062823882322
 20
29.70092909223218
 30
0.0
 10
70.51669748465572
 20
29.67929904539129
 30
0.0
 10
70.60640630455106
 20
29.65974647462773
 30
0.0
 10
70.70028974987805
 20
29.64428339567336
 30
0.0
 10
70.79833258781996
 20
29.63230120775741
 30
0.0
 10
70.90037961563225
 20
29.62398684191012
 30
0.0
 10
71.00642411024889
 20
29.61922683332523
 30
0.0
 10
71.0783801871819
 20
29.61846636972195
 30
0.0
 10
71.11504360566735
 20
29.61807889452155
 30
0.0
  0
SPLINE
  5
9C
330
1F
100
AcDbEntity
  8
0
  6
Continuous
 62
     7
370
    25
100
AcDbSpline
210
0.0
220
0.0
230
1.0
 70
     8
 71
     3
 72
    27
 73
    23
 74
     0
 42
0.000000001
 43
0.00000001
 40
0.0
 40
0.0
 40
0.0
 40
0.0
 40
0.0664232513051477
 40
0.1300005482133328
 40
0.1904591131003914
 40
0.2478107805595824
 40
0.3025828249597597
 40
0.3547537329664128
 40
0.4042227801398762
 40
0.4510520956160168
 40
0.4956100193804411
 40
0.5385021681669534
 40
0.5789184683159948
 40
0.6180061295108085
 40
0.6549634153425247
 40
0.6905110368767464
 40
0.7248985279908929
 40
0.758401355053738
 40
0.8226217585105128
 40
0.8832032853019794
 40
0.9417414765410408
 40
1.0
 40
1.0
 40
1.0
 40
1.0
 10
71.11504360566735
 20
29.61807889452155
 30
0.0
 10
71.15170568955887
 20
29.61847710460131
 30
0.0
 10
71.22345904265269
 20
29.61925646314905
 30
0.0
 10
71.32852454480975
 20
29.62381171049395
 30
0.0
 10
71.42826774298037
 20
29.63262050910532
 30
0.0
 10
71.52300913898232
 20
29.64284587113927
 30
0.0
 10
71.61249051463207
 20
29.6577412415794
 30
0.0
 10
71.69731341029926
 20
29.67396407873988
 30
0.0
 10
71.77671241726425
 20
29.69449670398945
 30
0.0
 10
71.85082114500894
 20
29.71808461258615
 30
0.0
 10
71.92038544194608
 20
29.7437912372922
 30
0.0
 10
71.98485120667978
 20
29.7726160827799
 30
0.0
 10
72.04510378661212
 20
29.80327673592729
 30
0.0
 10
72.100021333061
 20
29.83680061999732
 30
0.0
 10
72.15039141703906
 20
29.87234978820851
 30
0.0
 10
72.19564750747
 20
29.91030953533874
 30
0.0
 10
72.23619953418385
 20
29.95062965713261
 30
0.0
 10
72.28261118802622
 20
30.00696591637449
 30
0.0
 10
72.33097227482682
 20
30.0801762384657
 30
0.0
 10
72.37312797030067
 20
30.17253213231819
 30
0.0
 10
72.3992634648449
 20
30.26768699063628
 30
0.0
 10
72.40209350986605
 20
30.33226262216254
 30
0.0
 10
72.4035051441289
 20
30.36447312529078
 30
0.0
  0
SPLINE
  5
9D
330
1F
100
AcDbEntity
  8
0
  6
Continuous
 62
     7
370
    25
100
AcDbSpline
210
0.0
220
0.0
230
1.0
 70
     8
 71
     3
 72
    27
 73
    23
 74
     0
 42
0.000000001
 43
0.00000001
 40
0.0
 40
0.0
 40
0.0
 40
0.0
 40
0.0593293019684134
 40
0.1185254540357435
 40
0.179212451275044
 40
0.2433848028065204
 40
0.2765844550939958
 40
0.3101779018677914
 40
0.344361228979534
 40
0.379395755117186
 40
0.4157221804151907
 40
0.4535229359415114
 40
0.4924802062971825
 40
0.5328890540495529
 40
0.5761355259604364
 40
0.6235440730885569
 40
0.6751829461800853
 40
0.731188333693679
 40
0.7916669331314442
 40
0.8563414681220448
 40
0.9260161968035939
 40
1.0
 40
1.0
 40
1.0
 40
1.0
 10
72.4035051441289
 20
30.36447312529078
 30
0.0
 10
72.40182907018092
 20
30.39726766456356
 30
0.0
 10
72.39848068381717
 20
30.46278314390071
 30
0.0
 10
72.37298963737116
 20
30.55926758456807
 30
0.0
 10
72.32949707589236
 20
30.65153895971277
 30
0.0
 10
72.28177483977487
 20
30.72507756865766
 30
0.0
 10
72.23501245274494
 20
30.78038179753024
 30
0.0
 10
72.19578757819893
 20
30.82009758192336
 30
0.0
 10
72.15310673034239
 20
30.85766654569332
 30
0.0
 10
72.10581571312333
 20
30.89188975571222
 30
0.0
 10
72.05458487674606
 20
30.92376093540931
 30
0.0
 10
71.99942093426212
 20
30.95319410254785
 30
0.0
 10
71.94021302381117
 20
30.97941254294492
 30
0.0
 10
71.8770875968182
 20
31.00408019419947
 30
0.0
 10
71.80770586469716
 20
31.02497545084612
 30
0.0
 10
71.73131698918277
 20
31.04363331954868
 30
0.0
 10
71.6470197734169
 20
31.0590383452091
 30
0.0
 10
71.55497005639614
 20
31.07152206184278
 30
0.0
 10
71.45532626668513
 20
31.08102472809392
 30
0.0
 10
71.34788050993376
 20
31.08733584194662
 30
0.0
 10
71.23286937847328
 20
31.0917760171849
 30
0.0
 10
71.1535097697735
 20
31.09208065870657
 30
0.0
 10
71.11263975951351
 20
31.09223754836771
 30
0.0
  0
SPLINE
  5
9E
330
1F
100
AcDbEntity
  8
0
  6
Continuous
 62
     7
370
    25
100
AcDbSpline
210
0.0
220
0.0
230
1.0
 70
     8
 71
     3
 72
    27
 73
    23
 74
     0
 42
0.000000001
 43
0.00000001
 40
0.0
 40
0.0
 40
0.0
 40
0.0
 40
0.0740068800135491
 40
0.1433366578346468
 40
0.2080508668119508
 40
0.2681836407470146
 40
0.3242536094743629
 40
0.375548888391682
 40
0.4229693747249084
 40
0.4662267376782199
 40
0.5066457618555315
 40
0.5456128430758947
 40
0.5831033453739976
 40
0.6193264864456972
 40
0.6548768181198289
 40
0.6893428073149621
 40
0.7232041168768296
 40
0.7566903068900832
 40
0.8211825110656594
 40
0.8820644388783617
 40
0.9410171575677732
 40
0.9999999999999999
 40
0.9999999999999999
 40
0.9999999999999999
 40
0.9999999999999999
 10
71.11263975951351
 20
31.09223754836771
 30
0.0
 10
71.07177194226769
 20
31.09180486237737
 30
0.0
 10
70.9926190805886
 20
31.09096683537587
 30
0.0
 10
70.87776970318178
 20
31.08700176816366
 30
0.0
 10
70.77078582625893
 20
31.07958706921152
 30
0.0
 10
70.6712541011059
 20
31.0705443861719
 30
0.0
 10
70.57970338754072
 20
31.05711098432833
 30
0.0
 10
70.49557340483229
 20
31.04179930039434
 30
0.0
 10
70.41937691100948
 20
31.02316822788351
 30
0.0
 10
70.34999397566995
 20
31.00228057644038
 30
0.0
 10
70.28687212427832
 20
30.97760122027343
 30
0.0
 10
70.22781334420209
 20
30.95149187279422
 30
0.0
 10
70.17289577619786
 20
30.92205660751282
 30
0.0
 10
70.122266888414
 20
30.88914718821588
 30
0.0
 10
70.07478291784916
 20
30.85463266151469
 30
0.0
 10
70.03112216173923
 20
30.81729113730283
 30
0.0
 10
69.99208834757839
 20
30.77672363362764
 30
0.0
 10
69.94543748177608
 20
30.72076639327688
 30
0.0
 10
69.89730280461664
 20
30.64691544698088
 30
0.0
 10
69.855278846317
 20
30.55390880765524
 30
0.0
 10
69.82834003303803
 20
30.45811910848899
 30
0.0
 10
69.82516512100612
 20
30.39288951960955
 30
0.0
 10
69.8235772595135
 20
30.36026639452156
 30
0.0
  0
SPLINE
  5
9F
330
1F
100
AcDbEntity
  8
0
  6
Continuous
 62
     7
370
    25
100
AcDbSpline
210
0.0
220
0.0
230
1.0
 70
     8
 71
     3
 72
    19
 73
    15
 74
     0
 42
0.000000001
 43
0.00000001
 40
0.0
 40
0.0
 40
0.0
 40
0.0
 40
0.1111411066451686
 40
0.2220507786476905
 40
0.3361475920127809
 40
0.4552056890189063
 40
0.5173410957670578
 40
0.580171860525767
 40
0.6441520638355015
 40
0.7103395595588102
 40
0.7784473430435116
 40
0.8493743306228049
 40
0.9227998277839433
 40
1.0
 40
1.0
 40
1.0
 40
1.0
 10
69.8235772595135
 20
30.36026639452156
 30
0.0
 10
69.82523337511029
 20
30.32766191093069
 30
0.0
 10
69.82854215769214
 20
30.2625208376834
 30
0.0
 10
69.85436898189543
 20
30.16667383525991
 30
0.0
 10
69.89657596311584
 20
30.07471865972113
 30
0.0
 10
69.94406002887776
 20
30.0019808425778
 30
0.0
 10
69.98945894267113
 20
29.94659335995096
 30
0.0
 10
70.02897787543051
 20
29.9077107713543
 30
0.0
 10
70.07162975345304
 20
29.87044941896022
 30
0.0
 10
70.11943522784013
 20
29.83727053761772
 30
0.0
 10
70.17066521140029
 20
29.80569068517942
 30
0.0
 10
70.22606215331952
 20
29.77717646573925
 30
0.0
 10
70.28516386317777
 20
29.75013033018584
 30
0.0
 10
70.3268508512022
 20
29.73553526474564
 30
0.0
 10
70.34821668259043
 20
29.72805485606002
 30
0.0
  0
SPLINE
  5
A0
330
1F
100
AcDbEntity
  8
0
  6
Continuous
 62
     7
370
    25
100
AcDbSpline
210
0.0
220
0.0
230
1.0
 70
     8
 71
     3
 72
    31
 73
    27
 74
     0
 42
0.000000001
 43
0.00000001
 40
0.0
 40
0.0
 40
0.0
 40
0.0
 40
0.0686229361946737
 40
0.1329858155696739
 40
0.1937383892668944
 40
0.2506817797979171
 40
0.3038771806827888
 40
0.353486157344956
 40
0.3996677569169305
 40
0.442524017035779
 40
0.4830502605263774
 40
0.5222111025764757
 40
0.5600302691416031
 40
0.5968197585823111
 40
0.632601778698191
 40
0.6673459431853853
 40
0.7018795098001499
 40
0.7360495487490986
 40
0.769573008198299
 40
0.8028694884205133
 40
0.8354945064175361
 40
0.8679218566478646
 40
0.900379695657377
 40
0.9331496668309185
 40
0.9660914888278854
 40
1.0
 40
1.0
 40
1.0
 40
1.0
 10
71.11804841335967
 20
31.37468947144463
 30
0.0
 10
71.1659300188192
 20
31.37435676334228
 30
0.0
 10
71.25872077808893
 20
31.37371200138962
 30
0.0
 10
71.39381948743085
 20
31.36836968682089
 30
0.0
 10
71.52053489448146
 20
31.35899344643202
 30
0.0
 10
71.63898905973812
 20
31.34509863416646
 30
0.0
 10
71.74917049865914
 20
31.32802152763623
 30
0.0
 10
71.85094281052451
 20
31.30654372154358
 30
0.0
 10
71.94425111051136
 20
31.28077298556223
 30
0.0
 10
72.02973955866054
 20
31.25118240647021
 30
0.0
 10
72.10854856485354
 20
31.21785004451813
 30
0.0
 10
72.18187936312988
 20
31.18108692103005
 30
0.0
 10
72.25079175669487
 20
31.14155680140887
 30
0.0
 10
72.31446430658028
 20
31.09810707602377
 30
0.0
 10
72.37358642621284
 20
31.05203945279504
 30
0.0
 10
72.42740823242016
 20
31.00217906749605
 30
0.0
 10
72.47699961803623
 20
30.94960022620774
 30
0.0
 10
72.52039687363421
 20
30.89288494903137
 30
0.0
 10
72.5598749036174
 20
30.83446201422843
 30
0.0
 10
72.59396287758007
 20
30.77393735224598
 30
0.0
 10
72.62309006555857
 20
30.71173063754957
 30
0.0
 10
72.64664426389822
 20
30.64780359355136
 30
0.0
 10
72.6645435436281
 20
30.58198839759383
 30
0.0
 10
72.6778883012133
 20
30.51474724547431
 30
0.0
 10
72.68580801424741
 20
30.44558926404681
 30
0.0
 10
72.68710306360994
 20
30.39894819438455
 30
0.0
 10
72.6877599518212
 20
30.37529043298309
 30
0.0
  0
SPLINE
  5
A1
330
1F
100
AcDbEntity
  8
0
  6
Continuous
 62
     7
370
    25
100
AcDbSpline
210
0.0
220
0.0
230
1.0
 70
     8
 71
     3
 72
    31
 73
    27
 74
     0
 42
0.000000001
 43
0.00000001
 40
0.0
 40
0.0
 40
0.0
 40
0.0
 40
0.0339343666938295
 40
0.0669119475124989
 40
0.0996633074995976
 40
0.1321563799603164
 40
0.1642504040377381
 40
0.1967904749664073
 40
0.2295922410779638
 40
0.2629929477835142
 40
0.2967968276865476
 40
0.3311725864285021
 40
0.3659544662061021
 40
0.4017753282196035
 40
0.4386047531803793
 40
0.4766097919540501
 40
0.5161989590608015
 40
0.5571461663915847
 40
0.6005114497932924
 40
0.647097396909416
 40
0.6968209002679959
 40
0.7501197866674869
 40
0.8068737398436214
 40
0.8674281868282308
 40
0.9318731115023733
 40
1.0
 40
1.0
 40
1.0
 40
1.0
 10
69.55374552874429
 20
30.36988177913694
 30
0.0
 10
69.55412896144722
 20
30.39354532619997
 30
0.0
 10
69.55488501589564
 20
30.44020522214933
 30
0.0
 10
69.56327053138773
 20
30.50925676234495
 30
0.0
 10
69.57552592098432
 20
30.5766647493048
 30
0.0
 10
69.59373333154447
 20
30.64210782143713
 30
0.0
 10
69.61667197765422
 20
30.70587141127341
 30
0.0
 10
69.6450689305396
 20
30.76763495846744
 30
0.0
 10
69.67811197075227
 20
30.8280836526706
 30
0.0
 10
69.71670969006793
 20
30.88620797114782
 30
0.0
 10
69.75991065336616
 20
30.94239024496025
 30
0.0
 10
69.80866801279313
 20
30.99517286888572
 30
0.0
 10
69.86254899736211
 20
31.04478802529762
 30
0.0
 10
69.92160183606639
 20
31.09094005847365
 30
0.0
 10
69.98547463452884
 20
31.13425969579479
 30
0.0
 10
70.05429943262939
 20
31.17465744640721
 30
0.0
 10
70.12814154166753
 20
31.21185506831643
 30
0.0
 10
70.20766696173617
 20
31.24562889509272
 30
0.0
 10
70.2934921854575
 20
31.27677510423769
 30
0.0
 10
70.38738186129228
 20
31.30280132675947
 30
0.0
 10
70.48930006305669
 20
31.3250715436426
 30
0.0
 10
70.59930617986105
 20
31.34265318857197
 30
0.0
 10
70.71734704024794
 20
31.35722037206973
 30
0.0
 10
70.84366691510961
 20
31.36720406358334
 30
0.0
 10
70.97816848544102
 20
31.37310954259111
 30
0.0
 10
71.0705663710091
 20
31.37415316684504
 30
0.0
 10
71.11804841335967
 20
31.37468947144463
 30
0.0
  0
LINE
  5
A2
330
1F
100
AcDbEntity
  8
0
  6
Continuous
 62
     7
370
    25
100
AcDbLine
 10
75.7972305788
 20
30.2783636224
 30
0.0
 11
75.7972305788
 21
16.4219571619
 31
0.0
  0
LINE
  5
A3
330
1F
100
AcDbEntity
  8
0
  6
Continuous
 62
     7
370
    25
100
AcDbLine
 10
75.7972305788
 20
44.134770083
 30
0.0
 11
75.7972305788
 21
30.2783636224
 31
0.0
  0
LINE
  5
A4
330
1F
100
AcDbEntity
  8
0
  6
Continuous
 62
     7
370
    25
100
AcDbLine
 10
73.1992783813
 20
26.9596801878
 30
0.0
 11
73.1992783813
 21
26.8888668865
 31
0.0
  0
LINE
  5
A5
330
1F
100
AcDbEntity
  8
0
  6
Continuous
 62
     7
370
    25
100
AcDbLine
 10
73.1992783813
 20
26.8888668865
 30
0.0
 11
70.7733969711
 21
26.8846601558
 31
0.0
  0
LINE
  5
A6
330
1F
100
AcDbEntity
  8
0
  6
Continuous
 62
     7
370
    25
100
AcDbLine
 10
70.7733969711
 20
26.8846601558
 30
0.0
 11
70.7740980928
 21
26.4632859571
 31
0.0
  0
LINE
  5
A7
330
1F
100
AcDbEntity
  8
0
  6
Continuous
 62
     7
370
    25
100
AcDbLine
 10
69.6305684454
 20
26.8825567904
 30
0.0
 11
69.6298673236
 21
27.2303132006
 31
0.0
  0
LINE
  5
A8
330
1F
100
AcDbEntity
  8
0
  6
Continuous
 62
     7
370
    25
100
AcDbLine
 10
70.4389618749
 20
27.2317154442
 30
0.0
 11
70.4361573877
 21
28.8947763417
 31
0.0
  0
LINE
  5
A9
330
1F
100
AcDbEntity
  8
0
  6
Continuous
 62
     7
370
    25
100
AcDbLine
 10
70.4361573877
 20
28.8947763417
 30
0.0
 11
73.1992783813
 21
26.9596801878
 31
0.0
  0
LINE
  5
AA
330
1F
100
AcDbEntity
  8
0
  6
Continuous
 62
     7
370
    25
100
AcDbLine
 10
70.7712936057
 20
28.2567555083
 30
0.0
 11
70.7726958493
 21
27.232416566
 31
0.0
  0
LINE
  5
AB
330
1F
100
AcDbEntity
  8
0
  6
Continuous
 62
     7
370
    25
100
AcDbLine
 10
70.7726958493
 20
27.232416566
 30
0.0
 11
72.2233168428
 21
27.2345199314
 31
0.0
  0
LINE
  5
AC
330
1F
100
AcDbEntity
  8
0
  6
Continuous
 62
     7
370
    25
100
AcDbLine
 10
72.2233168428
 20
27.2345199314
 30
0.0
 11
70.7712936057
 21
28.2567555083
 31
0.0
  0
LINE
  5
AD
330
1F
100
AcDbEntity
  8
0
  6
Continuous
 62
     7
370
    25
100
AcDbLine
 10
70.4396629967
 20
26.883959034
 30
0.0
 11
69.6305684454
 21
26.8825567904
 31
0.0
  0
LINE
  5
AE
330
1F
100
AcDbEntity
  8
0
  6
Continuous
 62
     7
370
    25
100
AcDbLine
 10
70.4403641185
 20
26.4625848353
 30
0.0
 11
70.4396629967
 21
26.883959034
 31
0.0
  0
LINE
  5
AF
330
1F
100
AcDbEntity
  8
0
  6
Continuous
 62
     7
370
    25
100
AcDbLine
 10
70.7740980928
 20
26.4632859571
 30
0.0
 11
70.4403641185
 21
26.4625848353
 31
0.0
  0
LINE
  5
B0
330
1F
100
AcDbEntity
  8
0
  6
Continuous
 62
     7
370
    25
100
AcDbLine
 10
69.6298673236
 20
27.2303132006
 30
0.0
 11
70.4389618749
 21
27.2317154442
 31
0.0
  0
LINE
  5
B1
330
1F
100
AcDbEntity
  8
0
  6
Continuous
 62
     7
370
    25
100
AcDbLine
 10
75.7972305788
 20
16.4219571619
 30
0.0
 11
75.7972305788
 21
14.2783636224
 31
0.0
  0
LINE
  5
B2
330
1F
100
AcDbEntity
  8
0
  6
Continuous
 62
     7
370
    25
100
AcDbLine
 10
75.7972305788
 20
46.2783636224
 30
0.0
 11
75.7972305788
 21
44.134770083
 31
0.0
  0
LINE
  5
B3
330
1F
100
AcDbEntity
  8
0
  6
CENTERX2
 62
     7
370
    18
100
AcDbLine
 10
65.7972305788
 20
30.2783636224
 30
0.0
 11
76.7136346565
 21
30.2783636224
 31
0.0
  0
SPLINE
  5
B4
330
1F
100
AcDbEntity
  8
0
  6
Continuous
 62
     7
370
    25
100
AcDbSpline
210
0.0
220
0.0
230
1.0
 70
    24
 71
     3
 72
    12
 73
     8
 74
     0
 42
0.000000001
 43
0.00000001
 40
0.0
 40
0.0
 40
0.0
 40
0.0
 40
0.2500000000000001
 40
0.2500000000000001
 40
0.5000000000000001
 40
0.5000000000000001
 40
1.0
 40
1.0
 40
1.0
 40
1.0
 10
126.4435925199096
 20
21.04075931537406
 30
0.0
 10
126.4435925199096
 20
21.79300893618168
 30
0.0
 10
126.4435925199096
 20
22.55414292921404
 30
0.0
 10
126.4435925199096
 20
24.08536485277432
 30
0.0
 10
126.4435925199096
 20
24.85315219245549
 30
0.0
 10
126.4435925199096
 20
27.16415109633012
 30
0.0
 10
126.4435925199096
 20
28.71515582261435
 30
0.0
 10
126.4435925199096
 20
30.2783636224081
 30
0.0
  0
SPLINE
  5
B5
330
1F
100
AcDbEntity
  8
0
  6
Continuous
 62
     7
370
    25
100
AcDbSpline
210
0.0
220
0.0
230
1.0
 70
    24
 71
     3
 72
    10
 73
     6
 74
     0
 42
0.000000001
 43
0.00000001
 40
0.0
 40
0.0
 40
0.0
 40
0.0
 40
0.5
 40
0.5
 40
1.0
 40
1.0
 40
1.0
 40
1.0
 10
126.4435925199096
 20
21.04075931537409
 30
0.0
 10
125.1348971226792
 20
20.2851836754959
 30
0.0
 10
123.8166426443561
 20
19.52408909757557
 30
0.0
 10
121.1525745821043
 20
17.98598868469502
 30
0.0
 10
119.8065549911747
 20
17.20886391153732
 30
0.0
 10
118.4435925199096
 20
16.42195716185707
 30
0.0
  0
ARC
  5
B6
330
1F
100
AcDbEntity
  8
0
  6
Continuous
 62
     7
370
    25
100
AcDbCircle
 10
110.4435925199
 20
30.2783636224
 30
0.0
 40
16.0
100
AcDbArc
 50
300.0
 51
0.0
  0
SPLINE
  5
B7
330
1F
100
AcDbEntity
  8
0
  6
Continuous
 62
     7
370
    25
100
AcDbSpline
210
0.0
220
0.0
230
1.0
 70
    24
 71
     3
 72
    12
 73
     8
 74
     0
 42
0.000000001
 43
0.00000001
 40
0.0
 40
0.0
 40
0.0
 40
0.0
 40
0.2500000000000001
 40
0.2500000000000001
 40
0.5000000000000002
 40
0.5000000000000002
 40
1.0
 40
1.0
 40
1.0
 40
1.0
 10
118.4435925199096
 20
44.13477008295911
 30
0.0
 10
119.1225253955786
 20
43.74278800442992
 30
0.0
 10
119.8045047739065
 20
43.34904702677057
 30
0.0
 10
121.1536019428291
 20
42.57014541313014
 30
0.0
 10
121.8236383505085
 20
42.18329971278958
 30
0.0
 10
123.8218471800866
 20
41.02963330713555
 30
0.0
 10
125.1381655130505
 20
40.26965656325961
 30
0.0
 10
126.4435925199096
 20
39.5159679294421
 30
0.0
  0
SPLINE
  5
B8
330
1F
100
AcDbEntity
  8
0
  6
Continuous
 62
     7
370
    25
100
AcDbSpline
210
0.0
220
0.0
230
1.0
 70
    24
 71
     3
 72
    12
 73
     8
 74
     0
 42
0.000000001
 43
0.00000001
 40
0.0
 40
0.0
 40
0.0
 40
0.0
 40
0.25
 40
0.25
 40
0.5
 40
0.5
 40
1.0
 40
1.0
 40
1.0
 40
1.0
 10
126.4435925199096
 20
30.2783636224081
 30
0.0
 10
126.4435925199096
 20
31.0605818117027
 30
0.0
 10
126.4435925199096
 20
31.84783182000833
 30
0.0
 10
126.4435925199096
 20
33.41950619398364
 30
0.0
 10
126.4435925199096
 20
34.19712565609433
 30
0.0
 10
126.4435925199096
 20
36.50877836339752
 30
0.0
 10
126.4435925199096
 20
38.02174987986964
 30
0.0
 10
126.4435925199096
 20
39.51596792944211
 30
0.0
  0
ARC
  5
B9
330
1F
100
AcDbEntity
  8
0
  6
Continuous
 62
     7
370
    25
100
AcDbCircle
 10
110.4435925199
 20
30.2783636224
 30
0.0
 40
15.99999999999999
100
AcDbArc
 50
0.0
 51
60.0
  0
ARC
  5
BA
330
1F
100
AcDbEntity
  8
0
  6
Continuous
 62
     7
370
    25
100
AcDbCircle
 10
110.4435925199
 20
30.2783636224
 30
0.0
 40
16.00000000000001
100
AcDbArc
 50
240.0
 51
300.0
  0
ARC
  5
BB
330
1F
100
AcDbEntity
  8
0
  6
Continuous
 62
     7
370
    25
100
AcDbCircle
 10
110.4435925199
 20
30.2783636224
 30
0.0
 40
16.00000000000001
100
AcDbArc
 50
180.0
 51
240.0
  0
ARC
  5
BC
330
1F
100
AcDbEntity
  8
0
  6
Continuous
 62
     7
370
    25
100
AcDbCircle
 10
110.4435925199
 20
30.2783636224
 30
0.0
 40
16.00000000000001
100
AcDbArc
 50
120.0
 51
180.0
  0
ARC
  5
BD
330
1F
100
AcDbEntity
  8
0
  6
Continuous
 62
     7
370
    25
100
AcDbCircle
 10
110.4435925199
 20
30.2783636224
 30
0.0
 40
16.00000000000001
100
AcDbArc
 50
60.0
 51
120.0
  0
CIRCLE
  5
BE
330
1F
100
AcDbEntity
  8
0
  6
Continuous
 62
     7
370
    25
100
AcDbCircle
 10
110.4435925199
 20
30.2783636224
 30
0.0
 40
10.19999999999999
  0
CIRCLE
  5
BF
330
1F
100
AcDbEntity
  8
0
  6
Continuous
 62
     7
370
    25
100
AcDbCircle
 10
110.4435925199
 20
30.2783636224
 30
0.0
 40
9.499999999999986
  0
SPLINE
  5
C0
330
1F
100
AcDbEntity
  8
0
  6
Continuous
 62
     7
370
    25
100
AcDbSpline
210
0.0
220
0.0
230
1.0
 70
    24
 71
     3
 72
    10
 73
     6
 74
     0
 42
0.000000001
 43
0.00000001
 40
0.0
 40
0.0
 40
0.0
 40
0.0
 40
0.5
 40
0.5
 40
1.0
 40
1.0
 40
1.0
 40
1.0
 10
110.4435925199096
 20
11.80315500834005
 30
0.0
 10
109.1348971226792
 20
12.55873064821825
 30
0.0
 10
107.8166426443561
 20
13.31982522613857
 30
0.0
 10
105.1525745821043
 20
14.85792563901912
 30
0.0
 10
103.8065549911747
 20
15.63505041217682
 30
0.0
 10
102.4435925199096
 20
16.42195716185707
 30
0.0
  0
SPLINE
  5
C1
330
1F
100
AcDbEntity
  8
0
  6
Continuous
 62
     7
370
    25
100
AcDbSpline
210
0.0
220
0.0
230
1.0
 70
    24
 71
     3
 72
    12
 73
     8
 74
     0
 42
0.000000001
 43
0.00000001
 40
0.0
 40
0.0
 40
0.0
 40
0.0
 40
0.2499999999999999
 40
0.2499999999999999
 40
0.4999999999999999
 40
0.4999999999999999
 40
1.0
 40
1.0
 40
1.0
 40
1.0
 10
118.4435925199096
 20
16.42195716185707
 30
0.0
 10
117.7646596442406
 20
16.02997508332787
 30
0.0
 10
117.0826802659128
 20
15.63623410566853
 30
0.0
 10
115.7335830969902
 20
14.8573324920281
 30
0.0
 10
115.0635466893108
 20
14.47048679168755
 30
0.0
 10
113.0653378597326
 20
13.31682038603351
 30
0.0
 10
111.7490195267687
 20
12.55684364215757
 30
0.0
 10
110.4435925199096
 20
11.80315500834006
 30
0.0
  0
SPLINE
  5
C2
330
1F
100
AcDbEntity
  8
0
  6
Continuous
 62
     7
370
    25
100
AcDbSpline
210
0.0
220
0.0
230
1.0
 70
    24
 71
     3
 72
    12
 73
     8
 74
     0
 42
0.000000001
 43
0.00000001
 40
0.0
 40
0.0
 40
0.0
 40
0.0
 40
0.2499999999999999
 40
0.2499999999999999
 40
0.4999999999999999
 40
0.4999999999999999
 40
1.0
 40
1.0
 40
1.0
 40
1.0
 10
102.4435925199096
 20
44.13477008295911
 30
0.0
 10
103.1225253955786
 20
44.52675216148831
 30
0.0
 10
103.8045047739065
 20
44.92049313914766
 30
0.0
 10
105.1536019428291
 20
45.69939475278809
 30
0.0
 10
105.8236383505085
 20
46.08624045312865
 30
0.0
 10
107.8218471800866
 20
47.23990685878267
 30
0.0
 10
109.1381655130505
 20
47.99988360265862
 30
0.0
 10
110.4435925199096
 20
48.75357223647612
 30
0.0
  0
SPLINE
  5
C3
330
1F
100
AcDbEntity
  8
0
  6
Continuous
 62
     7
370
    25
100
AcDbSpline
210
0.0
220
0.0
230
1.0
 70
    24
 71
     3
 72
    10
 73
     6
 74
     0
 42
0.000000001
 43
0.00000001
 40
0.0
 40
0.0
 40
0.0
 40
0.0
 40
0.5
 40
0.5
 40
1.0
 40
1.0
 40
1.0
 40
1.0
 10
110.4435925199096
 20
48.75357223647613
 30
0.0
 10
111.75228791714
 20
47.99799659659794
 30
0.0
 10
113.0705423954632
 20
47.23690201867761
 30
0.0
 10
115.734610457715
 20
45.69880160579707
 30
0.0
 10
117.0806300486445
 20
44.92167683263937
 30
0.0
 10
118.4435925199096
 20
44.13477008295911
 30
0.0
  0
SPLINE
  5
C4
330
1F
100
AcDbEntity
  8
0
  6
Continuous
 62
     7
370
    25
100
AcDbSpline
210
0.0
220
0.0
230
1.0
 70
    24
 71
     3
 72
    12
 73
     8
 74
     0
 42
0.000000001
 43
0.00000001
 40
0.0
 40
0.0
 40
0.0
 40
0.0
 40
0.2500000000000001
 40
0.2500000000000001
 40
0.5000000000000001
 40
0.5000000000000001
 40
1.0
 40
1.0
 40
1.0
 40
1.0
 10
94.44359251990963
 20
21.04075931537407
 30
0.0
 10
94.44359251990961
 20
21.79300893617024
 30
0.0
 10
94.44359251990963
 20
22.55414292918501
 30
0.0
 10
94.44359251990963
 20
24.08536485273668
 30
0.0
 10
94.44359251990963
 20
24.85315219241579
 30
0.0
 10
94.44359251990961
 20
27.16415109629233
 30
0.0
 10
94.44359251990961
 20
28.71515582258872
 30
0.0
 10
94.44359251990963
 20
30.27836362240809
 30
0.0
  0
SPLINE
  5
C5
330
1F
100
AcDbEntity
  8
0
  6
Continuous
 62
     7
370
    25
100
AcDbSpline
210
0.0
220
0.0
230
1.0
 70
    24
 71
     3
 72
    12
 73
     8
 74
     0
 42
0.000000001
 43
0.00000001
 40
0.0
 40
0.0
 40
0.0
 40
0.0
 40
0.25
 40
0.25
 40
0.5
 40
0.5
 40
1.0
 40
1.0
 40
1.0
 40
1.0
 10
102.4435925199096
 20
16.42195716185707
 30
0.0
 10
101.7646596442406
 20
16.81393924038627
 30
0.0
 10
101.0826802659128
 20
17.20768021804561
 30
0.0
 10
99.73358309699016
 20
17.98658183168605
 30
0.0
 10
99.06354668931077
 20
18.3734275320266
 30
0.0
 10
97.0653378597326
 20
19.52709393768063
 30
0.0
 10
95.7490195267687
 20
20.28707068155658
 30
0.0
 10
94.44359251990961
 20
21.04075931537409
 30
0.0
  0
SPLINE
  5
C6
330
1F
100
AcDbEntity
  8
0
  6
Continuous
 62
     7
370
    25
100
AcDbSpline
210
0.0
220
0.0
230
1.0
 70
    24
 71
     3
 72
    12
 73
     8
 74
     0
 42
0.000000001
 43
0.00000001
 40
0.0
 40
0.0
 40
0.0
 40
0.0
 40
0.2499999999999999
 40
0.2499999999999999
 40
0.4999999999999998
 40
0.4999999999999998
 40
1.0
 40
1.0
 40
1.0
 40
1.0
 10
94.44359251990963
 20
30.27836362240809
 30
0.0
 10
94.44359251990961
 20
31.06058181173508
 30
0.0
 10
94.44359251990963
 20
31.84783182012193
 30
0.0
 10
94.44359251990963
 20
33.4195061940423
 30
0.0
 10
94.44359251990963
 20
34.19712565613283
 30
0.0
 10
94.44359251990963
 20
36.50877836339335
 30
0.0
 10
94.44359251990961
 20
38.02174987986046
 30
0.0
 10
94.44359251990963
 20
39.51596792944211
 30
0.0
  0
SPLINE
  5
C7
330
1F
100
AcDbEntity
  8
0
  6
Continuous
 62
     7
370
    25
100
AcDbSpline
210
0.0
220
0.0
230
1.0
 70
    24
 71
     3
 72
    10
 73
     6
 74
     0
 42
0.000000001
 43
0.00000001
 40
0.0
 40
0.0
 40
0.0
 40
0.0
 40
0.5
 40
0.5
 40
1.0
 40
1.0
 40
1.0
 40
1.0
 10
94.4435925199096
 20
39.51596792944209
 30
0.0
 10
95.75228791714
 20
40.27154356932029
 30
0.0
 10
97.07054239546319
 20
41.03263814724062
 30
0.0
 10
99.73461045771495
 20
42.57073856012116
 30
0.0
 10
101.0806300486445
 20
43.34786333327887
 30
0.0
 10
102.4435925199096
 20
44.13477008295911
 30
0.0
  0
INSERT
  5
D3
330
1F
100
AcDbEntity
  8
0
  6
Continuous
 62
     7
370
    18
100
AcDbBlockReference
  2
SW_CENTERMARKSYMBOL_0
 10
110.4435925199
 20
30.2783636224
 30
0.0
  0
INSERT
  5
DF
330
1F
100
AcDbEntity
  8
0
  6
Continuous
 62
     7
370
    18
100
AcDbBlockReference
  2
SW_CENTERMARKSYMBOL_1
 10
110.4435925199
 20
30.2783636224
 30
0.0
  0
ARC
  5
E0
330
1F
100
AcDbEntity
  8
0
  6
Continuous
 62
     7
370
    18
100
AcDbCircle
 10
110.4435925199
 20
30.2783636224
 30
0.0
 40
10.4775
100
AcDbArc
 50
75.0
 51
345.0
  0
LINE
  5
E1
330
1F
100
AcDbEntity
  8
0
  6
Continuous
 62
     7
370
    25
100
AcDbLine
 10
66.7972305788
 20
91.4295950499
 30
0.0
 11
74.3681682192
 21
91.4295950499
 31
0.0
  0
SPLINE
  5
E2
330
1F
100
AcDbEntity
  8
0
  6
Continuous
 62
     7
370
    25
100
AcDbSpline
210
0.0
220
0.0
230
1.0
 70
     8
 71
     3
 72
    12
 73
     8
 74
     0
 42
0.000000001
 43
0.00000001
 40
0.0
 40
0.0
 40
0.0
 40
0.0
 40
0.2500000000000001
 40
0.2500000000000001
 40
0.5000000000000002
 40
0.5000000000000002
 40
1.0
 40
1.0
 40
1.0
 40
1.0
 10
75.79723057880278
 20
83.42959504985694
 30
0.0
 10
75.79723057880278
 20
84.10852792552596
 30
0.0
 10
75.76345292964677
 20
84.79050730385379
 30
0.0
 10
75.63273709370652
 20
86.13960447277641
 30
0.0
 10
75.53592460541324
 20
86.8096408804558
 30
0.0
 10
75.16252900722992
 20
88.80784971003396
 30
0.0
 10
74.80331055478993
 20
90.12416804299787
 30
0.0
 10
74.36816821917023
 20
91.42959504985696
 30
0.0
  0
SPLINE
  5
E3
330
1F
100
AcDbEntity
  8
0
  6
Continuous
 62
     7
370
    25
100
AcDbSpline
210
0.0
220
0.0
230
1.0
 70
     8
 71
     3
 72
    10
 73
     6
 74
     0
 42
0.000000001
 43
0.00000001
 40
0.0
 40
0.0
 40
0.0
 40
0.0
 40
0.5
 40
0.5
 40
1.0
 40
1.0
 40
1.0
 40
1.0
 10
74.36816821917034
 20
75.42959504985691
 30
0.0
 10
74.80440001824714
 20
76.73829044708731
 30
0.0
 10
75.16379010037471
 20
78.0565449254105
 30
0.0
 10
75.66103338553644
 20
80.72061298766228
 30
0.0
 10
75.79723057880278
 20
82.06663257859185
 30
0.0
 10
75.79723057880278
 20
83.42959504985694
 30
0.0
  0
LINE
  5
E4
330
1F
100
AcDbEntity
  8
0
  6
Continuous
 62
     7
370
    25
100
AcDbLine
 10
66.7972305788
 20
75.4295950499
 30
0.0
 11
74.3681682192
 21
75.4295950499
 31
0.0
  0
LINE
  5
E5
330
1F
100
AcDbEntity
  8
0
  6
Continuous
 62
     7
370
    25
100
AcDbLine
 10
66.7972305788
 20
91.4295950499
 30
0.0
 11
66.7972305788
 21
75.4295950499
 31
0.0
  0
SPLINE
  5
E6
330
1F
100
AcDbEntity
  8
0
  6
Continuous
 62
     7
370
    25
100
AcDbSpline
210
0.0
220
0.0
230
1.0
 70
     8
 71
     3
 72
    12
 73
     8
 74
     0
 42
0.000000001
 43
0.00000001
 40
0.0
 40
0.0
 40
0.0
 40
0.0
 40
0.2499999999999999
 40
0.2499999999999999
 40
0.4999999999999999
 40
0.4999999999999999
 40
1.0
 40
1.0
 40
1.0
 40
1.0
 10
75.79723057880278
 20
67.42959504985694
 30
0.0
 10
75.79723057880278
 20
68.10852792552596
 30
0.0
 10
75.76345292964677
 20
68.79050730385379
 30
0.0
 10
75.63273709370652
 20
70.1396044727764
 30
0.0
 10
75.53592460541324
 20
70.8096408804558
 30
0.0
 10
75.16252900722992
 20
72.80784971003396
 30
0.0
 10
74.80331055478993
 20
74.12416804299787
 30
0.0
 10
74.36816821917023
 20
75.42959504985696
 30
0.0
  0
LINE
  5
E7
330
1F
100
AcDbEntity
  8
0
  6
Continuous
 62
     7
370
    25
100
AcDbLine
 10
75.7972305788
 20
83.4295950499
 30
0.0
 11
75.7972305788
 21
67.4295950499
 31
0.0
  0
SPLINE
  5
E8
330
1F
100
AcDbEntity
  8
0
  6
Continuous
 62
     7
370
    25
100
AcDbSpline
210
0.0
220
0.0
230
1.0
 70
     8
 71
     3
 72
    10
 73
     6
 74
     0
 42
0.000000001
 43
0.00000001
 40
0.0
 40
0.0
 40
0.0
 40
0.0
 40
0.5
 40
0.5
 40
1.0
 40
1.0
 40
1.0
 40
1.0
 10
74.36816821917034
 20
59.42959504985691
 30
0.0
 10
74.80440001824714
 20
60.7382904470873
 30
0.0
 10
75.16379010037471
 20
62.05654492541051
 30
0.0
 10
75.66103338553644
 20
64.72061298766228
 30
0.0
 10
75.79723057880278
 20
66.06663257859185
 30
0.0
 10
75.79723057880278
 20
67.42959504985694
 30
0.0
  0
LINE
  5
E9
330
1F
100
AcDbEntity
  8
0
  6
Continuous
 62
     7
370
    25
100
AcDbLine
 10
66.7972305788
 20
59.4295950499
 30
0.0
 11
74.3681682192
 21
59.4295950499
 31
0.0
  0
LINE
  5
EA
330
1F
100
AcDbEntity
  8
0
  6
Continuous
 62
     7
370
    25
100
AcDbLine
 10
66.7972305788
 20
75.4295950499
 30
0.0
 11
66.7972305788
 21
59.4295950499
 31
0.0
  0
SPLINE
  5
EB
330
1F
100
AcDbEntity
  8
0
  6
Continuous
 62
     7
370
    25
100
AcDbSpline
210
0.0
220
0.0
230
1.0
 70
    24
 71
     3
 72
    12
 73
     8
 74
     0
 42
0.000000001
 43
0.00000001
 40
0.0
 40
0.0
 40
0.0
 40
0.0
 40
0.25
 40
0.25
 40
0.5
 40
0.5
 40
1.0
 40
1.0
 40
1.0
 40
1.0
 10
75.79723057880278
 20
91.42959504985694
 30
0.0
 10
75.79723057880278
 20
91.42959504985694
 30
0.0
 10
75.7637546096481
 20
91.42959504985694
 30
0.0
 10
75.63160255692829
 20
91.42959504985694
 30
0.0
 10
75.53378381863534
 20
91.42959504985694
 30
0.0
 10
75.15841615370974
 20
91.42959504985694
 30
0.0
 10
74.79951181574445
 20
91.42959504985694
 30
0.0
 10
74.36816821917013
 20
91.42959504985694
 30
0.0
  0
LINE
  5
EC
330
1F
100
AcDbEntity
  8
0
  6
Continuous
 62
     7
370
    25
100
AcDbLine
 10
75.7972305788
 20
91.4295950499
 30
0.0
 11
75.7972305788
 21
83.4295950499
 31
0.0
  0
SPLINE
  5
ED
330
1F
100
AcDbEntity
  8
0
  6
Continuous
 62
     7
370
    25
100
AcDbSpline
210
0.0
220
0.0
230
1.0
 70
    24
 71
     3
 72
    12
 73
     8
 74
     0
 42
0.000000001
 43
0.00000001
 40
0.0
 40
0.0
 40
0.0
 40
0.0
 40
0.2499999999999999
 40
0.2499999999999999
 40
0.4999999999999998
 40
0.4999999999999998
 40
1.0
 40
1.0
 40
1.0
 40
1.0
 10
75.79723057880278
 20
59.42959504985694
 30
0.0
 10
75.79723057880278
 20
59.42959504985694
 30
0.0
 10
75.76375460964091
 20
59.42959504985694
 30
0.0
 10
75.63160255692098
 20
59.42959504985694
 30
0.0
 10
75.53378381862969
 20
59.42959504985694
 30
0.0
 10
75.15841615370921
 20
59.42959504985694
 30
0.0
 10
74.79951181574711
 20
59.42959504985694
 30
0.0
 10
74.36816821917013
 20
59.42959504985694
 30
0.0
  0
LINE
  5
EE
330
1F
100
AcDbEntity
  8
0
  6
Continuous
 62
     7
370
    25
100
AcDbLine
 10
75.7972305788
 20
67.4295950499
 30
0.0
 11
75.7972305788
 21
59.4295950499
 31
0.0
  0
LINE
  5
EF
330
1F
100
AcDbEntity
  8
0
  6
CENTERX2
 62
     7
370
    18
100
AcDbLine
 10
65.7972305788
 20
75.4295950499
 30
0.0
 11
76.6280923889
 21
75.4295950499
 31
0.0
  0
ENDSEC
  0
SECTION
  2
OBJECTS
  0
DICTIONARY
  5
C
330
0
100
AcDbDictionary
281
     1
  3
ACAD_GROUP
350
D
  3
ACAD_LAYOUT
350
1A
  3
ACAD_MLINESTYLE
350
17
  3
ACAD_PLOTSETTINGS
350
19
  3
ACAD_PLOTSTYLENAME
350
E
  3
ACAD_SCALELIST
350
47
  0
DICTIONARY
  5
D
102
{ACAD_REACTORS
330
C
102
}
330
C
100
AcDbDictionary
281
     1
  0
DICTIONARY
  5
1A
102
{ACAD_REACTORS
330
C
102
}
330
C
100
AcDbDictionary
281
     1
  3
Layout1
350
1E
  3
Layout2
350
26
  3
Model
350
22
  0
DICTIONARY
  5
17
102
{ACAD_REACTORS
330
C
102
}
330
C
100
AcDbDictionary
281
     1
  3
Standard
350
18
  0
DICTIONARY
  5
19
102
{ACAD_REACTORS
330
C
102
}
330
C
100
AcDbDictionary
281
     1
  0
ACDBDICTIONARYWDFLT
  5
E
102
{ACAD_REACTORS
330
C
102
}
330
C
100
AcDbDictionary
281
     1
  3
Normal
350
F
100
AcDbDictionaryWithDefault
340
F
  0
DICTIONARY
  5
47
102
{ACAD_REACTORS
330
C
102
}
330
C
100
AcDbDictionary
281
     1
  3
A0
350
48
  3
A1
350
49
  3
A2
350
4A
  3
A3
350
4B
  3
A4
350
4C
  3
A5
350
4D
  3
A6
350
4E
  3
A7
350
4F
  3
A8
350
50
  3
A9
350
51
  3
B0
350
52
  3
B1
350
53
  3
B2
350
54
  3
B3
350
55
  3
B4
350
56
  3
B5
350
57
  3
B6
350
58
  3
B7
350
59
  3
B8
350
5A
  3
B9
350
5B
  3
C0
350
5C
  3
C1
350
5D
  3
C2
350
5E
  3
C3
350
5F
  3
C4
350
60
  3
C5
350
61
  3
C6
350
62
  3
C7
350
63
  3
C8
350
64
  3
C9
350
65
  3
D0
350
66
  3
D1
350
67
  3
D2
350
68
  0
LAYOUT
  5
1E
102
{ACAD_REACTORS
330
1A
102
}
330
1A
100
AcDbPlotSettings
  1

  2
none_device
  4

  6

 40
0.0
 41
0.0
 42
0.0
 43
0.0
 44
0.0
 45
0.0
 46
0.0
 47
0.0
 48
0.0
 49
0.0
140
0.0
141
0.0
142
1.0
143
1.0
 70
   688
 72
     1
 73
     0
 74
     5
  7

 75
    16
147
1.0
148
0.0
149
0.0
100
AcDbLayout
  1
Layout1
 70
     1
 71
     1
 10
0.0
 20
0.0
 11
420.0
 21
297.0
 12
0.0
 22
0.0
 32
0.0
 14
1.0000000000E+20
 24
1.0000000000E+20
 34
1.0000000000E+20
 15
-1.0000000000E+20
 25
-1.0000000000E+20
 35
-1.0000000000E+20
146
0.0
 13
0.0
 23
0.0
 33
0.0
 16
1.0
 26
0.0
 36
0.0
 17
0.0
 27
1.0
 37
0.0
 76
     0
330
1B
  0
LAYOUT
  5
26
102
{ACAD_REACTORS
330
1A
102
}
330
1A
100
AcDbPlotSettings
  1

  2
none_device
  4

  6

 40
0.0
 41
0.0
 42
0.0
 43
0.0
 44
0.0
 45
0.0
 46
0.0
 47
0.0
 48
0.0
 49
0.0
140
0.0
141
0.0
142
1.0
143
1.0
 70
   688
 72
     1
 73
     0
 74
     5
  7

 75
    16
147
1.0
148
0.0
149
0.0
100
AcDbLayout
  1
Layout2
 70
     1
 71
     2
 10
0.0
 20
0.0
 11
0.0
 21
0.0
 12
0.0
 22
0.0
 32
0.0
 14
0.0
 24
0.0
 34
0.0
 15
0.0
 25
0.0
 35
0.0
146
0.0
 13
0.0
 23
0.0
 33
0.0
 16
1.0
 26
0.0
 36
0.0
 17
0.0
 27
1.0
 37
0.0
 76
     0
330
23
  0
LAYOUT
  5
22
102
{ACAD_REACTORS
330
1A
102
}
330
1A
100
AcDbPlotSettings
  1

  2
none_device
  4
Letter_(8.50_x_11.00_Inches)
  6

 40
6.35
 41
6.35
 42
6.35000508
 43
6.35000508
 44
215.9
 45
279.4
 46
0.0
 47
0.0
 48
0.0
 49
0.0
140
0.0
141
0.0
142
1.0
143
1.0
 70
  1712
 72
     1
 73
     0
 74
     0
  7

 75
     0
147
1.0
148
0.0
149
0.0
100
AcDbLayout
  1
Model
 70
     1
 71
     0
 10
0.0
 20
0.0
 11
215.9
 21
139.7
 12
0.0
 22
0.0
 32
0.0
 14
0.0
 24
0.0
 34
0.0
 15
215.9
 25
139.7
 35
0.0
146
0.0
 13
0.0
 23
0.0
 33
0.0
 16
1.0
 26
0.0
 36
0.0
 17
0.0
 27
1.0
 37
0.0
 76
     0
330
1F
331
29
  0
MLINESTYLE
  5
18
102
{ACAD_REACTORS
330
17
102
}
330
17
100
AcDbMlineStyle
  2
Standard
 70
     0
  3

 62
   256
 51
90.0
 52
90.0
 71
     2
 49
0.5
 62
   256
  6
BYLAYER
 49
-0.5
 62
   256
  6
BYLAYER
  0
ACDBPLACEHOLDER
  5
F
102
{ACAD_REACTORS
330
E
102
}
330
E
  0
SCALE
  5
48
102
{ACAD_REACTORS
330
47
102
}
330
47
100
AcDbScale
 70
     0
300
1:1
140
1.0
141
1.0
290
     1
  0
SCALE
  5
49
102
{ACAD_REACTORS
330
47
102
}
330
47
100
AcDbScale
 70
     0
300
1:2
140
1.0
141
2.0
290
     0
  0
SCALE
  5
4A
102
{ACAD_REACTORS
330
47
102
}
330
47
100
AcDbScale
 70
     0
300
1:4
140
1.0
141
4.0
290
     0
  0
SCALE
  5
4B
102
{ACAD_REACTORS
330
47
102
}
330
47
100
AcDbScale
 70
     0
300
1:5
140
1.0
141
5.0
290
     0
  0
SCALE
  5
4C
102
{ACAD_REACTORS
330
47
102
}
330
47
100
AcDbScale
 70
     0
300
1:8
140
1.0
141
8.0
290
     0
  0
SCALE
  5
4D
102
{ACAD_REACTORS
330
47
102
}
330
47
100
AcDbScale
 70
     0
300
1:10
140
1.0
141
10.0
290
     0
  0
SCALE
  5
4E
102
{ACAD_REACTORS
330
47
102
}
330
47
100
AcDbScale
 70
     0
300
1:16
140
1.0
141
16.0
290
     0
  0
SCALE
  5
4F
102
{ACAD_REACTORS
330
47
102
}
330
47
100
AcDbScale
 70
     0
300
1:20
140
1.0
141
20.0
290
     0
  0
SCALE
  5
50
102
{ACAD_REACTORS
330
47
102
}
330
47
100
AcDbScale
 70
     0
300
1:30
140
1.0
141
30.0
290
     0
  0
SCALE
  5
51
102
{ACAD_REACTORS
330
47
102
}
330
47
100
AcDbScale
 70
     0
300
1:40
140
1.0
141
40.0
290
     0
  0
SCALE
  5
52
102
{ACAD_REACTORS
330
47
102
}
330
47
100
AcDbScale
 70
     0
300
1:50
140
1.0
141
50.0
290
     0
  0
SCALE
  5
53
102
{ACAD_REACTORS
330
47
102
}
330
47
100
AcDbScale
 70
     0
300
1:100
140
1.0
141
100.0
290
     0
  0
SCALE
  5
54
102
{ACAD_REACTORS
330
47
102
}
330
47
100
AcDbScale
 70
     0
300
2:1
140
2.0
141
1.0
290
     0
  0
SCALE
  5
55
102
{ACAD_REACTORS
330
47
102
}
330
47
100
AcDbScale
 70
     0
300
4:1
140
4.0
141
1.0
290
     0
  0
SCALE
  5
56
102
{ACAD_REACTORS
330
47
102
}
330
47
100
AcDbScale
 70
     0
300
8:1
140
8.0
141
1.0
290
     0
  0
SCALE
  5
57
102
{ACAD_REACTORS
330
47
102
}
330
47
100
AcDbScale
 70
     0
300
10:1
140
10.0
141
1.0
290
     0
  0
SCALE
  5
58
102
{ACAD_REACTORS
330
47
102
}
330
47
100
AcDbScale
 70
     0
300
100:1
140
100.0
141
1.0
290
     0
  0
SCALE
  5
59
102
{ACAD_REACTORS
330
47
102
}
330
47
100
AcDbScale
 70
     0
300
1/128" = 1'-0"
140
0.0078125
141
12.0
290
     0
  0
SCALE
  5
5A
102
{ACAD_REACTORS
330
47
102
}
330
47
100
AcDbScale
 70
     0
300
1/64" = 1'-0"
140
0.015625
141
12.0
290
     0
  0
SCALE
  5
5B
102
{ACAD_REACTORS
330
47
102
}
330
47
100
AcDbScale
 70
     0
300
1/32" = 1'-0"
140
0.03125
141
12.0
290
     0
  0
SCALE
  5
5C
102
{ACAD_REACTORS
330
47
102
}
330
47
100
AcDbScale
 70
     0
300
1/16" = 1'-0"
140
0.0625
141
12.0
290
     0
  0
SCALE
  5
5D
102
{ACAD_REACTORS
330
47
102
}
330
47
100
AcDbScale
 70
     0
300
3/32" = 1'-0"
140
0.09375
141
12.0
290
     0
  0
SCALE
  5
5E
102
{ACAD_REACTORS
330
47
102
}
330
47
100
AcDbScale
 70
     0
300
1/8" = 1'-0"
140
0.125
141
12.0
290
     0
  0
SCALE
  5
5F
102
{ACAD_REACTORS
330
47
102
}
330
47
100
AcDbScale
 70
     0
300
3/16" = 1'-0"
140
0.1875
141
12.0
290
     0
  0
SCALE
  5
60
102
{ACAD_REACTORS
330
47
102
}
330
47
100
AcDbScale
 70
     0
300
1/4" = 1'-0"
140
0.25
141
12.0
290
     0
  0
SCALE
  5
61
102
{ACAD_REACTORS
330
47
102
}
330
47
100
AcDbScale
 70
     0
300
3/8" = 1'-0"
140
0.375
141
12.0
290
     0
  0
SCALE
  5
62
102
{ACAD_REACTORS
330
47
102
}
330
47
100
AcDbScale
 70
     0
300
1/2" = 1'-0"
140
0.5
141
12.0
290
     0
  0
SCALE
  5
63
102
{ACAD_REACTORS
330
47
102
}
330
47
100
AcDbScale
 70
     0
300
3/4" = 1'-0"
140
0.75
141
12.0
290
     0
  0
SCALE
  5
64
102
{ACAD_REACTORS
330
47
102
}
330
47
100
AcDbScale
 70
     0
300
1" = 1'-0"
140
1.0
141
12.0
290
     0
  0
SCALE
  5
65
102
{ACAD_REACTORS
330
47
102
}
330
47
100
AcDbScale
 70
     0
300
1-1/2" = 1'-0"
140
1.5
141
12.0
290
     0
  0
SCALE
  5
66
102
{ACAD_REACTORS
330
47
102
}
330
47
100
AcDbScale
 70
     0
300
3" = 1'-0"
140
3.0
141
12.0
290
     0
  0
SCALE
  5
67
102
{ACAD_REACTORS
330
47
102
}
330
47
100
AcDbScale
 70
     0
300
6" = 1'-0"
140
6.0
141
12.0
290
     0
  0
SCALE
  5
68
102
{ACAD_REACTORS
330
47
102
}
330
47
100
AcDbScale
 70
     0
300
1'-0" = 1'-0"
140
12.0
141
12.0
290
     0
  0
ENDSEC
  0
EOF
