  0
SECTION
  2
HEADER
  9
$ACADVER
  1
AC1015
  9
$ACADMAINTVER
 70
     6
  9
$DWGCODEPAGE
  3
DOS932
  9
$INSBASE
 10
0.0
 20
0.0
 30
0.0
  9
$EXTMIN
 10
0.0
 20
0.0
 30
0.0
  9
$EXTMAX
 10
431.8
 20
279.4
 30
0.0
  9
$LIMMIN
 10
0.0
 20
0.0
  9
$LIMMAX
 10
431.8
 20
279.4
  9
$ORTHOMODE
 70
     0
  9
$REGENMODE
 70
     1
  9
$FILLMODE
 70
     1
  9
$QTEXTMODE
 70
     0
  9
$MIRRTEXT
 70
     1
  9
$LTSCALE
 40
1.0
  9
$ATTMODE
 70
     1
  9
$TEXTSIZE
 40
3.5
  9
$TRACEWID
 40
1.0
  9
$TEXTSTYLE
  7
Standard
  9
$CLAYER
  8
0
  9
$CELTYPE
  6
ByLayer
  9
$CECOLOR
 62
   256
  9
$CELTSCALE
 40
1.0
  9
$DISPSILH
 70
     0
  9
$DIMSCALE
 40
1.0
  9
$DIMASZ
 40
3.302
  9
$DIMEXO
 40
1.0
  9
$DIMDLI
 40
3.75
  9
$DIMRND
 40
0.0
  9
$DIMDLE
 40
0.0
  9
$DIMEXE
 40
1.0
  9
$DIMTP
 40
0.0
  9
$DIMTM
 40
0.0
  9
$DIMTXT
 40
3.5
  9
$DIMCEN
 40
2.5
  9
$DIMTSZ
 40
0.0
  9
$DIMTOL
 70
     0
  9
$DIMLIM
 70
     0
  9
$DIMTIH
 70
     1
  9
$DIMTOH
 70
     1
  9
$DIMSE1
 70
     0
  9
$DIMSE2
 70
     0
  9
$DIMTAD
 70
     1
  9
$DIMZIN
 70
     1
  9
$DIMBLK
  1

  9
$DIMASO
 70
     1
  9
$DIMSHO
 70
     1
  9
$DIMPOST
  1

  9
$DIMAPOST
  1

  9
$DIMALT
 70
     0
  9
$DIMALTD
 70
     3
  9
$DIMALTF
 40
0.0393700787
  9
$DIMLFAC
 40
1.0
  9
$DIMTOFL
 70
     1
  9
$DIMTVP
 40
0.0
  9
$DIMTIX
 70
     0
  9
$DIMSOXD
 70
     0
  9
$DIMSAH
 70
     0
  9
$DIMBLK1
  1

  9
$DIMBLK2
  1

  9
$DIMSTYLE
  2
ISO-25
  9
$DIMCLRD
 70
     0
  9
$DIMCLRE
 70
     0
  9
$DIMCLRT
 70
     0
  9
$DIMTFAC
 40
1.0
  9
$DIMGAP
 40
1.524
  9
$DIMJUST
 70
     0
  9
$DIMSD1
 70
     0
  9
$DIMSD2
 70
     0
  9
$DIMTOLJ
 70
     0
  9
$DIMTZIN
 70
     1
  9
$DIMALTZ
 70
     0
  9
$DIMALTTZ
 70
     0
  9
$DIMUPT
 70
     0
  9
$DIMDEC
 70
     2
  9
$DIMTDEC
 70
     2
  9
$DIMALTU
 70
     2
  9
$DIMALTTD
 70
     3
  9
$DIMTXSTY
  7
Standard
  9
$DIMAUNIT
 70
     0
  9
$DIMADEC
 70
     2
  9
$DIMALTRND
 40
0.0
  9
$DIMAZIN
 70
     0
  9
$DIMDSEP
 70
    44
  9
$DIMATFIT
 70
     3
  9
$DIMFRAC
 70
     0
  9
$DIMLDRBLK
  1

  9
$DIMLUNIT
 70
     2
  9
$DIMLWD
 70
    -2
  9
$DIMLWE
 70
    -2
  9
$DIMTMOVE
 70
     0
  9
$LUNITS
 70
     2
  9
$LUPREC
 70
     2
  9
$SKETCHINC
 40
1.0
  9
$FILLETRAD
 40
10.0
  9
$AUNITS
 70
     0
  9
$AUPREC
 70
     2
  9
$MENU
  1
.
  9
$ELEVATION
 40
0.0
  9
$PELEVATION
 40
0.0
  9
$THICKNESS
 40
0.0
  9
$LIMCHECK
 70
     0
  9
$CHAMFERA
 40
0.0
  9
$CHAMFERB
 40
0.0
  9
$CHAMFERC
 40
0.0
  9
$CHAMFERD
 40
0.0
  9
$SKPOLY
 70
     0
  9
$TDCREATE
 40
2460090.438578194
  9
$TDUCREATE
 40
2460090.063578194
  9
$TDUPDATE
 40
2460090.438578553
  9
$TDUUPDATE
 40
2460090.063578553
  9
$TDINDWG
 40
0.0000000116
  9
$TDUSRTIMER
 40
0.0000000116
  9
$USRTIMER
 70
     1
  9
$ANGBASE
 50
0.0
  9
$ANGDIR
 70
     0
  9
$PDMODE
 70
     0
  9
$PDSIZE
 40
-1.0
  9
$PLINEWID
 40
0.0
  9
$SPLFRAME
 70
     0
  9
$SPLINETYPE
 70
     6
  9
$SPLINESEGS
 70
     8
  9
$HANDSEED
  5
EF
  9
$SURFTAB1
 70
     6
  9
$SURFTAB2
 70
     6
  9
$SURFTYPE
 70
     6
  9
$SURFU
 70
     6
  9
$SURFV
 70
     6
  9
$UCSBASE
  2

  9
$UCSNAME
  2

  9
$UCSORG
 10
0.0
 20
0.0
 30
0.0
  9
$UCSXDIR
 10
1.0
 20
0.0
 30
0.0
  9
$UCSYDIR
 10
0.0
 20
1.0
 30
0.0
  9
$UCSORTHOREF
  2

  9
$UCSORTHOVIEW
 70
     0
  9
$UCSORGTOP
 10
0.0
 20
0.0
 30
0.0
  9
$UCSORGBOTTOM
 10
0.0
 20
0.0
 30
0.0
  9
$UCSORGLEFT
 10
0.0
 20
0.0
 30
0.0
  9
$UCSORGRIGHT
 10
0.0
 20
0.0
 30
0.0
  9
$UCSORGFRONT
 10
0.0
 20
0.0
 30
0.0
  9
$UCSORGBACK
 10
0.0
 20
0.0
 30
0.0
  9
$PUCSBASE
  2

  9
$PUCSNAME
  2

  9
$PUCSORG
 10
0.0
 20
0.0
 30
0.0
  9
$PUCSXDIR
 10
1.0
 20
0.0
 30
0.0
  9
$PUCSYDIR
 10
0.0
 20
1.0
 30
0.0
  9
$PUCSORTHOREF
  2

  9
$PUCSORTHOVIEW
 70
     0
  9
$PUCSORGTOP
 10
0.0
 20
0.0
 30
0.0
  9
$PUCSORGBOTTOM
 10
0.0
 20
0.0
 30
0.0
  9
$PUCSORGLEFT
 10
0.0
 20
0.0
 30
0.0
  9
$PUCSORGRIGHT
 10
0.0
 20
0.0
 30
0.0
  9
$PUCSORGFRONT
 10
0.0
 20
0.0
 30
0.0
  9
$PUCSORGBACK
 10
0.0
 20
0.0
 30
0.0
  9
$USERI1
 70
     0
  9
$USERI2
 70
     0
  9
$USERI3
 70
     0
  9
$USERI4
 70
     0
  9
$USERI5
 70
     0
  9
$USERR1
 40
0.0
  9
$USERR2
 40
0.0
  9
$USERR3
 40
0.0
  9
$USERR4
 40
0.0
  9
$USERR5
 40
0.0
  9
$WORLDVIEW
 70
     1
  9
$SHADEDGE
 70
     3
  9
$SHADEDIF
 70
    70
  9
$TILEMODE
 70
     1
  9
$MAXACTVP
 70
    64
  9
$PINSBASE
 10
0.0
 20
0.0
 30
0.0
  9
$PLIMCHECK
 70
     0
  9
$PEXTMIN
 10
1.0000000000E+20
 20
1.0000000000E+20
 30
1.0000000000E+20
  9
$PEXTMAX
 10
-1.0000000000E+20
 20
-1.0000000000E+20
 30
-1.0000000000E+20
  9
$PLIMMIN
 10
0.0
 20
0.0
  9
$PLIMMAX
 10
420.0
 20
297.0
  9
$UNITMODE
 70
     0
  9
$VISRETAIN
 70
     1
  9
$PLINEGEN
 70
     0
  9
$PSLTSCALE
 70
     1
  9
$TREEDEPTH
 70
  3020
  9
$CMLSTYLE
  2
Standard
  9
$CMLJUST
 70
     0
  9
$CMLSCALE
 40
20.0
  9
$PROXYGRAPHICS
 70
     1
  9
$MEASUREMENT
 70
     1
  9
$CELWEIGHT
370
    -1
  9
$ENDCAPS
280
     0
  9
$JOINSTYLE
280
     0
  9
$LWDISPLAY
290
     1
  9
$INSUNITS
 70
     4
  9
$HYPERLINKBASE
  1

  9
$STYLESHEET
  1

  9
$XEDIT
290
     1
  9
$CEPSNTYPE
380
     0
  9
$PSTYLEMODE
290
     1
  9
$FINGERPRINTGUID
  2
{412CC34E-AB61-438A-B4C7-8EDAA434DC09}
  9
$VERSIONGUID
  2
{FAEB1C32-E019-11D5-929B-00C0DF256EC4}
  9
$EXTNAMES
290
     1
  9
$PSVPSCALE
 40
0.0
  9
$OLESTARTUP
290
     0
  0
ENDSEC
  0
SECTION
  2
CLASSES
  0
CLASS
  1
ACDBDICTIONARYWDFLT
  2
AcDbDictionaryWithDefault
  3
ObjectDBX Classes
 90
        0
280
     0
281
     0
  0
CLASS
  1
VISUALSTYLE
  2
AcDbVisualStyle
  3
ObjectDBX Classes
 90
     4095
280
     0
281
     0
  0
CLASS
  1
MATERIAL
  2
AcDbMaterial
  3
ObjectDBX Classes
 90
     1153
280
     0
281
     0
  0
CLASS
  1
SCALE
  2
AcDbScale
  3
ObjectDBX Classes
 90
     1153
280
     0
281
     0
  0
CLASS
  1
TABLESTYLE
  2
AcDbTableStyle
  3
ObjectDBX Classes
 90
     4095
280
     0
281
     0
  0
CLASS
  1
MLEADERSTYLE
  2
AcDbMLeaderStyle
  3
ACDB_MLEADERSTYLE_CLASS
 90
     4095
280
     0
281
     0
  0
CLASS
  1
SUN
  2
AcDbSun
  3
SCENEOE
 90
     1153
280
     0
281
     0
  0
CLASS
  1
ACDBPLACEHOLDER
  2
AcDbPlaceHolder
  3
ObjectDBX Classes
 90
        0
280
     0
281
     0
  0
CLASS
  1
LAYOUT
  2
AcDbLayout
  3
ObjectDBX Classes
 90
        0
280
     0
281
     0
  0
ENDSEC
  0
SECTION
  2
TABLES
  0
TABLE
  2
VPORT
  5
8
330
0
100
AcDbSymbolTable
 70
     1
  0
VPORT
  5
29
330
8
100
AcDbSymbolTableRecord
100
AcDbViewportTableRecord
  2
*Active
 70
     0
 10
0.0
 20
0.0
 11
1.0
 21
1.0
 12
215.9
 22
139.7
 13
0.0
 23
0.0
 14
10.0
 24
10.0
 15
10.0
 25
10.0
 16
0.0
 26
0.0
 36
1.0
 17
0.0
 27
0.0
 37
0.0
 40
279.4
 41
1.5454545455
 42
50.0
 43
0.0
 44
0.0
 50
0.0
 51
0.0
 71
     0
 72
  2000
 73
     1
 74
     3
 75
     0
 76
     0
 77
     0
 78
     0
281
     0
 65
     1
110
0.0
120
0.0
130
0.0
111
1.0
121
0.0
131
0.0
112
0.0
122
1.0
132
0.0
 79
     0
146
0.0
  0
ENDTAB
  0
TABLE
  2
LTYPE
  5
5
330
0
100
AcDbSymbolTable
 70
     6
  0
LTYPE
  5
14
330
5
100
AcDbSymbolTableRecord
100
AcDbLinetypeTableRecord
  2
ByBlock
 70
     0
  3

 72
    65
 73
     0
 40
0.0
  0
LTYPE
  5
15
330
5
100
AcDbSymbolTableRecord
100
AcDbLinetypeTableRecord
  2
ByLayer
 70
     0
  3

 72
    65
 73
     0
 40
0.0
  0
LTYPE
  5
16
330
5
100
AcDbSymbolTableRecord
100
AcDbLinetypeTableRecord
  2
Continuous
 70
     0
  3
Solid line
 72
    65
 73
     0
 40
0.0
  0
LTYPE
  5
6E
330
5
100
AcDbSymbolTableRecord
100
AcDbLinetypeTableRecord
  2
HIDDEN
 70
     0
  3
Hidden __ __ __ __ __ __ __ __ __ __ __ __ __ __
 72
    65
 73
     2
 40
1.905
 49
1.27
 74
     0
 49
-0.635
 74
     0
  0
LTYPE
  5
6F
330
5
100
AcDbSymbolTableRecord
100
AcDbLinetypeTableRecord
  2
PHANTOM
 70
     0
  3
Phantom ______  __  __  ______  __  __  ______
 72
    65
 73
     6
 40
12.7
 49
6.35
 74
     0
 49
-1.27
 74
     0
 49
1.27
 74
     0
 49
-1.27
 74
     0
 49
1.27
 74
     0
 49
-1.27
 74
     0
  0
LTYPE
  5
70
330
5
100
AcDbSymbolTableRecord
100
AcDbLinetypeTableRecord
  2
CENTER
 70
     0
  3
Center ____ _ ____ _ ____ _ ____ _ ____ _ ____
 72
    65
 73
     4
 40
10.16
 49
6.35
 74
     0
 49
-1.27
 74
     0
 49
1.27
 74
     0
 49
-1.27
 74
     0
  0
LTYPE
  5
71
330
5
100
AcDbSymbolTableRecord
100
AcDbLinetypeTableRecord
  2
CENTERX2
 70
     0
  3
Center (2x) ________  __  ________  __  _____
 72
    65
 73
     4
 40
20.32
 49
12.7
 74
     0
 49
-2.54
 74
     0
 49
2.54
 74
     0
 49
-2.54
 74
     0
  0
LTYPE
  5
72
330
5
100
AcDbSymbolTableRecord
100
AcDbLinetypeTableRecord
  2
DOT2
 70
     0
  3
Dot (.5x) ........................................
 72
    65
 73
     2
 40
0.635
 49
0.0
 74
     0
 49
-0.635
 74
     0
  0
ENDTAB
  0
TABLE
  2
LAYER
  5
2
330
0
100
AcDbSymbolTable
 70
     1
  0
LAYER
  5
10
330
2
100
AcDbSymbolTableRecord
100
AcDbLayerTableRecord
  2
0
 70
     0
 62
     7
  6
Continuous
370
    -3
390
F
  0
ENDTAB
  0
TABLE
  2
STYLE
  5
3
330
0
100
AcDbSymbolTable
 70
     2
  0
STYLE
  5
11
330
3
100
AcDbSymbolTableRecord
100
AcDbTextStyleTableRecord
  2
Standard
 70
     0
 40
0.0
 41
1.0
 50
0.0
 71
     0
 42
3.5
  3
txt
  4
bigfont
  0
STYLE
  5
73
330
3
100
AcDbSymbolTableRecord
100
AcDbTextStyleTableRecord
  2
SLDTEXTSTYLE0
 70
     0
 40
0.0
 41
0.75
 50
0.0
 71
     0
 42
3.5
  3
TXT
  4
bigfont
  0
ENDTAB
  0
TABLE
  2
VIEW
  5
6
330
0
100
AcDbSymbolTable
 70
     0
  0
ENDTAB
  0
TABLE
  2
UCS
  5
7
330
0
100
AcDbSymbolTable
 70
     0
  0
ENDTAB
  0
TABLE
  2
APPID
  5
9
330
0
100
AcDbSymbolTable
 70
     1
  0
APPID
  5
12
330
9
100
AcDbSymbolTableRecord
100
AcDbRegAppTableRecord
  2
ACAD
 70
     0
  0
ENDTAB
  0
TABLE
  2
DIMSTYLE
  5
A
330
0
100
AcDbSymbolTable
 70
     1
100
AcDbDimStyleTable
  0
DIMSTYLE
105
27
330
A
100
AcDbSymbolTableRecord
100
AcDbDimStyleTableRecord
  2
ISO-25
 70
     0
 41
2.5
 42
0.625
 43
3.75
 44
1.25
 73
     0
 74
     0
 77
     1
 78
     8
140
2.5
141
2.5
143
0.0393700787
147
0.625
171
     3
172
     1
178
     0
271
     2
272
     2
274
     3
278
    44
283
     0
284
     8
340
11
  0
ENDTAB
  0
TABLE
  2
BLOCK_RECORD
  5
1
330
0
100
AcDbSymbolTable
 70
     3
  0
BLOCK_RECORD
  5
1F
330
1
100
AcDbSymbolTableRecord
100
AcDbBlockTableRecord
  2
*Model_Space
340
22
  0
BLOCK_RECORD
  5
1B
330
1
100
AcDbSymbolTableRecord
100
AcDbBlockTableRecord
  2
*Paper_Space
340
1E
  0
BLOCK_RECORD
  5
23
330
1
100
AcDbSymbolTableRecord
100
AcDbBlockTableRecord
  2
*Paper_Space0
340
26
  0
BLOCK_RECORD
  5
D6
330
1
100
AcDbSymbolTableRecord
100
AcDbBlockTableRecord
  2
SW_CENTERMARKSYMBOL_0
340
0
102
{BLKREFS
331
E1
102
}
  0
BLOCK_RECORD
  5
E2
330
1
100
AcDbSymbolTableRecord
100
AcDbBlockTableRecord
  2
SW_CENTERMARKSYMBOL_1
340
0
102
{BLKREFS
331
ED
102
}
  0
ENDTAB
  0
ENDSEC
  0
SECTION
  2
BLOCKS
  0
BLOCK
  5
20
330
1F
100
AcDbEntity
  8
0
100
AcDbBlockBegin
  2
*Model_Space
 70
     0
 10
0.0
 20
0.0
 30
0.0
  3
*Model_Space
  1

  0
ENDBLK
  5
21
330
1F
100
AcDbEntity
  8
0
100
AcDbBlockEnd
  0
BLOCK
  5
1C
330
1B
100
AcDbEntity
 67
     1
  8
0
100
AcDbBlockBegin
  2
*Paper_Space
 70
     0
 10
0.0
 20
0.0
 30
0.0
  3
*Paper_Space
  1

  0
ENDBLK
  5
1D
330
1B
100
AcDbEntity
 67
     1
  8
0
100
AcDbBlockEnd
  0
BLOCK
  5
24
330
23
100
AcDbEntity
  8
0
100
AcDbBlockBegin
  2
*Paper_Space0
 70
     0
 10
0.0
 20
0.0
 30
0.0
  3
*Paper_Space0
  1

  0
ENDBLK
  5
25
330
23
100
AcDbEntity
  8
0
100
AcDbBlockEnd
  0
BLOCK
  5
D7
330
D6
100
AcDbEntity
  8
0
100
AcDbBlockBegin
  2
SW_CENTERMARKSYMBOL_0
 70
     0
 10
0.0
 20
0.0
 30
0.0
  3
SW_CENTERMARKSYMBOL_0
  1

  0
LINE
  5
D9
330
D6
100
AcDbEntity
  8
0
  6
Continuous
 62
     0
370
    18
100
AcDbLine
 10
0.0
 20
0.0
 30
0.0
 11
0.0
 21
2.5
 31
0.0
  0
LINE
  5
DA
330
D6
100
AcDbEntity
  8
0
  6
Continuous
 62
     0
370
    18
100
AcDbLine
 10
0.0
 20
0.0
 30
0.0
 11
-2.5
 21
0.0
 31
0.0
  0
LINE
  5
DB
330
D6
100
AcDbEntity
  8
0
  6
Continuous
 62
     0
370
    18
100
AcDbLine
 10
0.0
 20
0.0
 30
0.0
 11
0.0
 21
-2.5
 31
0.0
  0
LINE
  5
DC
330
D6
100
AcDbEntity
  8
0
  6
Continuous
 62
     0
370
    18
100
AcDbLine
 10
0.0
 20
0.0
 30
0.0
 11
2.5
 21
0.0
 31
0.0
  0
LINE
  5
DD
330
D6
100
AcDbEntity
  8
0
  6
Continuous
 62
     0
370
    18
100
AcDbLine
 10
0.0
 20
5.0
 30
0.0
 11
0.0
 21
18.0
 31
0.0
  0
LINE
  5
DE
330
D6
100
AcDbEntity
  8
0
  6
Continuous
 62
     0
370
    18
100
AcDbLine
 10
-5.0
 20
0.0
 30
0.0
 11
-18.0
 21
0.0
 31
0.0
  0
LINE
  5
DF
330
D6
100
AcDbEntity
  8
0
  6
Continuous
 62
     0
370
    18
100
AcDbLine
 10
0.0
 20
-5.0
 30
0.0
 11
0.0
 21
-18.0
 31
0.0
  0
LINE
  5
E0
330
D6
100
AcDbEntity
  8
0
  6
Continuous
 62
     0
370
    18
100
AcDbLine
 10
5.0
 20
0.0
 30
0.0
 11
18.0
 21
0.0
 31
0.0
  0
ENDBLK
  5
D8
330
D6
100
AcDbEntity
  8
0
100
AcDbBlockEnd
  0
BLOCK
  5
E3
330
E2
100
AcDbEntity
  8
0
100
AcDbBlockBegin
  2
SW_CENTERMARKSYMBOL_1
 70
     0
 10
0.0
 20
0.0
 30
0.0
  3
SW_CENTERMARKSYMBOL_1
  1

  0
LINE
  5
E5
330
E2
100
AcDbEntity
  8
0
  6
Continuous
 62
     0
370
    18
100
AcDbLine
 10
0.0
 20
0.0
 30
0.0
 11
0.0
 21
2.5
 31
0.0
  0
LINE
  5
E6
330
E2
100
AcDbEntity
  8
0
  6
Continuous
 62
     0
370
    18
100
AcDbLine
 10
0.0
 20
0.0
 30
0.0
 11
-2.5
 21
0.0
 31
0.0
  0
LINE
  5
E7
330
E2
100
AcDbEntity
  8
0
  6
Continuous
 62
     0
370
    18
100
AcDbLine
 10
0.0
 20
0.0
 30
0.0
 11
0.0
 21
-2.5
 31
0.0
  0
LINE
  5
E8
330
E2
100
AcDbEntity
  8
0
  6
Continuous
 62
     0
370
    18
100
AcDbLine
 10
0.0
 20
0.0
 30
0.0
 11
2.5
 21
0.0
 31
0.0
  0
LINE
  5
E9
330
E2
100
AcDbEntity
  8
0
  6
Continuous
 62
     0
370
    18
100
AcDbLine
 10
0.0
 20
5.0
 30
0.0
 11
0.0
 21
32.5286060606
 31
0.0
  0
LINE
  5
EA
330
E2
100
AcDbEntity
  8
0
  6
Continuous
 62
     0
370
    18
100
AcDbLine
 10
-5.0
 20
0.0
 30
0.0
 11
-32.5286060606
 21
0.0
 31
0.0
  0
LINE
  5
EB
330
E2
100
AcDbEntity
  8
0
  6
Continuous
 62
     0
370
    18
100
AcDbLine
 10
0.0
 20
-5.0
 30
0.0
 11
0.0
 21
-32.5286060606
 31
0.0
  0
LINE
  5
EC
330
E2
100
AcDbEntity
  8
0
  6
Continuous
 62
     0
370
    18
100
AcDbLine
 10
5.0
 20
0.0
 30
0.0
 11
32.5286060606
 21
0.0
 31
0.0
  0
ENDBLK
  5
E4
330
E2
100
AcDbEntity
  8
0
100
AcDbBlockEnd
  0
ENDSEC
  0
SECTION
  2
ENTITIES
  0
MTEXT
  5
74
330
1F
100
AcDbEntity
  8
0
  6
Continuous
 62
     7
370
     0
100
AcDbMText
 10
66.9245596364
 20
88.9973312935
 30
0.0
 40
7.4083333333
 41
0.0
 71
     1
 72
     1
  1
NP-7050
  7
SLDTEXTSTYLE0
 73
     1
 44
1.0
  0
LINE
  5
75
330
1F
100
AcDbEntity
  8
0
  6
Continuous
 62
     7
370
    25
100
AcDbLine
 10
55.2857754423
 20
74.348229182
 30
0.0
 11
36.5457472985
 21
73.7626033025
 31
0.0
  0
LINE
  5
76
330
1F
100
AcDbEntity
  8
0
  6
Continuous
 62
     7
370
    25
100
AcDbLine
 10
36.5457472985
 20
14.8766429403
 30
0.0
 11
55.2857754423
 21
14.2910170608
 31
0.0
  0
LINE
  5
77
330
1F
100
AcDbEntity
  8
0
  6
Continuous
 62
     7
370
    25
100
AcDbLine
 10
55.2857754423
 20
14.2910170608
 30
0.0
 11
57.3143815029
 21
16.3196231214
 31
0.0
  0
LINE
  5
78
330
1F
100
AcDbEntity
  8
0
  6
Continuous
 62
     7
370
    25
100
AcDbLine
 10
57.3143815029
 20
72.3196231214
 30
0.0
 11
55.2857754423
 21
74.348229182
 31
0.0
  0
LINE
  5
79
330
1F
100
AcDbEntity
  8
0
  6
Continuous
 62
     7
370
    25
100
AcDbLine
 10
36.5457472985
 20
73.7626033025
 30
0.0
 11
32.3143815029
 21
71.3196231214
 31
0.0
  0
LINE
  5
7A
330
1F
100
AcDbEntity
  8
0
  6
Continuous
 62
     7
370
    25
100
AcDbLine
 10
32.3143815029
 20
17.3196231214
 30
0.0
 11
36.5457472985
 21
14.8766429403
 31
0.0
  0
LINE
  5
7B
330
1F
100
AcDbEntity
  8
0
  6
Continuous
 62
     7
370
    25
100
AcDbLine
 10
70.8313730392
 20
26.3366146577
 30
0.0
 11
73.3143815029
 21
28.8196231214
 31
0.0
  0
LINE
  5
7C
330
1F
100
AcDbEntity
  8
0
  6
Continuous
 62
     7
370
    25
100
AcDbLine
 10
73.3143815029
 20
59.8196231214
 30
0.0
 11
70.8313730392
 21
62.3026315851
 31
0.0
  0
LINE
  5
7D
330
1F
100
AcDbEntity
  8
0
  6
Continuous
 62
     7
370
    25
100
AcDbLine
 10
55.2857754423
 20
74.348229182
 30
0.0
 11
55.2857754423
 21
14.2910170608
 31
0.0
  0
LINE
  5
7E
330
1F
100
AcDbEntity
  8
0
  6
Continuous
 62
     7
370
    25
100
AcDbLine
 10
36.5457472985
 20
14.8766429403
 30
0.0
 11
36.5457472985
 21
73.7626033025
 31
0.0
  0
LINE
  5
7F
330
1F
100
AcDbEntity
  8
0
  6
Continuous
 62
     7
370
    25
100
AcDbLine
 10
57.3143815029
 20
72.3196231214
 30
0.0
 11
57.3143815029
 21
16.3196231214
 31
0.0
  0
LINE
  5
80
330
1F
100
AcDbEntity
  8
0
  6
Continuous
 62
     7
370
    25
100
AcDbLine
 10
32.3143815029
 20
17.3196231214
 30
0.0
 11
32.3143815029
 21
71.3196231214
 31
0.0
  0
SPLINE
  5
81
330
1F
100
AcDbEntity
  8
0
  6
Continuous
 62
     7
370
    25
100
AcDbSpline
210
0.0
220
0.0
230
1.0
 70
     8
 71
     3
 72
    22
 73
    18
 74
     0
 42
0.000000001
 43
0.00000001
 40
0.0
 40
0.0
 40
0.0
 40
0.0
 40
0.2500000000000001
 40
0.2500000000000001
 40
0.3125000000000003
 40
0.3125000000000003
 40
0.3750000000000004
 40
0.3750000000000004
 40
0.5000000000000003
 40
0.5000000000000003
 40
0.6250000000000002
 40
0.6250000000000002
 40
0.7500000000000002
 40
0.7500000000000002
 40
0.8750000000000001
 40
0.8750000000000001
 40
1.0
 40
1.0
 40
1.0
 40
1.0
 10
70.24705512230489
 20
48.97204011935151
 30
0.0
 10
70.97935300289616
 20
49.99262402223769
 30
0.0
 10
71.61644581580279
 20
51.04775972084983
 30
0.0
 10
72.19566217925052
 20
52.44548723348494
 30
0.0
 10
72.3007847545848
 20
52.7304188102588
 30
0.0
 10
72.48289457247628
 20
53.30176633511016
 30
0.0
 10
72.55995975932392
 20
53.58798866745865
 30
0.0
 10
72.74684773906917
 20
54.44839306900764
 30
0.0
 10
72.81211003458598
 20
55.02432246016611
 30
0.0
 10
72.81653586937195
 20
56.18112587143946
 30
0.0
 10
72.75530523395656
 20
56.76363418008263
 30
0.0
 10
72.50923039421157
 20
57.92671229291557
 30
0.0
 10
72.32767182102896
 20
58.49540831204687
 30
0.0
 10
71.87061646300735
 20
59.61218469448993
 30
0.0
 10
71.5951860583831
 20
60.16027962558656
 30
0.0
 10
70.97085619261323
 20
61.24034598749252
 30
0.0
 10
70.6210004058358
 20
61.77346561561953
 30
0.0
 10
70.24705512230416
 20
62.29462312139358
 30
0.0
  0
LINE
  5
82
330
1F
100
AcDbEntity
  8
0
  6
Continuous
 62
     7
370
    25
100
AcDbLine
 10
57.3143815029
 20
48.9720401194
 30
0.0
 11
70.2470551223
 21
48.9720401193
 31
0.0
  0
LINE
  5
83
330
1F
100
AcDbEntity
  8
0
  6
Continuous
 62
     7
370
    25
100
AcDbLine
 10
57.3143815029
 20
62.2946231214
 30
0.0
 11
70.2470551223
 21
62.2946231214
 31
0.0
  0
LINE
  5
84
330
1F
100
AcDbEntity
  8
0
  6
Continuous
 62
     7
370
    25
100
AcDbLine
 10
73.3143815029
 20
59.8196231214
 30
0.0
 11
73.3143815029
 21
28.8196231214
 31
0.0
  0
SPLINE
  5
85
330
1F
100
AcDbEntity
  8
0
  6
Continuous
 62
     7
370
    25
100
AcDbSpline
210
0.0
220
0.0
230
1.0
 70
    24
 71
     3
 72
    11
 73
     7
 74
     0
 42
0.000000001
 43
0.00000001
 40
0.0
 40
0.0
 40
0.0
 40
0.0
 40
0.2729235261134095
 40
0.5469526139024621
 40
0.8850928932641063
 40
1.0
 40
1.0
 40
1.0
 40
1.0
 10
70.24705512231291
 20
26.34462312138726
 30
0.0
 10
70.34426920671955
 20
26.34462312138727
 30
0.0
 10
70.53909117143448
 20
26.34462312138727
 30
0.0
 10
70.73825444859955
 20
26.34462312138725
 30
0.0
 10
70.84453156627896
 20
26.34462312138727
 30
0.0
 10
70.82764702715485
 20
26.34462312138726
 30
0.0
 10
70.82336457547574
 20
26.34462312138726
 30
0.0
  0
SPLINE
  5
86
330
1F
100
AcDbEntity
  8
0
  6
Continuous
 62
     7
370
    25
100
AcDbSpline
210
0.0
220
0.0
230
1.0
 70
     8
 71
     3
 72
    22
 73
    18
 74
     0
 42
0.000000001
 43
0.00000001
 40
0.0
 40
0.0
 40
0.0
 40
0.0
 40
0.2500000000000008
 40
0.2500000000000008
 40
0.3125000000000008
 40
0.3125000000000008
 40
0.3750000000000007
 40
0.3750000000000007
 40
0.5000000000000006
 40
0.5000000000000006
 40
0.6250000000000006
 40
0.6250000000000006
 40
0.7500000000000003
 40
0.7500000000000003
 40
0.8750000000000002
 40
0.8750000000000002
 40
1.0
 40
1.0
 40
1.0
 40
1.0
 10
70.24705512230476
 20
26.34462312138179
 30
0.0
 10
70.97935300289568
 20
27.36520702426747
 30
0.0
 10
71.61644581580204
 20
28.42034272287906
 30
0.0
 10
72.19566217924975
 20
29.81807023551341
 30
0.0
 10
72.30078475458401
 20
30.10300181228711
 30
0.0
 10
72.48289457247559
 20
30.6743493371382
 30
0.0
 10
72.55995975932325
 20
30.96057166948653
 30
0.0
 10
72.7468477390687
 20
31.82097607103509
 30
0.0
 10
72.81211003458573
 20
32.39690546219327
 30
0.0
 10
72.8165358693722
 20
33.55370887346603
 30
0.0
 10
72.75530523395716
 20
34.13621718210884
 30
0.0
 10
72.50923039421289
 20
35.29929529494135
 30
0.0
 10
72.32767182103066
 20
35.86799131407243
 30
0.0
 10
71.87061646300985
 20
36.98476769651507
 30
0.0
 10
71.595186058386
 20
37.53286262761151
 30
0.0
 10
70.97085619261695
 20
38.61292898951706
 30
0.0
 10
70.62100040583994
 20
39.14604861764388
 30
0.0
 10
70.24705512230868
 20
39.66720612341775
 30
0.0
  0
SPLINE
  5
87
330
1F
100
AcDbEntity
  8
0
  6
Continuous
 62
     7
370
    25
100
AcDbSpline
210
0.0
220
0.0
230
1.0
 70
     8
 71
     3
 72
    18
 73
    14
 74
     0
 42
0.000000001
 43
0.00000001
 40
0.0
 40
0.0
 40
0.0
 40
0.0
 40
0.1250000000000001
 40
0.1250000000000001
 40
0.2500000000000002
 40
0.2500000000000002
 40
0.5000000000000002
 40
0.5000000000000002
 40
0.6250000000000002
 40
0.6250000000000002
 40
0.7500000000000001
 40
0.7500000000000001
 40
1.0
 40
1.0
 40
1.0
 40
1.0
 10
70.2470551223087
 20
39.66720612341774
 30
0.0
 10
70.3427919928627
 20
40.04928230511157
 30
0.0
 10
70.42841033734159
 20
40.43547138379655
 30
0.0
 10
70.5757766736718
 20
41.20684218842188
 30
0.0
 10
70.63784216375146
 20
41.59321518649607
 30
0.0
 10
70.78770924029726
 20
42.75448434677917
 30
0.0
 10
70.83903203946093
 20
43.53153951695423
 30
0.0
 10
70.83955355657399
 20
44.70164773895961
 30
0.0
 10
70.82701932045221
 20
45.09243594420074
 30
0.0
 10
70.77639968509989
 20
45.87552460793414
 30
0.0
 10
70.73816541839903
 20
46.26891031256652
 30
0.0
 10
70.58647299112369
 20
47.44357161573994
 30
0.0
 10
70.43714404948054
 20
48.21341440853038
 30
0.0
 10
70.24705512231277
 20
48.97204011934056
 30
0.0
  0
SPLINE
  5
88
330
1F
100
AcDbEntity
  8
0
  6
Continuous
 62
     7
370
    25
100
AcDbSpline
210
0.0
220
0.0
230
1.0
 70
    24
 71
     3
 72
    11
 73
     7
 74
     0
 42
0.000000001
 43
0.00000001
 40
0.0
 40
0.0
 40
0.0
 40
0.0
 40
0.2729235261139722
 40
0.5469526139036356
 40
0.885092893264404
 40
1.0
 40
1.0
 40
1.0
 40
1.0
 10
70.24705512230416
 20
62.29462312139357
 30
0.0
 10
70.34426920671389
 20
62.29462312139091
 30
0.0
 10
70.53909117143506
 20
62.29462312138558
 30
0.0
 10
70.73825444859882
 20
62.29462312138786
 30
0.0
 10
70.84453156627899
 20
62.29462312138721
 30
0.0
 10
70.82764702715487
 20
62.29462312138725
 30
0.0
 10
70.82336457547574
 20
62.29462312138727
 30
0.0
  0
LINE
  5
89
330
1F
100
AcDbEntity
  8
0
  6
Continuous
 62
     7
370
    25
100
AcDbLine
 10
57.3143815029
 20
26.3446231214
 30
0.0
 11
70.2470551223
 21
26.3446231214
 31
0.0
  0
LINE
  5
8A
330
1F
100
AcDbEntity
  8
0
  6
Continuous
 62
     7
370
    25
100
AcDbLine
 10
70.2470551223
 20
39.6672061234
 30
0.0
 11
57.3143815029
 21
39.6672061234
 31
0.0
  0
LINE
  5
8B
330
1F
100
AcDbEntity
  8
0
  6
Continuous
 62
     7
370
    18
100
AcDbLine
 10
55.2857754423
 20
15.9916231214
 30
0.0
 11
33.4316560655
 21
16.6745643519
 31
0.0
  0
LINE
  5
8C
330
1F
100
AcDbEntity
  8
0
  6
Continuous
 62
     7
370
    18
100
AcDbLine
 10
55.2857754423
 20
72.6476231214
 30
0.0
 11
33.4316560655
 21
71.9646818909
 31
0.0
  0
LINE
  5
8D
330
1F
100
AcDbEntity
  8
0
  6
CENTERX2
 62
     7
370
    18
100
AcDbLine
 10
78.1832554913
 20
44.3196231214
 30
0.0
 11
27.7749734104
 21
44.3196231214
 31
0.0
  0
SPLINE
  5
8E
330
1F
100
AcDbEntity
  8
0
  6
Continuous
 62
     7
370
    25
100
AcDbSpline
210
0.0
220
0.0
230
1.0
 70
     8
 71
     3
 72
    23
 73
    19
 74
     0
 42
0.000000001
 43
0.00000001
 40
0.0
 40
0.0
 40
0.0
 40
0.0
 40
0.0714340508655357
 40
0.1375891490131987
 40
0.1988671272749593
 40
0.2554435599219264
 40
0.3076933861665007
 40
0.3550325418254514
 40
0.3974487289008685
 40
0.4361373033546203
 40
0.508111905824443
 40
0.5772270526050618
 40
0.6463348841943413
 40
0.7166178483288138
 40
0.7873525362986343
 40
0.856732945264368
 40
0.9275818981340935
 40
1.0
 40
1.0
 40
1.0
 40
1.0
 10
129.4551416351791
 20
41.33766780609802
 30
0.0
 10
129.4783154937154
 20
41.36098012025928
 30
0.0
 10
129.5229506703116
 20
41.4058819762805
 30
0.0
 10
129.5841870150872
 20
41.47386966674263
 30
0.0
 10
129.6411794480199
 20
41.53651690967205
 30
0.0
 10
129.6896191224797
 20
41.59801785819551
 30
0.0
 10
129.7333853303204
 20
41.65503620457378
 30
0.0
 10
129.7691747063339
 20
41.7097344699504
 30
0.0
 10
129.7996430732873
 20
41.76042218986936
 30
0.0
 10
129.8301972983899
 20
41.82396528443333
 30
0.0
 10
129.8577946106345
 20
41.902258618677
 30
0.0
 10
129.8760304679749
 20
41.99763692811745
 30
0.0
 10
129.8783109905533
 20
42.09396090641183
 30
0.0
 10
129.8653788927763
 20
42.19016682799381
 30
0.0
 10
129.8379395838266
 20
42.28331787687819
 30
0.0
 10
129.7985377990396
 20
42.37236637965759
 30
0.0
 10
129.7444231509731
 20
42.45452983910238
 30
0.0
 10
129.6997021631785
 20
42.5030472503483
 30
0.0
 10
129.6770967633842
 20
42.52757165225186
 30
0.0
  0
LINE
  5
8F
330
1F
100
AcDbEntity
  8
0
  6
Continuous
 62
     7
370
    25
100
AcDbLine
 10
128.9751736865
 20
40.8705203702
 30
0.0
 11
129.4551416352
 21
41.3376678061
 31
0.0
  0
LINE
  5
90
330
1F
100
AcDbEntity
  8
0
  6
Continuous
 62
     7
370
    25
100
AcDbLine
 10
128.0240518916
 20
41.8216421651
 30
0.0
 11
128.9751736865
 21
40.8705203702
 31
0.0
  0
LINE
  5
91
330
1F
100
AcDbEntity
  8
0
  6
Continuous
 62
     7
370
    25
100
AcDbLine
 10
128.5184429172
 20
42.3160331907
 30
0.0
 11
128.0240518916
 21
41.8216421651
 31
0.0
  0
SPLINE
  5
92
330
1F
100
AcDbEntity
  8
0
  6
Continuous
 62
     7
370
    25
100
AcDbSpline
210
0.0
220
0.0
230
1.0
 70
     8
 71
     3
 72
    23
 73
    19
 74
     0
 42
0.000000001
 43
0.00000001
 40
0.0
 40
0.0
 40
0.0
 40
0.0
 40
0.0726813284379041
 40
0.1434600890843441
 40
0.2141609783754212
 40
0.2866317423066647
 40
0.3582937434852109
 40
0.4274496270517902
 40
0.4958614884323623
 40
0.5652405595167558
 40
0.6025654069960298
 40
0.6444912751488168
 40
0.6912842453022061
 40
0.7427916792484178
 40
0.799585652404238
 40
0.8612748596826224
 40
0.9283330396850042
 40
1.0
 40
1.0
 40
1.0
 40
1.0
 10
129.6770967633842
 20
42.52757165225186
 30
0.0
 10
129.6531650231558
 20
42.54974793691191
 30
0.0
 10
129.6059280001278
 20
42.5935200010894
 30
0.0
 10
129.5242287145409
 20
42.64475273987617
 30
0.0
 10
129.4368792639918
 20
42.68496774863737
 30
0.0
 10
129.3436945907295
 20
42.71048242728392
 30
0.0
 10
129.2489461955059
 20
42.7245922425239
 30
0.0
 10
129.1547195799094
 20
42.72423478060409
 30
0.0
 10
129.0631661605378
 20
42.70750164786688
 30
0.0
 10
128.9883857489279
 20
42.68239382400046
 30
0.0
 10
128.9291247585313
 20
42.65188973746843
 30
0.0
 10
128.8799011026332
 20
42.62413983278083
 30
0.0
 10
128.8281334082571
 20
42.5884222167165
 30
0.0
 10
128.7727413158232
 20
42.54646175858466
 30
0.0
 10
128.7135818094111
 20
42.4984704193259
 30
0.0
 10
128.6508701223376
 20
42.44386939111736
 30
0.0
 10
128.5856639390005
 20
42.38211319033287
 30
0.0
 10
128.5413407650348
 20
42.33854236618201
 30
0.0
 10
128.5184429172304
 20
42.31603319071341
 30
0.0
  0
CIRCLE
  5
93
330
1F
100
AcDbEntity
  8
0
  6
Continuous
 62
     7
370
    25
100
AcDbCircle
 10
129.2504693642
 20
44.3196231214
 30
0.0
 40
15.5
  0
SPLINE
  5
94
330
1F
100
AcDbEntity
  8
0
  6
Continuous
 62
     7
370
    25
100
AcDbSpline
210
0.0
220
0.0
230
1.0
 70
    24
 71
     3
 72
    22
 73
    18
 74
     0
 42
0.000000001
 43
0.00000001
 40
0.0
 40
0.0
 40
0.0
 40
0.0
 40
0.2500000000000003
 40
0.2500000000000003
 40
0.3125000000000003
 40
0.3125000000000003
 40
0.3750000000000003
 40
0.3750000000000003
 40
0.5000000000000003
 40
0.5000000000000003
 40
0.6250000000000003
 40
0.6250000000000003
 40
0.7500000000000003
 40
0.7500000000000003
 40
0.8750000000000002
 40
0.8750000000000002
 40
1.0
 40
1.0
 40
1.0
 40
1.0
 10
133.9028863621313
 20
62.29462312138727
 30
0.0
 10
134.9234702650172
 20
61.27403921850141
 30
0.0
 10
135.978605963629
 20
60.21890351988958
 30
0.0
 10
137.3763334762637
 20
58.82117600725486
 30
0.0
 10
137.6612650530375
 20
58.53624443048107
 30
0.0
 10
138.2326125778886
 20
57.96489690562994
 30
0.0
 10
138.518834910237
 20
57.67867457328159
 30
0.0
 10
139.3792393117856
 20
56.81827017173294
 30
0.0
 10
139.9551687029439
 20
56.24234078057471
 30
0.0
 10
141.1119721142167
 20
55.08553736930185
 30
0.0
 10
141.6944804228597
 20
54.50302906065889
 30
0.0
 10
142.857558535692
 20
53.33995094782652
 30
0.0
 10
143.4262545548231
 20
52.77125492869548
 30
0.0
 10
144.5430309372656
 20
51.65447854625295
 30
0.0
 10
145.091125868362
 20
51.10638361515656
 30
0.0
 10
146.1711922302675
 20
50.02631725325108
 30
0.0
 10
146.7043118583942
 20
49.4931976251243
 30
0.0
 10
147.2254693641681
 20
48.97204011935048
 30
0.0
  0
SPLINE
  5
95
330
1F
100
AcDbEntity
  8
0
  6
Continuous
 62
     7
370
    25
100
AcDbSpline
210
0.0
220
0.0
230
1.0
 70
    24
 71
     3
 72
    18
 73
    14
 74
     0
 42
0.000000001
 43
0.00000001
 40
0.0
 40
0.0
 40
0.0
 40
0.0
 40
0.125
 40
0.125
 40
0.2500000000000001
 40
0.2500000000000001
 40
0.4999999999999999
 40
0.4999999999999999
 40
0.6249999999999999
 40
0.6249999999999999
 40
0.7499999999999999
 40
0.7499999999999999
 40
1.0
 40
1.0
 40
1.0
 40
1.0
 10
147.2254693641618
 20
39.66720612341774
 30
0.0
 10
147.2254693641618
 20
40.04928230511205
 30
0.0
 10
147.2254693641618
 20
40.43547138379752
 30
0.0
 10
147.2254693641618
 20
41.20684218842384
 30
0.0
 10
147.2254693641618
 20
41.59321518649851
 30
0.0
 10
147.2254693641618
 20
42.75448434678309
 30
0.0
 10
147.2254693641618
 20
43.53153951695914
 30
0.0
 10
147.2254693641618
 20
44.70164773896602
 30
0.0
 10
147.2254693641618
 20
45.09243594420766
 30
0.0
 10
147.2254693641618
 20
45.87552460794208
 30
0.0
 10
147.2254693641618
 20
46.26891031257498
 30
0.0
 10
147.2254693641618
 20
47.44357161574974
 30
0.0
 10
147.2254693641618
 20
48.21341440854104
 30
0.0
 10
147.2254693641618
 20
48.97204011935207
 30
0.0
  0
SPLINE
  5
96
330
1F
100
AcDbEntity
  8
0
  6
Continuous
 62
     7
370
    25
100
AcDbSpline
210
0.0
220
0.0
230
1.0
 70
    24
 71
     3
 72
    22
 73
    18
 74
     0
 42
0.000000001
 43
0.00000001
 40
0.0
 40
0.0
 40
0.0
 40
0.0
 40
0.2500000000000003
 40
0.2500000000000003
 40
0.3125000000000002
 40
0.3125000000000002
 40
0.3750000000000002
 40
0.3750000000000002
 40
0.5
 40
0.5
 40
0.6249999999999999
 40
0.6249999999999999
 40
0.7499999999999999
 40
0.7499999999999999
 40
0.8749999999999999
 40
0.8749999999999999
 40
1.0
 40
1.0
 40
1.0
 40
1.0
 10
133.9028863621313
 20
26.34462312138726
 30
0.0
 10
134.9234702650166
 20
27.36520702427261
 30
0.0
 10
135.9786059636279
 20
28.42034272288389
 30
0.0
 10
137.3763334762619
 20
29.81807023551783
 30
0.0
 10
137.6612650530355
 20
30.10300181229145
 30
0.0
 10
138.2326125778863
 20
30.67434933714228
 30
0.0
 10
138.5188349102345
 20
30.96057166949049
 30
0.0
 10
139.3792393117827
 20
31.82097607103869
 30
0.0
 10
139.9551687029407
 20
32.39690546219663
 30
0.0
 10
141.1119721142129
 20
33.55370887346889
 30
0.0
 10
141.6944804228555
 20
34.13621718211147
 30
0.0
 10
142.8575585356874
 20
35.29929529494338
 30
0.0
 10
143.4262545548182
 20
35.8679913140742
 30
0.0
 10
144.5430309372603
 20
36.9847676965163
 30
0.0
 10
145.0911258683565
 20
37.53286262761247
 30
0.0
 10
146.1711922302615
 20
38.61292898951753
 30
0.0
 10
146.7043118583881
 20
39.14604861764411
 30
0.0
 10
147.2254693641618
 20
39.66720612341775
 30
0.0
  0
SPLINE
  5
97
330
1F
100
AcDbEntity
  8
0
  6
Continuous
 62
     7
370
    25
100
AcDbSpline
210
0.0
220
0.0
230
1.0
 70
    24
 71
     3
 72
    18
 73
    14
 74
     0
 42
0.000000001
 43
0.00000001
 40
0.0
 40
0.0
 40
0.0
 40
0.0
 40
0.1250000000000001
 40
0.1250000000000001
 40
0.2500000000000002
 40
0.2500000000000002
 40
0.5000000000000001
 40
0.5000000000000001
 40
0.6250000000000001
 40
0.6250000000000001
 40
0.75
 40
0.75
 40
1.0
 40
1.0
 40
1.0
 40
1.0
 10
133.9028863621313
 20
26.34462312138726
 30
0.0
 10
133.5208101804375
 20
26.34462312138726
 30
0.0
 10
133.1346211017525
 20
26.34462312138727
 30
0.0
 10
132.3632502971273
 20
26.34462312138727
 30
0.0
 10
131.9768772990531
 20
26.34462312138725
 30
0.0
 10
130.8156081387701
 20
26.34462312138726
 30
0.0
 10
130.0385529685951
 20
26.34462312138725
 30
0.0
 10
128.8684447465898
 20
26.34462312138726
 30
0.0
 10
128.4776565413487
 20
26.34462312138727
 30
0.0
 10
127.6945678776153
 20
26.34462312138726
 30
0.0
 10
127.301182172983
 20
26.34462312138725
 30
0.0
 10
126.1265208698096
 20
26.34462312138726
 30
0.0
 10
125.3566780770193
 20
26.34462312138726
 30
0.0
 10
124.5980523662091
 20
26.34462312138726
 30
0.0
  0
SPLINE
  5
98
330
1F
100
AcDbEntity
  8
0
  6
Continuous
 62
     7
370
    25
100
AcDbSpline
210
0.0
220
0.0
230
1.0
 70
    24
 71
     3
 72
    22
 73
    18
 74
     0
 42
0.000000001
 43
0.00000001
 40
0.0
 40
0.0
 40
0.0
 40
0.0
 40
0.2500000000000008
 40
0.2500000000000008
 40
0.3125000000000008
 40
0.3125000000000008
 40
0.3750000000000007
 40
0.3750000000000007
 40
0.5000000000000006
 40
0.5000000000000006
 40
0.6250000000000006
 40
0.6250000000000006
 40
0.7500000000000003
 40
0.7500000000000003
 40
0.8750000000000002
 40
0.8750000000000002
 40
1.0
 40
1.0
 40
1.0
 40
1.0
 10
124.5980523661977
 20
26.34462312138179
 30
0.0
 10
123.577468463312
 20
27.36520702426747
 30
0.0
 10
122.5223327647005
 20
28.42034272287906
 30
0.0
 10
121.1246052520661
 20
29.81807023551341
 30
0.0
 10
120.8396736752924
 20
30.10300181228711
 30
0.0
 10
120.2683261504413
 20
30.6743493371382
 30
0.0
 10
119.982103818093
 20
30.96057166948653
 30
0.0
 10
119.1216994165444
 20
31.82097607103509
 30
0.0
 10
118.5457700253862
 20
32.39690546219327
 30
0.0
 10
117.3889666141135
 20
33.55370887346603
 30
0.0
 10
116.8064583054707
 20
34.13621718210884
 30
0.0
 10
115.6433801926382
 20
35.29929529494135
 30
0.0
 10
115.0746841735071
 20
35.86799131407243
 30
0.0
 10
113.9579077910645
 20
36.98476769651507
 30
0.0
 10
113.409812859968
 20
37.53286262761151
 30
0.0
 10
112.3297464980625
 20
38.61292898951706
 30
0.0
 10
111.7966268699357
 20
39.14604861764388
 30
0.0
 10
111.2754693641618
 20
39.66720612341775
 30
0.0
  0
SPLINE
  5
99
330
1F
100
AcDbEntity
  8
0
  6
Continuous
 62
     7
370
    25
100
AcDbSpline
210
0.0
220
0.0
230
1.0
 70
    24
 71
     3
 72
    18
 73
    14
 74
     0
 42
0.000000001
 43
0.00000001
 40
0.0
 40
0.0
 40
0.0
 40
0.0
 40
0.1250000000000001
 40
0.1250000000000001
 40
0.2500000000000002
 40
0.2500000000000002
 40
0.5000000000000002
 40
0.5000000000000002
 40
0.6250000000000002
 40
0.6250000000000002
 40
0.7500000000000001
 40
0.7500000000000001
 40
1.0
 40
1.0
 40
1.0
 40
1.0
 10
111.2754693641618
 20
39.66720612341774
 30
0.0
 10
111.2754693641618
 20
40.04928230511157
 30
0.0
 10
111.2754693641618
 20
40.43547138379655
 30
0.0
 10
111.2754693641618
 20
41.20684218842188
 30
0.0
 10
111.2754693641618
 20
41.59321518649607
 30
0.0
 10
111.2754693641618
 20
42.75448434677917
 30
0.0
 10
111.2754693641618
 20
43.53153951695423
 30
0.0
 10
111.2754693641618
 20
44.70164773895961
 30
0.0
 10
111.2754693641618
 20
45.09243594420074
 30
0.0
 10
111.2754693641618
 20
45.87552460793414
 30
0.0
 10
111.2754693641618
 20
46.26891031256652
 30
0.0
 10
111.2754693641618
 20
47.44357161573994
 30
0.0
 10
111.2754693641618
 20
48.21341440853038
 30
0.0
 10
111.2754693641618
 20
48.97204011934056
 30
0.0
  0
SPLINE
  5
9A
330
1F
100
AcDbEntity
  8
0
  6
Continuous
 62
     7
370
    25
100
AcDbSpline
210
0.0
220
0.0
230
1.0
 70
    24
 71
     3
 72
    22
 73
    18
 74
     0
 42
0.000000001
 43
0.00000001
 40
0.0
 40
0.0
 40
0.0
 40
0.0
 40
0.2500000000000001
 40
0.2500000000000001
 40
0.3125000000000003
 40
0.3125000000000003
 40
0.3750000000000004
 40
0.3750000000000004
 40
0.5000000000000003
 40
0.5000000000000003
 40
0.6250000000000002
 40
0.6250000000000002
 40
0.7500000000000002
 40
0.7500000000000002
 40
0.8750000000000001
 40
0.8750000000000001
 40
1.0
 40
1.0
 40
1.0
 40
1.0
 10
111.2754693641565
 20
48.97204011935151
 30
0.0
 10
112.2960532670427
 20
49.99262402223769
 30
0.0
 10
113.3511889656548
 20
51.04775972084983
 30
0.0
 10
114.7489164782899
 20
52.44548723348494
 30
0.0
 10
115.0338480550638
 20
52.7304188102588
 30
0.0
 10
115.6051955799152
 20
53.30176633511016
 30
0.0
 10
115.8914179122636
 20
53.58798866745865
 30
0.0
 10
116.7518223138127
 20
54.44839306900764
 30
0.0
 10
117.3277517049711
 20
55.02432246016611
 30
0.0
 10
118.4845551162445
 20
56.18112587143946
 30
0.0
 10
119.0670634248876
 20
56.76363418008263
 30
0.0
 10
120.2301415377206
 20
57.92671229291557
 30
0.0
 10
120.7988375568519
 20
58.49540831204687
 30
0.0
 10
121.9156139392949
 20
59.61218469448993
 30
0.0
 10
122.4637088703915
 20
60.16027962558656
 30
0.0
 10
123.5437752322975
 20
61.24034598749252
 30
0.0
 10
124.0768948604245
 20
61.77346561561953
 30
0.0
 10
124.5980523661986
 20
62.29462312139358
 30
0.0
  0
SPLINE
  5
9B
330
1F
100
AcDbEntity
  8
0
  6
Continuous
 62
     7
370
    25
100
AcDbSpline
210
0.0
220
0.0
230
1.0
 70
    24
 71
     3
 72
    18
 73
    14
 74
     0
 42
0.000000001
 43
0.00000001
 40
0.0
 40
0.0
 40
0.0
 40
0.0
 40
0.1250000000000001
 40
0.1250000000000001
 40
0.2500000000000001
 40
0.2500000000000001
 40
0.5000000000000001
 40
0.5000000000000001
 40
0.6250000000000001
 40
0.6250000000000001
 40
0.7500000000000002
 40
0.7500000000000002
 40
1.0
 40
1.0
 40
1.0
 40
1.0
 10
133.9028863621313
 20
62.29462312138727
 30
0.0
 10
133.520810180437
 20
62.29462312138727
 30
0.0
 10
133.1346211017515
 20
62.29462312138726
 30
0.0
 10
132.3632502971252
 20
62.29462312138727
 30
0.0
 10
131.9768772990505
 20
62.29462312138727
 30
0.0
 10
130.815608138766
 20
62.29462312138727
 30
0.0
 10
130.0385529685899
 20
62.29462312138727
 30
0.0
 10
128.868444746583
 20
62.29462312138727
 30
0.0
 10
128.4776565413414
 20
62.29462312138727
 30
0.0
 10
127.694567877607
 20
62.29462312138726
 30
0.0
 10
127.3011821729741
 20
62.29462312138726
 30
0.0
 10
126.1265208697993
 20
62.29462312138727
 30
0.0
 10
125.356678077008
 20
62.29462312138727
 30
0.0
 10
124.598052366197
 20
62.29462312138727
 30
0.0
  0
SPLINE
  5
9C
330
1F
100
AcDbEntity
  8
0
  6
Continuous
 62
     7
370
    25
100
AcDbSpline
210
0.0
220
0.0
230
1.0
 70
     8
 71
     3
 72
    31
 73
    27
 74
     0
 42
0.000000001
 43
0.00000001
 40
0.0
 40
0.0
 40
0.0
 40
0.0
 40
0.0340625437668026
 40
0.06731388559767
 40
0.1002986917293197
 40
0.1328915753415364
 40
0.1654542126705893
 40
0.1984564401369069
 40
0.231559282490288
 40
0.2655034986764518
 40
0.2998732210996858
 40
0.3348750234665335
 40
0.3704365550514275
 40
0.4070493254137256
 40
0.4446490562916621
 40
0.4836382628524706
 40
0.524053508423317
 40
0.5661466743313506
 40
0.6102573304114863
 40
0.656933926265802
 40
0.7066268298851167
 40
0.7589305312314925
 40
0.814297716023405
 40
0.8730747594856019
 40
0.9349497890039754
 40
1.0
 40
1.0
 40
1.0
 40
1.0
 10
125.7864856609477
 20
48.25391799318214
 30
0.0
 10
125.8093444256149
 20
48.27598389110209
 30
0.0
 10
125.8545175718204
 20
48.31959018599193
 30
0.0
 10
125.9284321804265
 20
48.37703536017663
 30
0.0
 10
126.0041367521911
 20
48.42964913149042
 30
0.0
 10
126.0840382454862
 20
48.47444122385787
 30
0.0
 10
126.1669624306411
 20
48.51330657154082
 30
0.0
 10
126.2533897716247
 20
48.54504214385728
 30
0.0
 10
126.3430400530761
 20
48.5709815394438
 30
0.0
 10
126.4357107092389
 20
48.5901997733548
 30
0.0
 10
126.5313552914653
 20
48.60202751634468
 30
0.0
 10
126.629153654027
 20
48.6073726174341
 30
0.0
 10
126.7290494330172
 20
48.60256447378542
 30
0.0
 10
126.8308809270791
 20
48.5917680257279
 30
0.0
 10
126.9345729670133
 20
48.57180640774699
 30
0.0
 10
127.0406074710738
 20
48.54594019626033
 30
0.0
 10
127.1480129808611
 20
48.50973832423848
 30
0.0
 10
127.2582293997938
 20
48.46746088609962
 30
0.0
 10
127.3710752787761
 20
48.41613979800632
 30
0.0
 10
127.4859193290894
 20
48.35300947120514
 30
0.0
 10
127.6031624229872
 20
48.27904237929251
 30
0.0
 10
127.7239093039058
 20
48.19566696946934
 30
0.0
 10
127.846528972107
 20
48.10050561555806
 30
0.0
 10
127.972003176729
 20
47.99475547285962
 30
0.0
 10
128.1003794871534
 20
47.87857332953881
 30
0.0
 10
128.1847509929676
 20
47.79562724794208
 30
0.0
 10
128.2279920712041
 20
47.75311671113085
 30
0.0
  0
SPLINE
  5
9D
330
1F
100
AcDbEntity
  8
0
  6
Continuous
 62
     7
370
    25
100
AcDbSpline
210
0.0
220
0.0
230
1.0
 70
     8
 71
     3
 72
    31
 73
    27
 74
     0
 42
0.000000001
 43
0.00000001
 40
0.0
 40
0.0
 40
0.0
 40
0.0
 40
0.0685392375563686
 40
0.1330574173017167
 40
0.193631077183116
 40
0.2505306821562904
 40
0.3036142074401768
 40
0.3534609049693048
 40
0.3995800908164909
 40
0.4424160216489259
 40
0.4830723824124631
 40
0.5220229044503063
 40
0.5599473210514606
 40
0.5966633013156784
 40
0.6323728579706366
 40
0.6673061936474428
 40
0.7019513182513509
 40
0.735941787389277
 40
0.7694887228848919
 40
0.8027329281118958
 40
0.8353134843410185
 40
0.8678314089480396
 40
0.9002481012228696
 40
0.9330513656415885
 40
0.9661186419532684
 40
1.0
 40
1.0
 40
1.0
 40
1.0
 10
126.3169343788964
 20
45.84205901882316
 30
0.0
 10
126.2722870284924
 20
45.88716732696873
 30
0.0
 10
126.1856116970191
 20
45.97473753047096
 30
0.0
 10
126.0645742450118
 20
46.10707136467502
 30
0.0
 10
125.9552941128559
 20
46.23539530009878
 30
0.0
 10
125.8576071056902
 20
46.35952113852485
 30
0.0
 10
125.7702760847427
 20
46.4790653512013
 30
0.0
 10
125.6951034349082
 20
46.59488588730827
 30
0.0
 10
125.6310752156108
 20
46.7064257357296
 30
0.0
 10
125.5792887559374
 20
46.81482658638599
 30
0.0
 10
125.5378154134225
 20
46.92040648769242
 30
0.0
 10
125.502820453015
 20
47.02350503617294
 30
0.0
 10
125.4754346289904
 20
47.12513966154658
 30
0.0
 10
125.4559669776597
 20
47.22555380470989
 30
0.0
 10
125.4449250837386
 20
47.32442740897384
 30
0.0
 10
125.4404862644499
 20
47.42191770873143
 30
0.0
 10
125.4447428702902
 20
47.51783188225702
 30
0.0
 10
125.4557848181158
 20
47.61189486522417
 30
0.0
 10
125.4744871959412
 20
47.70341879033157
 30
0.0
 10
125.4990900493043
 20
47.79214964889254
 30
0.0
 10
125.5303123554218
 20
47.87783722055078
 30
0.0
 10
125.569319856968
 20
47.95935691614051
 30
0.0
 10
125.6130929115132
 20
48.03868994178384
 30
0.0
 10
125.6649826473703
 20
48.11356237151176
 30
0.0
 10
125.7216074450206
 20
48.18668728146403
 30
0.0
 10
125.7646849842757
 20
48.2313268200488
 30
0.0
 10
125.7864856609477
 20
48.25391799318214
 30
0.0
  0
SPLINE
  5
9E
330
1F
100
AcDbEntity
  8
0
  6
Continuous
 62
     7
370
    25
100
AcDbSpline
210
0.0
220
0.0
230
1.0
 70
     8
 71
     3
 72
    31
 73
    27
 74
     0
 42
0.000000001
 43
0.00000001
 40
0.0
 40
0.0
 40
0.0
 40
0.0
 40
0.0339161406116254
 40
0.0667911467684396
 40
0.09962808698232
 40
0.1318265592299254
 40
0.1643778667025713
 40
0.1967210286892328
 40
0.2297213409237039
 40
0.2630197127526299
 40
0.2967583839686783
 40
0.3311505724363447
 40
0.3661197706371223
 40
0.4018997925665817
 40
0.438653465415743
 40
0.47654316710372
 40
0.5160815487196686
 40
0.5571548844457241
 40
0.6004200138433164
 40
0.6470895029678522
 40
0.696830888751699
 40
0.7500347714651301
 40
0.8069927895101677
 40
0.8674089097323785
 40
0.9317987325696281
 40
1.0
 40
1.0
 40
1.0
 40
1.0
 10
128.7271907891528
 20
45.313212864977
 30
0.0
 10
128.7045627238423
 20
45.29145971172756
 30
0.0
 10
128.6600012140718
 20
45.24862116862806
 30
0.0
 10
128.5875961088912
 20
45.19141405248559
 30
0.0
 10
128.512855489011
 20
45.14011690735355
 30
0.0
 10
128.4341111904299
 20
45.09578655936434
 30
0.0
 10
128.3528889537527
 20
45.05725856534603
 30
0.0
 10
128.2678540133017
 20
45.02578215743429
 30
0.0
 10
128.1798985600171
 20
45.00122367755725
 30
0.0
 10
128.089181219483
 20
44.98251480657133
 30
0.0
 10
127.9959125081166
 20
44.97144903822114
 30
0.0
 10
127.9005403674399
 20
44.96728303620313
 30
0.0
 10
127.8032482397746
 20
44.9713902968934
 30
0.0
 10
127.7044882691696
 20
44.98373371744551
 30
0.0
 10
127.6041303979181
 20
45.00307734104906
 30
0.0
 10
127.5018271192015
 20
45.02963893738654
 30
0.0
 10
127.397755048164
 20
45.06426691755074
 30
0.0
 10
127.2912829766936
 20
45.10683462240528
 30
0.0
 10
127.1821553919719
 20
45.15972467174079
 30
0.0
 10
127.0693839769769
 20
45.22293522089838
 30
0.0
 10
126.9530863073846
 20
45.29808059950031
 30
0.0
 10
126.8326480595119
 20
45.38402003161595
 30
0.0
 10
126.7087468537023
 20
45.48181734715437
 30
0.0
 10
126.5813748503447
 20
45.59159192788033
 30
0.0
 10
126.4487845693046
 20
45.71121309076518
 30
0.0
 10
126.3617187033591
 20
45.79761580278663
 30
0.0
 10
126.3169343788964
 20
45.84205901882316
 30
0.0
  0
SPLINE
  5
9F
330
1F
100
AcDbEntity
  8
0
  6
Continuous
 62
     7
370
    25
100
AcDbSpline
210
0.0
220
0.0
230
1.0
 70
     8
 71
     3
 72
    31
 73
    27
 74
     0
 42
0.000000001
 43
0.00000001
 40
0.0
 40
0.0
 40
0.0
 40
0.0
 40
0.0650931380611511
 40
0.1266039765373226
 40
0.1850158110860341
 40
0.2401927525856703
 40
0.2926948785080097
 40
0.3417823620468379
 40
0.3882382327930628
 40
0.4321173744957393
 40
0.4739710174663258
 40
0.5141406009624557
 40
0.5528774178269757
 40
0.5905019610163775
 40
0.6271388923883593
 40
0.6630104030816906
 40
0.6983217028166655
 40
0.7329986161773788
 40
0.7672460775099877
 40
0.8006463810336938
 40
0.8339394285304618
 40
0.8667836833964282
 40
0.8993980752684346
 40
0.9326416935233395
 40
0.9659149781349368
 40
1.0
 40
1.0
 40
1.0
 40
1.0
 10
128.2279920712041
 20
47.75311671113085
 30
0.0
 10
128.2705034851484
 20
47.7098768458087
 30
0.0
 10
128.3531867635074
 20
47.62577675388226
 30
0.0
 10
128.4688674654951
 20
47.49795834737773
 30
0.0
 10
128.5737646705626
 20
47.37303068879099
 30
0.0
 10
128.6690880676742
 20
47.25110877478928
 30
0.0
 10
128.7528238683662
 20
47.13139483781215
 30
0.0
 10
128.8263650667108
 20
47.01468202357511
 30
0.0
 10
128.8894170254232
 20
46.90102699299019
 30
0.0
 10
128.9407177956299
 20
46.7889656592689
 30
0.0
 10
128.9830082406772
 20
46.67955365495319
 30
0.0
 10
129.0191939571627
 20
46.57294819121149
 30
0.0
 10
129.0451822750499
 20
46.46746806110892
 30
0.0
 10
129.0650242540933
 20
46.36401520211788
 30
0.0
 10
129.075879310146
 20
46.26192226763293
 30
0.0
 10
129.0806380077244
 20
46.16148915377779
 30
0.0
 10
129.0753014458243
 20
46.06289321525699
 30
0.0
 10
129.0634731209913
 20
45.96644893609325
 30
0.0
 10
129.0442505539438
 20
45.87298190426114
 30
0.0
 10
129.0183279506573
 20
45.78252351226248
 30
0.0
 10
128.9865441493017
 20
45.69532652500977
 30
0.0
 10
128.9479568560906
 20
45.61171130240335
 30
0.0
 10
128.9026511316306
 20
45.53157816700386
 30
0.0
 10
128.8505831807077
 20
45.45524042625751
 30
0.0
 10
128.7928271382923
 20
45.38126883450943
 30
0.0
 10
128.7492446435771
 20
45.33607971336891
 30
0.0
 10
128.7271907891528
 20
45.313212864977
 30
0.0
  0
LINE
  5
A0
330
1F
100
AcDbEntity
  8
0
  6
Continuous
 62
     7
370
    25
100
AcDbLine
 10
134.0489127473
 20
42.7133610067
 30
0.0
 11
133.763656337
 21
42.4281045965
 31
0.0
  0
LINE
  5
A1
330
1F
100
AcDbEntity
  8
0
  6
Continuous
 62
     7
370
    25
100
AcDbLine
 10
131.5216691575
 20
45.2406045965
 30
0.0
 11
134.0489127473
 21
42.7133610067
 31
0.0
  0
LINE
  5
A2
330
1F
100
AcDbEntity
  8
0
  6
Continuous
 62
     7
370
    25
100
AcDbLine
 10
132.1458678755
 20
45.8648033144
 30
0.0
 11
131.5216691575
 21
45.2406045965
 31
0.0
  0
LINE
  5
A3
330
1F
100
AcDbEntity
  8
0
  6
Continuous
 62
     7
370
    25
100
AcDbLine
 10
131.873431978
 20
46.1372392118
 30
0.0
 11
132.1458678755
 21
45.8648033144
 31
0.0
  0
LINE
  5
A4
330
1F
100
AcDbEntity
  8
0
  6
Continuous
 62
     7
370
    25
100
AcDbLine
 10
130.3373742857
 20
44.6011815195
 30
0.0
 11
131.873431978
 21
46.1372392118
 31
0.0
  0
LINE
  5
A5
330
1F
100
AcDbEntity
  8
0
  6
Continuous
 62
     7
370
    25
100
AcDbLine
 10
130.6098101832
 20
44.3287456221
 30
0.0
 11
130.3373742857
 21
44.6011815195
 31
0.0
  0
LINE
  5
A6
330
1F
100
AcDbEntity
  8
0
  6
Continuous
 62
     7
370
    25
100
AcDbLine
 10
131.2364127473
 20
44.9553481862
 30
0.0
 11
130.6098101832
 21
44.3287456221
 31
0.0
  0
LINE
  5
A7
330
1F
100
AcDbEntity
  8
0
  6
Continuous
 62
     7
370
    25
100
AcDbLine
 10
133.763656337
 20
42.4281045965
 30
0.0
 11
131.2364127473
 21
44.9553481862
 31
0.0
  0
LINE
  5
A8
330
1F
100
AcDbEntity
  8
0
  6
Continuous
 62
     7
370
    25
100
AcDbLine
 10
129.249212148
 20
40.5964819087
 30
0.0
 11
130.5512954813
 21
39.2943985753
 31
0.0
  0
LINE
  5
A9
330
1F
100
AcDbEntity
  8
0
  6
Continuous
 62
     7
370
    25
100
AcDbLine
 10
129.4487313788
 20
40.7960011394
 30
0.0
 11
129.249212148
 21
40.5964819087
 31
0.0
  0
SPLINE
  5
AA
330
1F
100
AcDbEntity
  8
0
  6
Continuous
 62
     7
370
    25
100
AcDbSpline
210
0.0
220
0.0
230
1.0
 70
     8
 71
     3
 72
    15
 73
    11
 74
     0
 42
0.000000001
 43
0.00000001
 40
0.0
 40
0.0
 40
0.0
 40
0.0
 40
0.0753901858551262
 40
0.1649443888154751
 40
0.2680434861778918
 40
0.3855477860922089
 40
0.5179661541666718
 40
0.6643098712270732
 40
0.8251607063646664
 40
1.0
 40
1.0
 40
1.0
 40
1.0
 10
130.1153980454355
 20
41.55401395994417
 30
0.0
 10
130.1014114844116
 20
41.53279798601959
 30
0.0
 10
130.0708106212681
 20
41.48638006288514
 30
0.0
 10
130.0171288739787
 20
41.41364489065286
 30
0.0
 10
129.9505622922151
 20
41.3330255302334
 30
0.0
 10
129.8739543585684
 20
41.24197255646106
 30
0.0
 10
129.7838391021054
 20
41.14336926193096
 30
0.0
 10
129.6829335519421
 20
41.03487710426323
 30
0.0
 10
129.5698534442373
 20
40.91821334893515
 30
0.0
 10
129.4902116450193
 20
40.83785474364179
 30
0.0
 10
129.4487313787689
 20
40.79600113943135
 30
0.0
  0
SPLINE
  5
AB
330
1F
100
AcDbEntity
  8
0
  6
Continuous
 62
     7
370
    25
100
AcDbSpline
210
0.0
220
0.0
230
1.0
 70
     8
 71
     3
 72
    23
 73
    19
 74
     0
 42
0.000000001
 43
0.00000001
 40
0.0
 40
0.0
 40
0.0
 40
0.0
 40
0.0695844114809408
 40
0.1366237229743218
 40
0.2019334138781215
 40
0.2643611311562471
 40
0.3254530953890701
 40
0.3856538430923489
 40
0.4452848548136246
 40
0.5049270901396903
 40
0.5646141987799763
 40
0.6236473059504295
 40
0.6836364314990078
 40
0.7438816365130283
 40
0.8048337486793982
 40
0.8682164437659134
 40
0.9329082916196966
 40
1.0
 40
1.0
 40
1.0
 40
1.0
 10
129.9663595838971
 20
42.81683447276469
 30
0.0
 10
129.9886042398429
 20
42.79363807721374
 30
0.0
 10
130.0322799374155
 20
42.74809371099283
 30
0.0
 10
130.0909715882571
 20
42.67551523425725
 30
0.0
 10
130.1423291185044
 20
42.60156668610878
 30
0.0
 10
130.1850572831916
 20
42.52543418198479
 30
0.0
 10
130.2205081755381
 20
42.44828057604095
 30
0.0
 10
130.2488608941016
 20
42.36957991989997
 30
0.0
 10
130.26903093353
 20
42.28905140985655
 30
0.0
 10
130.2808111079706
 20
42.20715154325138
 30
0.0
 10
130.2856873225246
 20
42.12484770647855
 30
0.0
 10
130.2832083131574
 20
42.04226979832585
 30
0.0
 10
130.2736385164737
 20
41.95995110138492
 30
0.0
 10
130.2566847263924
 20
41.87793326997775
 30
0.0
 10
130.2324579994944
 20
41.7961046036848
 30
0.0
 10
130.2001000638581
 20
41.71497151304237
 30
0.0
 10
130.1617664327256
 20
41.63331564711488
 30
0.0
 10
130.131040686184
 20
41.58076683783494
 30
0.0
 10
130.1153980454355
 20
41.55401395994417
 30
0.0
  0
SPLINE
  5
AC
330
1F
100
AcDbEntity
  8
0
  6
Continuous
 62
     7
370
    25
100
AcDbSpline
210
0.0
220
0.0
230
1.0
 70
     8
 71
     3
 72
    23
 73
    19
 74
     0
 42
0.000000001
 43
0.00000001
 40
0.0
 40
0.0
 40
0.0
 40
0.0
 40
0.0631120667195006
 40
0.1246204889042282
 40
0.1854063864272504
 40
0.2452855145665087
 40
0.3045096995741355
 40
0.3641375552122476
 40
0.4246759440160568
 40
0.485877771493249
 40
0.5476102484119826
 40
0.6086002211440631
 40
0.6704667414166817
 40
0.7330433104550822
 40
0.796441848635154
 40
0.8616201805525382
 40
0.9293334730091424
 40
1.0
 40
1.0
 40
1.0
 40
1.0
 10
128.7187634300509
 20
42.97628960096981
 30
0.0
 10
128.7436706005275
 20
42.99055467937951
 30
0.0
 10
128.7928520633339
 20
43.01872236803363
 30
0.0
 10
128.8694973730094
 20
43.05408273402736
 30
0.0
 10
128.9472187111031
 20
43.08289152813273
 30
0.0
 10
129.0258719953233
 20
43.10560490862911
 30
0.0
 10
129.1057845195595
 20
43.12108987399857
 30
0.0
 10
129.1870776154349
 20
43.12851200888016
 30
0.0
 10
129.269555939835
 20
43.13146504846547
 30
0.0
 10
129.3529301805706
 20
43.12641670335859
 30
0.0
 10
129.4358365129278
 20
43.11469624091819
 30
0.0
 10
129.5174949154687
 20
43.09496747320471
 30
0.0
 10
129.5978927462176
 20
43.06912755125294
 30
0.0
 10
129.6755707023697
 20
43.03323682050036
 30
0.0
 10
129.7513104864519
 20
42.99047440873004
 30
0.0
 10
129.8253691895892
 20
42.94052754293526
 30
0.0
 10
129.8978311856318
 20
42.88274147015482
 30
0.0
 10
129.9431940802269
 20
42.83911383181261
 30
0.0
 10
129.9663595838971
 20
42.81683447276469
 30
0.0
  0
SPLINE
  5
AD
330
1F
100
AcDbEntity
  8
0
  6
Continuous
 62
     7
370
    25
100
AcDbSpline
210
0.0
220
0.0
230
1.0
 70
     8
 71
     3
 72
    15
 73
    11
 74
     0
 42
0.000000001
 43
0.00000001
 40
0.0
 40
0.0
 40
0.0
 40
0.0
 40
0.1771214341944271
 40
0.3388555841808576
 40
0.4858188358501848
 40
0.6186783670831187
 40
0.7356853745542107
 40
0.8381870473681521
 40
0.9261641814985226
 40
1.0
 40
1.0
 40
1.0
 40
1.0
 10
128.0296608659484
 20
42.37212293430315
 30
0.0
 10
128.0679382950525
 20
42.41050596062547
 30
0.0
 10
128.1411678319463
 20
42.483937518281
 30
0.0
 10
128.2490556650571
 20
42.58624797462088
 30
0.0
 10
128.3475381146728
 20
42.67877720453146
 30
0.0
 10
128.4375421923099
 20
42.76031496338934
 30
0.0
 10
128.5193682842182
 20
42.83060393319001
 30
0.0
 10
128.5933056134974
 20
42.88879809040589
 30
0.0
 10
128.6576786716348
 20
42.93789561585469
 30
0.0
 10
128.6996237455368
 20
42.96425961539902
 30
0.0
 10
128.7187634300509
 20
42.97628960096981
 30
0.0
  0
LINE
  5
AE
330
1F
100
AcDbEntity
  8
0
  6
Continuous
 62
     7
370
    25
100
AcDbLine
 10
127.4719685583
 20
41.8144306266
 30
0.0
 11
128.0296608659
 21
42.3721229343
 31
0.0
  0
LINE
  5
AF
330
1F
100
AcDbEntity
  8
0
  6
Continuous
 62
     7
370
    25
100
AcDbLine
 10
130.2716480454
 20
39.0147511394
 30
0.0
 11
127.4719685583
 21
41.8144306266
 31
0.0
  0
LINE
  5
B0
330
1F
100
AcDbEntity
  8
0
  6
Continuous
 62
     7
370
    25
100
AcDbLine
 10
130.5512954813
 20
39.2943985753
 30
0.0
 11
130.2716480454
 21
39.0147511394
 31
0.0
  0
SPLINE
  5
B1
330
1F
100
AcDbEntity
  8
0
  6
Continuous
 62
     7
370
    25
100
AcDbSpline
210
0.0
220
0.0
230
1.0
 70
     8
 71
     3
 72
    19
 73
    15
 74
     0
 42
0.000000001
 43
0.00000001
 40
0.0
 40
0.0
 40
0.0
 40
0.0
 40
0.1057289484176121
 40
0.2069129705617966
 40
0.3055579932413628
 40
0.4022404034576854
 40
0.4942954987103591
 40
0.5780610980893165
 40
0.6557675958613727
 40
0.7279268856081794
 40
0.79760847129808
 40
0.8651260054669645
 40
0.9319580036291374
 40
1.0
 40
1.0
 40
1.0
 40
1.0
 10
123.6899738349728
 20
43.97717829472752
 30
0.0
 10
123.7205210085089
 20
44.00947949281587
 30
0.0
 10
123.7803022369543
 20
44.07269337084259
 30
0.0
 10
123.8578496484809
 20
44.17539947720205
 30
0.0
 10
123.9223742720565
 20
44.28227523641488
 30
0.0
 10
123.9730387657553
 20
44.39212914702883
 30
0.0
 10
124.0110142333028
 20
44.50041243555885
 30
0.0
 10
124.0332786704993
 20
44.60491894844373
 30
0.0
 10
124.0404042546905
 20
44.70321724594954
 30
0.0
 10
124.0316077424594
 20
44.79554893083649
 30
0.0
 10
124.0084352939551
 20
44.88073044366252
 30
0.0
 10
123.9759622052959
 20
44.96036328427308
 30
0.0
 10
123.9304759251287
 20
45.03290970186268
 30
0.0
 10
123.8920509776949
 20
45.0746903170304
 30
0.0
 10
123.8726661426651
 20
45.09576803831726
 30
0.0
  0
LINE
  5
B2
330
1F
100
AcDbEntity
  8
0
  6
Continuous
 62
     7
370
    25
100
AcDbLine
 10
123.9463840914
 20
43.7207680383
 30
0.0
 11
123.689973835
 21
43.9771782947
 31
0.0
  0
SPLINE
  5
B3
330
1F
100
AcDbEntity
  8
0
  6
Continuous
 62
     7
370
    25
100
AcDbSpline
210
0.0
220
0.0
230
1.0
 70
     8
 71
     3
 72
    23
 73
    19
 74
     0
 42
0.000000001
 43
0.00000001
 40
0.0
 40
0.0
 40
0.0
 40
0.0
 40
0.0703488477789893
 40
0.1396280802335953
 40
0.210343078863784
 40
0.282686193359841
 40
0.3554925770820696
 40
0.4270637206804206
 40
0.4988235429721526
 40
0.5723889365327268
 40
0.6113453637448513
 40
0.6543900516773972
 40
0.7012892835300573
 40
0.7519446404334637
 40
0.8074317301970527
 40
0.8672605470112177
 40
0.9310927794988622
 40
1.0
 40
1.0
 40
1.0
 40
1.0
 10
125.3782751170241
 20
43.92990265370188
 30
0.0
 10
125.3501094739546
 20
43.95558628404947
 30
0.0
 10
125.2942064308416
 20
44.00656303934944
 30
0.0
 10
125.1978755944432
 20
44.0683328652602
 30
0.0
 10
125.0922842090387
 20
44.1146355220335
 30
0.0
 10
124.9795265498154
 20
44.1463500553993
 30
0.0
 10
124.8631247066942
 20
44.16354223246854
 30
0.0
 10
124.7457894351189
 20
44.1632136738432
 30
0.0
 10
124.6290842521136
 20
44.14745612804436
 30
0.0
 10
124.5331690432033
 20
44.1187725281141
 30
0.0
 10
124.4552396877699
 20
44.08681763639991
 30
0.0
 10
124.3928581028772
 20
44.05544063296652
 30
0.0
 10
124.3273982937145
 20
44.0166090408302
 30
0.0
 10
124.2578415215962
 20
43.97159854693211
 30
0.0
 10
124.1854918221859
 20
43.91832977438222
 30
0.0
 10
124.1086430167665
 20
43.85923978046123
 30
0.0
 10
124.027943786679
 20
43.79326749145407
 30
0.0
 10
123.9742548804742
 20
43.74554273812782
 30
0.0
 10
123.946384091383
 20
43.72076803831727
 30
0.0
  0
SPLINE
  5
B4
330
1F
100
AcDbEntity
  8
0
  6
Continuous
 62
     7
370
    25
100
AcDbSpline
210
0.0
220
0.0
230
1.0
 70
     8
 71
     3
 72
    23
 73
    19
 74
     0
 42
0.000000001
 43
0.00000001
 40
0.0
 40
0.0
 40
0.0
 40
0.0
 40
0.0730680158386376
 40
0.1430722448992379
 40
0.210415771715276
 40
0.2758231607745296
 40
0.3387396298077942
 40
0.4018415148770471
 40
0.464698535264879
 40
0.5278596385078608
 40
0.590413588067563
 40
0.651199405364936
 40
0.7101059465004965
 40
0.7678237372418046
 40
0.825012829090608
 40
0.882065567944274
 40
0.9403393445630303
 40
1.0
 40
1.0
 40
1.0
 40
1.0
 10
125.3149738349728
 20
42.64544752549676
 30
0.0
 10
125.3392476751777
 20
42.67064870397954
 30
0.0
 10
125.3867775385604
 20
42.71999436005433
 30
0.0
 10
125.4481796369348
 20
42.80000731639186
 30
0.0
 10
125.5018375248748
 20
42.8809625583791
 30
0.0
 10
125.5451507823955
 20
42.96419331885562
 30
0.0
 10
125.5785581526292
 20
43.0496820146364
 30
0.0
 10
125.6023043684736
 20
43.13701262347531
 30
0.0
 10
125.6182824127563
 20
43.22630411300304
 30
0.0
 10
125.6221800471012
 20
43.31663886749371
 30
0.0
 10
125.6193994337907
 20
43.40593535596244
 30
0.0
 10
125.6079815060616
 20
43.49252574532159
 30
0.0
 10
125.589836474141
 20
43.57558441989208
 30
0.0
 10
125.5632739792772
 20
43.65459343422869
 30
0.0
 10
125.5285457300568
 20
43.72936626411628
 30
0.0
 10
125.4864462241381
 20
43.80049593560781
 30
0.0
 10
125.4369405489725
 20
43.86831211328463
 30
0.0
 10
125.3979829713963
 20
43.90921214890308
 30
0.0
 10
125.3782751170241
 20
43.92990265370188
 30
0.0
  0
SPLINE
  5
B5
330
1F
100
AcDbEntity
  8
0
  6
Continuous
 62
     7
370
    25
100
AcDbSpline
210
0.0
220
0.0
230
1.0
 70
     8
 71
     3
 72
    15
 73
    11
 74
     0
 42
0.000000001
 43
0.00000001
 40
0.0
 40
0.0
 40
0.0
 40
0.0
 40
0.1203457795138437
 40
0.238823251398464
 40
0.3594485260350551
 40
0.480457052401569
 40
0.602883493191465
 40
0.7310108502422917
 40
0.8625425629612511
 40
1.0
 40
1.0
 40
1.0
 40
1.0
 10
124.7196212708702
 20
42.35778726908649
 30
0.0
 10
124.7466623008175
 20
42.3602210059396
 30
0.0
 10
124.8003245623381
 20
42.36505069710662
 30
0.0
 10
124.8799431278179
 20
42.38128703217446
 30
0.0
 10
124.9573101511358
 20
42.40636796415479
 30
0.0
 10
125.0329436894144
 20
42.43852839672705
 30
0.0
 10
125.106875238337
 20
42.47823835314164
 30
0.0
 10
125.1784106715337
 20
42.52642960850883
 30
0.0
 10
125.2488661283486
 20
42.58190308486462
 30
0.0
 10
125.2926166637816
 20
42.62395723321456
 30
0.0
 10
125.3149738349728
 20
42.64544752549676
 30
0.0
  0
SPLINE
  5
B6
330
1F
100
AcDbEntity
  8
0
  6
Continuous
 62
     7
370
    25
100
AcDbSpline
210
0.0
220
0.0
230
1.0
 70
     8
 71
     3
 72
    15
 73
    11
 74
     0
 42
0.000000001
 43
0.00000001
 40
0.0
 40
0.0
 40
0.0
 40
0.0
 40
0.1516443853000915
 40
0.2942091114866409
 40
0.4291745983467762
 40
0.5565759117274353
 40
0.6762246047064513
 40
0.7899405813610038
 40
0.8970885352767691
 40
1.0
 40
1.0
 40
1.0
 40
1.0
 10
124.1178584503574
 20
42.54448598703521
 30
0.0
 10
124.1460278270413
 20
42.52872568782242
 30
0.0
 10
124.2006799479814
 20
42.49814873227617
 30
0.0
 10
124.2827519777714
 20
42.45797346542642
 30
0.0
 10
124.3619568710028
 20
42.42385752667302
 30
0.0
 10
124.4389661913108
 20
42.39757869601051
 30
0.0
 10
124.5130432529612
 20
42.37718735810456
 30
0.0
 10
124.5842473705792
 20
42.36330999978071
 30
0.0
 10
124.6529822044705
 20
42.35650302499706
 30
0.0
 10
124.697708932389
 20
42.35736498239041
 30
0.0
 10
124.7196212708702
 20
42.35778726908649
 30
0.0
  0
LINE
  5
B7
330
1F
100
AcDbEntity
  8
0
  6
Continuous
 62
     7
370
    25
100
AcDbLine
 10
123.8438199888
 20
42.2704475255
 30
0.0
 11
124.1178584504
 21
42.544485987
 31
0.0
  0
SPLINE
  5
B8
330
1F
100
AcDbEntity
  8
0
  6
Continuous
 62
     7
370
    25
100
AcDbSpline
210
0.0
220
0.0
230
1.0
 70
     8
 71
     3
 72
    23
 73
    19
 74
     0
 42
0.000000001
 43
0.00000001
 40
0.0
 40
0.0
 40
0.0
 40
0.0
 40
0.0651136382987999
 40
0.1282185933053529
 40
0.1894734259769018
 40
0.2489956462554719
 40
0.3072701941117207
 40
0.365212021427144
 40
0.4230586502763891
 40
0.4816341671326473
 40
0.5406263849922192
 40
0.6002014930275463
 40
0.660924157576104
 40
0.7233279014169866
 40
0.7879045943012335
 40
0.8556533482834988
 40
0.9258587867477688
 40
0.9999999999999999
 40
0.9999999999999999
 40
0.9999999999999999
 40
0.9999999999999999
 10
125.5834033221523
 20
42.36900521780444
 30
0.0
 10
125.5533921496502
 20
42.34020514841363
 30
0.0
 10
125.4942956159255
 20
42.28349345972807
 30
0.0
 10
125.3994450312551
 20
42.20807898495005
 30
0.0
 10
125.3015766414496
 20
42.14296501779378
 30
0.0
 10
125.2010631954181
 20
42.08816908590282
 30
0.0
 10
125.0978894908807
 20
42.04356376913257
 30
0.0
 10
124.9917141489692
 20
42.01015341368069
 30
0.0
 10
124.8829486014204
 20
41.98569542230744
 30
0.0
 10
124.7715720564062
 20
41.97205903563655
 30
0.0
 10
124.6582966369964
 20
41.96971018407315
 30
0.0
 10
124.5439808986894
 20
41.97864210704545
 30
0.0
 10
124.4289092981854
 20
41.99888120982931
 30
0.0
 10
124.313134208642
 20
42.03045820030169
 30
0.0
 10
124.1961961304591
 20
42.07320399710824
 30
0.0
 10
124.0789876633401
 20
42.12811038492521
 30
0.0
 10
123.960005659918
 20
42.19310789193497
 30
0.0
 10
123.8832461904482
 20
42.24420325666483
 30
0.0
 10
123.8438199888189
 20
42.27044752549676
 30
0.0
  0
SPLINE
  5
B9
330
1F
100
AcDbEntity
  8
0
  6
Continuous
 62
     7
370
    25
100
AcDbSpline
210
0.0
220
0.0
230
1.0
 70
     8
 71
     3
 72
    19
 73
    15
 74
     0
 42
0.000000001
 43
0.00000001
 40
0.0
 40
0.0
 40
0.0
 40
0.0
 40
0.0805764361033052
 40
0.1603714906653943
 40
0.2414880191094221
 40
0.3250087558576586
 40
0.4089616532479637
 40
0.490687008414403
 40
0.5725768746389617
 40
0.6557926854219236
 40
0.7398417121155406
 40
0.8240764552485731
 40
0.9104351150664252
 40
1.0
 40
1.0
 40
1.0
 40
1.0
 10
125.6306789631779
 20
44.22878085883008
 30
0.0
 10
125.6684703066804
 20
44.18782041991638
 30
0.0
 10
125.7436865160939
 20
44.10629675165092
 30
0.0
 10
125.8354831736439
 20
43.96612065191299
 30
0.0
 10
125.9087549215475
 20
43.81355713498318
 30
0.0
 10
125.962642371966
 20
43.65005755396039
 30
0.0
 10
125.9966548117759
 20
43.48084569838619
 30
0.0
 10
126.0065822526171
 20
43.30952718345585
 30
0.0
 10
125.9916781473769
 20
43.13913788542784
 30
0.0
 10
125.9538908084751
 20
42.97074320313551
 30
0.0
 10
125.8937166098244
 20
42.80722883548644
 30
0.0
 10
125.8117612122277
 20
42.65113106127429
 30
0.0
 10
125.7087660812592
 20
42.50308958908578
 30
0.0
 10
125.6256955648225
 20
42.41423977397494
 30
0.0
 10
125.5834033221523
 20
42.36900521780444
 30
0.0
  0
SPLINE
  5
BA
330
1F
100
AcDbEntity
  8
0
  6
Continuous
 62
     7
370
    25
100
AcDbSpline
210
0.0
220
0.0
230
1.0
 70
     8
 71
     3
 72
    15
 73
    11
 74
     0
 42
0.000000001
 43
0.00000001
 40
0.0
 40
0.0
 40
0.0
 40
0.0
 40
0.1308828194382188
 40
0.2582596653094884
 40
0.3832751894435342
 40
0.5061956902646076
 40
0.6278103920359811
 40
0.7505216511654055
 40
0.8741562318766934
 40
0.9999999999999999
 40
0.9999999999999999
 40
0.9999999999999999
 40
0.9999999999999999
 10
124.9495892195881
 20
44.54448598703521
 30
0.0
 10
124.9827879971402
 20
44.54046979586271
 30
0.0
 10
125.0482962526629
 20
44.53254499570576
 30
0.0
 10
125.1441434970594
 20
44.5116934594928
 30
0.0
 10
125.2354701449334
 20
44.48231830630923
 30
0.0
 10
125.3234422912902
 20
44.44770966961163
 30
0.0
 10
125.4063102247603
 20
44.40345586678026
 30
0.0
 10
125.4860320590095
 20
44.35346942593156
 30
0.0
 10
125.5606641412049
 20
44.29428313800325
 30
0.0
 10
125.6072033175299
 20
44.25074346976979
 30
0.0
 10
125.6306789631779
 20
44.22878085883008
 30
0.0
  0
SPLINE
  5
BB
330
1F
100
AcDbEntity
  8
0
  6
Continuous
 62
     7
370
    25
100
AcDbSpline
210
0.0
220
0.0
230
1.0
 70
     8
 71
     3
 72
    11
 73
     7
 74
     0
 42
0.000000001
 43
0.00000001
 40
0.0
 40
0.0
 40
0.0
 40
0.0
 40
0.2579472690479109
 40
0.5087322070443628
 40
0.7541032680070258
 40
1.0
 40
1.0
 40
1.0
 40
1.0
 10
124.3790763990753
 20
44.45313983318906
 30
0.0
 10
124.4259865542678
 20
44.47109496951668
 30
0.0
 10
124.5185043268805
 20
44.50650668821969
 30
0.0
 10
124.6619670865418
 20
44.53948304776277
 30
0.0
 10
124.8062661992725
 20
44.55292681214086
 30
0.0
 10
124.9017808116653
 20
44.5473016017841
 30
0.0
 10
124.9495892195881
 20
44.54448598703521
 30
0.0
  0
SPLINE
  5
BC
330
1F
100
AcDbEntity
  8
0
  6
Continuous
 62
     7
370
    25
100
AcDbSpline
210
0.0
220
0.0
230
1.0
 70
     8
 71
     3
 72
    15
 73
    11
 74
     0
 42
0.000000001
 43
0.00000001
 40
0.0
 40
0.0
 40
0.0
 40
0.0
 40
0.12421961787181
 40
0.2437921031270653
 40
0.3610694411538695
 40
0.4785415562187779
 40
0.5994738985980932
 40
0.7254247600032042
 40
0.8584023739957896
 40
1.0
 40
1.0
 40
1.0
 40
1.0
 10
124.1659353734343
 20
45.38583214088136
 30
0.0
 10
124.1943717341874
 20
45.35533928114791
 30
0.0
 10
124.2501806338769
 20
45.29549431839452
 30
0.0
 10
124.3169946415693
 20
45.19390296471732
 30
0.0
 10
124.3682058815849
 20
45.08637235440567
 30
0.0
 10
124.4030824153411
 20
44.97187213403094
 30
0.0
 10
124.4209743131458
 20
44.8507057922174
 30
0.0
 10
124.4243102298176
 20
44.72312363502785
 30
0.0
 10
124.4101492300974
 20
44.5892025037917
 30
0.0
 10
124.3896485422048
 20
44.49943345951375
 30
0.0
 10
124.3790763990753
 20
44.45313983318906
 30
0.0
  0
SPLINE
  5
BD
330
1F
100
AcDbEntity
  8
0
  6
Continuous
 62
     7
370
    25
100
AcDbSpline
210
0.0
220
0.0
230
1.0
 70
     8
 71
     3
 72
    19
 73
    15
 74
     0
 42
0.000000001
 43
0.00000001
 40
0.0
 40
0.0
 40
0.0
 40
0.0
 40
0.0895929914958806
 40
0.1777045492777583
 40
0.2648796628961914
 40
0.3531465390832669
 40
0.4405958711776067
 40
0.5246598301315
 40
0.6068103143079135
 40
0.6891287180192626
 40
0.7700431083273496
 40
0.847535256263529
 40
0.9237274558445452
 40
1.0
 40
1.0
 40
1.0
 40
1.0
 10
122.6370892195882
 20
45.3041013716506
 30
0.0
 10
122.6742503991554
 20
45.33866150989067
 30
0.0
 10
122.7479582925451
 20
45.407210329239
 30
0.0
 10
122.8713031203385
 20
45.49344292162558
 30
0.0
 10
123.0043142605109
 20
45.56170359172497
 30
0.0
 10
123.1437546908324
 20
45.61454860587698
 30
0.0
 10
123.2868983718397
 20
45.64966430638219
 30
0.0
 10
123.4299090977769
 20
45.6664772708067
 30
0.0
 10
123.5710317075798
 20
45.66232455726862
 30
0.0
 10
123.70825165786
 20
45.63874104788872
 30
0.0
 10
123.839193303738
 20
45.59951968510946
 30
0.0
 10
123.9597572377418
 20
45.54316677782836
 30
0.0
 10
124.0707516170861
 20
45.47395190385459
 30
0.0
 10
124.1341963101366
 20
45.41521571263867
 30
0.0
 10
124.1659353734343
 20
45.38583214088136
 30
0.0
  0
SPLINE
  5
BE
330
1F
100
AcDbEntity
  8
0
  6
Continuous
 62
     7
370
    25
100
AcDbSpline
210
0.0
220
0.0
230
1.0
 70
     8
 71
     3
 72
    23
 73
    19
 74
     0
 42
0.000000001
 43
0.00000001
 40
0.0
 40
0.0
 40
0.0
 40
0.0
 40
0.0731350659025822
 40
0.1433188428756375
 40
0.2106501399906881
 40
0.2762700695936496
 40
0.3395547839766539
 40
0.4016838389936608
 40
0.4628588934626662
 40
0.5234847455120772
 40
0.5835961311287842
 40
0.6426304656932168
 40
0.7011635571821352
 40
0.7595409545756663
 40
0.8177915440987427
 40
0.8770624362120504
 40
0.9375567908908983
 40
1.0
 40
1.0
 40
1.0
 40
1.0
 10
122.5361276811266
 20
43.76403726908649
 30
0.0
 10
122.5146452513231
 20
43.79893879393997
 30
0.0
 10
122.4725472926544
 20
43.86733342919275
 30
0.0
 10
122.4216628600358
 20
43.97386920350313
 30
0.0
 10
122.3758292655569
 20
44.0781007587134
 30
0.0
 10
122.3432388097303
 20
44.18318622309318
 30
0.0
 10
122.3170539143435
 20
44.2870505391643
 30
0.0
 10
122.3036593161008
 20
44.3908170535102
 30
0.0
 10
122.2961332443676
 20
44.49365437729661
 30
0.0
 10
122.3007448493376
 20
44.59562277370743
 30
0.0
 10
122.3135427094499
 20
44.69554608907851
 30
0.0
 10
122.3341268954359
 20
44.79303802079421
 30
0.0
 10
122.3641387175272
 20
44.88702847463144
 30
0.0
 10
122.4017232594018
 20
44.97774187070528
 30
0.0
 10
122.4476793711433
 20
45.06504946575396
 30
0.0
 10
122.5026670995737
 20
45.14831329649056
 30
0.0
 10
122.5650743164355
 20
45.22924609849814
 30
0.0
 10
122.6128318945902
 20
45.27888730332339
 30
0.0
 10
122.6370892195882
 20
45.3041013716506
 30
0.0
  0
LINE
  5
BF
330
1F
100
AcDbEntity
  8
0
  6
Continuous
 62
     7
370
    25
100
AcDbLine
 10
122.8221853734
 20
44.0500949614
 30
0.0
 11
122.5361276811
 21
43.7640372691
 31
0.0
  0
SPLINE
  5
C0
330
1F
100
AcDbEntity
  8
0
  6
Continuous
 62
     7
370
    25
100
AcDbSpline
210
0.0
220
0.0
230
1.0
 70
     8
 71
     3
 72
    19
 73
    15
 74
     0
 42
0.000000001
 43
0.00000001
 40
0.0
 40
0.0
 40
0.0
 40
0.0
 40
0.1167675801713193
 40
0.2280775627199395
 40
0.3372206510249978
 40
0.4461255525158014
 40
0.5021574110359225
 40
0.5618439075693563
 40
0.6241640260185535
 40
0.69099170511044
 40
0.7609854225273328
 40
0.8362480651247748
 40
0.9153845753823188
 40
1.0
 40
1.0
 40
1.0
 40
1.0
 10
122.909525117024
 20
45.0316654742147
 30
0.0
 10
122.8815189537903
 20
45.00124432779567
 30
0.0
 10
122.8268156068329
 20
44.94182388831906
 30
0.0
 10
122.7633597010705
 20
44.83994212888354
 30
0.0
 10
122.7198060919316
 20
44.73145652062693
 30
0.0
 10
122.6988729889146
 20
44.63618866611459
 30
0.0
 10
122.694065943831
 20
44.55683768150324
 30
0.0
 10
122.6944383680704
 20
44.4938059031663
 30
0.0
 10
122.7022702616691
 20
44.42739311182658
 30
0.0
 10
122.7152381672911
 20
44.3581695054293
 30
0.0
 10
122.7328360540829
 20
44.28522522761482
 30
0.0
 10
122.7570718920845
 20
44.2096244001745
 30
0.0
 10
122.7869785905432
 20
44.13055080237712
 30
0.0
 10
122.8101908952153
 20
44.0775051861582
 30
0.0
 10
122.8221853734343
 20
44.05009496139419
 30
0.0
  0
SPLINE
  5
C1
330
1F
100
AcDbEntity
  8
0
  6
Continuous
 62
     7
370
    25
100
AcDbSpline
210
0.0
220
0.0
230
1.0
 70
     8
 71
     3
 72
    23
 73
    19
 74
     0
 42
0.000000001
 43
0.00000001
 40
0.0
 40
0.0
 40
0.0
 40
0.0
 40
0.0591437275897557
 40
0.1167150890705874
 40
0.1741558975962604
 40
0.2309492319425768
 40
0.2887375262637098
 40
0.3472383681560684
 40
0.4086788038810787
 40
0.4720661100984863
 40
0.5364760336796573
 40
0.6002438377181528
 40
0.6632439347766342
 40
0.7270901793882615
 40
0.7924599631338877
 40
0.8592686518663302
 40
0.9282156920095004
 40
1.0
 40
1.0
 40
1.0
 40
1.0
 10
123.8726661426651
 20
45.09576803831727
 30
0.0
 10
123.8571620016086
 20
45.11021527193893
 30
0.0
 10
123.826565904979
 20
45.13872565212114
 30
0.0
 10
123.7764770487621
 20
45.17618995042091
 30
0.0
 10
123.7227211946424
 20
45.20645324113682
 30
0.0
 10
123.6659583334159
 20
45.23065830976551
 30
0.0
 10
123.606685881809
 20
45.24925644242702
 30
0.0
 10
123.5440309696578
 20
45.261123645159
 30
0.0
 10
123.4785960327035
 20
45.26760462710538
 30
0.0
 10
123.4107123950272
 20
45.26744435757039
 30
0.0
 10
123.3422890943194
 20
45.26116405749421
 30
0.0
 10
123.2749354824894
 20
45.24832733725064
 30
0.0
 10
123.2092346811686
 20
45.22919718124466
 30
0.0
 10
123.1459276511118
 20
45.20190475367773
 30
0.0
 10
123.0830760989388
 20
45.17044388356552
 30
0.0
 10
123.0227395329847
 20
45.13076840439818
 30
0.0
 10
122.9650704289325
 20
45.08372305593438
 30
0.0
 10
122.9282874136481
 20
45.04924967270416
 30
0.0
 10
122.909525117024
 20
45.0316654742147
 30
0.0
  0
LINE
  5
C2
330
1F
100
AcDbEntity
  8
0
  6
Continuous
 62
     7
370
    25
100
AcDbLine
 10
131.9221967188
 20
48.5120395018
 30
0.0
 11
131.2715556932
 21
49.1626805275
 31
0.0
  0
LINE
  5
C3
330
1F
100
AcDbEntity
  8
0
  6
Continuous
 62
     7
370
    25
100
AcDbLine
 10
132.2018441547
 20
48.7916869377
 30
0.0
 11
131.9221967188
 21
48.5120395018
 31
0.0
  0
LINE
  5
C4
330
1F
100
AcDbEntity
  8
0
  6
Continuous
 62
     7
370
    25
100
AcDbLine
 10
131.5512031291
 20
49.4423279634
 30
0.0
 11
132.2018441547
 21
48.7916869377
 31
0.0
  0
LINE
  5
C5
330
1F
100
AcDbEntity
  8
0
  6
Continuous
 62
     7
370
    25
100
AcDbLine
 10
131.8901454368
 20
49.7812702711
 30
0.0
 11
131.5512031291
 21
49.4423279634
 31
0.0
  0
LINE
  5
C6
330
1F
100
AcDbEntity
  8
0
  6
Continuous
 62
     7
370
    25
100
AcDbLine
 10
131.6217159496
 20
50.0496997583
 30
0.0
 11
131.8901454368
 21
49.7812702711
 31
0.0
  0
LINE
  5
C7
330
1F
100
AcDbEntity
  8
0
  6
Continuous
 62
     7
370
    25
100
AcDbLine
 10
131.2827736419
 20
49.7107574506
 30
0.0
 11
131.6217159496
 21
50.0496997583
 31
0.0
  0
LINE
  5
C8
330
1F
100
AcDbEntity
  8
0
  6
Continuous
 62
     7
370
    25
100
AcDbLine
 10
129.331651847
 20
51.6618792454
 30
0.0
 11
131.2827736419
 21
49.7107574506
 31
0.0
  0
LINE
  5
C9
330
1F
100
AcDbEntity
  8
0
  6
Continuous
 62
     7
370
    25
100
AcDbLine
 10
129.2747608214
 20
51.6049882198
 30
0.0
 11
129.331651847
 21
51.6618792454
 31
0.0
  0
LINE
  5
CA
330
1F
100
AcDbEntity
  8
0
  6
Continuous
 62
     7
370
    25
100
AcDbLine
 10
129.9342159496
 20
47.8253407839
 30
0.0
 11
129.2747608214
 21
51.6049882198
 31
0.0
  0
LINE
  5
CB
330
1F
100
AcDbEntity
  8
0
  6
Continuous
 62
     7
370
    25
100
AcDbLine
 10
131.2715556932
 20
49.1626805275
 30
0.0
 11
129.9342159496
 21
47.8253407839
 31
0.0
  0
LINE
  5
CC
330
1F
100
AcDbEntity
  8
0
  6
Continuous
 62
     7
370
    25
100
AcDbLine
 10
130.1794082573
 20
48.6073920659
 30
0.0
 11
131.003126206
 21
49.4311100147
 31
0.0
  0
LINE
  5
CD
330
1F
100
AcDbEntity
  8
0
  6
Continuous
 62
     7
370
    25
100
AcDbLine
 10
129.8364595393
 20
50.5977766813
 30
0.0
 11
130.1794082573
 21
48.6073920659
 31
0.0
  0
LINE
  5
CE
330
1F
100
AcDbEntity
  8
0
  6
Continuous
 62
     7
370
    25
100
AcDbLine
 10
131.003126206
 20
49.4311100147
 30
0.0
 11
129.8364595393
 21
50.5977766813
 31
0.0
  0
SPLINE
  5
CF
330
1F
100
AcDbEntity
  8
0
  6
Continuous
 62
     7
370
    25
100
AcDbSpline
210
0.0
220
0.0
230
1.0
 70
     8
 71
     3
 72
    15
 73
    11
 74
     0
 42
0.000000001
 43
0.00000001
 40
0.0
 40
0.0
 40
0.0
 40
0.0
 40
0.1099847056450848
 40
0.2240098420297772
 40
0.3417046373339412
 40
0.4641704618794937
 40
0.5906562692884738
 40
0.7222624860498261
 40
0.8584596182455
 40
1.0
 40
1.0
 40
1.0
 40
1.0
 10
128.5861651481272
 20
46.66096927523341
 30
0.0
 10
128.5691509473076
 20
46.69480692519654
 30
0.0
 10
128.5344975069453
 20
46.76372529505934
 30
0.0
 10
128.4750515988034
 20
46.86536415759228
 30
0.0
 10
128.4077338970892
 20
46.96706064156459
 30
0.0
 10
128.3357584234266
 20
47.07084558685671
 30
0.0
 10
128.2535746199688
 20
47.17297265738687
 30
0.0
 10
128.166860562455
 20
47.27743242740301
 30
0.0
 10
128.0719267698824
 20
47.38168093913127
 30
0.0
 10
128.0049256120908
 20
47.44991422726848
 30
0.0
 10
127.9707805327426
 20
47.48468722395137
 30
0.0
  0
SPLINE
  5
D0
330
1F
100
AcDbEntity
  8
0
  6
Continuous
 62
     7
370
    25
100
AcDbSpline
210
0.0
220
0.0
230
1.0
 70
     8
 71
     3
 72
    27
 73
    23
 74
     0
 42
0.000000001
 43
0.00000001
 40
0.0
 40
0.0
 40
0.0
 40
0.0
 40
0.0592049091423238
 40
0.1186381156964757
 40
0.1794099962647922
 40
0.2434403905684776
 40
0.2767263209819802
 40
0.31025072081163
 40
0.3445967272097261
 40
0.3795861309306517
 40
0.4161835169775524
 40
0.4535278654524004
 40
0.4925073825928413
 40
0.5331297869118884
 40
0.5763200343895354
 40
0.623751693599731
 40
0.6753965042887892
 40
0.7312932054248968
 40
0.7916177602785752
 40
0.8564364250289892
 40
0.9260500040603649
 40
1.0
 40
1.0
 40
1.0
 40
1.0
 10
126.06292796864
 20
47.9967064547206
 30
0.0
 10
126.0335833902974
 20
47.96457476125928
 30
0.0
 10
125.9747810792912
 20
47.90018747274535
 30
0.0
 10
125.9095342746515
 20
47.78482031852133
 30
0.0
 10
125.8617620218892
 20
47.65810933099215
 30
0.0
 10
125.8378947325716
 20
47.5441263964627
 30
0.0
 10
125.8296735156188
 20
47.44850592455704
 30
0.0
 10
125.8286101165797
 20
47.37427019556146
 30
0.0
 10
125.8345860557854
 20
47.2990230728921
 30
0.0
 10
125.8458161835044
 20
47.22213385225439
 30
0.0
 10
125.8633267262843
 20
47.14414035292828
 30
0.0
 10
125.8877336407722
 20
47.06496357691149
 30
0.0
 10
125.9185676574922
 20
46.98493514823961
 30
0.0
 10
125.9545629482656
 20
46.90238834430097
 30
0.0
 10
125.9993330482135
 20
46.8171222419191
 30
0.0
 10
126.0543542052489
 20
46.72847308945416
 30
0.0
 10
126.1183011637207
 20
46.63452504497275
 30
0.0
 10
126.1934461775195
 20
46.53702151282111
 30
0.0
 10
126.2776557161553
 20
46.4344405076753
 30
0.0
 10
126.3716189870121
 20
46.32693110902074
 30
0.0
 10
126.4755790463843
 20
46.2149792474199
 30
0.0
 10
126.5496259477917
 20
46.14019564474447
 30
0.0
 10
126.5877677122297
 20
46.10167440343855
 30
0.0
  0
SPLINE
  5
D1
330
1F
100
AcDbEntity
  8
0
  6
Continuous
 62
     7
370
    25
100
AcDbSpline
210
0.0
220
0.0
230
1.0
 70
     8
 71
     3
 72
    19
 73
    15
 74
     0
 42
0.000000001
 43
0.00000001
 40
0.0
 40
0.0
 40
0.0
 40
0.0
 40
0.1116234689182528
 40
0.2221443256546965
 40
0.3354380430278007
 40
0.4548148709752029
 40
0.5168870261290481
 40
0.5794061580887492
 40
0.6435314246458349
 40
0.7096032329016749
 40
0.778088132372387
 40
0.8493556809199186
 40
0.9228466968340716
 40
1.0
 40
1.0
 40
1.0
 40
1.0
 10
128.4836010455631
 20
45.57603337779751
 30
0.0
 10
128.5129563304327
 20
45.60815962587712
 30
0.0
 10
128.5713769298368
 20
45.67209478023687
 30
0.0
 10
128.6360813413248
 20
45.78646012117641
 30
0.0
 10
128.6840013593705
 20
45.91136597232867
 30
0.0
 10
128.7078626040165
 20
46.02406702382302
 30
0.0
 10
128.7159941999005
 20
46.11861847809431
 30
0.0
 10
128.7173550177473
 20
46.19209903319531
 30
0.0
 10
128.7101863731813
 20
46.26678938296101
 30
0.0
 10
128.6984162274454
 20
46.34317697909954
 30
0.0
 10
128.6797784549178
 20
46.42110396582411
 30
0.0
 10
128.6546450411601
 20
46.50014309796216
 30
0.0
 10
128.6244865138732
 20
46.58107544910303
 30
0.0
 10
128.5991443000603
 20
46.63390985061016
 30
0.0
 10
128.5861651481272
 20
46.66096927523341
 30
0.0
  0
SPLINE
  5
D2
330
1F
100
AcDbEntity
  8
0
  6
Continuous
 62
     7
370
    25
100
AcDbSpline
210
0.0
220
0.0
230
1.0
 70
     8
 71
     3
 72
    27
 73
    23
 74
     0
 42
0.000000001
 43
0.00000001
 40
0.0
 40
0.0
 40
0.0
 40
0.0
 40
0.073941428763576
 40
0.1432995467909239
 40
0.2078367058012862
 40
0.2681542719989739
 40
0.3240444974500776
 40
0.375683325039609
 40
0.422799203576972
 40
0.4659844474241321
 40
0.5062690802671606
 40
0.545244081594155
 40
0.5829326287344929
 40
0.6191703782421353
 40
0.6542106995986449
 40
0.6889160634209299
 40
0.7228008900413518
 40
0.7560829642487451
 40
0.8208193220025545
 40
0.8819250721784662
 40
0.9410367321203931
 40
1.0
 40
1.0
 40
1.0
 40
1.0
 10
126.5877677122297
 20
46.10167440343855
 30
0.0
 10
126.6262255298802
 20
46.06346327210223
 30
0.0
 10
126.7007573306857
 20
45.9894095529028
 30
0.0
 10
126.8132814081826
 20
45.88664222721793
 30
0.0
 10
126.9197354041753
 20
45.79206291337479
 30
0.0
 10
127.022357849736
 20
45.70820856456152
 30
0.0
 10
127.1197806676103
 20
45.63295339951184
 30
0.0
 10
127.2136708998391
 20
45.56934456808845
 30
0.0
 10
127.3017251043628
 20
45.51378112147729
 30
0.0
 10
127.3867281963829
 20
45.4695197333209
 30
0.0
 10
127.4688075135451
 20
45.43309388803383
 30
0.0
 10
127.5488805395129
 20
45.40230649325052
 30
0.0
 10
127.6281547391065
 20
45.37821758767071
 30
0.0
 10
127.7061461080308
 20
45.36069581385748
 30
0.0
 10
127.7828973490273
 20
45.3481783454726
 30
0.0
 10
127.8587723914699
 20
45.34260113594629
 30
0.0
 10
127.9335292905164
 20
45.34352669951531
 30
0.0
 10
128.029937635139
 20
45.35190644157569
 30
0.0
 10
128.1447011840772
 20
45.37560269801638
 30
0.0
 10
128.2722156563301
 20
45.42300546118535
 30
0.0
 10
128.3869357319678
 20
45.48899509495111
 30
0.0
 10
128.451406282407
 20
45.54704493512317
 30
0.0
 10
128.4836010455631
 20
45.57603337779751
 30
0.0
  0
SPLINE
  5
D3
330
1F
100
AcDbEntity
  8
0
  6
Continuous
 62
     7
370
    25
100
AcDbSpline
210
0.0
220
0.0
230
1.0
 70
     8
 71
     3
 72
    27
 73
    23
 74
     0
 42
0.000000001
 43
0.00000001
 40
0.0
 40
0.0
 40
0.0
 40
0.0
 40
0.0665682887066778
 40
0.1298384398761198
 40
0.1903854166577237
 40
0.2477638774268024
 40
0.3026463387477554
 40
0.3547594337319389
 40
0.4043168527786022
 40
0.4513184057942144
 40
0.4962182809861094
 40
0.5384964490913653
 40
0.5791109571601268
 40
0.6178689498676122
 40
0.654877074548587
 40
0.6907509929392046
 40
0.7250465884647677
 40
0.7587391546997319
 40
0.8228526037433924
 40
0.883233364838224
 40
0.941746641633051
 40
1.0
 40
1.0
 40
1.0
 40
1.0
 10
127.9707805327426
 20
47.48468722395137
 30
0.0
 10
127.9359993558229
 20
47.5188257868092
 30
0.0
 10
127.8681602414931
 20
47.5854115114416
 30
0.0
 10
127.7652028243006
 20
47.67940596157085
 30
0.0
 10
127.6645155095077
 20
47.76577886087284
 30
0.0
 10
127.5658882324408
 20
47.84509203657377
 30
0.0
 10
127.467958079951
 20
47.9150781735868
 30
0.0
 10
127.3728227937993
 20
47.97906316131483
 30
0.0
 10
127.27886181845
 20
48.0340974028083
 30
0.0
 10
127.1873671364629
 20
48.08269736227459
 30
0.0
 10
127.0978808598283
 20
48.1233496765005
 30
0.0
 10
127.0107096899827
 20
48.15745282921549
 30
0.0
 10
126.9258506564686
 20
48.1846481032169
 30
0.0
 10
126.8432709136583
 20
48.20586785496578
 30
0.0
 10
126.7626182587279
 20
48.21976400580353
 30
0.0
 10
126.684317059853
 20
48.22601201031856
 30
0.0
 10
126.6081906376507
 20
48.22622147590864
 30
0.0
 10
126.5117562118278
 20
48.21770000688003
 30
0.0
 10
126.3978919028108
 20
48.19385609898665
 30
0.0
 10
126.2720157187988
 20
48.1469932849066
 30
0.0
 10
126.1578613938502
 20
48.08329502510642
 30
0.0
 10
126.0945254491808
 20
48.02552644790806
 30
0.0
 10
126.06292796864
 20
47.9967064547206
 30
0.0
  0
CIRCLE
  5
D4
330
1F
100
AcDbEntity
  8
0
  6
Continuous
 62
     7
370
    25
100
AcDbCircle
 10
129.2504693642
 20
44.3196231214
 30
0.0
 40
30.02860606060607
  0
CIRCLE
  5
D5
330
1F
100
AcDbEntity
  8
0
  6
Continuous
 62
     7
370
    25
100
AcDbCircle
 10
129.2504693642
 20
44.3196231214
 30
0.0
 40
28.0
  0
INSERT
  5
E1
330
1F
100
AcDbEntity
  8
0
  6
Continuous
 62
     7
370
    18
100
AcDbBlockReference
  2
SW_CENTERMARKSYMBOL_0
 10
129.2504693642
 20
44.3196231214
 30
0.0
  0
INSERT
  5
ED
330
1F
100
AcDbEntity
  8
0
  6
Continuous
 62
     7
370
    18
100
AcDbBlockReference
  2
SW_CENTERMARKSYMBOL_1
 10
129.2504693642
 20
44.3196231214
 30
0.0
  0
ARC
  5
EE
330
1F
100
AcDbEntity
  8
0
  6
Continuous
 62
     7
370
    18
100
AcDbCircle
 10
129.2504693642
 20
44.3196231214
 30
0.0
 40
28.32799999999999
100
AcDbArc
 50
75.0
 51
345.0
  0
ENDSEC
  0
SECTION
  2
OBJECTS
  0
DICTIONARY
  5
C
330
0
100
AcDbDictionary
281
     1
  3
ACAD_GROUP
350
D
  3
ACAD_LAYOUT
350
1A
  3
ACAD_MLINESTYLE
350
17
  3
ACAD_PLOTSETTINGS
350
19
  3
ACAD_PLOTSTYLENAME
350
E
  3
ACAD_SCALELIST
350
47
  0
DICTIONARY
  5
D
102
{ACAD_REACTORS
330
C
102
}
330
C
100
AcDbDictionary
281
     1
  0
DICTIONARY
  5
1A
102
{ACAD_REACTORS
330
C
102
}
330
C
100
AcDbDictionary
281
     1
  3
Layout1
350
1E
  3
Layout2
350
26
  3
Model
350
22
  0
DICTIONARY
  5
17
102
{ACAD_REACTORS
330
C
102
}
330
C
100
AcDbDictionary
281
     1
  3
Standard
350
18
  0
DICTIONARY
  5
19
102
{ACAD_REACTORS
330
C
102
}
330
C
100
AcDbDictionary
281
     1
  0
ACDBDICTIONARYWDFLT
  5
E
102
{ACAD_REACTORS
330
C
102
}
330
C
100
AcDbDictionary
281
     1
  3
Normal
350
F
100
AcDbDictionaryWithDefault
340
F
  0
DICTIONARY
  5
47
102
{ACAD_REACTORS
330
C
102
}
330
C
100
AcDbDictionary
281
     1
  3
A0
350
48
  3
A1
350
49
  3
A2
350
4A
  3
A3
350
4B
  3
A4
350
4C
  3
A5
350
4D
  3
A6
350
4E
  3
A7
350
4F
  3
A8
350
50
  3
A9
350
51
  3
B0
350
52
  3
B1
350
53
  3
B2
350
54
  3
B3
350
55
  3
B4
350
56
  3
B5
350
57
  3
B6
350
58
  3
B7
350
59
  3
B8
350
5A
  3
B9
350
5B
  3
C0
350
5C
  3
C1
350
5D
  3
C2
350
5E
  3
C3
350
5F
  3
C4
350
60
  3
C5
350
61
  3
C6
350
62
  3
C7
350
63
  3
C8
350
64
  3
C9
350
65
  3
D0
350
66
  3
D1
350
67
  3
D2
350
68
  0
LAYOUT
  5
1E
102
{ACAD_REACTORS
330
1A
102
}
330
1A
100
AcDbPlotSettings
  1

  2
none_device
  4

  6

 40
0.0
 41
0.0
 42
0.0
 43
0.0
 44
0.0
 45
0.0
 46
0.0
 47
0.0
 48
0.0
 49
0.0
140
0.0
141
0.0
142
1.0
143
1.0
 70
   688
 72
     1
 73
     0
 74
     5
  7

 75
    16
147
1.0
148
0.0
149
0.0
100
AcDbLayout
  1
Layout1
 70
     1
 71
     1
 10
0.0
 20
0.0
 11
420.0
 21
297.0
 12
0.0
 22
0.0
 32
0.0
 14
1.0000000000E+20
 24
1.0000000000E+20
 34
1.0000000000E+20
 15
-1.0000000000E+20
 25
-1.0000000000E+20
 35
-1.0000000000E+20
146
0.0
 13
0.0
 23
0.0
 33
0.0
 16
1.0
 26
0.0
 36
0.0
 17
0.0
 27
1.0
 37
0.0
 76
     0
330
1B
  0
LAYOUT
  5
26
102
{ACAD_REACTORS
330
1A
102
}
330
1A
100
AcDbPlotSettings
  1

  2
none_device
  4

  6

 40
0.0
 41
0.0
 42
0.0
 43
0.0
 44
0.0
 45
0.0
 46
0.0
 47
0.0
 48
0.0
 49
0.0
140
0.0
141
0.0
142
1.0
143
1.0
 70
   688
 72
     1
 73
     0
 74
     5
  7

 75
    16
147
1.0
148
0.0
149
0.0
100
AcDbLayout
  1
Layout2
 70
     1
 71
     2
 10
0.0
 20
0.0
 11
0.0
 21
0.0
 12
0.0
 22
0.0
 32
0.0
 14
0.0
 24
0.0
 34
0.0
 15
0.0
 25
0.0
 35
0.0
146
0.0
 13
0.0
 23
0.0
 33
0.0
 16
1.0
 26
0.0
 36
0.0
 17
0.0
 27
1.0
 37
0.0
 76
     0
330
23
  0
LAYOUT
  5
22
102
{ACAD_REACTORS
330
1A
102
}
330
1A
100
AcDbPlotSettings
  1

  2
none_device
  4
Letter_(8.50_x_11.00_Inches)
  6

 40
6.35
 41
6.35
 42
6.35000508
 43
6.35000508
 44
215.9
 45
279.4
 46
0.0
 47
0.0
 48
0.0
 49
0.0
140
0.0
141
0.0
142
1.0
143
1.0
 70
  1712
 72
     1
 73
     0
 74
     0
  7

 75
     0
147
1.0
148
0.0
149
0.0
100
AcDbLayout
  1
Model
 70
     1
 71
     0
 10
0.0
 20
0.0
 11
431.8
 21
279.4
 12
0.0
 22
0.0
 32
0.0
 14
0.0
 24
0.0
 34
0.0
 15
431.8
 25
279.4
 35
0.0
146
0.0
 13
0.0
 23
0.0
 33
0.0
 16
1.0
 26
0.0
 36
0.0
 17
0.0
 27
1.0
 37
0.0
 76
     0
330
1F
331
29
  0
MLINESTYLE
  5
18
102
{ACAD_REACTORS
330
17
102
}
330
17
100
AcDbMlineStyle
  2
Standard
 70
     0
  3

 62
   256
 51
90.0
 52
90.0
 71
     2
 49
0.5
 62
   256
  6
BYLAYER
 49
-0.5
 62
   256
  6
BYLAYER
  0
ACDBPLACEHOLDER
  5
F
102
{ACAD_REACTORS
330
E
102
}
330
E
  0
SCALE
  5
48
102
{ACAD_REACTORS
330
47
102
}
330
47
100
AcDbScale
 70
     0
300
1:1
140
1.0
141
1.0
290
     1
  0
SCALE
  5
49
102
{ACAD_REACTORS
330
47
102
}
330
47
100
AcDbScale
 70
     0
300
1:2
140
1.0
141
2.0
290
     0
  0
SCALE
  5
4A
102
{ACAD_REACTORS
330
47
102
}
330
47
100
AcDbScale
 70
     0
300
1:4
140
1.0
141
4.0
290
     0
  0
SCALE
  5
4B
102
{ACAD_REACTORS
330
47
102
}
330
47
100
AcDbScale
 70
     0
300
1:5
140
1.0
141
5.0
290
     0
  0
SCALE
  5
4C
102
{ACAD_REACTORS
330
47
102
}
330
47
100
AcDbScale
 70
     0
300
1:8
140
1.0
141
8.0
290
     0
  0
SCALE
  5
4D
102
{ACAD_REACTORS
330
47
102
}
330
47
100
AcDbScale
 70
     0
300
1:10
140
1.0
141
10.0
290
     0
  0
SCALE
  5
4E
102
{ACAD_REACTORS
330
47
102
}
330
47
100
AcDbScale
 70
     0
300
1:16
140
1.0
141
16.0
290
     0
  0
SCALE
  5
4F
102
{ACAD_REACTORS
330
47
102
}
330
47
100
AcDbScale
 70
     0
300
1:20
140
1.0
141
20.0
290
     0
  0
SCALE
  5
50
102
{ACAD_REACTORS
330
47
102
}
330
47
100
AcDbScale
 70
     0
300
1:30
140
1.0
141
30.0
290
     0
  0
SCALE
  5
51
102
{ACAD_REACTORS
330
47
102
}
330
47
100
AcDbScale
 70
     0
300
1:40
140
1.0
141
40.0
290
     0
  0
SCALE
  5
52
102
{ACAD_REACTORS
330
47
102
}
330
47
100
AcDbScale
 70
     0
300
1:50
140
1.0
141
50.0
290
     0
  0
SCALE
  5
53
102
{ACAD_REACTORS
330
47
102
}
330
47
100
AcDbScale
 70
     0
300
1:100
140
1.0
141
100.0
290
     0
  0
SCALE
  5
54
102
{ACAD_REACTORS
330
47
102
}
330
47
100
AcDbScale
 70
     0
300
2:1
140
2.0
141
1.0
290
     0
  0
SCALE
  5
55
102
{ACAD_REACTORS
330
47
102
}
330
47
100
AcDbScale
 70
     0
300
4:1
140
4.0
141
1.0
290
     0
  0
SCALE
  5
56
102
{ACAD_REACTORS
330
47
102
}
330
47
100
AcDbScale
 70
     0
300
8:1
140
8.0
141
1.0
290
     0
  0
SCALE
  5
57
102
{ACAD_REACTORS
330
47
102
}
330
47
100
AcDbScale
 70
     0
300
10:1
140
10.0
141
1.0
290
     0
  0
SCALE
  5
58
102
{ACAD_REACTORS
330
47
102
}
330
47
100
AcDbScale
 70
     0
300
100:1
140
100.0
141
1.0
290
     0
  0
SCALE
  5
59
102
{ACAD_REACTORS
330
47
102
}
330
47
100
AcDbScale
 70
     0
300
1/128" = 1'-0"
140
0.0078125
141
12.0
290
     0
  0
SCALE
  5
5A
102
{ACAD_REACTORS
330
47
102
}
330
47
100
AcDbScale
 70
     0
300
1/64" = 1'-0"
140
0.015625
141
12.0
290
     0
  0
SCALE
  5
5B
102
{ACAD_REACTORS
330
47
102
}
330
47
100
AcDbScale
 70
     0
300
1/32" = 1'-0"
140
0.03125
141
12.0
290
     0
  0
SCALE
  5
5C
102
{ACAD_REACTORS
330
47
102
}
330
47
100
AcDbScale
 70
     0
300
1/16" = 1'-0"
140
0.0625
141
12.0
290
     0
  0
SCALE
  5
5D
102
{ACAD_REACTORS
330
47
102
}
330
47
100
AcDbScale
 70
     0
300
3/32" = 1'-0"
140
0.09375
141
12.0
290
     0
  0
SCALE
  5
5E
102
{ACAD_REACTORS
330
47
102
}
330
47
100
AcDbScale
 70
     0
300
1/8" = 1'-0"
140
0.125
141
12.0
290
     0
  0
SCALE
  5
5F
102
{ACAD_REACTORS
330
47
102
}
330
47
100
AcDbScale
 70
     0
300
3/16" = 1'-0"
140
0.1875
141
12.0
290
     0
  0
SCALE
  5
60
102
{ACAD_REACTORS
330
47
102
}
330
47
100
AcDbScale
 70
     0
300
1/4" = 1'-0"
140
0.25
141
12.0
290
     0
  0
SCALE
  5
61
102
{ACAD_REACTORS
330
47
102
}
330
47
100
AcDbScale
 70
     0
300
3/8" = 1'-0"
140
0.375
141
12.0
290
     0
  0
SCALE
  5
62
102
{ACAD_REACTORS
330
47
102
}
330
47
100
AcDbScale
 70
     0
300
1/2" = 1'-0"
140
0.5
141
12.0
290
     0
  0
SCALE
  5
63
102
{ACAD_REACTORS
330
47
102
}
330
47
100
AcDbScale
 70
     0
300
3/4" = 1'-0"
140
0.75
141
12.0
290
     0
  0
SCALE
  5
64
102
{ACAD_REACTORS
330
47
102
}
330
47
100
AcDbScale
 70
     0
300
1" = 1'-0"
140
1.0
141
12.0
290
     0
  0
SCALE
  5
65
102
{ACAD_REACTORS
330
47
102
}
330
47
100
AcDbScale
 70
     0
300
1-1/2" = 1'-0"
140
1.5
141
12.0
290
     0
  0
SCALE
  5
66
102
{ACAD_REACTORS
330
47
102
}
330
47
100
AcDbScale
 70
     0
300
3" = 1'-0"
140
3.0
141
12.0
290
     0
  0
SCALE
  5
67
102
{ACAD_REACTORS
330
47
102
}
330
47
100
AcDbScale
 70
     0
300
6" = 1'-0"
140
6.0
141
12.0
290
     0
  0
SCALE
  5
68
102
{ACAD_REACTORS
330
47
102
}
330
47
100
AcDbScale
 70
     0
300
1'-0" = 1'-0"
140
12.0
141
12.0
290
     0
  0
ENDSEC
  0
EOF
