  0
SECTION
  2
HEADER
  9
$ACADVER
  1
AC1015
  9
$ACADMAINTVER
 70
     6
  9
$DWGCODEPAGE
  3
DOS932
  9
$INSBASE
 10
0.0
 20
0.0
 30
0.0
  9
$EXTMIN
 10
0.0
 20
0.0
 30
0.0
  9
$EXTMAX
 10
431.8
 20
279.4
 30
0.0
  9
$LIMMIN
 10
0.0
 20
0.0
  9
$LIMMAX
 10
431.8
 20
279.4
  9
$ORTHOMODE
 70
     0
  9
$REGENMODE
 70
     1
  9
$FILLMODE
 70
     1
  9
$QTEXTMODE
 70
     0
  9
$MIRRTEXT
 70
     1
  9
$LTSCALE
 40
1.0
  9
$ATTMODE
 70
     1
  9
$TEXTSIZE
 40
3.5
  9
$TRACEWID
 40
1.0
  9
$TEXTSTYLE
  7
Standard
  9
$CLAYER
  8
0
  9
$CELTYPE
  6
ByLayer
  9
$CECOLOR
 62
   256
  9
$CELTSCALE
 40
1.0
  9
$DISPSILH
 70
     0
  9
$DIMSCALE
 40
1.0
  9
$DIMASZ
 40
3.302
  9
$DIMEXO
 40
1.0
  9
$DIMDLI
 40
3.75
  9
$DIMRND
 40
0.0
  9
$DIMDLE
 40
0.0
  9
$DIMEXE
 40
1.0
  9
$DIMTP
 40
0.0
  9
$DIMTM
 40
0.0
  9
$DIMTXT
 40
3.5
  9
$DIMCEN
 40
2.5
  9
$DIMTSZ
 40
0.0
  9
$DIMTOL
 70
     0
  9
$DIMLIM
 70
     0
  9
$DIMTIH
 70
     1
  9
$DIMTOH
 70
     1
  9
$DIMSE1
 70
     0
  9
$DIMSE2
 70
     0
  9
$DIMTAD
 70
     1
  9
$DIMZIN
 70
     1
  9
$DIMBLK
  1

  9
$DIMASO
 70
     1
  9
$DIMSHO
 70
     1
  9
$DIMPOST
  1

  9
$DIMAPOST
  1

  9
$DIMALT
 70
     0
  9
$DIMALTD
 70
     3
  9
$DIMALTF
 40
0.0393700787
  9
$DIMLFAC
 40
1.0
  9
$DIMTOFL
 70
     1
  9
$DIMTVP
 40
0.0
  9
$DIMTIX
 70
     0
  9
$DIMSOXD
 70
     0
  9
$DIMSAH
 70
     0
  9
$DIMBLK1
  1

  9
$DIMBLK2
  1

  9
$DIMSTYLE
  2
ISO-25
  9
$DIMCLRD
 70
     0
  9
$DIMCLRE
 70
     0
  9
$DIMCLRT
 70
     0
  9
$DIMTFAC
 40
1.0
  9
$DIMGAP
 40
1.524
  9
$DIMJUST
 70
     0
  9
$DIMSD1
 70
     0
  9
$DIMSD2
 70
     0
  9
$DIMTOLJ
 70
     0
  9
$DIMTZIN
 70
     1
  9
$DIMALTZ
 70
     0
  9
$DIMALTTZ
 70
     0
  9
$DIMUPT
 70
     0
  9
$DIMDEC
 70
     2
  9
$DIMTDEC
 70
     2
  9
$DIMALTU
 70
     2
  9
$DIMALTTD
 70
     3
  9
$DIMTXSTY
  7
Standard
  9
$DIMAUNIT
 70
     0
  9
$DIMADEC
 70
     2
  9
$DIMALTRND
 40
0.0
  9
$DIMAZIN
 70
     0
  9
$DIMDSEP
 70
    44
  9
$DIMATFIT
 70
     3
  9
$DIMFRAC
 70
     0
  9
$DIMLDRBLK
  1

  9
$DIMLUNIT
 70
     2
  9
$DIMLWD
 70
    -2
  9
$DIMLWE
 70
    -2
  9
$DIMTMOVE
 70
     0
  9
$LUNITS
 70
     2
  9
$LUPREC
 70
     2
  9
$SKETCHINC
 40
1.0
  9
$FILLETRAD
 40
10.0
  9
$AUNITS
 70
     0
  9
$AUPREC
 70
     2
  9
$MENU
  1
.
  9
$ELEVATION
 40
0.0
  9
$PELEVATION
 40
0.0
  9
$THICKNESS
 40
0.0
  9
$LIMCHECK
 70
     0
  9
$CHAMFERA
 40
0.0
  9
$CHAMFERB
 40
0.0
  9
$CHAMFERC
 40
0.0
  9
$CHAMFERD
 40
0.0
  9
$SKPOLY
 70
     0
  9
$TDCREATE
 40
2460090.437332338
  9
$TDUCREATE
 40
2460090.062332338
  9
$TDUPDATE
 40
2460090.437332697
  9
$TDUUPDATE
 40
2460090.062332697
  9
$TDINDWG
 40
0.0000000116
  9
$TDUSRTIMER
 40
0.0000000116
  9
$USRTIMER
 70
     1
  9
$ANGBASE
 50
0.0
  9
$ANGDIR
 70
     0
  9
$PDMODE
 70
     0
  9
$PDSIZE
 40
-1.0
  9
$PLINEWID
 40
0.0
  9
$SPLFRAME
 70
     0
  9
$SPLINETYPE
 70
     6
  9
$SPLINESEGS
 70
     8
  9
$HANDSEED
  5
EF
  9
$SURFTAB1
 70
     6
  9
$SURFTAB2
 70
     6
  9
$SURFTYPE
 70
     6
  9
$SURFU
 70
     6
  9
$SURFV
 70
     6
  9
$UCSBASE
  2

  9
$UCSNAME
  2

  9
$UCSORG
 10
0.0
 20
0.0
 30
0.0
  9
$UCSXDIR
 10
1.0
 20
0.0
 30
0.0
  9
$UCSYDIR
 10
0.0
 20
1.0
 30
0.0
  9
$UCSORTHOREF
  2

  9
$UCSORTHOVIEW
 70
     0
  9
$UCSORGTOP
 10
0.0
 20
0.0
 30
0.0
  9
$UCSORGBOTTOM
 10
0.0
 20
0.0
 30
0.0
  9
$UCSORGLEFT
 10
0.0
 20
0.0
 30
0.0
  9
$UCSORGRIGHT
 10
0.0
 20
0.0
 30
0.0
  9
$UCSORGFRONT
 10
0.0
 20
0.0
 30
0.0
  9
$UCSORGBACK
 10
0.0
 20
0.0
 30
0.0
  9
$PUCSBASE
  2

  9
$PUCSNAME
  2

  9
$PUCSORG
 10
0.0
 20
0.0
 30
0.0
  9
$PUCSXDIR
 10
1.0
 20
0.0
 30
0.0
  9
$PUCSYDIR
 10
0.0
 20
1.0
 30
0.0
  9
$PUCSORTHOREF
  2

  9
$PUCSORTHOVIEW
 70
     0
  9
$PUCSORGTOP
 10
0.0
 20
0.0
 30
0.0
  9
$PUCSORGBOTTOM
 10
0.0
 20
0.0
 30
0.0
  9
$PUCSORGLEFT
 10
0.0
 20
0.0
 30
0.0
  9
$PUCSORGRIGHT
 10
0.0
 20
0.0
 30
0.0
  9
$PUCSORGFRONT
 10
0.0
 20
0.0
 30
0.0
  9
$PUCSORGBACK
 10
0.0
 20
0.0
 30
0.0
  9
$USERI1
 70
     0
  9
$USERI2
 70
     0
  9
$USERI3
 70
     0
  9
$USERI4
 70
     0
  9
$USERI5
 70
     0
  9
$USERR1
 40
0.0
  9
$USERR2
 40
0.0
  9
$USERR3
 40
0.0
  9
$USERR4
 40
0.0
  9
$USERR5
 40
0.0
  9
$WORLDVIEW
 70
     1
  9
$SHADEDGE
 70
     3
  9
$SHADEDIF
 70
    70
  9
$TILEMODE
 70
     1
  9
$MAXACTVP
 70
    64
  9
$PINSBASE
 10
0.0
 20
0.0
 30
0.0
  9
$PLIMCHECK
 70
     0
  9
$PEXTMIN
 10
1.0000000000E+20
 20
1.0000000000E+20
 30
1.0000000000E+20
  9
$PEXTMAX
 10
-1.0000000000E+20
 20
-1.0000000000E+20
 30
-1.0000000000E+20
  9
$PLIMMIN
 10
0.0
 20
0.0
  9
$PLIMMAX
 10
420.0
 20
297.0
  9
$UNITMODE
 70
     0
  9
$VISRETAIN
 70
     1
  9
$PLINEGEN
 70
     0
  9
$PSLTSCALE
 70
     1
  9
$TREEDEPTH
 70
  3020
  9
$CMLSTYLE
  2
Standard
  9
$CMLJUST
 70
     0
  9
$CMLSCALE
 40
20.0
  9
$PROXYGRAPHICS
 70
     1
  9
$MEASUREMENT
 70
     1
  9
$CELWEIGHT
370
    -1
  9
$ENDCAPS
280
     0
  9
$JOINSTYLE
280
     0
  9
$LWDISPLAY
290
     1
  9
$INSUNITS
 70
     4
  9
$HYPERLINKBASE
  1

  9
$STYLESHEET
  1

  9
$XEDIT
290
     1
  9
$CEPSNTYPE
380
     0
  9
$PSTYLEMODE
290
     1
  9
$FINGERPRINTGUID
  2
{CE425799-20E9-4CC3-8CA9-7FDB52B99EA4}
  9
$VERSIONGUID
  2
{FAEB1C32-E019-11D5-929B-00C0DF256EC4}
  9
$EXTNAMES
290
     1
  9
$PSVPSCALE
 40
0.0
  9
$OLESTARTUP
290
     0
  0
ENDSEC
  0
SECTION
  2
CLASSES
  0
CLASS
  1
ACDBDICTIONARYWDFLT
  2
AcDbDictionaryWithDefault
  3
ObjectDBX Classes
 90
        0
280
     0
281
     0
  0
CLASS
  1
VISUALSTYLE
  2
AcDbVisualStyle
  3
ObjectDBX Classes
 90
     4095
280
     0
281
     0
  0
CLASS
  1
MATERIAL
  2
AcDbMaterial
  3
ObjectDBX Classes
 90
     1153
280
     0
281
     0
  0
CLASS
  1
SCALE
  2
AcDbScale
  3
ObjectDBX Classes
 90
     1153
280
     0
281
     0
  0
CLASS
  1
TABLESTYLE
  2
AcDbTableStyle
  3
ObjectDBX Classes
 90
     4095
280
     0
281
     0
  0
CLASS
  1
MLEADERSTYLE
  2
AcDbMLeaderStyle
  3
ACDB_MLEADERSTYLE_CLASS
 90
     4095
280
     0
281
     0
  0
CLASS
  1
SUN
  2
AcDbSun
  3
SCENEOE
 90
     1153
280
     0
281
     0
  0
CLASS
  1
ACDBPLACEHOLDER
  2
AcDbPlaceHolder
  3
ObjectDBX Classes
 90
        0
280
     0
281
     0
  0
CLASS
  1
LAYOUT
  2
AcDbLayout
  3
ObjectDBX Classes
 90
        0
280
     0
281
     0
  0
ENDSEC
  0
SECTION
  2
TABLES
  0
TABLE
  2
VPORT
  5
8
330
0
100
AcDbSymbolTable
 70
     1
  0
VPORT
  5
29
330
8
100
AcDbSymbolTableRecord
100
AcDbViewportTableRecord
  2
*Active
 70
     0
 10
0.0
 20
0.0
 11
1.0
 21
1.0
 12
215.9
 22
139.7
 13
0.0
 23
0.0
 14
10.0
 24
10.0
 15
10.0
 25
10.0
 16
0.0
 26
0.0
 36
1.0
 17
0.0
 27
0.0
 37
0.0
 40
279.4
 41
1.5454545455
 42
50.0
 43
0.0
 44
0.0
 50
0.0
 51
0.0
 71
     0
 72
  2000
 73
     1
 74
     3
 75
     0
 76
     0
 77
     0
 78
     0
281
     0
 65
     1
110
0.0
120
0.0
130
0.0
111
1.0
121
0.0
131
0.0
112
0.0
122
1.0
132
0.0
 79
     0
146
0.0
  0
ENDTAB
  0
TABLE
  2
LTYPE
  5
5
330
0
100
AcDbSymbolTable
 70
     6
  0
LTYPE
  5
14
330
5
100
AcDbSymbolTableRecord
100
AcDbLinetypeTableRecord
  2
ByBlock
 70
     0
  3

 72
    65
 73
     0
 40
0.0
  0
LTYPE
  5
15
330
5
100
AcDbSymbolTableRecord
100
AcDbLinetypeTableRecord
  2
ByLayer
 70
     0
  3

 72
    65
 73
     0
 40
0.0
  0
LTYPE
  5
16
330
5
100
AcDbSymbolTableRecord
100
AcDbLinetypeTableRecord
  2
Continuous
 70
     0
  3
Solid line
 72
    65
 73
     0
 40
0.0
  0
LTYPE
  5
6E
330
5
100
AcDbSymbolTableRecord
100
AcDbLinetypeTableRecord
  2
HIDDEN
 70
     0
  3
Hidden __ __ __ __ __ __ __ __ __ __ __ __ __ __
 72
    65
 73
     2
 40
1.905
 49
1.27
 74
     0
 49
-0.635
 74
     0
  0
LTYPE
  5
6F
330
5
100
AcDbSymbolTableRecord
100
AcDbLinetypeTableRecord
  2
PHANTOM
 70
     0
  3
Phantom ______  __  __  ______  __  __  ______
 72
    65
 73
     6
 40
12.7
 49
6.35
 74
     0
 49
-1.27
 74
     0
 49
1.27
 74
     0
 49
-1.27
 74
     0
 49
1.27
 74
     0
 49
-1.27
 74
     0
  0
LTYPE
  5
70
330
5
100
AcDbSymbolTableRecord
100
AcDbLinetypeTableRecord
  2
CENTER
 70
     0
  3
Center ____ _ ____ _ ____ _ ____ _ ____ _ ____
 72
    65
 73
     4
 40
10.16
 49
6.35
 74
     0
 49
-1.27
 74
     0
 49
1.27
 74
     0
 49
-1.27
 74
     0
  0
LTYPE
  5
71
330
5
100
AcDbSymbolTableRecord
100
AcDbLinetypeTableRecord
  2
CENTERX2
 70
     0
  3
Center (2x) ________  __  ________  __  _____
 72
    65
 73
     4
 40
20.32
 49
12.7
 74
     0
 49
-2.54
 74
     0
 49
2.54
 74
     0
 49
-2.54
 74
     0
  0
LTYPE
  5
72
330
5
100
AcDbSymbolTableRecord
100
AcDbLinetypeTableRecord
  2
DOT2
 70
     0
  3
Dot (.5x) ........................................
 72
    65
 73
     2
 40
0.635
 49
0.0
 74
     0
 49
-0.635
 74
     0
  0
ENDTAB
  0
TABLE
  2
LAYER
  5
2
330
0
100
AcDbSymbolTable
 70
     1
  0
LAYER
  5
10
330
2
100
AcDbSymbolTableRecord
100
AcDbLayerTableRecord
  2
0
 70
     0
 62
     7
  6
Continuous
370
    -3
390
F
  0
ENDTAB
  0
TABLE
  2
STYLE
  5
3
330
0
100
AcDbSymbolTable
 70
     2
  0
STYLE
  5
11
330
3
100
AcDbSymbolTableRecord
100
AcDbTextStyleTableRecord
  2
Standard
 70
     0
 40
0.0
 41
1.0
 50
0.0
 71
     0
 42
3.5
  3
txt
  4
bigfont
  0
STYLE
  5
73
330
3
100
AcDbSymbolTableRecord
100
AcDbTextStyleTableRecord
  2
SLDTEXTSTYLE0
 70
     0
 40
0.0
 41
0.75
 50
0.0
 71
     0
 42
3.5
  3
TXT
  4
bigfont
  0
ENDTAB
  0
TABLE
  2
VIEW
  5
6
330
0
100
AcDbSymbolTable
 70
     0
  0
ENDTAB
  0
TABLE
  2
UCS
  5
7
330
0
100
AcDbSymbolTable
 70
     0
  0
ENDTAB
  0
TABLE
  2
APPID
  5
9
330
0
100
AcDbSymbolTable
 70
     1
  0
APPID
  5
12
330
9
100
AcDbSymbolTableRecord
100
AcDbRegAppTableRecord
  2
ACAD
 70
     0
  0
ENDTAB
  0
TABLE
  2
DIMSTYLE
  5
A
330
0
100
AcDbSymbolTable
 70
     1
100
AcDbDimStyleTable
  0
DIMSTYLE
105
27
330
A
100
AcDbSymbolTableRecord
100
AcDbDimStyleTableRecord
  2
ISO-25
 70
     0
 41
2.5
 42
0.625
 43
3.75
 44
1.25
 73
     0
 74
     0
 77
     1
 78
     8
140
2.5
141
2.5
143
0.0393700787
147
0.625
171
     3
172
     1
178
     0
271
     2
272
     2
274
     3
278
    44
283
     0
284
     8
340
11
  0
ENDTAB
  0
TABLE
  2
BLOCK_RECORD
  5
1
330
0
100
AcDbSymbolTable
 70
     3
  0
BLOCK_RECORD
  5
1F
330
1
100
AcDbSymbolTableRecord
100
AcDbBlockTableRecord
  2
*Model_Space
340
22
  0
BLOCK_RECORD
  5
1B
330
1
100
AcDbSymbolTableRecord
100
AcDbBlockTableRecord
  2
*Paper_Space
340
1E
  0
BLOCK_RECORD
  5
23
330
1
100
AcDbSymbolTableRecord
100
AcDbBlockTableRecord
  2
*Paper_Space0
340
26
  0
BLOCK_RECORD
  5
D6
330
1
100
AcDbSymbolTableRecord
100
AcDbBlockTableRecord
  2
SW_CENTERMARKSYMBOL_0
340
0
102
{BLKREFS
331
E1
102
}
  0
BLOCK_RECORD
  5
E2
330
1
100
AcDbSymbolTableRecord
100
AcDbBlockTableRecord
  2
SW_CENTERMARKSYMBOL_1
340
0
102
{BLKREFS
331
ED
102
}
  0
ENDTAB
  0
ENDSEC
  0
SECTION
  2
BLOCKS
  0
BLOCK
  5
20
330
1F
100
AcDbEntity
  8
0
100
AcDbBlockBegin
  2
*Model_Space
 70
     0
 10
0.0
 20
0.0
 30
0.0
  3
*Model_Space
  1

  0
ENDBLK
  5
21
330
1F
100
AcDbEntity
  8
0
100
AcDbBlockEnd
  0
BLOCK
  5
1C
330
1B
100
AcDbEntity
 67
     1
  8
0
100
AcDbBlockBegin
  2
*Paper_Space
 70
     0
 10
0.0
 20
0.0
 30
0.0
  3
*Paper_Space
  1

  0
ENDBLK
  5
1D
330
1B
100
AcDbEntity
 67
     1
  8
0
100
AcDbBlockEnd
  0
BLOCK
  5
24
330
23
100
AcDbEntity
  8
0
100
AcDbBlockBegin
  2
*Paper_Space0
 70
     0
 10
0.0
 20
0.0
 30
0.0
  3
*Paper_Space0
  1

  0
ENDBLK
  5
25
330
23
100
AcDbEntity
  8
0
100
AcDbBlockEnd
  0
BLOCK
  5
D7
330
D6
100
AcDbEntity
  8
0
100
AcDbBlockBegin
  2
SW_CENTERMARKSYMBOL_0
 70
     0
 10
0.0
 20
0.0
 30
0.0
  3
SW_CENTERMARKSYMBOL_0
  1

  0
LINE
  5
D9
330
D6
100
AcDbEntity
  8
0
  6
Continuous
 62
     0
370
    18
100
AcDbLine
 10
0.0
 20
0.0
 30
0.0
 11
0.0
 21
2.5
 31
0.0
  0
LINE
  5
DA
330
D6
100
AcDbEntity
  8
0
  6
Continuous
 62
     0
370
    18
100
AcDbLine
 10
0.0
 20
0.0
 30
0.0
 11
-2.5
 21
0.0
 31
0.0
  0
LINE
  5
DB
330
D6
100
AcDbEntity
  8
0
  6
Continuous
 62
     0
370
    18
100
AcDbLine
 10
0.0
 20
0.0
 30
0.0
 11
0.0
 21
-2.5
 31
0.0
  0
LINE
  5
DC
330
D6
100
AcDbEntity
  8
0
  6
Continuous
 62
     0
370
    18
100
AcDbLine
 10
0.0
 20
0.0
 30
0.0
 11
2.5
 21
0.0
 31
0.0
  0
LINE
  5
DD
330
D6
100
AcDbEntity
  8
0
  6
Continuous
 62
     0
370
    18
100
AcDbLine
 10
0.0
 20
5.0
 30
0.0
 11
0.0
 21
15.25
 31
0.0
  0
LINE
  5
DE
330
D6
100
AcDbEntity
  8
0
  6
Continuous
 62
     0
370
    18
100
AcDbLine
 10
-5.0
 20
0.0
 30
0.0
 11
-15.25
 21
0.0
 31
0.0
  0
LINE
  5
DF
330
D6
100
AcDbEntity
  8
0
  6
Continuous
 62
     0
370
    18
100
AcDbLine
 10
0.0
 20
-5.0
 30
0.0
 11
0.0
 21
-15.25
 31
0.0
  0
LINE
  5
E0
330
D6
100
AcDbEntity
  8
0
  6
Continuous
 62
     0
370
    18
100
AcDbLine
 10
5.0
 20
0.0
 30
0.0
 11
15.25
 21
0.0
 31
0.0
  0
ENDBLK
  5
D8
330
D6
100
AcDbEntity
  8
0
100
AcDbBlockEnd
  0
BLOCK
  5
E3
330
E2
100
AcDbEntity
  8
0
100
AcDbBlockBegin
  2
SW_CENTERMARKSYMBOL_1
 70
     0
 10
0.0
 20
0.0
 30
0.0
  3
SW_CENTERMARKSYMBOL_1
  1

  0
LINE
  5
E5
330
E2
100
AcDbEntity
  8
0
  6
Continuous
 62
     0
370
    18
100
AcDbLine
 10
0.0
 20
0.0
 30
0.0
 11
0.0
 21
2.5
 31
0.0
  0
LINE
  5
E6
330
E2
100
AcDbEntity
  8
0
  6
Continuous
 62
     0
370
    18
100
AcDbLine
 10
0.0
 20
0.0
 30
0.0
 11
-2.5
 21
0.0
 31
0.0
  0
LINE
  5
E7
330
E2
100
AcDbEntity
  8
0
  6
Continuous
 62
     0
370
    18
100
AcDbLine
 10
0.0
 20
0.0
 30
0.0
 11
0.0
 21
-2.5
 31
0.0
  0
LINE
  5
E8
330
E2
100
AcDbEntity
  8
0
  6
Continuous
 62
     0
370
    18
100
AcDbLine
 10
0.0
 20
0.0
 30
0.0
 11
2.5
 21
0.0
 31
0.0
  0
LINE
  5
E9
330
E2
100
AcDbEntity
  8
0
  6
Continuous
 62
     0
370
    18
100
AcDbLine
 10
0.0
 20
5.0
 30
0.0
 11
0.0
 21
26.6105454545
 31
0.0
  0
LINE
  5
EA
330
E2
100
AcDbEntity
  8
0
  6
Continuous
 62
     0
370
    18
100
AcDbLine
 10
-5.0
 20
0.0
 30
0.0
 11
-26.6105454545
 21
0.0
 31
0.0
  0
LINE
  5
EB
330
E2
100
AcDbEntity
  8
0
  6
Continuous
 62
     0
370
    18
100
AcDbLine
 10
0.0
 20
-5.0
 30
0.0
 11
0.0
 21
-26.6105454545
 31
0.0
  0
LINE
  5
EC
330
E2
100
AcDbEntity
  8
0
  6
Continuous
 62
     0
370
    18
100
AcDbLine
 10
5.0
 20
0.0
 30
0.0
 11
26.6105454545
 21
0.0
 31
0.0
  0
ENDBLK
  5
E4
330
E2
100
AcDbEntity
  8
0
100
AcDbBlockEnd
  0
ENDSEC
  0
SECTION
  2
ENTITIES
  0
MTEXT
  5
74
330
1F
100
AcDbEntity
  8
0
  6
Continuous
 62
     7
370
     0
100
AcDbMText
 10
69.8897527
 20
83.3964110623
 30
0.0
 40
7.4083333333
 41
0.0
 71
     1
 72
     1
  1
NP-7040
  7
SLDTEXTSTYLE0
 73
     1
 44
1.0
  0
LINE
  5
75
330
1F
100
AcDbEntity
  8
0
  6
Continuous
 62
     7
370
    25
100
AcDbLine
 10
56.51009732
 20
61.181918865
 30
0.0
 11
40.791443016
 21
60.690710918
 31
0.0
  0
LINE
  5
76
330
1F
100
AcDbEntity
  8
0
  6
Continuous
 62
     7
370
    25
100
AcDbLine
 10
40.791443016
 20
13.4520359029
 30
0.0
 11
56.51009732
 21
12.9608279559
 31
0.0
  0
LINE
  5
77
330
1F
100
AcDbEntity
  8
0
  6
Continuous
 62
     7
370
    25
100
AcDbLine
 10
56.51009732
 20
12.9608279559
 30
0.0
 11
59.1206427746
 21
15.5713734104
 31
0.0
  0
LINE
  5
78
330
1F
100
AcDbEntity
  8
0
  6
Continuous
 62
     7
370
    25
100
AcDbLine
 10
59.1206427746
 20
58.5713734104
 30
0.0
 11
56.51009732
 21
61.181918865
 31
0.0
  0
LINE
  5
79
330
1F
100
AcDbEntity
  8
0
  6
Continuous
 62
     7
370
    25
100
AcDbLine
 10
40.791443016
 20
60.690710918
 30
0.0
 11
37.1206427746
 21
58.5713734104
 31
0.0
  0
LINE
  5
7A
330
1F
100
AcDbEntity
  8
0
  6
Continuous
 62
     7
370
    25
100
AcDbLine
 10
37.1206427746
 20
15.5713734104
 30
0.0
 11
40.791443016
 21
13.4520359029
 31
0.0
  0
LINE
  5
7B
330
1F
100
AcDbEntity
  8
0
  6
Continuous
 62
     7
370
    25
100
AcDbLine
 10
70.3951302278
 20
21.5958608637
 30
0.0
 11
73.1206427746
 21
24.3213734104
 31
0.0
  0
LINE
  5
7C
330
1F
100
AcDbEntity
  8
0
  6
Continuous
 62
     7
370
    25
100
AcDbLine
 10
73.1206427746
 20
49.8213734104
 30
0.0
 11
70.3951302278
 21
52.5468859571
 31
0.0
  0
LINE
  5
7D
330
1F
100
AcDbEntity
  8
0
  6
Continuous
 62
     7
370
    25
100
AcDbLine
 10
56.51009732
 20
61.1819188649
 30
0.0
 11
56.51009732
 21
12.9608279559
 31
0.0
  0
LINE
  5
7E
330
1F
100
AcDbEntity
  8
0
  6
Continuous
 62
     7
370
    25
100
AcDbLine
 10
40.791443016
 20
13.4520359029
 30
0.0
 11
40.791443016
 21
60.690710918
 31
0.0
  0
LINE
  5
7F
330
1F
100
AcDbEntity
  8
0
  6
Continuous
 62
     7
370
    25
100
AcDbLine
 10
59.1206427746
 20
58.5713734104
 30
0.0
 11
59.1206427746
 21
15.5713734104
 31
0.0
  0
LINE
  5
80
330
1F
100
AcDbEntity
  8
0
  6
Continuous
 62
     7
370
    25
100
AcDbLine
 10
37.1206427746
 20
15.5713734104
 30
0.0
 11
37.1206427746
 21
58.5713734104
 31
0.0
  0
LINE
  5
81
330
1F
100
AcDbEntity
  8
0
  6
Continuous
 62
     7
370
    25
100
AcDbLine
 10
73.1206427746
 20
49.8213734104
 30
0.0
 11
73.1206427746
 21
24.3213734104
 31
0.0
  0
SPLINE
  5
82
330
1F
100
AcDbEntity
  8
0
  6
Continuous
 62
     7
370
    25
100
AcDbSpline
210
0.0
220
0.0
230
1.0
 70
    24
 71
     3
 72
    11
 73
     7
 74
     0
 42
0.000000001
 43
0.00000001
 40
0.0
 40
0.0
 40
0.0
 40
0.0
 40
0.0555872459758179
 40
0.5239271295133551
 40
0.9922142019122197
 40
1.0
 40
1.0
 40
1.0
 40
1.0
 10
70.12445519854985
 20
21.59637341040462
 30
0.0
 10
70.13416471576146
 20
21.59637341040462
 30
0.0
 10
70.22567994362225
 20
21.59637341040463
 30
0.0
 10
70.34208991245939
 20
21.59637341040458
 30
0.0
 10
70.4158272233749
 20
21.59637341040469
 30
0.0
 10
70.39495896508261
 20
21.59637341040462
 30
0.0
 10
70.39461768109946
 20
21.59637341040462
 30
0.0
  0
SPLINE
  5
83
330
1F
100
AcDbEntity
  8
0
  6
Continuous
 62
     7
370
    25
100
AcDbSpline
210
0.0
220
0.0
230
1.0
 70
     8
 71
     3
 72
    26
 73
    22
 74
     0
 42
0.000000001
 43
0.00000001
 40
0.0
 40
0.0
 40
0.0
 40
0.0
 40
0.1249999999999999
 40
0.1249999999999999
 40
0.2499999999999999
 40
0.2499999999999999
 40
0.3124999999999997
 40
0.3124999999999997
 40
0.3749999999999995
 40
0.3749999999999995
 40
0.4999999999999994
 40
0.4999999999999994
 40
0.5624999999999996
 40
0.5624999999999996
 40
0.6249999999999997
 40
0.6249999999999997
 40
0.7499999999999998
 40
0.7499999999999998
 40
0.8749999999999999
 40
0.8749999999999999
 40
1.0
 40
1.0
 40
1.0
 40
1.0
 10
70.12445519854211
 20
21.59637341039886
 30
0.0
 10
70.50449699265423
 20
22.07262512901969
 30
0.0
 10
70.8619742865071
 20
22.5570659854701
 30
0.0
 10
71.51392739769096
 20
23.54881227630424
 30
0.0
 10
71.80850267290022
 20
24.05608161530523
 30
0.0
 10
72.1836128758936
 20
24.84121160421564
 30
0.0
 10
72.29744923457201
 20
25.10698645544207
 30
0.0
 10
72.4984249281419
 20
25.64822507654675
 30
0.0
 10
72.58481840857517
 20
25.92222138395856
 30
0.0
 10
72.79380461659996
 20
26.74263613404955
 30
0.0
 10
72.86761575374395
 20
27.29214835930495
 30
0.0
 10
72.87201858796621
 20
28.12058574076406
 30
0.0
 10
72.85585677928322
 20
28.39742286318975
 30
0.0
 10
72.78813907317117
 20
28.95248506895576
 30
0.0
 10
72.73616875106569
 20
29.23207876848555
 30
0.0
 10
72.53215243733429
 20
30.05896110699477
 30
0.0
 10
72.33275958569739
 20
30.5963063010084
 30
0.0
 10
71.83699077255807
 20
31.64971294419237
 30
0.0
 10
71.54067252079932
 20
32.16582482247095
 30
0.0
 10
70.87598405699438
 20
33.18208479852142
 30
0.0
 10
70.51147323278468
 20
33.67660306258583
 30
0.0
 10
70.1244551985467
 20
34.16159709955438
 30
0.0
  0
SPLINE
  5
84
330
1F
100
AcDbEntity
  8
0
  6
Continuous
 62
     7
370
    25
100
AcDbSpline
210
0.0
220
0.0
230
1.0
 70
     8
 71
     3
 72
    13
 73
     9
 74
     0
 42
0.000000001
 43
0.00000001
 40
0.0
 40
0.0
 40
0.0
 40
0.0
 40
0.25
 40
0.25
 40
0.5
 40
0.75
 40
0.75
 40
1.0
 40
1.0
 40
1.0
 40
1.0
 10
70.1244551985467
 20
34.16159709955438
 30
0.0
 10
70.21383216222189
 20
34.64525848265001
 30
0.0
 10
70.28197244176695
 20
35.13123872113983
 30
0.0
 10
70.37277463081936
 20
36.10111732629271
 30
0.0
 10
70.41849280995416
 20
37.07105400203815
 30
0.0
 10
70.37281090988147
 20
38.04110840592644
 30
0.0
 10
70.28201182386489
 20
39.01122092313978
 30
0.0
 10
70.21379955952784
 20
39.49766476688539
 30
0.0
 10
70.12445519854985
 20
39.9811497212377
 30
0.0
  0
SPLINE
  5
85
330
1F
100
AcDbEntity
  8
0
  6
Continuous
 62
     7
370
    25
100
AcDbSpline
210
0.0
220
0.0
230
1.0
 70
     8
 71
     3
 72
    26
 73
    22
 74
     0
 42
0.000000001
 43
0.00000001
 40
0.0
 40
0.0
 40
0.0
 40
0.0
 40
0.1249999999999999
 40
0.1249999999999999
 40
0.2499999999999997
 40
0.2499999999999997
 40
0.3124999999999996
 40
0.3124999999999996
 40
0.3749999999999995
 40
0.3749999999999995
 40
0.4999999999999993
 40
0.4999999999999993
 40
0.5624999999999993
 40
0.5624999999999993
 40
0.6249999999999996
 40
0.6249999999999996
 40
0.7499999999999997
 40
0.7499999999999997
 40
0.8749999999999999
 40
0.8749999999999999
 40
1.0
 40
1.0
 40
1.0
 40
1.0
 10
70.12445519854211
 20
39.9811497212491
 30
0.0
 10
70.50449699265441
 20
40.45740143987015
 30
0.0
 10
70.86197428650745
 20
40.94184229632079
 30
0.0
 10
71.51392739769156
 20
41.93358858715542
 30
0.0
 10
71.8085026729009
 20
42.44085792615667
 30
0.0
 10
72.18361287589434
 20
43.2259879150675
 30
0.0
 10
72.29744923457274
 20
43.49176276629408
 30
0.0
 10
72.4984249281426
 20
44.03300138739908
 30
0.0
 10
72.58481840857584
 20
44.306997694811
 30
0.0
 10
72.79380461660043
 20
45.12741244490239
 30
0.0
 10
72.86761575374425
 20
45.67692467015805
 30
0.0
 10
72.8720185879661
 20
46.50536205161759
 30
0.0
 10
72.85585677928296
 20
46.78219917404341
 30
0.0
 10
72.78813907317057
 20
47.3372613798097
 30
0.0
 10
72.7361687510649
 20
47.61685507933962
 30
0.0
 10
72.53215243733297
 20
48.44373741784913
 30
0.0
 10
72.33275958569565
 20
48.98108261186295
 30
0.0
 10
71.83699077255554
 20
50.0344892550473
 30
0.0
 10
71.54067252079636
 20
50.55060113332611
 30
0.0
 10
70.87598405699069
 20
51.56686110937688
 30
0.0
 10
70.51147323278062
 20
52.06137937344144
 30
0.0
 10
70.12445519854228
 20
52.54637341041015
 30
0.0
  0
SPLINE
  5
86
330
1F
100
AcDbEntity
  8
0
  6
Continuous
 62
     7
370
    25
100
AcDbSpline
210
0.0
220
0.0
230
1.0
 70
    24
 71
     3
 72
    11
 73
     7
 74
     0
 42
0.000000001
 43
0.00000001
 40
0.0
 40
0.0
 40
0.0
 40
0.0
 40
0.0555872459799401
 40
0.523927129515433
 40
0.9922142019122535
 40
1.0
 40
1.0
 40
1.0
 40
1.0
 10
70.12445519854226
 20
52.54637341041015
 30
0.0
 10
70.13416471575653
 20
52.54637341040819
 30
0.0
 10
70.22567994363592
 20
52.54637341038975
 30
0.0
 10
70.3420899124529
 20
52.54637341041146
 30
0.0
 10
70.41582722337492
 20
52.54637341040453
 30
0.0
 10
70.39495896508261
 20
52.54637341040462
 30
0.0
 10
70.39461768109946
 20
52.54637341040462
 30
0.0
  0
LINE
  5
87
330
1F
100
AcDbEntity
  8
0
  6
Continuous
 62
     7
370
    25
100
AcDbLine
 10
70.1244551985
 20
34.1615970996
 30
0.0
 11
59.1206427746
 21
34.1615970996
 31
0.0
  0
LINE
  5
88
330
1F
100
AcDbEntity
  8
0
  6
Continuous
 62
     7
370
    25
100
AcDbLine
 10
59.1206427746
 20
21.5963734104
 30
0.0
 11
70.1244551985
 21
21.5963734104
 31
0.0
  0
LINE
  5
89
330
1F
100
AcDbEntity
  8
0
  6
Continuous
 62
     7
370
    25
100
AcDbLine
 10
59.1206427746
 20
52.5463734104
 30
0.0
 11
70.1244551985
 21
52.5463734104
 31
0.0
  0
LINE
  5
8A
330
1F
100
AcDbEntity
  8
0
  6
Continuous
 62
     7
370
    25
100
AcDbLine
 10
59.1206427746
 20
39.9811497213
 30
0.0
 11
70.1244551985
 21
39.9811497212
 31
0.0
  0
LINE
  5
8B
330
1F
100
AcDbEntity
  8
0
  6
Continuous
 62
     7
370
    18
100
AcDbLine
 10
56.51009732
 20
14.7304529559
 30
0.0
 11
37.5509666789
 21
15.3229257884
 31
0.0
  0
LINE
  5
8C
330
1F
100
AcDbEntity
  8
0
  6
Continuous
 62
     7
370
    18
100
AcDbLine
 10
56.51009732
 20
59.412293865
 30
0.0
 11
37.5509666789
 21
58.8198210324
 31
0.0
  0
LINE
  5
8D
330
1F
100
AcDbEntity
  8
0
  6
CENTERX2
 62
     7
370
    18
100
AcDbLine
 10
77.5243236994
 20
37.0713734104
 30
0.0
 11
33.3758936416
 21
37.0713734104
 31
0.0
  0
SPLINE
  5
8E
330
1F
100
AcDbEntity
  8
0
  6
Continuous
 62
     7
370
    25
100
AcDbSpline
210
0.0
220
0.0
230
1.0
 70
     8
 71
     3
 72
    23
 73
    19
 74
     0
 42
0.000000001
 43
0.00000001
 40
0.0
 40
0.0
 40
0.0
 40
0.0
 40
0.0714340508655356
 40
0.1375891490131985
 40
0.1988671272749592
 40
0.2554435599219264
 40
0.3076933861665008
 40
0.3550325418254516
 40
0.3974487289008685
 40
0.4361373033546203
 40
0.5081119058244427
 40
0.5772270526050617
 40
0.6463348841943414
 40
0.7166178483288135
 40
0.7873525362986343
 40
0.8567329452643679
 40
0.9275818981340933
 40
1.0
 40
1.0
 40
1.0
 40
1.0
 10
119.8295859919949
 20
34.78020090379178
 30
0.0
 10
119.8469663858972
 20
34.79768513941274
 30
0.0
 10
119.8804427683443
 20
34.83136153142865
 30
0.0
 10
119.926370026926
 20
34.88235229927524
 30
0.0
 10
119.9691143516255
 20
34.9293377314723
 30
0.0
 10
120.0054441074704
 20
34.9754634428649
 30
0.0
 10
120.0382687633509
 20
35.0182272026486
 30
0.0
 10
120.065110795361
 20
35.05925090168108
 30
0.0
 10
120.0879620705761
 20
35.09726669162029
 30
0.0
 10
120.110877739403
 20
35.14492401254327
 30
0.0
 10
120.1315757235865
 20
35.20364401322602
 30
0.0
 10
120.1452526165918
 20
35.27517774530636
 30
0.0
 10
120.1469630085256
 20
35.34742072902714
 30
0.0
 10
120.1372639351928
 20
35.41957517021362
 30
0.0
 10
120.1166844534805
 20
35.48943845687691
 30
0.0
 10
120.0871331148903
 20
35.55622483396147
 30
0.0
 10
120.0465471288404
 20
35.61784742854505
 30
0.0
 10
120.0130063879945
 20
35.65423548697949
 30
0.0
 10
119.9960523381488
 20
35.67262878840717
 30
0.0
  0
LINE
  5
8F
330
1F
100
AcDbEntity
  8
0
  6
Continuous
 62
     7
370
    25
100
AcDbLine
 10
119.4696100305
 20
34.4298403269
 30
0.0
 11
119.829585992
 21
34.7802009038
 31
0.0
  0
LINE
  5
90
330
1F
100
AcDbEntity
  8
0
  6
Continuous
 62
     7
370
    25
100
AcDbLine
 10
118.7562686843
 20
35.143181673
 30
0.0
 11
119.4696100305
 21
34.4298403269
 31
0.0
  0
LINE
  5
91
330
1F
100
AcDbEntity
  8
0
  6
Continuous
 62
     7
370
    25
100
AcDbLine
 10
119.1270619535
 20
35.5139749423
 30
0.0
 11
118.7562686843
 21
35.143181673
 31
0.0
  0
SPLINE
  5
92
330
1F
100
AcDbEntity
  8
0
  6
Continuous
 62
     7
370
    25
100
AcDbSpline
210
0.0
220
0.0
230
1.0
 70
     8
 71
     3
 72
    23
 73
    19
 74
     0
 42
0.000000001
 43
0.00000001
 40
0.0
 40
0.0
 40
0.0
 40
0.0
 40
0.0726813284379039
 40
0.1434600890843439
 40
0.214160978375421
 40
0.2866317423066645
 40
0.3582937434852108
 40
0.4274496270517901
 40
0.4958614884323621
 40
0.5652405595167557
 40
0.6025654069960295
 40
0.6444912751488164
 40
0.6912842453022057
 40
0.7427916792484175
 40
0.7995856524042377
 40
0.8612748596826222
 40
0.928333039685004
 40
1.0
 40
1.0
 40
1.0
 40
1.0
 10
119.9960523381488
 20
35.67262878840717
 30
0.0
 10
119.9781035329774
 20
35.6892610019022
 30
0.0
 10
119.9426757657065
 20
35.72209005003532
 30
0.0
 10
119.8814013015162
 20
35.7605146041254
 30
0.0
 10
119.8158892136044
 20
35.7906758606963
 30
0.0
 10
119.7460007086577
 20
35.80981186968121
 30
0.0
 10
119.67493941224
 20
35.8203942311112
 30
0.0
 10
119.6042694505426
 20
35.82012613467134
 30
0.0
 10
119.5356043860139
 20
35.80757628511843
 30
0.0
 10
119.4795190773065
 20
35.78874541721862
 30
0.0
 10
119.435073334509
 20
35.76586735231959
 30
0.0
 10
119.3981555925855
 20
35.7450549238039
 30
0.0
 10
119.3593298218034
 20
35.71826671175565
 30
0.0
 10
119.317785752478
 20
35.68679636815677
 30
0.0
 10
119.2734161226689
 20
35.6508028637127
 30
0.0
 10
119.2263823573638
 20
35.6098520925563
 30
0.0
 10
119.177477719861
 20
35.56353494196792
 30
0.0
 10
119.1442353393867
 20
35.53085682385478
 30
0.0
 10
119.1270619535334
 20
35.51397494225332
 30
0.0
  0
CIRCLE
  5
93
330
1F
100
AcDbEntity
  8
0
  6
Continuous
 62
     7
370
    25
100
AcDbCircle
 10
119.3664924855
 20
37.0713734104
 30
0.0
 40
12.75000000000001
  0
SPLINE
  5
94
330
1F
100
AcDbEntity
  8
0
  6
Continuous
 62
     7
370
    25
100
AcDbSpline
210
0.0
220
0.0
230
1.0
 70
    24
 71
     3
 72
    26
 73
    22
 74
     0
 42
0.000000001
 43
0.00000001
 40
0.0
 40
0.0
 40
0.0
 40
0.0
 40
0.125
 40
0.125
 40
0.2500000000000001
 40
0.2500000000000001
 40
0.3125000000000001
 40
0.3125000000000001
 40
0.3750000000000001
 40
0.3750000000000001
 40
0.5000000000000001
 40
0.5000000000000001
 40
0.5625000000000001
 40
0.5625000000000001
 40
0.6250000000000001
 40
0.6250000000000001
 40
0.7500000000000001
 40
0.7500000000000001
 40
0.8750000000000001
 40
0.8750000000000001
 40
1.0
 40
1.0
 40
1.0
 40
1.0
 10
122.2762687963993
 20
21.59637341040462
 30
0.0
 10
122.75252051502
 20
22.07262512902528
 30
0.0
 10
123.2369613714702
 20
22.55706598547551
 30
0.0
 10
124.228707662304
 20
23.54881227630931
 30
0.0
 10
124.7359770013049
 20
24.05608161531014
 30
0.0
 10
125.521106990215
 20
24.8412116042203
 30
0.0
 10
125.7868818414414
 20
25.10698645544666
 30
0.0
 10
126.3281204625459
 20
25.64822507655117
 30
0.0
 10
126.6021167699576
 20
25.92222138396282
 30
0.0
 10
127.4225315200482
 20
26.74263613405342
 30
0.0
 10
127.9720437453033
 20
27.29214835930854
 30
0.0
 10
128.800481126762
 20
28.12058574076726
 30
0.0
 10
129.0773182491876
 20
28.39742286319282
 30
0.0
 10
129.6323804549533
 20
28.95248506895857
 30
0.0
 10
129.9119741544829
 20
29.23207876848821
 30
0.0
 10
130.7388564929917
 20
30.05896110699694
 30
0.0
 10
131.276201687005
 20
30.59630630101028
 30
0.0
 10
132.3296083301884
 20
31.64971294419367
 30
0.0
 10
132.8457202084667
 20
32.16582482247199
 30
0.0
 10
133.8619801845167
 20
33.18208479852191
 30
0.0
 10
134.3564984485808
 20
33.67660306258606
 30
0.0
 10
134.8414924855491
 20
34.16159709955437
 30
0.0
  0
SPLINE
  5
95
330
1F
100
AcDbEntity
  8
0
  6
Continuous
 62
     7
370
    25
100
AcDbSpline
210
0.0
220
0.0
230
1.0
 70
    24
 71
     3
 72
    13
 73
     9
 74
     0
 42
0.000000001
 43
0.00000001
 40
0.0
 40
0.0
 40
0.0
 40
0.0
 40
0.25
 40
0.25
 40
0.5
 40
0.75
 40
0.75
 40
1.0
 40
1.0
 40
1.0
 40
1.0
 10
122.2762687963993
 20
21.59637341040462
 30
0.0
 10
121.7926074133037
 20
21.59637341040462
 30
0.0
 10
121.3066271748139
 20
21.59637341040462
 30
0.0
 10
120.336748569661
 20
21.59637341040462
 30
0.0
 10
119.3668118939156
 20
21.59637341040462
 30
0.0
 10
118.3967574900273
 20
21.59637341040462
 30
0.0
 10
117.4266449728139
 20
21.59637341040462
 30
0.0
 10
116.9402011290683
 20
21.59637341040462
 30
0.0
 10
116.456716174716
 20
21.59637341040462
 30
0.0
  0
SPLINE
  5
96
330
1F
100
AcDbEntity
  8
0
  6
Continuous
 62
     7
370
    25
100
AcDbSpline
210
0.0
220
0.0
230
1.0
 70
    24
 71
     3
 72
    26
 73
    22
 74
     0
 42
0.000000001
 43
0.00000001
 40
0.0
 40
0.0
 40
0.0
 40
0.0
 40
0.1249999999999999
 40
0.1249999999999999
 40
0.2499999999999999
 40
0.2499999999999999
 40
0.3124999999999997
 40
0.3124999999999997
 40
0.3749999999999995
 40
0.3749999999999995
 40
0.4999999999999994
 40
0.4999999999999994
 40
0.5624999999999996
 40
0.5624999999999996
 40
0.6249999999999997
 40
0.6249999999999997
 40
0.7499999999999998
 40
0.7499999999999998
 40
0.8749999999999999
 40
0.8749999999999999
 40
1.0
 40
1.0
 40
1.0
 40
1.0
 10
116.4567161747046
 20
21.59637341039886
 30
0.0
 10
115.9804644560838
 20
22.07262512901969
 30
0.0
 10
115.4960235996334
 20
22.5570659854701
 30
0.0
 10
114.5042773087992
 20
23.54881227630424
 30
0.0
 10
113.9970079697983
 20
24.05608161530523
 30
0.0
 10
113.2118779808879
 20
24.84121160421564
 30
0.0
 10
112.9461031296614
 20
25.10698645544207
 30
0.0
 10
112.4048645085567
 20
25.64822507654675
 30
0.0
 10
112.1308682011449
 20
25.92222138395856
 30
0.0
 10
111.3104534510539
 20
26.74263613404955
 30
0.0
 10
110.7609412257985
 20
27.29214835930495
 30
0.0
 10
109.9325038443394
 20
28.12058574076406
 30
0.0
 10
109.6556667219137
 20
28.39742286318975
 30
0.0
 10
109.1006045161477
 20
28.95248506895576
 30
0.0
 10
108.8210108166179
 20
29.23207876848555
 30
0.0
 10
107.9941284781087
 20
30.05896110699477
 30
0.0
 10
107.4567832840951
 20
30.5963063010084
 30
0.0
 10
106.4033766409111
 20
31.64971294419237
 30
0.0
 10
105.8872647626325
 20
32.16582482247095
 30
0.0
 10
104.8710047865821
 20
33.18208479852142
 30
0.0
 10
104.3764865225177
 20
33.67660306258583
 30
0.0
 10
103.8914924855491
 20
34.16159709955438
 30
0.0
  0
SPLINE
  5
97
330
1F
100
AcDbEntity
  8
0
  6
Continuous
 62
     7
370
    25
100
AcDbSpline
210
0.0
220
0.0
230
1.0
 70
    24
 71
     3
 72
    13
 73
     9
 74
     0
 42
0.000000001
 43
0.00000001
 40
0.0
 40
0.0
 40
0.0
 40
0.0
 40
0.25
 40
0.25
 40
0.5
 40
0.75
 40
0.75
 40
1.0
 40
1.0
 40
1.0
 40
1.0
 10
103.8914924855491
 20
34.16159709955438
 30
0.0
 10
103.8914924855491
 20
34.64525848265001
 30
0.0
 10
103.8914924855491
 20
35.13123872113983
 30
0.0
 10
103.8914924855491
 20
36.10111732629271
 30
0.0
 10
103.8914924855491
 20
37.07105400203815
 30
0.0
 10
103.8914924855491
 20
38.04110840592644
 30
0.0
 10
103.8914924855491
 20
39.01122092313978
 30
0.0
 10
103.8914924855491
 20
39.49766476688539
 30
0.0
 10
103.8914924855491
 20
39.9811497212377
 30
0.0
  0
SPLINE
  5
98
330
1F
100
AcDbEntity
  8
0
  6
Continuous
 62
     7
370
    25
100
AcDbSpline
210
0.0
220
0.0
230
1.0
 70
    24
 71
     3
 72
    26
 73
    22
 74
     0
 42
0.000000001
 43
0.00000001
 40
0.0
 40
0.0
 40
0.0
 40
0.0
 40
0.1249999999999999
 40
0.1249999999999999
 40
0.2499999999999997
 40
0.2499999999999997
 40
0.3124999999999996
 40
0.3124999999999996
 40
0.3749999999999995
 40
0.3749999999999995
 40
0.4999999999999993
 40
0.4999999999999993
 40
0.5624999999999993
 40
0.5624999999999993
 40
0.6249999999999996
 40
0.6249999999999996
 40
0.7499999999999997
 40
0.7499999999999997
 40
0.8749999999999999
 40
0.8749999999999999
 40
1.0
 40
1.0
 40
1.0
 40
1.0
 10
103.8914924855434
 20
39.9811497212491
 30
0.0
 10
104.3677442041644
 20
40.45740143987015
 30
0.0
 10
104.852185060615
 20
40.94184229632079
 30
0.0
 10
105.8439313514497
 20
41.93358858715542
 30
0.0
 10
106.3512006904509
 20
42.44085792615667
 30
0.0
 10
107.1363306793618
 20
43.2259879150675
 30
0.0
 10
107.4021055305883
 20
43.49176276629408
 30
0.0
 10
107.9433441516933
 20
44.03300138739908
 30
0.0
 10
108.2173404591053
 20
44.306997694811
 30
0.0
 10
109.0377552091966
 20
45.12741244490239
 30
0.0
 10
109.5872674344523
 20
45.67692467015805
 30
0.0
 10
110.4157048159118
 20
46.50536205161759
 30
0.0
 10
110.6925419383377
 20
46.78219917404341
 30
0.0
 10
111.247604144104
 20
47.3372613798097
 30
0.0
 10
111.5271978436339
 20
47.61685507933962
 30
0.0
 10
112.3540801821434
 20
48.44373741784913
 30
0.0
 10
112.8914253761572
 20
48.98108261186295
 30
0.0
 10
113.9448320193416
 20
50.0344892550473
 30
0.0
 10
114.4609438976204
 20
50.55060113332611
 30
0.0
 10
115.4772038736711
 20
51.56686110937688
 30
0.0
 10
115.9717221377357
 20
52.06137937344144
 30
0.0
 10
116.4567161747044
 20
52.54637341041015
 30
0.0
  0
SPLINE
  5
99
330
1F
100
AcDbEntity
  8
0
  6
Continuous
 62
     7
370
    25
100
AcDbSpline
210
0.0
220
0.0
230
1.0
 70
    24
 71
     3
 72
    13
 73
     9
 74
     0
 42
0.000000001
 43
0.00000001
 40
0.0
 40
0.0
 40
0.0
 40
0.0
 40
0.25
 40
0.25
 40
0.5
 40
0.75
 40
0.75
 40
1.0
 40
1.0
 40
1.0
 40
1.0
 10
122.2762687963993
 20
52.54637341040462
 30
0.0
 10
121.7926074133026
 20
52.54637341040461
 30
0.0
 10
121.3066271748116
 20
52.54637341040462
 30
0.0
 10
120.3367485696565
 20
52.54637341040461
 30
0.0
 10
119.3668118939088
 20
52.54637341040462
 30
0.0
 10
118.3967574900183
 20
52.54637341040461
 30
0.0
 10
117.4266449728027
 20
52.54637341040461
 30
0.0
 10
116.9402011290559
 20
52.54637341040462
 30
0.0
 10
116.4567161747026
 20
52.54637341040462
 30
0.0
  0
SPLINE
  5
9A
330
1F
100
AcDbEntity
  8
0
  6
Continuous
 62
     7
370
    25
100
AcDbSpline
210
0.0
220
0.0
230
1.0
 70
    24
 71
     3
 72
    26
 73
    22
 74
     0
 42
0.000000001
 43
0.00000001
 40
0.0
 40
0.0
 40
0.0
 40
0.0
 40
0.1249999999999999
 40
0.1249999999999999
 40
0.2499999999999998
 40
0.2499999999999998
 40
0.3124999999999998
 40
0.3124999999999998
 40
0.3749999999999998
 40
0.3749999999999998
 40
0.4999999999999997
 40
0.4999999999999997
 40
0.5624999999999997
 40
0.5624999999999997
 40
0.6249999999999996
 40
0.6249999999999996
 40
0.7499999999999997
 40
0.7499999999999997
 40
0.8749999999999999
 40
0.8749999999999999
 40
1.0
 40
1.0
 40
1.0
 40
1.0
 10
122.2762687963993
 20
52.54637341040462
 30
0.0
 10
122.7525205150202
 20
52.07012169178373
 30
0.0
 10
123.2369613714707
 20
51.58568083533327
 30
0.0
 10
124.228707662305
 20
50.59393454449897
 30
0.0
 10
124.7359770013061
 20
50.08666520549789
 30
0.0
 10
125.5211069902167
 20
49.3015352165873
 30
0.0
 10
125.7868818414431
 20
49.03576036536081
 30
0.0
 10
126.328120462548
 20
48.49452174425599
 30
0.0
 10
126.6021167699597
 20
48.22052543684421
 30
0.0
 10
127.4225315200508
 20
47.40011068675321
 30
0.0
 10
127.9720437453062
 20
46.8505984614978
 30
0.0
 10
128.8004811267653
 20
46.02216108003869
 30
0.0
 10
129.077318249191
 20
45.74532395761299
 30
0.0
 10
129.632380454957
 20
45.19026175184696
 30
0.0
 10
129.9119741544868
 20
44.91066805231718
 30
0.0
 10
130.7388564929958
 20
44.08378571380816
 30
0.0
 10
131.2762016870093
 20
43.54644051979464
 30
0.0
 10
132.3296083301931
 20
42.49303387661087
 30
0.0
 10
132.8457202084716
 20
41.97692199833232
 30
0.0
 10
133.8619801845219
 20
40.96066202228209
 30
0.0
 10
134.3564984485862
 20
40.46614375821778
 30
0.0
 10
134.8414924855547
 20
39.98114972124932
 30
0.0
  0
SPLINE
  5
9B
330
1F
100
AcDbEntity
  8
0
  6
Continuous
 62
     7
370
    25
100
AcDbSpline
210
0.0
220
0.0
230
1.0
 70
    24
 71
     3
 72
    13
 73
     9
 74
     0
 42
0.000000001
 43
0.00000001
 40
0.0
 40
0.0
 40
0.0
 40
0.0
 40
0.25
 40
0.25
 40
0.5
 40
0.75
 40
0.75
 40
1.0
 40
1.0
 40
1.0
 40
1.0
 10
134.8414924855491
 20
34.16159709955438
 30
0.0
 10
134.8414924855491
 20
34.64525848265113
 30
0.0
 10
134.8414924855491
 20
35.13123872114208
 30
0.0
 10
134.8414924855491
 20
36.10111732629721
 30
0.0
 10
134.8414924855491
 20
37.0710540020449
 30
0.0
 10
134.8414924855491
 20
38.04110840593545
 30
0.0
 10
134.8414924855491
 20
39.01122092315104
 30
0.0
 10
134.8414924855491
 20
39.49766476689787
 30
0.0
 10
134.8414924855491
 20
39.98114972125117
 30
0.0
  0
LINE
  5
9C
330
1F
100
AcDbEntity
  8
0
  6
Continuous
 62
     7
370
    25
100
AcDbLine
 10
121.2652831074
 20
39.5479997524
 30
0.0
 11
120.7773023381
 21
40.0359805217
 31
0.0
  0
LINE
  5
9D
330
1F
100
AcDbEntity
  8
0
  6
Continuous
 62
     7
370
    25
100
AcDbLine
 10
121.4750186843
 20
39.7577353294
 30
0.0
 11
121.2652831074
 21
39.5479997524
 31
0.0
  0
LINE
  5
9E
330
1F
100
AcDbEntity
  8
0
  6
Continuous
 62
     7
370
    25
100
AcDbLine
 10
120.9870379151
 20
40.2457160986
 30
0.0
 11
121.4750186843
 21
39.7577353294
 31
0.0
  0
LINE
  5
9F
330
1F
100
AcDbEntity
  8
0
  6
Continuous
 62
     7
370
    25
100
AcDbLine
 10
121.2412446458
 20
40.4999228294
 30
0.0
 11
120.9870379151
 21
40.2457160986
 31
0.0
  0
LINE
  5
A0
330
1F
100
AcDbEntity
  8
0
  6
Continuous
 62
     7
370
    25
100
AcDbLine
 10
121.0399225305
 20
40.7012449447
 30
0.0
 11
121.2412446458
 21
40.4999228294
 31
0.0
  0
LINE
  5
A1
330
1F
100
AcDbEntity
  8
0
  6
Continuous
 62
     7
370
    25
100
AcDbLine
 10
120.7857157997
 20
40.447038214
 30
0.0
 11
121.0399225305
 21
40.7012449447
 31
0.0
  0
LINE
  5
A2
330
1F
100
AcDbEntity
  8
0
  6
Continuous
 62
     7
370
    25
100
AcDbLine
 10
119.3223744535
 20
41.9103795601
 30
0.0
 11
120.7857157997
 21
40.447038214
 31
0.0
  0
LINE
  5
A3
330
1F
100
AcDbEntity
  8
0
  6
Continuous
 62
     7
370
    25
100
AcDbLine
 10
119.2797061843
 20
41.8677112909
 30
0.0
 11
119.3223744535
 21
41.9103795601
 31
0.0
  0
LINE
  5
A4
330
1F
100
AcDbEntity
  8
0
  6
Continuous
 62
     7
370
    25
100
AcDbLine
 10
119.7742975305
 20
39.032975714
 30
0.0
 11
119.2797061843
 21
41.8677112909
 31
0.0
  0
LINE
  5
A5
330
1F
100
AcDbEntity
  8
0
  6
Continuous
 62
     7
370
    25
100
AcDbLine
 10
120.7773023381
 20
40.0359805217
 30
0.0
 11
119.7742975305
 21
39.032975714
 31
0.0
  0
LINE
  5
A6
330
1F
100
AcDbEntity
  8
0
  6
Continuous
 62
     7
370
    25
100
AcDbLine
 10
122.9983901875
 20
35.4792843803
 30
0.0
 11
122.7844478798
 21
35.2653420726
 31
0.0
  0
LINE
  5
A7
330
1F
100
AcDbEntity
  8
0
  6
Continuous
 62
     7
370
    25
100
AcDbLine
 10
121.1029574952
 20
37.3747170726
 30
0.0
 11
122.9983901875
 21
35.4792843803
 31
0.0
  0
LINE
  5
A8
330
1F
100
AcDbEntity
  8
0
  6
Continuous
 62
     7
370
    25
100
AcDbLine
 10
121.5711065337
 20
37.8428661111
 30
0.0
 11
121.1029574952
 21
37.3747170726
 31
0.0
  0
LINE
  5
A9
330
1F
100
AcDbEntity
  8
0
  6
Continuous
 62
     7
370
    25
100
AcDbLine
 10
121.3667796106
 20
38.0471930341
 30
0.0
 11
121.5711065337
 21
37.8428661111
 31
0.0
  0
LINE
  5
AA
330
1F
100
AcDbEntity
  8
0
  6
Continuous
 62
     7
370
    25
100
AcDbLine
 10
120.2147363414
 20
36.8951497649
 30
0.0
 11
121.3667796106
 21
38.0471930341
 31
0.0
  0
LINE
  5
AB
330
1F
100
AcDbEntity
  8
0
  6
Continuous
 62
     7
370
    25
100
AcDbLine
 10
120.4190632644
 20
36.6908228418
 30
0.0
 11
120.2147363414
 21
36.8951497649
 31
0.0
  0
LINE
  5
AC
330
1F
100
AcDbEntity
  8
0
  6
Continuous
 62
     7
370
    25
100
AcDbLine
 10
120.8890151875
 20
37.1607747649
 30
0.0
 11
120.4190632644
 21
36.6908228418
 31
0.0
  0
LINE
  5
AD
330
1F
100
AcDbEntity
  8
0
  6
Continuous
 62
     7
370
    25
100
AcDbLine
 10
122.7844478798
 20
35.2653420726
 30
0.0
 11
120.8890151875
 21
37.1607747649
 31
0.0
  0
LINE
  5
AE
330
1F
100
AcDbEntity
  8
0
  6
Continuous
 62
     7
370
    25
100
AcDbLine
 10
119.6751388766
 20
34.2243114807
 30
0.0
 11
120.6517013766
 21
33.2477489807
 31
0.0
  0
LINE
  5
AF
330
1F
100
AcDbEntity
  8
0
  6
Continuous
 62
     7
370
    25
100
AcDbLine
 10
119.8247782997
 20
34.3739509038
 30
0.0
 11
119.6751388766
 21
34.2243114807
 31
0.0
  0
SPLINE
  5
B0
330
1F
100
AcDbEntity
  8
0
  6
Continuous
 62
     7
370
    25
100
AcDbSpline
210
0.0
220
0.0
230
1.0
 70
     8
 71
     3
 72
    15
 73
    11
 74
     0
 42
0.000000001
 43
0.00000001
 40
0.0
 40
0.0
 40
0.0
 40
0.0
 40
0.0753901858551262
 40
0.1649443888154755
 40
0.2680434861778919
 40
0.385547786092209
 40
0.5179661541666719
 40
0.6643098712270732
 40
0.8251607063646663
 40
1.0
 40
1.0
 40
1.0
 40
1.0
 10
120.3247782996872
 20
34.9424605191764
 30
0.0
 10
120.3142883789193
 20
34.92654853873297
 30
0.0
 10
120.2913377315617
 20
34.89173509638213
 30
0.0
 10
120.2510764210946
 20
34.83718371720791
 30
0.0
 10
120.2011514847719
 20
34.77671919689332
 30
0.0
 10
120.1436955345369
 20
34.70842946656406
 30
0.0
 10
120.0761090921896
 20
34.63447699566649
 30
0.0
 10
120.0004299295672
 20
34.55310787741569
 30
0.0
 10
119.9156198487886
 20
34.46561006091964
 30
0.0
 10
119.855888499375
 20
34.40534110694961
 30
0.0
 10
119.8247782996872
 20
34.37395090379179
 30
0.0
  0
SPLINE
  5
B1
330
1F
100
AcDbEntity
  8
0
  6
Continuous
 62
     7
370
    25
100
AcDbSpline
210
0.0
220
0.0
230
1.0
 70
     8
 71
     3
 72
    23
 73
    19
 74
     0
 42
0.000000001
 43
0.00000001
 40
0.0
 40
0.0
 40
0.0
 40
0.0
 40
0.0695844114809412
 40
0.1366237229743221
 40
0.2019334138781217
 40
0.2643611311562476
 40
0.3254530953890702
 40
0.3856538430923491
 40
0.4452848548136245
 40
0.50492709013969
 40
0.5646141987799761
 40
0.6236473059504292
 40
0.6836364314990075
 40
0.7438816365130284
 40
0.8048337486793983
 40
0.8682164437659133
 40
0.9329082916196966
 40
1.0
 40
1.0
 40
1.0
 40
1.0
 10
120.2129994535334
 20
35.88957590379179
 30
0.0
 10
120.2296829454928
 20
35.87217860712857
 30
0.0
 10
120.2624397186722
 20
35.83802033246289
 30
0.0
 10
120.3064584568034
 20
35.7835864749112
 30
0.0
 10
120.3449766044889
 20
35.72812506379984
 30
0.0
 10
120.3770227280042
 20
35.67102568570685
 30
0.0
 10
120.4036108972642
 20
35.61316048124898
 30
0.0
 10
120.4248754361868
 20
35.55413498914325
 30
0.0
 10
120.4400029657581
 20
35.49373860661069
 30
0.0
 10
120.4488380965886
 20
35.43231370665681
 30
0.0
 10
120.452495257504
 20
35.37058582907718
 30
0.0
 10
120.4506360004786
 20
35.30865239796266
 30
0.0
 10
120.4434586529658
 20
35.24691337525695
 30
0.0
 10
120.4307433104049
 20
35.18540000170158
 30
0.0
 10
120.4125732652314
 20
35.12402850198187
 30
0.0
 10
120.3883048135042
 20
35.06317868400004
 30
0.0
 10
120.3595545901548
 20
35.00193678455443
 30
0.0
 10
120.3365102802486
 20
34.96252517759447
 30
0.0
 10
120.3247782996872
 20
34.9424605191764
 30
0.0
  0
SPLINE
  5
B2
330
1F
100
AcDbEntity
  8
0
  6
Continuous
 62
     7
370
    25
100
AcDbSpline
210
0.0
220
0.0
230
1.0
 70
     8
 71
     3
 72
    23
 73
    19
 74
     0
 42
0.000000001
 43
0.00000001
 40
0.0
 40
0.0
 40
0.0
 40
0.0
 40
0.0631120667195007
 40
0.1246204889042282
 40
0.1854063864272504
 40
0.2452855145665087
 40
0.3045096995741357
 40
0.3641375552122477
 40
0.4246759440160569
 40
0.4858777714932492
 40
0.5476102484119828
 40
0.6086002211440633
 40
0.6704667414166822
 40
0.7330433104550825
 40
0.7964418486351543
 40
0.8616201805525383
 40
0.9293334730091429
 40
1.0
 40
1.0
 40
1.0
 40
1.0
 10
119.2773023381488
 20
36.00916724994563
 30
0.0
 10
119.2959827160062
 20
36.0198660587529
 30
0.0
 10
119.332868813111
 20
36.04099182524349
 30
0.0
 10
119.3903527953676
 20
36.06751209973879
 30
0.0
 10
119.4486437989379
 20
36.08911869531781
 30
0.0
 10
119.507633762103
 20
36.1061537306901
 30
0.0
 10
119.5675681552802
 20
36.1177674547172
 30
0.0
 10
119.6285379771867
 20
36.1233340558784
 30
0.0
 10
119.6903967204869
 20
36.12554883556737
 30
0.0
 10
119.7529274010386
 20
36.12176257673722
 30
0.0
 10
119.8151071503064
 20
36.11297222990691
 30
0.0
 10
119.8763509522121
 20
36.0981756541218
 30
0.0
 10
119.9366493252737
 20
36.07879571265797
 30
0.0
 10
119.9949077923879
 20
36.05187766459354
 30
0.0
 10
120.0517126304495
 20
36.0198058557658
 30
0.0
 10
120.1072566578025
 20
35.98234570641972
 30
0.0
 10
120.1616031548345
 20
35.93900615183439
 30
0.0
 10
120.1956253257808
 20
35.90628542307773
 30
0.0
 10
120.2129994535334
 20
35.88957590379179
 30
0.0
  0
SPLINE
  5
B3
330
1F
100
AcDbEntity
  8
0
  6
Continuous
 62
     7
370
    25
100
AcDbSpline
210
0.0
220
0.0
230
1.0
 70
     8
 71
     3
 72
    15
 73
    11
 74
     0
 42
0.000000001
 43
0.00000001
 40
0.0
 40
0.0
 40
0.0
 40
0.0
 40
0.1771214341944272
 40
0.338855584180858
 40
0.485818835850185
 40
0.6186783670831186
 40
0.7356853745542107
 40
0.8381870473681521
 40
0.9261641814985228
 40
0.9999999999999999
 40
0.9999999999999999
 40
0.9999999999999999
 40
0.9999999999999999
 10
118.7604754150718
 20
35.55604224994563
 30
0.0
 10
118.7891834869
 20
35.58482951968737
 30
0.0
 10
118.8441056395703
 20
35.63990318792902
 30
0.0
 10
118.9250215144035
 20
35.71663603018393
 30
0.0
 10
118.9988833516152
 20
35.78603295261686
 30
0.0
 10
119.066386409843
 20
35.84718627176028
 30
0.0
 10
119.1277559787742
 20
35.89990299911078
 30
0.0
 10
119.1832089757336
 20
35.94354861702269
 30
0.0
 10
119.2314887693367
 20
35.98037176110928
 30
0.0
 10
119.2629475747632
 20
36.00014476076754
 30
0.0
 10
119.2773023381488
 20
36.00916724994563
 30
0.0
  0
LINE
  5
B4
330
1F
100
AcDbEntity
  8
0
  6
Continuous
 62
     7
370
    25
100
AcDbLine
 10
118.3422061843
 20
35.1377730192
 30
0.0
 11
118.7604754151
 21
35.5560422499
 31
0.0
  0
LINE
  5
B5
330
1F
100
AcDbEntity
  8
0
  6
Continuous
 62
     7
370
    25
100
AcDbLine
 10
120.4419657997
 20
33.0380134038
 30
0.0
 11
118.3422061843
 21
35.1377730192
 31
0.0
  0
LINE
  5
B6
330
1F
100
AcDbEntity
  8
0
  6
Continuous
 62
     7
370
    25
100
AcDbLine
 10
120.6517013766
 20
33.2477489807
 30
0.0
 11
120.4419657997
 21
33.0380134038
 31
0.0
  0
SPLINE
  5
B7
330
1F
100
AcDbEntity
  8
0
  6
Continuous
 62
     7
370
    25
100
AcDbSpline
210
0.0
220
0.0
230
1.0
 70
     8
 71
     3
 72
    19
 73
    15
 74
     0
 42
0.000000001
 43
0.00000001
 40
0.0
 40
0.0
 40
0.0
 40
0.0
 40
0.1057289484176121
 40
0.2069129705617966
 40
0.305557993241363
 40
0.4022404034576855
 40
0.4942954987103589
 40
0.5780610980893164
 40
0.6557675958613727
 40
0.7279268856081794
 40
0.7976084712980799
 40
0.8651260054669643
 40
0.9319580036291375
 40
1.0
 40
1.0
 40
1.0
 40
1.0
 10
115.4649765042137
 20
36.69382764951521
 30
0.0
 10
115.4878868843658
 20
36.71805354808148
 30
0.0
 10
115.5327228056998
 20
36.76546395660152
 30
0.0
 10
115.5908833643448
 20
36.8424935363711
 30
0.0
 10
115.6392768320265
 20
36.92265035578073
 30
0.0
 10
115.6772752023006
 20
37.00504078874119
 30
0.0
 10
115.7057568029612
 20
37.08625325513871
 30
0.0
 10
115.7224551308586
 20
37.16463313980238
 30
0.0
 10
115.727799319002
 20
37.23835686293172
 30
0.0
 10
115.7212019348287
 20
37.30760562659693
 30
0.0
 10
115.7038225984505
 20
37.37149176121646
 30
0.0
 10
115.679467781956
 20
37.43121639167438
 30
0.0
 10
115.6453530718307
 20
37.48562620486658
 30
0.0
 10
115.6165343612553
 20
37.51696166624237
 30
0.0
 10
115.6019957349829
 20
37.53276995720752
 30
0.0
  0
LINE
  5
B8
330
1F
100
AcDbEntity
  8
0
  6
Continuous
 62
     7
370
    25
100
AcDbLine
 10
115.6572841965
 20
36.5015199572
 30
0.0
 11
115.4649765042
 21
36.6938276495
 31
0.0
  0
SPLINE
  5
B9
330
1F
100
AcDbEntity
  8
0
  6
Continuous
 62
     7
370
    25
100
AcDbSpline
210
0.0
220
0.0
230
1.0
 70
     8
 71
     3
 72
    23
 73
    19
 74
     0
 42
0.000000001
 43
0.00000001
 40
0.0
 40
0.0
 40
0.0
 40
0.0
 40
0.0703488477789896
 40
0.139628080233595
 40
0.2103430788637842
 40
0.2826861933598407
 40
0.3554925770820694
 40
0.4270637206804205
 40
0.4988235429721526
 40
0.5723889365327269
 40
0.6113453637448515
 40
0.6543900516773974
 40
0.7012892835300569
 40
0.7519446404334635
 40
0.8074317301970527
 40
0.8672605470112177
 40
0.931092779498862
 40
1.0
 40
1.0
 40
1.0
 40
1.0
 10
116.7312024657522
 20
36.65837091874599
 30
0.0
 10
116.7100782334501
 20
36.67763364150668
 30
0.0
 10
116.6681509511154
 20
36.71586620798166
 30
0.0
 10
116.5959028238165
 20
36.76219357741473
 30
0.0
 10
116.5167092847632
 20
36.7969205699947
 30
0.0
 10
116.4321410403457
 20
36.82070647001905
 30
0.0
 10
116.3448396580048
 20
36.83360060282098
 30
0.0
 10
116.2568382043233
 20
36.83335418385197
 30
0.0
 10
116.1693093170693
 20
36.82153602450285
 30
0.0
 10
116.0973729103866
 20
36.80002332455516
 30
0.0
 10
116.0389258938116
 20
36.7760571557695
 30
0.0
 10
115.992139705142
 20
36.75252440319446
 30
0.0
 10
115.94304484827
 20
36.72340070909222
 30
0.0
 10
115.8908772691813
 20
36.68964283866865
 30
0.0
 10
115.8366149946235
 20
36.64969125925624
 30
0.0
 10
115.778978390559
 20
36.6053737638155
 30
0.0
 10
115.7184539679934
 20
36.55589454706013
 30
0.0
 10
115.6781872883397
 20
36.52010098206544
 30
0.0
 10
115.6572841965214
 20
36.50151995720752
 30
0.0
  0
SPLINE
  5
BA
330
1F
100
AcDbEntity
  8
0
  6
Continuous
 62
     7
370
    25
100
AcDbSpline
210
0.0
220
0.0
230
1.0
 70
     8
 71
     3
 72
    23
 73
    19
 74
     0
 42
0.000000001
 43
0.00000001
 40
0.0
 40
0.0
 40
0.0
 40
0.0
 40
0.0730680158386374
 40
0.1430722448992375
 40
0.2104157717152759
 40
0.2758231607745295
 40
0.338739629807794
 40
0.4018415148770468
 40
0.464698535264879
 40
0.5278596385078609
 40
0.5904135880675629
 40
0.651199405364936
 40
0.7101059465004965
 40
0.7678237372418046
 40
0.8250128290906081
 40
0.8820655679442739
 40
0.9403393445630305
 40
1.0
 40
1.0
 40
1.0
 40
1.0
 10
116.6837265042137
 20
35.69502957259213
 30
0.0
 10
116.7019318843674
 20
35.71393045645424
 30
0.0
 10
116.7375792819044
 20
35.75093969851032
 30
0.0
 10
116.7836308556852
 20
35.81094941576347
 30
0.0
 10
116.8238742716403
 20
35.87166584725389
 30
0.0
 10
116.8563592147807
 20
35.93408891761129
 30
0.0
 10
116.881414742456
 20
35.99820543944687
 30
0.0
 10
116.8992244043393
 20
36.06370339607605
 30
0.0
 10
116.9112079375513
 20
36.13067201322185
 30
0.0
 10
116.91413116331
 20
36.19842307908986
 30
0.0
 10
116.9120457033272
 20
36.26539544544141
 30
0.0
 10
116.9034822575303
 20
36.33033823746077
 30
0.0
 10
116.8898734835899
 20
36.39263224338864
 30
0.0
 10
116.869951612442
 20
36.45188900414109
 30
0.0
 10
116.8439054255267
 20
36.50796862655678
 30
0.0
 10
116.8123307960877
 20
36.56131588017543
 30
0.0
 10
116.7752015397135
 20
36.61217801343305
 30
0.0
 10
116.7459833565314
 20
36.64285304014688
 30
0.0
 10
116.7312024657522
 20
36.65837091874599
 30
0.0
  0
SPLINE
  5
BB
330
1F
100
AcDbEntity
  8
0
  6
Continuous
 62
     7
370
    25
100
AcDbSpline
210
0.0
220
0.0
230
1.0
 70
     8
 71
     3
 72
    15
 73
    11
 74
     0
 42
0.000000001
 43
0.00000001
 40
0.0
 40
0.0
 40
0.0
 40
0.0
 40
0.1203457795138441
 40
0.2388232513984639
 40
0.3594485260350544
 40
0.4804570524015699
 40
0.602883493191465
 40
0.7310108502422924
 40
0.8625425629612502
 40
1.0
 40
1.0
 40
1.0
 40
1.0
 10
116.2372120811368
 20
35.47928438028444
 30
0.0
 10
116.2574928535973
 20
35.48110968292427
 30
0.0
 10
116.2977395497377
 20
35.48473195129954
 30
0.0
 10
116.3574534738476
 20
35.49690920260042
 30
0.0
 10
116.415478741336
 20
35.51571990158567
 30
0.0
 10
116.4722038950449
 20
35.53984022601486
 30
0.0
 10
116.5276525567368
 20
35.56962269332581
 30
0.0
 10
116.5813041316344
 20
35.6057661348512
 30
0.0
 10
116.6341457242455
 20
35.64737124211804
 30
0.0
 10
116.6669586258203
 20
35.6789118533805
 30
0.0
 10
116.6837265042137
 20
35.69502957259213
 30
0.0
  0
SPLINE
  5
BC
330
1F
100
AcDbEntity
  8
0
  6
Continuous
 62
     7
370
    25
100
AcDbSpline
210
0.0
220
0.0
230
1.0
 70
     8
 71
     3
 72
    15
 73
    11
 74
     0
 42
0.000000001
 43
0.00000001
 40
0.0
 40
0.0
 40
0.0
 40
0.0
 40
0.1516443853000921
 40
0.2942091114866407
 40
0.4291745983467759
 40
0.556575911727435
 40
0.6762246047064512
 40
0.7899405813610038
 40
0.897088535276769
 40
1.0
 40
1.0
 40
1.0
 40
1.0
 10
115.7858899657522
 20
35.61930841874599
 30
0.0
 10
115.8070169982651
 20
35.60748819433638
 30
0.0
 10
115.8480060889702
 20
35.5845554776767
 30
0.0
 10
115.9095601113127
 20
35.5544240275394
 30
0.0
 10
115.9689637812363
 20
35.52883707347434
 30
0.0
 10
116.0267207714672
 20
35.50912795047745
 30
0.0
 10
116.082278567705
 20
35.49383444704799
 30
0.0
 10
116.1356816559185
 20
35.48342642830512
 30
0.0
 10
116.187232781337
 20
35.47832119721738
 30
0.0
 10
116.2207778272759
 20
35.47896766526238
 30
0.0
 10
116.2372120811368
 20
35.47928438028444
 30
0.0
  0
LINE
  5
BD
330
1F
100
AcDbEntity
  8
0
  6
Continuous
 62
     7
370
    25
100
AcDbLine
 10
115.5803611196
 20
35.4137795726
 30
0.0
 11
115.7858899658
 21
35.6193084187
 31
0.0
  0
SPLINE
  5
BE
330
1F
100
AcDbEntity
  8
0
  6
Continuous
 62
     7
370
    25
100
AcDbSpline
210
0.0
220
0.0
230
1.0
 70
     8
 71
     3
 72
    23
 73
    19
 74
     0
 42
0.000000001
 43
0.00000001
 40
0.0
 40
0.0
 40
0.0
 40
0.0
 40
0.0651136382987997
 40
0.1282185933053529
 40
0.1894734259769019
 40
0.2489956462554719
 40
0.3072701941117207
 40
0.3652120214271439
 40
0.423058650276389
 40
0.4816341671326471
 40
0.5406263849922192
 40
0.6002014930275462
 40
0.6609241575761039
 40
0.7233279014169866
 40
0.7879045943012336
 40
0.8556533482834988
 40
0.9258587867477687
 40
1.0
 40
1.0
 40
1.0
 40
1.0
 10
116.8850486195983
 20
35.48769784182291
 30
0.0
 10
116.8625402402217
 20
35.4660977897798
 30
0.0
 10
116.8182178399282
 20
35.42356402326563
 30
0.0
 10
116.7470799014254
 20
35.36700316718211
 30
0.0
 10
116.6736786090713
 20
35.31816769181491
 30
0.0
 10
116.5982935245477
 20
35.27707074289669
 30
0.0
 10
116.5209132461447
 20
35.243616755319
 30
0.0
 10
116.441281739711
 20
35.21855898873009
 30
0.0
 10
116.3597075790494
 20
35.20021549520016
 30
0.0
 10
116.2761751702888
 20
35.18998820519699
 30
0.0
 10
116.1912186057314
 20
35.18822656652443
 30
0.0
 10
116.1054818020012
 20
35.19492550875366
 30
0.0
 10
116.0191781016232
 20
35.21010483584156
 30
0.0
 10
115.9323467844657
 20
35.23378757869584
 30
0.0
 10
115.8446432258284
 20
35.26584692630075
 30
0.0
 10
115.7567368754892
 20
35.30702671716348
 30
0.0
 10
115.6675003729226
 20
35.3557748474208
 30
0.0
 10
115.6099307708203
 20
35.39409637096819
 30
0.0
 10
115.5803611195983
 20
35.41377957259214
 30
0.0
  0
SPLINE
  5
BF
330
1F
100
AcDbEntity
  8
0
  6
Continuous
 62
     7
370
    25
100
AcDbSpline
210
0.0
220
0.0
230
1.0
 70
     8
 71
     3
 72
    19
 73
    15
 74
     0
 42
0.000000001
 43
0.00000001
 40
0.0
 40
0.0
 40
0.0
 40
0.0
 40
0.080576436103305
 40
0.160371490665394
 40
0.2414880191094218
 40
0.3250087558576585
 40
0.4089616532479635
 40
0.4906870084144028
 40
0.5725768746389615
 40
0.6557926854219235
 40
0.7398417121155406
 40
0.8240764552485731
 40
0.9104351150664252
 40
1.0
 40
1.0
 40
1.0
 40
1.0
 10
116.9205053503675
 20
36.88252957259214
 30
0.0
 10
116.9488488579944
 20
36.85180924340685
 30
0.0
 10
117.0052610150546
 20
36.79066649220776
 30
0.0
 10
117.074108508217
 20
36.68553441740432
 30
0.0
 10
117.1290623191447
 20
36.57111177970696
 30
0.0
 10
117.1694779069586
 20
36.44848709393987
 30
0.0
 10
117.194987236816
 20
36.32157820225922
 30
0.0
 10
117.2024328174469
 20
36.19308931606146
 30
0.0
 10
117.1912547385168
 20
36.06529734254045
 30
0.0
 10
117.1629142343404
 20
35.9390013308212
 30
0.0
 10
117.1177835853524
 20
35.8163655550844
 30
0.0
 10
117.0563170371549
 20
35.6992922244253
 30
0.0
 10
116.9790706889285
 20
35.58826112028391
 30
0.0
 10
116.916767801601
 20
35.52162375895078
 30
0.0
 10
116.8850486195983
 20
35.48769784182291
 30
0.0
  0
SPLINE
  5
C0
330
1F
100
AcDbEntity
  8
0
  6
Continuous
 62
     7
370
    25
100
AcDbSpline
210
0.0
220
0.0
230
1.0
 70
     8
 71
     3
 72
    15
 73
    11
 74
     0
 42
0.000000001
 43
0.00000001
 40
0.0
 40
0.0
 40
0.0
 40
0.0
 40
0.1308828194382181
 40
0.258259665309488
 40
0.3832751894435328
 40
0.5061956902646068
 40
0.6278103920359801
 40
0.7505216511654043
 40
0.8741562318766931
 40
1.0
 40
1.0
 40
1.0
 40
1.0
 10
116.4096880426752
 20
37.11930841874599
 30
0.0
 10
116.4345871258393
 20
37.11629627536661
 30
0.0
 10
116.4837183174813
 20
37.11035267524889
 30
0.0
 10
116.5556037507787
 20
37.09471402308917
 30
0.0
 10
116.6240987366842
 20
37.0726826582015
 30
0.0
 10
116.6900778464518
 20
37.0467261806783
 30
0.0
 10
116.7522287965543
 20
37.01353582855477
 30
0.0
 10
116.8120201722413
 20
36.97604599791825
 30
0.0
 10
116.8679942338878
 20
36.93165628197201
 30
0.0
 10
116.9028986161315
 20
36.89900153079692
 30
0.0
 10
116.9205053503675
 20
36.88252957259214
 30
0.0
  0
SPLINE
  5
C1
330
1F
100
AcDbEntity
  8
0
  6
Continuous
 62
     7
370
    25
100
AcDbSpline
210
0.0
220
0.0
230
1.0
 70
     8
 71
     3
 72
    11
 73
     7
 74
     0
 42
0.000000001
 43
0.00000001
 40
0.0
 40
0.0
 40
0.0
 40
0.0
 40
0.2579472690479108
 40
0.5087322070443625
 40
0.754103268007024
 40
1.0
 40
1.0
 40
1.0
 40
1.0
 10
115.9818034272906
 20
37.05079880336137
 30
0.0
 10
116.016986043685
 20
37.06426515560709
 30
0.0
 10
116.0863743731445
 20
37.09082394463434
 30
0.0
 10
116.1939714428905
 20
37.11555621429164
 30
0.0
 10
116.3021957774385
 20
37.12563903757523
 30
0.0
 10
116.3738317367331
 20
37.12142012980765
 30
0.0
 10
116.4096880426752
 20
37.11930841874599
 30
0.0
  0
SPLINE
  5
C2
330
1F
100
AcDbEntity
  8
0
  6
Continuous
 62
     7
370
    25
100
AcDbSpline
210
0.0
220
0.0
230
1.0
 70
     8
 71
     3
 72
    15
 73
    11
 74
     0
 42
0.000000001
 43
0.00000001
 40
0.0
 40
0.0
 40
0.0
 40
0.0
 40
0.12421961787181
 40
0.2437921031270657
 40
0.3610694411538696
 40
0.4785415562187783
 40
0.5994738985980935
 40
0.7254247600032049
 40
0.8584023739957897
 40
1.0
 40
1.0
 40
1.0
 40
1.0
 10
115.8219476580599
 20
37.7503180341306
 30
0.0
 10
115.8432749286247
 20
37.72744838933051
 30
0.0
 10
115.8851316033918
 20
37.68256466726547
 30
0.0
 10
115.9352421091611
 20
37.60637115200756
 30
0.0
 10
115.9736505391728
 20
37.52572319427383
 30
0.0
 10
115.9998079394899
 20
37.43984802899278
 30
0.0
 10
116.0132268628435
 20
37.34897327263262
 30
0.0
 10
116.0157288003473
 20
37.25328665474046
 30
0.0
 10
116.0051080505572
 20
37.15284580631334
 30
0.0
 10
115.9897325346377
 20
37.08551902310489
 30
0.0
 10
115.9818034272906
 20
37.05079880336137
 30
0.0
  0
SPLINE
  5
C3
330
1F
100
AcDbEntity
  8
0
  6
Continuous
 62
     7
370
    25
100
AcDbSpline
210
0.0
220
0.0
230
1.0
 70
     8
 71
     3
 72
    19
 73
    15
 74
     0
 42
0.000000001
 43
0.00000001
 40
0.0
 40
0.0
 40
0.0
 40
0.0
 40
0.0895929914958808
 40
0.1777045492777578
 40
0.264879662896191
 40
0.3531465390832668
 40
0.440595871177607
 40
0.5246598301314999
 40
0.6068103143079139
 40
0.6891287180192628
 40
0.77004310832735
 40
0.8475352562635294
 40
0.9237274558445455
 40
1.0
 40
1.0
 40
1.0
 40
1.0
 10
114.6753130426752
 20
37.68901995720752
 30
0.0
 10
114.7031839273507
 20
37.71494006088758
 30
0.0
 10
114.7584648473929
 20
37.76635167539882
 30
0.0
 10
114.850973468238
 20
37.83102611968876
 30
0.0
 10
114.9507318233673
 20
37.8822216222633
 30
0.0
 10
115.0553121461084
 20
37.92185538287731
 30
0.0
 10
115.1626699068639
 20
37.94819215825621
 30
0.0
 10
115.2699279513168
 20
37.9608018815746
 30
0.0
 10
115.375769908669
 20
37.95768734642104
 30
0.0
 10
115.4786848713791
 20
37.93999971438611
 30
0.0
 10
115.5768911057876
 20
37.91058369230166
 30
0.0
 10
115.6673140562905
 20
37.86831901184085
 30
0.0
 10
115.7505598407987
 20
37.81640785636052
 30
0.0
 10
115.7981433605866
 20
37.77235571294857
 30
0.0
 10
115.8219476580599
 20
37.7503180341306
 30
0.0
  0
SPLINE
  5
C4
330
1F
100
AcDbEntity
  8
0
  6
Continuous
 62
     7
370
    25
100
AcDbSpline
210
0.0
220
0.0
230
1.0
 70
     8
 71
     3
 72
    23
 73
    19
 74
     0
 42
0.000000001
 43
0.00000001
 40
0.0
 40
0.0
 40
0.0
 40
0.0
 40
0.0731350659025822
 40
0.1433188428756373
 40
0.2106501399906879
 40
0.2762700695936495
 40
0.3395547839766537
 40
0.4016838389936605
 40
0.4628588934626659
 40
0.5234847455120768
 40
0.5835961311287838
 40
0.6426304656932164
 40
0.7011635571821346
 40
0.7595409545756663
 40
0.8177915440987423
 40
0.8770624362120503
 40
0.9375567908908979
 40
1.0
 40
1.0
 40
1.0
 40
1.0
 10
114.5995918888291
 20
36.53397188028444
 30
0.0
 10
114.5834800664765
 20
36.56014802392455
 30
0.0
 10
114.551906597475
 20
36.61144400036413
 30
0.0
 10
114.5137432730109
 20
36.69134583109692
 30
0.0
 10
114.4793680771518
 20
36.76951949750462
 30
0.0
 10
114.4549252352818
 20
36.84833359578946
 30
0.0
 10
114.4352865637417
 20
36.9262318328428
 30
0.0
 10
114.4252406150597
 20
37.00405671860223
 30
0.0
 10
114.4195960612598
 20
37.08118471144204
 30
0.0
 10
114.4230547649873
 20
37.15766100875015
 30
0.0
 10
114.4326531600716
 20
37.23260349527845
 30
0.0
 10
114.448091299561
 20
37.30572244406523
 30
0.0
 10
114.4706001661295
 20
37.37621528444316
 30
0.0
 10
114.4987885725355
 20
37.44425033149853
 30
0.0
 10
114.5332556563416
 20
37.50973102778504
 30
0.0
 10
114.5744964526643
 20
37.57217890083749
 30
0.0
 10
114.6213018653108
 20
37.63287850234318
 30
0.0
 10
114.6571200489268
 20
37.67010940596211
 30
0.0
 10
114.6753130426752
 20
37.68901995720752
 30
0.0
  0
LINE
  5
C5
330
1F
100
AcDbEntity
  8
0
  6
Continuous
 62
     7
370
    25
100
AcDbLine
 10
114.8141351581
 20
36.7485151495
 30
0.0
 11
114.5995918888
 21
36.5339718803
 31
0.0
  0
SPLINE
  5
C6
330
1F
100
AcDbEntity
  8
0
  6
Continuous
 62
     7
370
    25
100
AcDbSpline
210
0.0
220
0.0
230
1.0
 70
     8
 71
     3
 72
    19
 73
    15
 74
     0
 42
0.000000001
 43
0.00000001
 40
0.0
 40
0.0
 40
0.0
 40
0.0
 40
0.1167675801713191
 40
0.228077562719939
 40
0.3372206510249978
 40
0.4461255525158012
 40
0.5021574110359222
 40
0.5618439075693561
 40
0.6241640260185535
 40
0.6909917051104401
 40
0.7609854225273328
 40
0.8362480651247746
 40
0.9153845753823191
 40
0.9999999999999999
 40
0.9999999999999999
 40
0.9999999999999999
 40
0.9999999999999999
 10
114.8796399657522
 20
37.4846930341306
 30
0.0
 10
114.8586353433268
 20
37.46187717431632
 30
0.0
 10
114.8176078331088
 20
37.41731184470887
 30
0.0
 10
114.770015903787
 20
37.34090052513223
 30
0.0
 10
114.7373506969329
 20
37.25953631893977
 30
0.0
 10
114.7216508696701
 20
37.18808542805552
 30
0.0
 10
114.7180455858574
 20
37.128572189597
 30
0.0
 10
114.7183249040369
 20
37.0812983558443
 30
0.0
 10
114.724198824236
 20
37.03148876233951
 30
0.0
 10
114.7339247534525
 20
36.97957105754154
 30
0.0
 10
114.7471231685463
 20
36.92486284918068
 30
0.0
 10
114.7653000470475
 20
36.86816222860045
 30
0.0
 10
114.7877300708915
 20
36.80885703025241
 30
0.0
 10
114.8051392993956
 20
36.76907281808821
 30
0.0
 10
114.8141351580599
 20
36.74851514951521
 30
0.0
  0
SPLINE
  5
C7
330
1F
100
AcDbEntity
  8
0
  6
Continuous
 62
     7
370
    25
100
AcDbSpline
210
0.0
220
0.0
230
1.0
 70
     8
 71
     3
 72
    23
 73
    19
 74
     0
 42
0.000000001
 43
0.00000001
 40
0.0
 40
0.0
 40
0.0
 40
0.0
 40
0.0591437275897559
 40
0.1167150890705871
 40
0.1741558975962605
 40
0.2309492319425775
 40
0.2887375262637099
 40
0.3472383681560688
 40
0.4086788038810786
 40
0.4720661100984868
 40
0.536476033679657
 40
0.6002438377181533
 40
0.6632439347766345
 40
0.7270901793882614
 40
0.7924599631338877
 40
0.8592686518663307
 40
0.9282156920095006
 40
1.0
 40
1.0
 40
1.0
 40
1.0
 10
115.6019957349829
 20
37.53276995720752
 30
0.0
 10
115.5903676291906
 20
37.54360538242378
 30
0.0
 10
115.5674205567183
 20
37.56498816756043
 30
0.0
 10
115.5298539145557
 20
37.59308639128525
 30
0.0
 10
115.489537023966
 20
37.61578385932219
 30
0.0
 10
115.446964878046
 20
37.63393766079371
 30
0.0
 10
115.4025105393408
 20
37.64788626028984
 30
0.0
 10
115.3555193552274
 20
37.65678666233882
 30
0.0
 10
115.3064431525118
 20
37.66164739879861
 30
0.0
 10
115.2555304242545
 20
37.66152719664737
 30
0.0
 10
115.2042129487237
 20
37.65681697159023
 30
0.0
 10
115.1536977398512
 20
37.64718943140755
 30
0.0
 10
115.1044221388606
 20
37.63284181440306
 30
0.0
 10
115.056941866318
 20
37.61237249372787
 30
0.0
 10
115.0098032021883
 20
37.58877684114371
 30
0.0
 10
114.9645507777227
 20
37.55902023176822
 30
0.0
 10
114.9212989496835
 20
37.52373622042036
 30
0.0
 10
114.8937116882202
 20
37.49788118299769
 30
0.0
 10
114.8796399657522
 20
37.4846930341306
 30
0.0
  0
SPLINE
  5
C8
330
1F
100
AcDbEntity
  8
0
  6
Continuous
 62
     7
370
    25
100
AcDbSpline
210
0.0
220
0.0
230
1.0
 70
     8
 71
     3
 72
    31
 73
    27
 74
     0
 42
0.000000001
 43
0.00000001
 40
0.0
 40
0.0
 40
0.0
 40
0.0
 40
0.0340625437668023
 40
0.0673138855976699
 40
0.1002986917293195
 40
0.1328915753415363
 40
0.1654542126705893
 40
0.1984564401369067
 40
0.231559282490288
 40
0.2655034986764517
 40
0.2998732210996858
 40
0.3348750234665335
 40
0.3704365550514274
 40
0.4070493254137256
 40
0.4446490562916619
 40
0.4836382628524704
 40
0.5240535084233169
 40
0.5661466743313502
 40
0.6102573304114862
 40
0.6569339262658018
 40
0.7066268298851165
 40
0.7589305312314925
 40
0.814297716023405
 40
0.8730747594856018
 40
0.9349497890039754
 40
1.0
 40
1.0
 40
1.0
 40
1.0
 10
116.8480031611982
 20
39.66743635111725
 30
0.0
 10
116.8651472346986
 20
39.68398577455721
 30
0.0
 10
116.8990270943527
 20
39.7166904957246
 30
0.0
 10
116.9544630508073
 20
39.75977437636313
 30
0.0
 10
117.0112414796308
 20
39.79923470484847
 30
0.0
 10
117.071167599602
 20
39.83282877412405
 30
0.0
 10
117.1333607384683
 20
39.86197778488626
 30
0.0
 10
117.198181244206
 20
39.8857794641236
 30
0.0
 10
117.2654189552945
 20
39.9052340108135
 30
0.0
 10
117.3349219474166
 20
39.91964768624675
 30
0.0
 10
117.4066553840864
 20
39.92851849348916
 30
0.0
 10
117.4800041560077
 20
39.93252731930623
 30
0.0
 10
117.5549259902503
 20
39.92892121156972
 30
0.0
 10
117.6312996107968
 20
39.92082387552657
 30
0.0
 10
117.7090686407474
 20
39.9058526620409
 30
0.0
 10
117.7885945187927
 20
39.88645300342589
 30
0.0
 10
117.8691486511333
 20
39.85930159940951
 30
0.0
 10
117.9518109653328
 20
39.82759352080537
 30
0.0
 10
118.0364453745695
 20
39.78910270473538
 30
0.0
 10
118.1225784123045
 20
39.74175495963451
 30
0.0
 10
118.2105107327279
 20
39.68627964070004
 30
0.0
 10
118.3010708934168
 20
39.62374808333265
 30
0.0
 10
118.3930356445677
 20
39.5523770678992
 30
0.0
 10
118.4871412980342
 20
39.47306446087536
 30
0.0
 10
118.5834235308525
 20
39.38592785338475
 30
0.0
 10
118.6467021602131
 20
39.32371829218721
 30
0.0
 10
118.6791329688905
 20
39.29183538957879
 30
0.0
  0
SPLINE
  5
C9
330
1F
100
AcDbEntity
  8
0
  6
Continuous
 62
     7
370
    25
100
AcDbSpline
210
0.0
220
0.0
230
1.0
 70
     8
 71
     3
 72
    31
 73
    27
 74
     0
 42
0.000000001
 43
0.00000001
 40
0.0
 40
0.0
 40
0.0
 40
0.0
 40
0.0685392375563686
 40
0.1330574173017167
 40
0.193631077183116
 40
0.2505306821562903
 40
0.3036142074401768
 40
0.3534609049693048
 40
0.3995800908164908
 40
0.4424160216489259
 40
0.483072382412463
 40
0.5220229044503063
 40
0.5599473210514605
 40
0.5966633013156782
 40
0.6323728579706365
 40
0.6673061936474427
 40
0.7019513182513507
 40
0.7359417873892768
 40
0.7694887228848918
 40
0.8027329281118957
 40
0.8353134843410183
 40
0.8678314089480395
 40
0.9002481012228696
 40
0.9330513656415884
 40
0.9661186419532682
 40
1.0
 40
1.0
 40
1.0
 40
1.0
 10
117.2458396996597
 20
37.85854212034803
 30
0.0
 10
117.2123541868567
 20
37.89237335145719
 30
0.0
 10
117.1473476882517
 20
37.95805100408387
 30
0.0
 10
117.0565695992463
 20
38.05730137973692
 30
0.0
 10
116.9746095001293
 20
38.15354433130473
 30
0.0
 10
116.9013442447551
 20
38.24663871012429
 30
0.0
 10
116.8358459790444
 20
38.33629686963162
 30
0.0
 10
116.7794664916686
 20
38.42316227171185
 30
0.0
 10
116.7314453271955
 20
38.50681715802784
 30
0.0
 10
116.6926054824405
 20
38.58811779602014
 30
0.0
 10
116.6615004755543
 20
38.66730272199997
 30
0.0
 10
116.6352542552487
 20
38.74462663336035
 30
0.0
 10
116.6147148872302
 20
38.82085260239059
 30
0.0
 10
116.6001141487322
 20
38.89616320976307
 30
0.0
 10
116.5918327282914
 20
38.97031841296103
 30
0.0
 10
116.5885036138249
 20
39.04343613777922
 30
0.0
 10
116.5916960682051
 20
39.11537176792341
 30
0.0
 10
116.5999775290743
 20
39.18591900514878
 30
0.0
 10
116.6140043124433
 20
39.25456194897932
 30
0.0
 10
116.6324564524657
 20
39.32111009290006
 30
0.0
 10
116.6558731820538
 20
39.38537577164374
 30
0.0
 10
116.6851288082134
 20
39.44651554333604
 30
0.0
 10
116.7179585991223
 20
39.50601531256853
 30
0.0
 10
116.7568759010151
 20
39.56216963486447
 30
0.0
 10
116.7993444992529
 20
39.61701331732867
 30
0.0
 10
116.8316526536942
 20
39.65049297126725
 30
0.0
 10
116.8480031611982
 20
39.66743635111725
 30
0.0
  0
SPLINE
  5
CA
330
1F
100
AcDbEntity
  8
0
  6
Continuous
 62
     7
370
    25
100
AcDbSpline
210
0.0
220
0.0
230
1.0
 70
     8
 71
     3
 72
    31
 73
    27
 74
     0
 42
0.000000001
 43
0.00000001
 40
0.0
 40
0.0
 40
0.0
 40
0.0
 40
0.0339161406116254
 40
0.0667911467684396
 40
0.09962808698232
 40
0.1318265592299254
 40
0.1643778667025713
 40
0.1967210286892329
 40
0.2297213409237039
 40
0.2630197127526299
 40
0.2967583839686783
 40
0.3311505724363448
 40
0.3661197706371223
 40
0.4018997925665818
 40
0.4386534654157431
 40
0.4765431671037201
 40
0.5160815487196687
 40
0.5571548844457241
 40
0.6004200138433164
 40
0.6470895029678524
 40
0.6968308887516992
 40
0.7500347714651303
 40
0.8069927895101678
 40
0.8674089097323786
 40
0.9317987325696282
 40
1.0
 40
1.0
 40
1.0
 40
1.0
 10
119.053532007352
 20
37.46190750496341
 30
0.0
 10
119.0365609583691
 20
37.44559264002633
 30
0.0
 10
119.0031398260413
 20
37.4134637327017
 30
0.0
 10
118.9488359971559
 20
37.37055839559485
 30
0.0
 10
118.8927805322457
 20
37.33208553674582
 30
0.0
 10
118.8337223083099
 20
37.29883777575391
 30
0.0
 10
118.7728056308019
 20
37.26994178024017
 30
0.0
 10
118.7090294254637
 20
37.24633447430637
 30
0.0
 10
118.6430628355002
 20
37.22791561439859
 30
0.0
 10
118.5750248300997
 20
37.21388396115915
 30
0.0
 10
118.5050732965749
 20
37.2055846348965
 30
0.0
 10
118.4335441910673
 20
37.20246013338301
 30
0.0
 10
118.3605750953184
 20
37.2055405789007
 30
0.0
 10
118.2865051173646
 20
37.21479814431478
 30
0.0
 10
118.211236713926
 20
37.22930586201745
 30
0.0
 10
118.1345092548886
 20
37.24922705927057
 30
0.0
 10
118.0564552016105
 20
37.2751980443937
 30
0.0
 10
117.9766011480076
 20
37.30712382303461
 30
0.0
 10
117.8947554594663
 20
37.34679136003624
 30
0.0
 10
117.8101768982201
 20
37.39419927190443
 30
0.0
 10
117.7229536460259
 20
37.45055830585589
 30
0.0
 10
117.6326249601213
 20
37.51501287994262
 30
0.0
 10
117.5396990557642
 20
37.58836086659642
 30
0.0
 10
117.4441700532459
 20
37.67069180214089
 30
0.0
 10
117.3447273424659
 20
37.76040767430454
 30
0.0
 10
117.2794279430068
 20
37.82520970832062
 30
0.0
 10
117.2458396996597
 20
37.85854212034803
 30
0.0
  0
SPLINE
  5
CB
330
1F
100
AcDbEntity
  8
0
  6
Continuous
 62
     7
370
    25
100
AcDbSpline
210
0.0
220
0.0
230
1.0
 70
     8
 71
     3
 72
    31
 73
    27
 74
     0
 42
0.000000001
 43
0.00000001
 40
0.0
 40
0.0
 40
0.0
 40
0.0
 40
0.0650931380611512
 40
0.1266039765373226
 40
0.1850158110860341
 40
0.2401927525856705
 40
0.2926948785080097
 40
0.3417823620468381
 40
0.388238232793063
 40
0.4321173744957395
 40
0.4739710174663261
 40
0.5141406009624558
 40
0.5528774178269759
 40
0.5905019610163778
 40
0.6271388923883595
 40
0.6630104030816908
 40
0.6983217028166657
 40
0.7329986161773792
 40
0.7672460775099881
 40
0.8006463810336941
 40
0.8339394285304621
 40
0.8667836833964285
 40
0.8993980752684351
 40
0.9326416935233396
 40
0.9659149781349369
 40
1.0
 40
1.0
 40
1.0
 40
1.0
 10
118.6791329688905
 20
39.29183538957879
 30
0.0
 10
118.7110165293487
 20
39.25940549058717
 30
0.0
 10
118.773028988118
 20
39.19633042164234
 30
0.0
 10
118.8597895146088
 20
39.10046661676395
 30
0.0
 10
118.9384624184093
 20
39.0067708728239
 30
0.0
 10
119.0099549662431
 20
38.91532943732261
 30
0.0
 10
119.0727568167621
 20
38.82554398458976
 30
0.0
 10
119.1279127155205
 20
38.73800937391198
 30
0.0
 10
119.1752016845548
 20
38.65276810097329
 30
0.0
 10
119.2136772622099
 20
38.56872210068233
 30
0.0
 10
119.2453950959953
 20
38.48666309744554
 30
0.0
 10
119.2725343833595
 20
38.40670899963927
 30
0.0
 10
119.2920256217749
 20
38.32759890206234
 30
0.0
 10
119.3069071060574
 20
38.25000925781907
 30
0.0
 10
119.3150483980969
 20
38.17343955695535
 30
0.0
 10
119.3186174212807
 20
38.09811472156399
 30
0.0
 10
119.3146149998557
 20
38.0241677676734
 30
0.0
 10
119.3057437562309
 20
37.95183455830059
 30
0.0
 10
119.2913268309453
 20
37.8817342844265
 30
0.0
 10
119.2718848784804
 20
37.81389049042751
 30
0.0
 10
119.2480470274637
 20
37.74849274998797
 30
0.0
 10
119.2191065575554
 20
37.68578133303316
 30
0.0
 10
119.1851272642104
 20
37.62568148148354
 30
0.0
 10
119.1460763010182
 20
37.56842817592378
 30
0.0
 10
119.1027592692067
 20
37.51294948211273
 30
0.0
 10
119.0700723981703
 20
37.47905764125733
 30
0.0
 10
119.053532007352
 20
37.46190750496341
 30
0.0
  0
SPLINE
  5
CC
330
1F
100
AcDbEntity
  8
0
  6
Continuous
 62
     7
370
    25
100
AcDbSpline
210
0.0
220
0.0
230
1.0
 70
     8
 71
     3
 72
    15
 73
    11
 74
     0
 42
0.000000001
 43
0.00000001
 40
0.0
 40
0.0
 40
0.0
 40
0.0
 40
0.1099847056450849
 40
0.2240098420297774
 40
0.3417046373339413
 40
0.4641704618794936
 40
0.5906562692884738
 40
0.7222624860498262
 40
0.8584596182455002
 40
1.0
 40
1.0
 40
1.0
 40
1.0
 10
118.9477627765828
 20
38.47272481265571
 30
0.0
 10
118.9350021259682
 20
38.49810305012806
 30
0.0
 10
118.9090120456964
 20
38.54979182752516
 30
0.0
 10
118.86442761459
 20
38.62602097442485
 30
0.0
 10
118.8139393383044
 20
38.70229333740409
 30
0.0
 10
118.7599577330574
 20
38.78013204637318
 30
0.0
 10
118.698319880464
 20
38.85672734927081
 30
0.0
 10
118.6332843373287
 20
38.93507217678292
 30
0.0
 10
118.5620839928992
 20
39.0132585605791
 30
0.0
 10
118.5118331245555
 20
39.06443352668201
 30
0.0
 10
118.4862243150444
 20
39.09051327419417
 30
0.0
  0
SPLINE
  5
CD
330
1F
100
AcDbEntity
  8
0
  6
Continuous
 62
     7
370
    25
100
AcDbSpline
210
0.0
220
0.0
230
1.0
 70
     8
 71
     3
 72
    27
 73
    23
 74
     0
 42
0.000000001
 43
0.00000001
 40
0.0
 40
0.0
 40
0.0
 40
0.0
 40
0.0739414287635761
 40
0.1432995467909238
 40
0.2078367058012861
 40
0.268154271998974
 40
0.3240444974500776
 40
0.375683325039609
 40
0.4227992035769721
 40
0.4659844474241323
 40
0.5062690802671607
 40
0.5452440815941552
 40
0.582932628734493
 40
0.6191703782421355
 40
0.6542106995986451
 40
0.6889160634209303
 40
0.7228008900413521
 40
0.7560829642487452
 40
0.8208193220025547
 40
0.8819250721784662
 40
0.9410367321203931
 40
1.0
 40
1.0
 40
1.0
 40
1.0
 10
117.4489646996597
 20
38.05325365880956
 30
0.0
 10
117.4778080628976
 20
38.02459531030733
 30
0.0
 10
117.5337069135018
 20
37.96905502090775
 30
0.0
 10
117.6180999716244
 20
37.8919795266441
 30
0.0
 10
117.6979404686189
 20
37.82104504126174
 30
0.0
 10
117.7749073027895
 20
37.75815427965178
 30
0.0
 10
117.8479744161951
 20
37.70171290586453
 30
0.0
 10
117.9183920903667
 20
37.654006282297
 30
0.0
 10
117.9844327437595
 20
37.61233369733863
 30
0.0
 10
118.0481850627746
 20
37.57913765622133
 30
0.0
 10
118.1097445506462
 20
37.55181827225602
 30
0.0
 10
118.1697993201221
 20
37.52872772616854
 30
0.0
 10
118.2292549698173
 20
37.51066104698368
 30
0.0
 10
118.2877484965105
 20
37.49751971662376
 30
0.0
 10
118.3453119272579
 20
37.48813161533511
 30
0.0
 10
118.4022182090899
 20
37.48394870819037
 30
0.0
 10
118.4582858833747
 20
37.48464288086713
 30
0.0
 10
118.5305921418417
 20
37.49092768741241
 30
0.0
 10
118.6166648035453
 20
37.50869987974293
 30
0.0
 10
118.712300657735
 20
37.54425195211967
 30
0.0
 10
118.7983407144633
 20
37.59374417744399
 30
0.0
 10
118.8466936272927
 20
37.63728155757303
 30
0.0
 10
118.8708396996597
 20
37.65902288957879
 30
0.0
  0
SPLINE
  5
CE
330
1F
100
AcDbEntity
  8
0
  6
Continuous
 62
     7
370
    25
100
AcDbSpline
210
0.0
220
0.0
230
1.0
 70
     8
 71
     3
 72
    27
 73
    23
 74
     0
 42
0.000000001
 43
0.00000001
 40
0.0
 40
0.0
 40
0.0
 40
0.0
 40
0.059204909142324
 40
0.1186381156964758
 40
0.1794099962647923
 40
0.2434403905684775
 40
0.2767263209819803
 40
0.31025072081163
 40
0.3445967272097262
 40
0.3795861309306519
 40
0.4161835169775526
 40
0.4535278654524003
 40
0.4925073825928415
 40
0.5331297869118886
 40
0.5763200343895355
 40
0.623751693599731
 40
0.6753965042887893
 40
0.731293205424897
 40
0.7916177602785751
 40
0.8564364250289891
 40
0.9260500040603648
 40
1.0
 40
1.0
 40
1.0
 40
1.0
 10
117.0553348919674
 20
39.4745276972711
 30
0.0
 10
117.0333264582104
 20
39.45042892717511
 30
0.0
 10
116.9892247249558
 20
39.40213846078966
 30
0.0
 10
116.9402896214761
 20
39.31561309512166
 30
0.0
 10
116.9044604319043
 20
39.22057985447476
 30
0.0
 10
116.8865599649161
 20
39.13509265357768
 30
0.0
 10
116.8803940522015
 20
39.06337729964843
 30
0.0
 10
116.8795965029222
 20
39.00770050290175
 30
0.0
 10
116.8840784573265
 20
38.95126516089973
 30
0.0
 10
116.8925010531157
 20
38.89359824542144
 30
0.0
 10
116.9056339602006
 20
38.83510312092686
 30
0.0
 10
116.9239391460666
 20
38.77572053891426
 30
0.0
 10
116.9470646586066
 20
38.71569921741036
 30
0.0
 10
116.9740611266867
 20
38.65378911445637
 30
0.0
 10
117.0076387016476
 20
38.58983953766997
 30
0.0
 10
117.0489045694241
 20
38.52335267332128
 30
0.0
 10
117.096864788278
 20
38.45289163996021
 30
0.0
 10
117.1532235486271
 20
38.37976399084648
 30
0.0
 10
117.2163807026039
 20
38.30282823698712
 30
0.0
 10
117.2868531557465
 20
38.22219618799621
 30
0.0
 10
117.3648232002757
 20
38.13823229179558
 30
0.0
 10
117.4203583763312
 20
38.08214458978901
 30
0.0
 10
117.4489646996597
 20
38.05325365880956
 30
0.0
  0
SPLINE
  5
CF
330
1F
100
AcDbEntity
  8
0
  6
Continuous
 62
     7
370
    25
100
AcDbSpline
210
0.0
220
0.0
230
1.0
 70
     8
 71
     3
 72
    27
 73
    23
 74
     0
 42
0.000000001
 43
0.00000001
 40
0.0
 40
0.0
 40
0.0
 40
0.0
 40
0.0665682887066777
 40
0.1298384398761199
 40
0.1903854166577238
 40
0.2477638774268024
 40
0.3026463387477553
 40
0.354759433731939
 40
0.4043168527786023
 40
0.4513184057942145
 40
0.4962182809861096
 40
0.5384964490913654
 40
0.5791109571601268
 40
0.6178689498676123
 40
0.6548770745485871
 40
0.6907509929392047
 40
0.7250465884647679
 40
0.758739154699732
 40
0.8228526037433925
 40
0.8832333648382241
 40
0.9417466416330511
 40
1.0
 40
1.0
 40
1.0
 40
1.0
 10
118.4862243150444
 20
39.09051327419417
 30
0.0
 10
118.4601384323546
 20
39.11611719633755
 30
0.0
 10
118.4092590966073
 20
39.16605648981185
 30
0.0
 10
118.3320410337129
 20
39.23655232740879
 30
0.0
 10
118.2565255476182
 20
39.30133200188528
 30
0.0
 10
118.1825550898181
 20
39.36081688366099
 30
0.0
 10
118.1091074754507
 20
39.41330648642075
 30
0.0
 10
118.0377560108369
 20
39.46129522721677
 30
0.0
 10
117.9672852793249
 20
39.50257090833688
 30
0.0
 10
117.8986642678346
 20
39.5390208779366
 30
0.0
 10
117.8315495603586
 20
39.56951011360602
 30
0.0
 10
117.7661711829744
 20
39.59508747814227
 30
0.0
 10
117.7025269078388
 20
39.61548393364333
 30
0.0
 10
117.6405921007312
 20
39.63139874745499
 30
0.0
 10
117.5801026095333
 20
39.6418208605833
 30
0.0
 10
117.5213767103772
 20
39.64650686396957
 30
0.0
 10
117.4642818937254
 20
39.64666396316213
 30
0.0
 10
117.3919560743583
 20
39.64027286139067
 30
0.0
 10
117.3065578425955
 20
39.62238993047064
 30
0.0
 10
117.2121507045865
 20
39.5872428199106
 30
0.0
 10
117.1265349608751
 20
39.53946912506046
 30
0.0
 10
117.079033002373
 20
39.49614269216169
 30
0.0
 10
117.0553348919674
 20
39.4745276972711
 30
0.0
  0
SPLINE
  5
D0
330
1F
100
AcDbEntity
  8
0
  6
Continuous
 62
     7
370
    25
100
AcDbSpline
210
0.0
220
0.0
230
1.0
 70
     8
 71
     3
 72
    19
 73
    15
 74
     0
 42
0.000000001
 43
0.00000001
 40
0.0
 40
0.0
 40
0.0
 40
0.0
 40
0.1116234689182526
 40
0.2221443256546964
 40
0.3354380430278008
 40
0.4548148709752029
 40
0.5168870261290481
 40
0.5794061580887492
 40
0.6435314246458348
 40
0.7096032329016746
 40
0.7780881323723869
 40
0.8493556809199186
 40
0.9228466968340718
 40
1.0
 40
1.0
 40
1.0
 40
1.0
 10
118.8708396996597
 20
37.65902288957879
 30
0.0
 10
118.892856163312
 20
37.68311757563849
 30
0.0
 10
118.9366716128651
 20
37.7310689414083
 30
0.0
 10
118.985199921481
 20
37.81684294711296
 30
0.0
 10
119.0211399350153
 20
37.91052233547715
 30
0.0
 10
119.0390358684998
 20
37.99504812409791
 30
0.0
 10
119.0451345654128
 20
38.06596171480138
 30
0.0
 10
119.0461551787979
 20
38.12107213112714
 30
0.0
 10
119.0407786953734
 20
38.17708989345141
 30
0.0
 10
119.0319510860715
 20
38.2343805905553
 30
0.0
 10
119.0179727566757
 20
38.29282583059873
 30
0.0
 10
118.9991226963575
 20
38.35210517970227
 30
0.0
 10
118.9765038008923
 20
38.41280444305792
 30
0.0
 10
118.9574971405327
 20
38.45243024418827
 30
0.0
 10
118.9477627765828
 20
38.47272481265571
 30
0.0
  0
LINE
  5
D1
330
1F
100
AcDbEntity
  8
0
  6
Continuous
 62
     7
370
    25
100
AcDbLine
 10
120.5759802228
 20
40.2373026371
 30
0.0
 11
119.7009802228
 21
41.1123026371
 31
0.0
  0
LINE
  5
D2
330
1F
100
AcDbEntity
  8
0
  6
Continuous
 62
     7
370
    25
100
AcDbLine
 10
119.9581917612
 20
39.6195141755
 30
0.0
 11
120.5759802228
 21
40.2373026371
 31
0.0
  0
LINE
  5
D3
330
1F
100
AcDbEntity
  8
0
  6
Continuous
 62
     7
370
    25
100
AcDbLine
 10
119.7009802228
 20
41.1123026371
 30
0.0
 11
119.9581917612
 21
39.6195141755
 31
0.0
  0
CIRCLE
  5
D4
330
1F
100
AcDbEntity
  8
0
  6
Continuous
 62
     7
370
    25
100
AcDbCircle
 10
119.3664924855
 20
37.0713734104
 30
0.0
 40
24.11054545454546
  0
CIRCLE
  5
D5
330
1F
100
AcDbEntity
  8
0
  6
Continuous
 62
     7
370
    25
100
AcDbCircle
 10
119.3664924855
 20
37.0713734104
 30
0.0
 40
21.5
  0
INSERT
  5
E1
330
1F
100
AcDbEntity
  8
0
  6
Continuous
 62
     7
370
    18
100
AcDbBlockReference
  2
SW_CENTERMARKSYMBOL_0
 10
119.3664924855
 20
37.0713734104
 30
0.0
  0
INSERT
  5
ED
330
1F
100
AcDbEntity
  8
0
  6
Continuous
 62
     7
370
    18
100
AcDbBlockReference
  2
SW_CENTERMARKSYMBOL_1
 10
119.3664924855
 20
37.0713734104
 30
0.0
  0
ARC
  5
EE
330
1F
100
AcDbEntity
  8
0
  6
Continuous
 62
     7
370
    18
100
AcDbCircle
 10
119.3664924855
 20
37.0713734104
 30
0.0
 40
22.42250000000001
100
AcDbArc
 50
75.0
 51
345.0
  0
ENDSEC
  0
SECTION
  2
OBJECTS
  0
DICTIONARY
  5
C
330
0
100
AcDbDictionary
281
     1
  3
ACAD_GROUP
350
D
  3
ACAD_LAYOUT
350
1A
  3
ACAD_MLINESTYLE
350
17
  3
ACAD_PLOTSETTINGS
350
19
  3
ACAD_PLOTSTYLENAME
350
E
  3
ACAD_SCALELIST
350
47
  0
DICTIONARY
  5
D
102
{ACAD_REACTORS
330
C
102
}
330
C
100
AcDbDictionary
281
     1
  0
DICTIONARY
  5
1A
102
{ACAD_REACTORS
330
C
102
}
330
C
100
AcDbDictionary
281
     1
  3
Layout1
350
1E
  3
Layout2
350
26
  3
Model
350
22
  0
DICTIONARY
  5
17
102
{ACAD_REACTORS
330
C
102
}
330
C
100
AcDbDictionary
281
     1
  3
Standard
350
18
  0
DICTIONARY
  5
19
102
{ACAD_REACTORS
330
C
102
}
330
C
100
AcDbDictionary
281
     1
  0
ACDBDICTIONARYWDFLT
  5
E
102
{ACAD_REACTORS
330
C
102
}
330
C
100
AcDbDictionary
281
     1
  3
Normal
350
F
100
AcDbDictionaryWithDefault
340
F
  0
DICTIONARY
  5
47
102
{ACAD_REACTORS
330
C
102
}
330
C
100
AcDbDictionary
281
     1
  3
A0
350
48
  3
A1
350
49
  3
A2
350
4A
  3
A3
350
4B
  3
A4
350
4C
  3
A5
350
4D
  3
A6
350
4E
  3
A7
350
4F
  3
A8
350
50
  3
A9
350
51
  3
B0
350
52
  3
B1
350
53
  3
B2
350
54
  3
B3
350
55
  3
B4
350
56
  3
B5
350
57
  3
B6
350
58
  3
B7
350
59
  3
B8
350
5A
  3
B9
350
5B
  3
C0
350
5C
  3
C1
350
5D
  3
C2
350
5E
  3
C3
350
5F
  3
C4
350
60
  3
C5
350
61
  3
C6
350
62
  3
C7
350
63
  3
C8
350
64
  3
C9
350
65
  3
D0
350
66
  3
D1
350
67
  3
D2
350
68
  0
LAYOUT
  5
1E
102
{ACAD_REACTORS
330
1A
102
}
330
1A
100
AcDbPlotSettings
  1

  2
none_device
  4

  6

 40
0.0
 41
0.0
 42
0.0
 43
0.0
 44
0.0
 45
0.0
 46
0.0
 47
0.0
 48
0.0
 49
0.0
140
0.0
141
0.0
142
1.0
143
1.0
 70
   688
 72
     1
 73
     0
 74
     5
  7

 75
    16
147
1.0
148
0.0
149
0.0
100
AcDbLayout
  1
Layout1
 70
     1
 71
     1
 10
0.0
 20
0.0
 11
420.0
 21
297.0
 12
0.0
 22
0.0
 32
0.0
 14
1.0000000000E+20
 24
1.0000000000E+20
 34
1.0000000000E+20
 15
-1.0000000000E+20
 25
-1.0000000000E+20
 35
-1.0000000000E+20
146
0.0
 13
0.0
 23
0.0
 33
0.0
 16
1.0
 26
0.0
 36
0.0
 17
0.0
 27
1.0
 37
0.0
 76
     0
330
1B
  0
LAYOUT
  5
26
102
{ACAD_REACTORS
330
1A
102
}
330
1A
100
AcDbPlotSettings
  1

  2
none_device
  4

  6

 40
0.0
 41
0.0
 42
0.0
 43
0.0
 44
0.0
 45
0.0
 46
0.0
 47
0.0
 48
0.0
 49
0.0
140
0.0
141
0.0
142
1.0
143
1.0
 70
   688
 72
     1
 73
     0
 74
     5
  7

 75
    16
147
1.0
148
0.0
149
0.0
100
AcDbLayout
  1
Layout2
 70
     1
 71
     2
 10
0.0
 20
0.0
 11
0.0
 21
0.0
 12
0.0
 22
0.0
 32
0.0
 14
0.0
 24
0.0
 34
0.0
 15
0.0
 25
0.0
 35
0.0
146
0.0
 13
0.0
 23
0.0
 33
0.0
 16
1.0
 26
0.0
 36
0.0
 17
0.0
 27
1.0
 37
0.0
 76
     0
330
23
  0
LAYOUT
  5
22
102
{ACAD_REACTORS
330
1A
102
}
330
1A
100
AcDbPlotSettings
  1

  2
none_device
  4
Letter_(8.50_x_11.00_Inches)
  6

 40
6.35
 41
6.35
 42
6.35000508
 43
6.35000508
 44
215.9
 45
279.4
 46
0.0
 47
0.0
 48
0.0
 49
0.0
140
0.0
141
0.0
142
1.0
143
1.0
 70
  1712
 72
     1
 73
     0
 74
     0
  7

 75
     0
147
1.0
148
0.0
149
0.0
100
AcDbLayout
  1
Model
 70
     1
 71
     0
 10
0.0
 20
0.0
 11
431.8
 21
279.4
 12
0.0
 22
0.0
 32
0.0
 14
0.0
 24
0.0
 34
0.0
 15
431.8
 25
279.4
 35
0.0
146
0.0
 13
0.0
 23
0.0
 33
0.0
 16
1.0
 26
0.0
 36
0.0
 17
0.0
 27
1.0
 37
0.0
 76
     0
330
1F
331
29
  0
MLINESTYLE
  5
18
102
{ACAD_REACTORS
330
17
102
}
330
17
100
AcDbMlineStyle
  2
Standard
 70
     0
  3

 62
   256
 51
90.0
 52
90.0
 71
     2
 49
0.5
 62
   256
  6
BYLAYER
 49
-0.5
 62
   256
  6
BYLAYER
  0
ACDBPLACEHOLDER
  5
F
102
{ACAD_REACTORS
330
E
102
}
330
E
  0
SCALE
  5
48
102
{ACAD_REACTORS
330
47
102
}
330
47
100
AcDbScale
 70
     0
300
1:1
140
1.0
141
1.0
290
     1
  0
SCALE
  5
49
102
{ACAD_REACTORS
330
47
102
}
330
47
100
AcDbScale
 70
     0
300
1:2
140
1.0
141
2.0
290
     0
  0
SCALE
  5
4A
102
{ACAD_REACTORS
330
47
102
}
330
47
100
AcDbScale
 70
     0
300
1:4
140
1.0
141
4.0
290
     0
  0
SCALE
  5
4B
102
{ACAD_REACTORS
330
47
102
}
330
47
100
AcDbScale
 70
     0
300
1:5
140
1.0
141
5.0
290
     0
  0
SCALE
  5
4C
102
{ACAD_REACTORS
330
47
102
}
330
47
100
AcDbScale
 70
     0
300
1:8
140
1.0
141
8.0
290
     0
  0
SCALE
  5
4D
102
{ACAD_REACTORS
330
47
102
}
330
47
100
AcDbScale
 70
     0
300
1:10
140
1.0
141
10.0
290
     0
  0
SCALE
  5
4E
102
{ACAD_REACTORS
330
47
102
}
330
47
100
AcDbScale
 70
     0
300
1:16
140
1.0
141
16.0
290
     0
  0
SCALE
  5
4F
102
{ACAD_REACTORS
330
47
102
}
330
47
100
AcDbScale
 70
     0
300
1:20
140
1.0
141
20.0
290
     0
  0
SCALE
  5
50
102
{ACAD_REACTORS
330
47
102
}
330
47
100
AcDbScale
 70
     0
300
1:30
140
1.0
141
30.0
290
     0
  0
SCALE
  5
51
102
{ACAD_REACTORS
330
47
102
}
330
47
100
AcDbScale
 70
     0
300
1:40
140
1.0
141
40.0
290
     0
  0
SCALE
  5
52
102
{ACAD_REACTORS
330
47
102
}
330
47
100
AcDbScale
 70
     0
300
1:50
140
1.0
141
50.0
290
     0
  0
SCALE
  5
53
102
{ACAD_REACTORS
330
47
102
}
330
47
100
AcDbScale
 70
     0
300
1:100
140
1.0
141
100.0
290
     0
  0
SCALE
  5
54
102
{ACAD_REACTORS
330
47
102
}
330
47
100
AcDbScale
 70
     0
300
2:1
140
2.0
141
1.0
290
     0
  0
SCALE
  5
55
102
{ACAD_REACTORS
330
47
102
}
330
47
100
AcDbScale
 70
     0
300
4:1
140
4.0
141
1.0
290
     0
  0
SCALE
  5
56
102
{ACAD_REACTORS
330
47
102
}
330
47
100
AcDbScale
 70
     0
300
8:1
140
8.0
141
1.0
290
     0
  0
SCALE
  5
57
102
{ACAD_REACTORS
330
47
102
}
330
47
100
AcDbScale
 70
     0
300
10:1
140
10.0
141
1.0
290
     0
  0
SCALE
  5
58
102
{ACAD_REACTORS
330
47
102
}
330
47
100
AcDbScale
 70
     0
300
100:1
140
100.0
141
1.0
290
     0
  0
SCALE
  5
59
102
{ACAD_REACTORS
330
47
102
}
330
47
100
AcDbScale
 70
     0
300
1/128" = 1'-0"
140
0.0078125
141
12.0
290
     0
  0
SCALE
  5
5A
102
{ACAD_REACTORS
330
47
102
}
330
47
100
AcDbScale
 70
     0
300
1/64" = 1'-0"
140
0.015625
141
12.0
290
     0
  0
SCALE
  5
5B
102
{ACAD_REACTORS
330
47
102
}
330
47
100
AcDbScale
 70
     0
300
1/32" = 1'-0"
140
0.03125
141
12.0
290
     0
  0
SCALE
  5
5C
102
{ACAD_REACTORS
330
47
102
}
330
47
100
AcDbScale
 70
     0
300
1/16" = 1'-0"
140
0.0625
141
12.0
290
     0
  0
SCALE
  5
5D
102
{ACAD_REACTORS
330
47
102
}
330
47
100
AcDbScale
 70
     0
300
3/32" = 1'-0"
140
0.09375
141
12.0
290
     0
  0
SCALE
  5
5E
102
{ACAD_REACTORS
330
47
102
}
330
47
100
AcDbScale
 70
     0
300
1/8" = 1'-0"
140
0.125
141
12.0
290
     0
  0
SCALE
  5
5F
102
{ACAD_REACTORS
330
47
102
}
330
47
100
AcDbScale
 70
     0
300
3/16" = 1'-0"
140
0.1875
141
12.0
290
     0
  0
SCALE
  5
60
102
{ACAD_REACTORS
330
47
102
}
330
47
100
AcDbScale
 70
     0
300
1/4" = 1'-0"
140
0.25
141
12.0
290
     0
  0
SCALE
  5
61
102
{ACAD_REACTORS
330
47
102
}
330
47
100
AcDbScale
 70
     0
300
3/8" = 1'-0"
140
0.375
141
12.0
290
     0
  0
SCALE
  5
62
102
{ACAD_REACTORS
330
47
102
}
330
47
100
AcDbScale
 70
     0
300
1/2" = 1'-0"
140
0.5
141
12.0
290
     0
  0
SCALE
  5
63
102
{ACAD_REACTORS
330
47
102
}
330
47
100
AcDbScale
 70
     0
300
3/4" = 1'-0"
140
0.75
141
12.0
290
     0
  0
SCALE
  5
64
102
{ACAD_REACTORS
330
47
102
}
330
47
100
AcDbScale
 70
     0
300
1" = 1'-0"
140
1.0
141
12.0
290
     0
  0
SCALE
  5
65
102
{ACAD_REACTORS
330
47
102
}
330
47
100
AcDbScale
 70
     0
300
1-1/2" = 1'-0"
140
1.5
141
12.0
290
     0
  0
SCALE
  5
66
102
{ACAD_REACTORS
330
47
102
}
330
47
100
AcDbScale
 70
     0
300
3" = 1'-0"
140
3.0
141
12.0
290
     0
  0
SCALE
  5
67
102
{ACAD_REACTORS
330
47
102
}
330
47
100
AcDbScale
 70
     0
300
6" = 1'-0"
140
6.0
141
12.0
290
     0
  0
SCALE
  5
68
102
{ACAD_REACTORS
330
47
102
}
330
47
100
AcDbScale
 70
     0
300
1'-0" = 1'-0"
140
12.0
141
12.0
290
     0
  0
ENDSEC
  0
EOF
