  0
SECTION
  2
HEADER
  9
$ACADVER
  1
AC1015
  9
$ACADMAINTVER
 70
     6
  9
$DWGCODEPAGE
  3
DOS932
  9
$INSBASE
 10
0.0
 20
0.0
 30
0.0
  9
$EXTMIN
 10
0.0
 20
0.0
 30
0.0
  9
$EXTMAX
 10
431.8
 20
279.4
 30
0.0
  9
$LIMMIN
 10
0.0
 20
0.0
  9
$LIMMAX
 10
431.8
 20
279.4
  9
$ORTHOMODE
 70
     0
  9
$REGENMODE
 70
     1
  9
$FILLMODE
 70
     1
  9
$QTEXTMODE
 70
     0
  9
$MIRRTEXT
 70
     1
  9
$LTSCALE
 40
1.0
  9
$ATTMODE
 70
     1
  9
$TEXTSIZE
 40
3.5
  9
$TRACEWID
 40
1.0
  9
$TEXTSTYLE
  7
Standard
  9
$CLAYER
  8
0
  9
$CELTYPE
  6
ByLayer
  9
$CECOLOR
 62
   256
  9
$CELTSCALE
 40
1.0
  9
$DISPSILH
 70
     0
  9
$DIMSCALE
 40
1.0
  9
$DIMASZ
 40
3.302
  9
$DIMEXO
 40
1.0
  9
$DIMDLI
 40
3.75
  9
$DIMRND
 40
0.0
  9
$DIMDLE
 40
0.0
  9
$DIMEXE
 40
1.0
  9
$DIMTP
 40
0.0
  9
$DIMTM
 40
0.0
  9
$DIMTXT
 40
3.5
  9
$DIMCEN
 40
2.5
  9
$DIMTSZ
 40
0.0
  9
$DIMTOL
 70
     0
  9
$DIMLIM
 70
     0
  9
$DIMTIH
 70
     1
  9
$DIMTOH
 70
     1
  9
$DIMSE1
 70
     0
  9
$DIMSE2
 70
     0
  9
$DIMTAD
 70
     1
  9
$DIMZIN
 70
     1
  9
$DIMBLK
  1

  9
$DIMASO
 70
     1
  9
$DIMSHO
 70
     1
  9
$DIMPOST
  1

  9
$DIMAPOST
  1

  9
$DIMALT
 70
     0
  9
$DIMALTD
 70
     3
  9
$DIMALTF
 40
0.0393700787
  9
$DIMLFAC
 40
1.0
  9
$DIMTOFL
 70
     1
  9
$DIMTVP
 40
0.0
  9
$DIMTIX
 70
     0
  9
$DIMSOXD
 70
     0
  9
$DIMSAH
 70
     0
  9
$DIMBLK1
  1

  9
$DIMBLK2
  1

  9
$DIMSTYLE
  2
ISO-25
  9
$DIMCLRD
 70
     0
  9
$DIMCLRE
 70
     0
  9
$DIMCLRT
 70
     0
  9
$DIMTFAC
 40
1.0
  9
$DIMGAP
 40
1.524
  9
$DIMJUST
 70
     0
  9
$DIMSD1
 70
     0
  9
$DIMSD2
 70
     0
  9
$DIMTOLJ
 70
     0
  9
$DIMTZIN
 70
     1
  9
$DIMALTZ
 70
     0
  9
$DIMALTTZ
 70
     0
  9
$DIMUPT
 70
     0
  9
$DIMDEC
 70
     2
  9
$DIMTDEC
 70
     2
  9
$DIMALTU
 70
     2
  9
$DIMALTTD
 70
     3
  9
$DIMTXSTY
  7
Standard
  9
$DIMAUNIT
 70
     0
  9
$DIMADEC
 70
     2
  9
$DIMALTRND
 40
0.0
  9
$DIMAZIN
 70
     0
  9
$DIMDSEP
 70
    44
  9
$DIMATFIT
 70
     3
  9
$DIMFRAC
 70
     0
  9
$DIMLDRBLK
  1

  9
$DIMLUNIT
 70
     2
  9
$DIMLWD
 70
    -2
  9
$DIMLWE
 70
    -2
  9
$DIMTMOVE
 70
     0
  9
$LUNITS
 70
     2
  9
$LUPREC
 70
     2
  9
$SKETCHINC
 40
1.0
  9
$FILLETRAD
 40
10.0
  9
$AUNITS
 70
     0
  9
$AUPREC
 70
     2
  9
$MENU
  1
.
  9
$ELEVATION
 40
0.0
  9
$PELEVATION
 40
0.0
  9
$THICKNESS
 40
0.0
  9
$LIMCHECK
 70
     0
  9
$CHAMFERA
 40
0.0
  9
$CHAMFERB
 40
0.0
  9
$CHAMFERC
 40
0.0
  9
$CHAMFERD
 40
0.0
  9
$SKPOLY
 70
     0
  9
$TDCREATE
 40
2460090.435673854
  9
$TDUCREATE
 40
2460090.060673854
  9
$TDUPDATE
 40
2460090.435674213
  9
$TDUUPDATE
 40
2460090.060674213
  9
$TDINDWG
 40
0.0000000116
  9
$TDUSRTIMER
 40
0.0000000116
  9
$USRTIMER
 70
     1
  9
$ANGBASE
 50
0.0
  9
$ANGDIR
 70
     0
  9
$PDMODE
 70
     0
  9
$PDSIZE
 40
-1.0
  9
$PLINEWID
 40
0.0
  9
$SPLFRAME
 70
     0
  9
$SPLINETYPE
 70
     6
  9
$SPLINESEGS
 70
     8
  9
$HANDSEED
  5
EF
  9
$SURFTAB1
 70
     6
  9
$SURFTAB2
 70
     6
  9
$SURFTYPE
 70
     6
  9
$SURFU
 70
     6
  9
$SURFV
 70
     6
  9
$UCSBASE
  2

  9
$UCSNAME
  2

  9
$UCSORG
 10
0.0
 20
0.0
 30
0.0
  9
$UCSXDIR
 10
1.0
 20
0.0
 30
0.0
  9
$UCSYDIR
 10
0.0
 20
1.0
 30
0.0
  9
$UCSORTHOREF
  2

  9
$UCSORTHOVIEW
 70
     0
  9
$UCSORGTOP
 10
0.0
 20
0.0
 30
0.0
  9
$UCSORGBOTTOM
 10
0.0
 20
0.0
 30
0.0
  9
$UCSORGLEFT
 10
0.0
 20
0.0
 30
0.0
  9
$UCSORGRIGHT
 10
0.0
 20
0.0
 30
0.0
  9
$UCSORGFRONT
 10
0.0
 20
0.0
 30
0.0
  9
$UCSORGBACK
 10
0.0
 20
0.0
 30
0.0
  9
$PUCSBASE
  2

  9
$PUCSNAME
  2

  9
$PUCSORG
 10
0.0
 20
0.0
 30
0.0
  9
$PUCSXDIR
 10
1.0
 20
0.0
 30
0.0
  9
$PUCSYDIR
 10
0.0
 20
1.0
 30
0.0
  9
$PUCSORTHOREF
  2

  9
$PUCSORTHOVIEW
 70
     0
  9
$PUCSORGTOP
 10
0.0
 20
0.0
 30
0.0
  9
$PUCSORGBOTTOM
 10
0.0
 20
0.0
 30
0.0
  9
$PUCSORGLEFT
 10
0.0
 20
0.0
 30
0.0
  9
$PUCSORGRIGHT
 10
0.0
 20
0.0
 30
0.0
  9
$PUCSORGFRONT
 10
0.0
 20
0.0
 30
0.0
  9
$PUCSORGBACK
 10
0.0
 20
0.0
 30
0.0
  9
$USERI1
 70
     0
  9
$USERI2
 70
     0
  9
$USERI3
 70
     0
  9
$USERI4
 70
     0
  9
$USERI5
 70
     0
  9
$USERR1
 40
0.0
  9
$USERR2
 40
0.0
  9
$USERR3
 40
0.0
  9
$USERR4
 40
0.0
  9
$USERR5
 40
0.0
  9
$WORLDVIEW
 70
     1
  9
$SHADEDGE
 70
     3
  9
$SHADEDIF
 70
    70
  9
$TILEMODE
 70
     1
  9
$MAXACTVP
 70
    64
  9
$PINSBASE
 10
0.0
 20
0.0
 30
0.0
  9
$PLIMCHECK
 70
     0
  9
$PEXTMIN
 10
1.0000000000E+20
 20
1.0000000000E+20
 30
1.0000000000E+20
  9
$PEXTMAX
 10
-1.0000000000E+20
 20
-1.0000000000E+20
 30
-1.0000000000E+20
  9
$PLIMMIN
 10
0.0
 20
0.0
  9
$PLIMMAX
 10
420.0
 20
297.0
  9
$UNITMODE
 70
     0
  9
$VISRETAIN
 70
     1
  9
$PLINEGEN
 70
     0
  9
$PSLTSCALE
 70
     1
  9
$TREEDEPTH
 70
  3020
  9
$CMLSTYLE
  2
Standard
  9
$CMLJUST
 70
     0
  9
$CMLSCALE
 40
20.0
  9
$PROXYGRAPHICS
 70
     1
  9
$MEASUREMENT
 70
     1
  9
$CELWEIGHT
370
    -1
  9
$ENDCAPS
280
     0
  9
$JOINSTYLE
280
     0
  9
$LWDISPLAY
290
     1
  9
$INSUNITS
 70
     4
  9
$HYPERLINKBASE
  1

  9
$STYLESHEET
  1

  9
$XEDIT
290
     1
  9
$CEPSNTYPE
380
     0
  9
$PSTYLEMODE
290
     1
  9
$FINGERPRINTGUID
  2
{05A0977E-2DA0-4155-9036-163DECFD95F7}
  9
$VERSIONGUID
  2
{FAEB1C32-E019-11D5-929B-00C0DF256EC4}
  9
$EXTNAMES
290
     1
  9
$PSVPSCALE
 40
0.0
  9
$OLESTARTUP
290
     0
  0
ENDSEC
  0
SECTION
  2
CLASSES
  0
CLASS
  1
ACDBDICTIONARYWDFLT
  2
AcDbDictionaryWithDefault
  3
ObjectDBX Classes
 90
        0
280
     0
281
     0
  0
CLASS
  1
VISUALSTYLE
  2
AcDbVisualStyle
  3
ObjectDBX Classes
 90
     4095
280
     0
281
     0
  0
CLASS
  1
MATERIAL
  2
AcDbMaterial
  3
ObjectDBX Classes
 90
     1153
280
     0
281
     0
  0
CLASS
  1
SCALE
  2
AcDbScale
  3
ObjectDBX Classes
 90
     1153
280
     0
281
     0
  0
CLASS
  1
TABLESTYLE
  2
AcDbTableStyle
  3
ObjectDBX Classes
 90
     4095
280
     0
281
     0
  0
CLASS
  1
MLEADERSTYLE
  2
AcDbMLeaderStyle
  3
ACDB_MLEADERSTYLE_CLASS
 90
     4095
280
     0
281
     0
  0
CLASS
  1
SUN
  2
AcDbSun
  3
SCENEOE
 90
     1153
280
     0
281
     0
  0
CLASS
  1
ACDBPLACEHOLDER
  2
AcDbPlaceHolder
  3
ObjectDBX Classes
 90
        0
280
     0
281
     0
  0
CLASS
  1
LAYOUT
  2
AcDbLayout
  3
ObjectDBX Classes
 90
        0
280
     0
281
     0
  0
ENDSEC
  0
SECTION
  2
TABLES
  0
TABLE
  2
VPORT
  5
8
330
0
100
AcDbSymbolTable
 70
     1
  0
VPORT
  5
29
330
8
100
AcDbSymbolTableRecord
100
AcDbViewportTableRecord
  2
*Active
 70
     0
 10
0.0
 20
0.0
 11
1.0
 21
1.0
 12
215.9
 22
139.7
 13
0.0
 23
0.0
 14
10.0
 24
10.0
 15
10.0
 25
10.0
 16
0.0
 26
0.0
 36
1.0
 17
0.0
 27
0.0
 37
0.0
 40
279.4
 41
1.5454545455
 42
50.0
 43
0.0
 44
0.0
 50
0.0
 51
0.0
 71
     0
 72
  2000
 73
     1
 74
     3
 75
     0
 76
     0
 77
     0
 78
     0
281
     0
 65
     1
110
0.0
120
0.0
130
0.0
111
1.0
121
0.0
131
0.0
112
0.0
122
1.0
132
0.0
 79
     0
146
0.0
  0
ENDTAB
  0
TABLE
  2
LTYPE
  5
5
330
0
100
AcDbSymbolTable
 70
     6
  0
LTYPE
  5
14
330
5
100
AcDbSymbolTableRecord
100
AcDbLinetypeTableRecord
  2
ByBlock
 70
     0
  3

 72
    65
 73
     0
 40
0.0
  0
LTYPE
  5
15
330
5
100
AcDbSymbolTableRecord
100
AcDbLinetypeTableRecord
  2
ByLayer
 70
     0
  3

 72
    65
 73
     0
 40
0.0
  0
LTYPE
  5
16
330
5
100
AcDbSymbolTableRecord
100
AcDbLinetypeTableRecord
  2
Continuous
 70
     0
  3
Solid line
 72
    65
 73
     0
 40
0.0
  0
LTYPE
  5
6E
330
5
100
AcDbSymbolTableRecord
100
AcDbLinetypeTableRecord
  2
HIDDEN
 70
     0
  3
Hidden __ __ __ __ __ __ __ __ __ __ __ __ __ __
 72
    65
 73
     2
 40
1.905
 49
1.27
 74
     0
 49
-0.635
 74
     0
  0
LTYPE
  5
6F
330
5
100
AcDbSymbolTableRecord
100
AcDbLinetypeTableRecord
  2
PHANTOM
 70
     0
  3
Phantom ______  __  __  ______  __  __  ______
 72
    65
 73
     6
 40
12.7
 49
6.35
 74
     0
 49
-1.27
 74
     0
 49
1.27
 74
     0
 49
-1.27
 74
     0
 49
1.27
 74
     0
 49
-1.27
 74
     0
  0
LTYPE
  5
70
330
5
100
AcDbSymbolTableRecord
100
AcDbLinetypeTableRecord
  2
CENTER
 70
     0
  3
Center ____ _ ____ _ ____ _ ____ _ ____ _ ____
 72
    65
 73
     4
 40
10.16
 49
6.35
 74
     0
 49
-1.27
 74
     0
 49
1.27
 74
     0
 49
-1.27
 74
     0
  0
LTYPE
  5
71
330
5
100
AcDbSymbolTableRecord
100
AcDbLinetypeTableRecord
  2
CENTERX2
 70
     0
  3
Center (2x) ________  __  ________  __  _____
 72
    65
 73
     4
 40
20.32
 49
12.7
 74
     0
 49
-2.54
 74
     0
 49
2.54
 74
     0
 49
-2.54
 74
     0
  0
LTYPE
  5
72
330
5
100
AcDbSymbolTableRecord
100
AcDbLinetypeTableRecord
  2
DOT2
 70
     0
  3
Dot (.5x) ........................................
 72
    65
 73
     2
 40
0.635
 49
0.0
 74
     0
 49
-0.635
 74
     0
  0
ENDTAB
  0
TABLE
  2
LAYER
  5
2
330
0
100
AcDbSymbolTable
 70
     1
  0
LAYER
  5
10
330
2
100
AcDbSymbolTableRecord
100
AcDbLayerTableRecord
  2
0
 70
     0
 62
     7
  6
Continuous
370
    -3
390
F
  0
ENDTAB
  0
TABLE
  2
STYLE
  5
3
330
0
100
AcDbSymbolTable
 70
     2
  0
STYLE
  5
11
330
3
100
AcDbSymbolTableRecord
100
AcDbTextStyleTableRecord
  2
Standard
 70
     0
 40
0.0
 41
1.0
 50
0.0
 71
     0
 42
3.5
  3
txt
  4
bigfont
  0
STYLE
  5
73
330
3
100
AcDbSymbolTableRecord
100
AcDbTextStyleTableRecord
  2
SLDTEXTSTYLE0
 70
     0
 40
0.0
 41
0.75
 50
0.0
 71
     0
 42
3.5
  3
TXT
  4
bigfont
  0
ENDTAB
  0
TABLE
  2
VIEW
  5
6
330
0
100
AcDbSymbolTable
 70
     0
  0
ENDTAB
  0
TABLE
  2
UCS
  5
7
330
0
100
AcDbSymbolTable
 70
     0
  0
ENDTAB
  0
TABLE
  2
APPID
  5
9
330
0
100
AcDbSymbolTable
 70
     1
  0
APPID
  5
12
330
9
100
AcDbSymbolTableRecord
100
AcDbRegAppTableRecord
  2
ACAD
 70
     0
  0
ENDTAB
  0
TABLE
  2
DIMSTYLE
  5
A
330
0
100
AcDbSymbolTable
 70
     1
100
AcDbDimStyleTable
  0
DIMSTYLE
105
27
330
A
100
AcDbSymbolTableRecord
100
AcDbDimStyleTableRecord
  2
ISO-25
 70
     0
 41
2.5
 42
0.625
 43
3.75
 44
1.25
 73
     0
 74
     0
 77
     1
 78
     8
140
2.5
141
2.5
143
0.0393700787
147
0.625
171
     3
172
     1
178
     0
271
     2
272
     2
274
     3
278
    44
283
     0
284
     8
340
11
  0
ENDTAB
  0
TABLE
  2
BLOCK_RECORD
  5
1
330
0
100
AcDbSymbolTable
 70
     3
  0
BLOCK_RECORD
  5
1F
330
1
100
AcDbSymbolTableRecord
100
AcDbBlockTableRecord
  2
*Model_Space
340
22
  0
BLOCK_RECORD
  5
1B
330
1
100
AcDbSymbolTableRecord
100
AcDbBlockTableRecord
  2
*Paper_Space
340
1E
  0
BLOCK_RECORD
  5
23
330
1
100
AcDbSymbolTableRecord
100
AcDbBlockTableRecord
  2
*Paper_Space0
340
26
  0
BLOCK_RECORD
  5
D6
330
1
100
AcDbSymbolTableRecord
100
AcDbBlockTableRecord
  2
SW_CENTERMARKSYMBOL_0
340
0
102
{BLKREFS
331
E1
102
}
  0
BLOCK_RECORD
  5
E2
330
1
100
AcDbSymbolTableRecord
100
AcDbBlockTableRecord
  2
SW_CENTERMARKSYMBOL_1
340
0
102
{BLKREFS
331
ED
102
}
  0
ENDTAB
  0
ENDSEC
  0
SECTION
  2
BLOCKS
  0
BLOCK
  5
20
330
1F
100
AcDbEntity
  8
0
100
AcDbBlockBegin
  2
*Model_Space
 70
     0
 10
0.0
 20
0.0
 30
0.0
  3
*Model_Space
  1

  0
ENDBLK
  5
21
330
1F
100
AcDbEntity
  8
0
100
AcDbBlockEnd
  0
BLOCK
  5
1C
330
1B
100
AcDbEntity
 67
     1
  8
0
100
AcDbBlockBegin
  2
*Paper_Space
 70
     0
 10
0.0
 20
0.0
 30
0.0
  3
*Paper_Space
  1

  0
ENDBLK
  5
1D
330
1B
100
AcDbEntity
 67
     1
  8
0
100
AcDbBlockEnd
  0
BLOCK
  5
24
330
23
100
AcDbEntity
  8
0
100
AcDbBlockBegin
  2
*Paper_Space0
 70
     0
 10
0.0
 20
0.0
 30
0.0
  3
*Paper_Space0
  1

  0
ENDBLK
  5
25
330
23
100
AcDbEntity
  8
0
100
AcDbBlockEnd
  0
BLOCK
  5
D7
330
D6
100
AcDbEntity
  8
0
100
AcDbBlockBegin
  2
SW_CENTERMARKSYMBOL_0
 70
     0
 10
0.0
 20
0.0
 30
0.0
  3
SW_CENTERMARKSYMBOL_0
  1

  0
LINE
  5
D9
330
D6
100
AcDbEntity
  8
0
  6
Continuous
 62
     0
370
    18
100
AcDbLine
 10
0.0
 20
0.0
 30
0.0
 11
0.0
 21
2.5
 31
0.0
  0
LINE
  5
DA
330
D6
100
AcDbEntity
  8
0
  6
Continuous
 62
     0
370
    18
100
AcDbLine
 10
0.0
 20
0.0
 30
0.0
 11
-2.5
 21
0.0
 31
0.0
  0
LINE
  5
DB
330
D6
100
AcDbEntity
  8
0
  6
Continuous
 62
     0
370
    18
100
AcDbLine
 10
0.0
 20
0.0
 30
0.0
 11
0.0
 21
-2.5
 31
0.0
  0
LINE
  5
DC
330
D6
100
AcDbEntity
  8
0
  6
Continuous
 62
     0
370
    18
100
AcDbLine
 10
0.0
 20
0.0
 30
0.0
 11
2.5
 21
0.0
 31
0.0
  0
LINE
  5
DD
330
D6
100
AcDbEntity
  8
0
  6
Continuous
 62
     0
370
    18
100
AcDbLine
 10
0.0
 20
5.0
 30
0.0
 11
0.0
 21
13.5
 31
0.0
  0
LINE
  5
DE
330
D6
100
AcDbEntity
  8
0
  6
Continuous
 62
     0
370
    18
100
AcDbLine
 10
-5.0
 20
0.0
 30
0.0
 11
-13.5
 21
0.0
 31
0.0
  0
LINE
  5
DF
330
D6
100
AcDbEntity
  8
0
  6
Continuous
 62
     0
370
    18
100
AcDbLine
 10
0.0
 20
-5.0
 30
0.0
 11
0.0
 21
-13.5
 31
0.0
  0
LINE
  5
E0
330
D6
100
AcDbEntity
  8
0
  6
Continuous
 62
     0
370
    18
100
AcDbLine
 10
5.0
 20
0.0
 30
0.0
 11
13.5
 21
0.0
 31
0.0
  0
ENDBLK
  5
D8
330
D6
100
AcDbEntity
  8
0
100
AcDbBlockEnd
  0
BLOCK
  5
E3
330
E2
100
AcDbEntity
  8
0
100
AcDbBlockBegin
  2
SW_CENTERMARKSYMBOL_1
 70
     0
 10
0.0
 20
0.0
 30
0.0
  3
SW_CENTERMARKSYMBOL_1
  1

  0
LINE
  5
E5
330
E2
100
AcDbEntity
  8
0
  6
Continuous
 62
     0
370
    18
100
AcDbLine
 10
0.0
 20
0.0
 30
0.0
 11
0.0
 21
2.5
 31
0.0
  0
LINE
  5
E6
330
E2
100
AcDbEntity
  8
0
  6
Continuous
 62
     0
370
    18
100
AcDbLine
 10
0.0
 20
0.0
 30
0.0
 11
-2.5
 21
0.0
 31
0.0
  0
LINE
  5
E7
330
E2
100
AcDbEntity
  8
0
  6
Continuous
 62
     0
370
    18
100
AcDbLine
 10
0.0
 20
0.0
 30
0.0
 11
0.0
 21
-2.5
 31
0.0
  0
LINE
  5
E8
330
E2
100
AcDbEntity
  8
0
  6
Continuous
 62
     0
370
    18
100
AcDbLine
 10
0.0
 20
0.0
 30
0.0
 11
2.5
 21
0.0
 31
0.0
  0
LINE
  5
E9
330
E2
100
AcDbEntity
  8
0
  6
Continuous
 62
     0
370
    18
100
AcDbLine
 10
0.0
 20
5.0
 30
0.0
 11
0.0
 21
23.6245454545
 31
0.0
  0
LINE
  5
EA
330
E2
100
AcDbEntity
  8
0
  6
Continuous
 62
     0
370
    18
100
AcDbLine
 10
-5.0
 20
0.0
 30
0.0
 11
-23.6245454545
 21
0.0
 31
0.0
  0
LINE
  5
EB
330
E2
100
AcDbEntity
  8
0
  6
Continuous
 62
     0
370
    18
100
AcDbLine
 10
0.0
 20
-5.0
 30
0.0
 11
0.0
 21
-23.6245454545
 31
0.0
  0
LINE
  5
EC
330
E2
100
AcDbEntity
  8
0
  6
Continuous
 62
     0
370
    18
100
AcDbLine
 10
5.0
 20
0.0
 30
0.0
 11
23.6245454545
 21
0.0
 31
0.0
  0
ENDBLK
  5
E4
330
E2
100
AcDbEntity
  8
0
100
AcDbBlockEnd
  0
ENDSEC
  0
SECTION
  2
ENTITIES
  0
MTEXT
  5
74
330
1F
100
AcDbEntity
  8
0
  6
Continuous
 62
     7
370
     0
100
AcDbMText
 10
69.8897527
 20
83.3964110623
 30
0.0
 40
7.4083333333
 41
0.0
 71
     1
 72
     1
  1
NP-7032
  7
SLDTEXTSTYLE0
 73
     1
 44
1.0
  0
LINE
  5
75
330
1F
100
AcDbEntity
  8
0
  6
Continuous
 62
     7
370
    25
100
AcDbLine
 10
58.0523585917
 20
65.11470268
 30
0.0
 11
44.1534630322
 21
64.6803621937
 31
0.0
  0
LINE
  5
76
330
1F
100
AcDbEntity
  8
0
  6
Continuous
 62
     7
370
    25
100
AcDbLine
 10
44.1534630322
 20
23.2999522571
 30
0.0
 11
58.0523585917
 21
22.8656117709
 31
0.0
  0
LINE
  5
77
330
1F
100
AcDbEntity
  8
0
  6
Continuous
 62
     7
370
    25
100
AcDbLine
 10
58.0523585917
 20
22.8656117709
 30
0.0
 11
60.9269040462
 21
25.7401572254
 31
0.0
  0
LINE
  5
78
330
1F
100
AcDbEntity
  8
0
  6
Continuous
 62
     7
370
    25
100
AcDbLine
 10
60.9269040462
 20
62.2401572254
 30
0.0
 11
58.0523585917
 21
65.11470268
 31
0.0
  0
LINE
  5
79
330
1F
100
AcDbEntity
  8
0
  6
Continuous
 62
     7
370
    25
100
AcDbLine
 10
44.1534630322
 20
64.6803621937
 30
0.0
 11
39.9269040462
 21
62.2401572254
 31
0.0
  0
LINE
  5
7A
330
1F
100
AcDbEntity
  8
0
  6
Continuous
 62
     7
370
    25
100
AcDbLine
 10
39.9269040462
 20
25.7401572254
 30
0.0
 11
44.1534630322
 21
23.2999522571
 31
0.0
  0
LINE
  5
7B
330
1F
100
AcDbEntity
  8
0
  6
Continuous
 62
     7
370
    25
100
AcDbLine
 10
72.4460583493
 20
30.5093115285
 30
0.0
 11
74.9269040462
 21
32.9901572254
 31
0.0
  0
LINE
  5
7C
330
1F
100
AcDbEntity
  8
0
  6
Continuous
 62
     7
370
    25
100
AcDbLine
 10
74.9269040462
 20
54.9901572254
 30
0.0
 11
72.4460583493
 21
57.4710029224
 31
0.0
  0
LINE
  5
7D
330
1F
100
AcDbEntity
  8
0
  6
Continuous
 62
     7
370
    25
100
AcDbLine
 10
58.0523585917
 20
65.11470268
 30
0.0
 11
58.0523585917
 21
22.8656117709
 31
0.0
  0
LINE
  5
7E
330
1F
100
AcDbEntity
  8
0
  6
Continuous
 62
     7
370
    25
100
AcDbLine
 10
44.1534630322
 20
23.2999522571
 30
0.0
 11
44.1534630322
 21
64.6803621937
 31
0.0
  0
LINE
  5
7F
330
1F
100
AcDbEntity
  8
0
  6
Continuous
 62
     7
370
    25
100
AcDbLine
 10
60.9269040462
 20
62.2401572254
 30
0.0
 11
60.9269040462
 21
25.7401572254
 31
0.0
  0
LINE
  5
80
330
1F
100
AcDbEntity
  8
0
  6
Continuous
 62
     7
370
    25
100
AcDbLine
 10
39.9269040462
 20
25.7401572254
 30
0.0
 11
39.9269040462
 21
62.2401572254
 31
0.0
  0
SPLINE
  5
81
330
1F
100
AcDbEntity
  8
0
  6
Continuous
 62
     7
370
    25
100
AcDbSpline
210
0.0
220
0.0
230
1.0
 70
     8
 71
     3
 72
    20
 73
    16
 74
     0
 42
0.000000001
 43
0.00000001
 40
0.0
 40
0.0
 40
0.0
 40
0.0
 40
0.2500000000000004
 40
0.2500000000000004
 40
0.3750000000000007
 40
0.3750000000000007
 40
0.5000000000000009
 40
0.5000000000000009
 40
0.5625000000000008
 40
0.5625000000000008
 40
0.6250000000000007
 40
0.6250000000000007
 40
0.7500000000000004
 40
0.7500000000000004
 40
1.0
 40
1.0
 40
1.0
 40
1.0
 10
72.16641307819664
 20
46.77861319271742
 30
0.0
 10
72.79716226298166
 20
47.59079516976814
 30
0.0
 10
73.35359821491467
 20
48.42994708434044
 30
0.0
 10
73.96965627091446
 20
49.76800829672725
 30
0.0
 10
74.1381433452884
 20
50.23215284703748
 30
0.0
 10
74.36470377568078
 20
51.15965523851301
 30
0.0
 10
74.42453232159184
 20
51.62550259308384
 30
0.0
 10
74.42798559766298
 20
52.32765755269669
 30
0.0
 10
74.41482253964676
 20
52.56227054911898
 30
0.0
 10
74.35975090586867
 20
53.03262382520353
 30
0.0
 10
74.31752972600242
 20
53.26951116796177
 30
0.0
 10
74.15116199969995
 20
53.97177372584837
 30
0.0
 10
73.98825492793388
 20
54.42853802979515
 30
0.0
 10
73.37855809251698
 20
55.77228196673353
 30
0.0
 10
72.80922319897572
 20
56.63744502642976
 30
0.0
 10
72.16641307819691
 20
57.46515722544006
 30
0.0
  0
LINE
  5
82
330
1F
100
AcDbEntity
  8
0
  6
Continuous
 62
     7
370
    25
100
AcDbLine
 10
60.9269040462
 20
46.7786131927
 30
0.0
 11
72.1664130782
 21
46.7786131927
 31
0.0
  0
LINE
  5
83
330
1F
100
AcDbEntity
  8
0
  6
Continuous
 62
     7
370
    25
100
AcDbLine
 10
60.9269040462
 20
57.4651572254
 30
0.0
 11
72.1664130782
 21
57.4651572254
 31
0.0
  0
LINE
  5
84
330
1F
100
AcDbEntity
  8
0
  6
Continuous
 62
     7
370
    25
100
AcDbLine
 10
74.9269040462
 20
54.9901572254
 30
0.0
 11
74.9269040462
 21
32.9901572254
 31
0.0
  0
SPLINE
  5
85
330
1F
100
AcDbEntity
  8
0
  6
Continuous
 62
     7
370
    25
100
AcDbSpline
210
0.0
220
0.0
230
1.0
 70
    24
 71
     3
 72
    10
 73
     6
 74
     0
 42
0.000000001
 43
0.00000001
 40
0.0
 40
0.0
 40
0.0
 40
0.0
 40
0.3424102075047596
 40
0.7508427117791083
 40
1.0
 40
1.0
 40
1.0
 40
1.0
 10
72.16641307820183
 20
30.51515722543351
 30
0.0
 10
72.22366965932918
 20
30.51515722543351
 30
0.0
 10
72.34922282830199
 20
30.51515722543351
 30
0.0
 10
72.44324405847522
 20
30.51515722543351
 30
0.0
 10
72.44104562655417
 20
30.51515722543351
 30
0.0
 10
72.4402126523474
 20
30.51515722543351
 30
0.0
  0
SPLINE
  5
86
330
1F
100
AcDbEntity
  8
0
  6
Continuous
 62
     7
370
    25
100
AcDbSpline
210
0.0
220
0.0
230
1.0
 70
     8
 71
     3
 72
    20
 73
    16
 74
     0
 42
0.000000001
 43
0.00000001
 40
0.0
 40
0.0
 40
0.0
 40
0.0
 40
0.2500000000000001
 40
0.2500000000000001
 40
0.3750000000000001
 40
0.3750000000000001
 40
0.5000000000000001
 40
0.5000000000000001
 40
0.5625000000000002
 40
0.5625000000000002
 40
0.6250000000000004
 40
0.6250000000000004
 40
0.7500000000000003
 40
0.7500000000000003
 40
1.0
 40
1.0
 40
1.0
 40
1.0
 10
72.16641307820183
 20
30.51515722543351
 30
0.0
 10
72.79716226298558
 20
31.32733920248329
 30
0.0
 10
73.35359821491738
 20
32.16649111705465
 30
0.0
 10
73.9696562709157
 20
33.50455232943988
 30
0.0
 10
74.13814334528921
 20
33.96869687974954
 30
0.0
 10
74.36470377568098
 20
34.89619927122384
 30
0.0
 10
74.42453232159187
 20
35.36204662579405
 30
0.0
 10
74.42798559766298
 20
36.06420158540597
 30
0.0
 10
74.41482253964679
 20
36.29881458182795
 30
0.0
 10
74.35975090586882
 20
36.76916785791186
 30
0.0
 10
74.31752972600268
 20
37.00605520066977
 30
0.0
 10
74.15116199970065
 20
37.70831775855548
 30
0.0
 10
73.98825492793499
 20
38.16508206250169
 30
0.0
 10
73.3785580925195
 20
39.50882599943841
 30
0.0
 10
72.8092231989795
 20
40.37398905913361
 30
0.0
 10
72.16641307820196
 20
41.20170125814297
 30
0.0
  0
SPLINE
  5
87
330
1F
100
AcDbEntity
  8
0
  6
Continuous
 62
     7
370
    25
100
AcDbSpline
210
0.0
220
0.0
230
1.0
 70
     8
 71
     3
 72
    12
 73
     8
 74
     0
 42
0.000000001
 43
0.00000001
 40
0.0
 40
0.0
 40
0.0
 40
0.0
 40
0.5
 40
0.5
 40
0.75
 40
0.75
 40
1.0
 40
1.0
 40
1.0
 40
1.0
 10
72.16641307820183
 20
41.20170125814292
 30
0.0
 10
72.35357734679336
 20
42.12532072988809
 30
0.0
 10
72.45147343151787
 20
43.05262338946056
 30
0.0
 10
72.4521172073792
 20
44.44960957674977
 30
0.0
 10
72.42812917276132
 20
44.91627023482373
 30
0.0
 10
72.33189975283663
 20
45.85158247479452
 30
0.0
 10
72.2593821612906
 20
46.31982874600322
 30
0.0
 10
72.16641307820589
 20
46.77861319270401
 30
0.0
  0
SPLINE
  5
88
330
1F
100
AcDbEntity
  8
0
  6
Continuous
 62
     7
370
    25
100
AcDbSpline
210
0.0
220
0.0
230
1.0
 70
    24
 71
     3
 72
    10
 73
     6
 74
     0
 42
0.000000001
 43
0.00000001
 40
0.0
 40
0.0
 40
0.0
 40
0.0
 40
0.3424102075034574
 40
0.7508427117786153
 40
1.0
 40
1.0
 40
1.0
 40
1.0
 10
72.16641307819678
 20
57.46515722544
 30
0.0
 10
72.22366965932628
 20
57.4651572254373
 30
0.0
 10
72.34922282830418
 20
57.46515722543137
 30
0.0
 10
72.4432440584749
 20
57.46515722543383
 30
0.0
 10
72.44104562655409
 20
57.4651572254336
 30
0.0
 10
72.4402126523474
 20
57.46515722543351
 30
0.0
  0
LINE
  5
89
330
1F
100
AcDbEntity
  8
0
  6
Continuous
 62
     7
370
    25
100
AcDbLine
 10
60.9269040462
 20
30.5151572254
 30
0.0
 11
72.1664130782
 21
30.5151572254
 31
0.0
  0
LINE
  5
8A
330
1F
100
AcDbEntity
  8
0
  6
Continuous
 62
     7
370
    25
100
AcDbLine
 10
72.1664130782
 20
41.2017012581
 30
0.0
 11
60.9269040462
 21
41.2017012581
 31
0.0
  0
LINE
  5
8B
330
1F
100
AcDbEntity
  8
0
  6
Continuous
 62
     7
370
    18
100
AcDbLine
 10
58.0523585917
 20
24.6039867709
 30
0.0
 11
40.9702106186
 21
25.137803895
 31
0.0
  0
LINE
  5
8C
330
1F
100
AcDbEntity
  8
0
  6
Continuous
 62
     7
370
    18
100
AcDbLine
 10
58.0523585917
 20
63.37632768
 30
0.0
 11
40.9702106186
 21
62.8425105558
 31
0.0
  0
LINE
  5
8D
330
1F
100
AcDbEntity
  8
0
  6
CENTERX2
 62
     7
370
    18
100
AcDbLine
 10
77.803781379
 20
43.9901572254
 30
0.0
 11
37.2340155263
 21
43.9901572254
 31
0.0
  0
SPLINE
  5
8E
330
1F
100
AcDbEntity
  8
0
  6
Continuous
 62
     7
370
    25
100
AcDbSpline
210
0.0
220
0.0
230
1.0
 70
     8
 71
     3
 72
    23
 73
    19
 74
     0
 42
0.000000001
 43
0.00000001
 40
0.0
 40
0.0
 40
0.0
 40
0.0
 40
0.0714340508655357
 40
0.1375891490131986
 40
0.1988671272749591
 40
0.2554435599219264
 40
0.3076933861665007
 40
0.3550325418254515
 40
0.3974487289008685
 40
0.43613730335462
 40
0.5081119058244428
 40
0.5772270526050615
 40
0.6463348841943412
 40
0.7166178483288136
 40
0.7873525362986341
 40
0.8567329452643678
 40
0.9275818981340934
 40
1.0
 40
1.0
 40
1.0
 40
1.0
 10
118.6042394359056
 20
42.57571285839678
 30
0.0
 10
118.620461136881
 20
42.59203147830967
 30
0.0
 10
118.6517057604983
 20
42.62346277752452
 30
0.0
 10
118.6945712018412
 20
42.67105416084802
 30
0.0
 10
118.7344659048941
 20
42.7149072308986
 30
0.0
 10
118.768373677016
 20
42.75795789486503
 30
0.0
 10
118.7990100225045
 20
42.79787073732982
 30
0.0
 10
118.8240625857139
 20
42.83615952309346
 30
0.0
 10
118.8453904425813
 20
42.87164092703673
 30
0.0
 10
118.8667784001531
 20
42.91612109323151
 30
0.0
 10
118.8860965187244
 20
42.97092642720207
 30
0.0
 10
118.8988616188626
 20
43.03769124381039
 30
0.0
 10
118.9004579846675
 20
43.10511802861645
 30
0.0
 10
118.8914055162236
 20
43.17246217372384
 30
0.0
 10
118.8721979999588
 20
43.2376679079429
 30
0.0
 10
118.8446167506079
 20
43.30000185988848
 30
0.0
 10
118.8067364969613
 20
43.35751628149983
 30
0.0
 10
118.7754318055052
 20
43.39147846937198
 30
0.0
 10
118.7596080256492
 20
43.40864555070448
 30
0.0
  0
LINE
  5
8F
330
1F
100
AcDbEntity
  8
0
  6
Continuous
 62
     7
370
    25
100
AcDbLine
 10
118.2682618718
 20
42.2487096533
 30
0.0
 11
118.6042394359
 21
42.5757128584
 31
0.0
  0
LINE
  5
90
330
1F
100
AcDbEntity
  8
0
  6
Continuous
 62
     7
370
    25
100
AcDbLine
 10
117.6024766154
 20
42.9144949097
 30
0.0
 11
118.2682618718
 21
42.2487096533
 31
0.0
  0
LINE
  5
91
330
1F
100
AcDbEntity
  8
0
  6
Continuous
 62
     7
370
    25
100
AcDbLine
 10
117.9485503333
 20
43.2605686276
 30
0.0
 11
117.6024766154
 21
42.9144949097
 31
0.0
  0
SPLINE
  5
92
330
1F
100
AcDbEntity
  8
0
  6
Continuous
 62
     7
370
    25
100
AcDbSpline
210
0.0
220
0.0
230
1.0
 70
     8
 71
     3
 72
    23
 73
    19
 74
     0
 42
0.000000001
 43
0.00000001
 40
0.0
 40
0.0
 40
0.0
 40
0.0
 40
0.0726813284379041
 40
0.143460089084344
 40
0.2141609783754211
 40
0.2866317423066646
 40
0.3582937434852109
 40
0.4274496270517901
 40
0.4958614884323622
 40
0.5652405595167558
 40
0.6025654069960298
 40
0.6444912751488168
 40
0.691284245302206
 40
0.7427916792484177
 40
0.799585652404238
 40
0.8612748596826224
 40
0.9283330396850044
 40
1.0
 40
1.0
 40
1.0
 40
1.0
 10
118.7596080256492
 20
43.40864555070448
 30
0.0
 10
118.7428558074892
 20
43.42416894996651
 30
0.0
 10
118.7097898913697
 20
43.45480939489075
 30
0.0
 10
118.6526003914588
 20
43.49067231204149
 30
0.0
 10
118.5914557760745
 20
43.51882281817434
 30
0.0
 10
118.5262265047909
 20
43.53668309322692
 30
0.0
 10
118.4599026281344
 20
43.5465599638949
 30
0.0
 10
118.3939439972168
 20
43.54630974055104
 30
0.0
 10
118.3298566036567
 20
43.53459654763499
 30
0.0
 10
118.2775103155298
 20
43.51702107092849
 30
0.0
 10
118.2360276222521
 20
43.49566821035607
 30
0.0
 10
118.2015710631234
 20
43.47624327707476
 30
0.0
 10
118.1653336770602
 20
43.45124094582972
 30
0.0
 10
118.1265592123564
 20
43.42186862513744
 30
0.0
 10
118.085147557868
 20
43.38827468765631
 30
0.0
 10
118.0412493769165
 20
43.35005396791033
 30
0.0
 10
117.9956050485806
 20
43.30682462736118
 30
0.0
 10
117.9645788268046
 20
43.27632505045558
 30
0.0
 10
117.9485503333415
 20
43.26056862762756
 30
0.0
  0
CIRCLE
  5
93
330
1F
100
AcDbEntity
  8
0
  6
Continuous
 62
     7
370
    25
100
AcDbCircle
 10
118.7075606936
 20
43.9901572254
 30
0.0
 40
11.0
  0
SPLINE
  5
94
330
1F
100
AcDbEntity
  8
0
  6
Continuous
 62
     7
370
    25
100
AcDbSpline
210
0.0
220
0.0
230
1.0
 70
    24
 71
     3
 72
    20
 73
    16
 74
     0
 42
0.000000001
 43
0.00000001
 40
0.0
 40
0.0
 40
0.0
 40
0.0
 40
0.2500000000000001
 40
0.2500000000000001
 40
0.3750000000000003
 40
0.3750000000000003
 40
0.5000000000000004
 40
0.5000000000000004
 40
0.5625000000000004
 40
0.5625000000000004
 40
0.6250000000000006
 40
0.6250000000000006
 40
0.7500000000000002
 40
0.7500000000000002
 40
1.0
 40
1.0
 40
1.0
 40
1.0
 10
121.4960166609322
 20
57.46515722543351
 30
0.0
 10
122.3081986379824
 20
56.65297524838329
 30
0.0
 10
123.1473505525542
 20
55.81382333381149
 30
0.0
 10
124.4854117649402
 20
54.47576212142545
 30
0.0
 10
124.9495563152502
 20
54.01161757111552
 30
0.0
 10
125.877058706725
 20
53.0841151796407
 30
0.0
 10
126.3429060612954
 20
52.61826782507025
 30
0.0
 10
127.0450610209077
 20
51.91611286545794
 30
0.0
 10
127.2796740173298
 20
51.68149986903583
 30
0.0
 10
127.750027293414
 20
51.21114659295166
 30
0.0
 10
127.9869146361721
 20
50.97425925019362
 30
0.0
 10
128.6891771940581
 20
50.27199669230762
 30
0.0
 10
129.1459414980044
 20
49.81523238836122
 30
0.0
 10
130.4896854349417
 20
48.47148845142397
 30
0.0
 10
131.3548484946373
 20
47.60632539172843
 30
0.0
 10
132.1825606936469
 20
46.77861319271878
 30
0.0
  0
SPLINE
  5
95
330
1F
100
AcDbEntity
  8
0
  6
Continuous
 62
     7
370
    25
100
AcDbSpline
210
0.0
220
0.0
230
1.0
 70
    24
 71
     3
 72
    12
 73
     8
 74
     0
 42
0.000000001
 43
0.00000001
 40
0.0
 40
0.0
 40
0.0
 40
0.0
 40
0.5
 40
0.5
 40
0.75
 40
0.75
 40
1.0
 40
1.0
 40
1.0
 40
1.0
 10
132.1825606936416
 20
41.20170125814292
 30
0.0
 10
132.1825606936416
 20
42.12532072989084
 30
0.0
 10
132.1825606936416
 20
43.05262338946608
 30
0.0
 10
132.1825606936416
 20
44.44960957675948
 30
0.0
 10
132.1825606936416
 20
44.91627023483485
 30
0.0
 10
132.1825606936416
 20
45.85158247480845
 30
0.0
 10
132.1825606936416
 20
46.31982874601838
 30
0.0
 10
132.1825606936416
 20
46.77861319272039
 30
0.0
  0
SPLINE
  5
96
330
1F
100
AcDbEntity
  8
0
  6
Continuous
 62
     7
370
    25
100
AcDbSpline
210
0.0
220
0.0
230
1.0
 70
    24
 71
     3
 72
    20
 73
    16
 74
     0
 42
0.000000001
 43
0.00000001
 40
0.0
 40
0.0
 40
0.0
 40
0.0
 40
0.2500000000000001
 40
0.2500000000000001
 40
0.3749999999999999
 40
0.3749999999999999
 40
0.4999999999999998
 40
0.4999999999999998
 40
0.5624999999999999
 40
0.5624999999999999
 40
0.625
 40
0.625
 40
0.75
 40
0.75
 40
1.0
 40
1.0
 40
1.0
 40
1.0
 10
121.4960166609322
 20
30.51515722543351
 30
0.0
 10
122.3081986379819
 20
31.32733920248329
 30
0.0
 10
123.1473505525533
 20
32.16649111705463
 30
0.0
 10
124.4854117649385
 20
33.50455232943988
 30
0.0
 10
124.9495563152482
 20
33.96869687974954
 30
0.0
 10
125.8770587067225
 20
34.89619927122384
 30
0.0
 10
126.3429060612927
 20
35.36204662579404
 30
0.0
 10
127.0450610209046
 20
36.06420158540596
 30
0.0
 10
127.2796740173266
 20
36.29881458182794
 30
0.0
 10
127.7500272934105
 20
36.76916785791185
 30
0.0
 10
127.9869146361684
 20
37.00605520066977
 30
0.0
 10
128.6891771940541
 20
37.70831775855547
 30
0.0
 10
129.1459414980004
 20
38.16508206250169
 30
0.0
 10
130.4896854349371
 20
39.50882599943841
 30
0.0
 10
131.3548484946323
 20
40.37398905913361
 30
0.0
 10
132.1825606936416
 20
41.20170125814297
 30
0.0
  0
SPLINE
  5
97
330
1F
100
AcDbEntity
  8
0
  6
Continuous
 62
     7
370
    25
100
AcDbSpline
210
0.0
220
0.0
230
1.0
 70
    24
 71
     3
 72
    12
 73
     8
 74
     0
 42
0.000000001
 43
0.00000001
 40
0.0
 40
0.0
 40
0.0
 40
0.0
 40
0.5
 40
0.5
 40
0.75
 40
0.75
 40
1.0
 40
1.0
 40
1.0
 40
1.0
 10
121.4960166609322
 20
30.51515722543351
 30
0.0
 10
120.5723971891836
 20
30.51515722543351
 30
0.0
 10
119.6450945296078
 20
30.51515722543351
 30
0.0
 10
118.2481083423134
 20
30.51515722543351
 30
0.0
 10
117.7814476842377
 20
30.51515722543351
 30
0.0
 10
116.8461354442635
 20
30.51515722543351
 30
0.0
 10
116.3778891730533
 20
30.51515722543351
 30
0.0
 10
115.919104726351
 20
30.51515722543351
 30
0.0
  0
SPLINE
  5
98
330
1F
100
AcDbEntity
  8
0
  6
Continuous
 62
     7
370
    25
100
AcDbSpline
210
0.0
220
0.0
230
1.0
 70
    24
 71
     3
 72
    20
 73
    16
 74
     0
 42
0.000000001
 43
0.00000001
 40
0.0
 40
0.0
 40
0.0
 40
0.0
 40
0.2500000000000001
 40
0.2500000000000001
 40
0.3750000000000001
 40
0.3750000000000001
 40
0.5000000000000001
 40
0.5000000000000001
 40
0.5625000000000002
 40
0.5625000000000002
 40
0.6250000000000004
 40
0.6250000000000004
 40
0.7500000000000003
 40
0.7500000000000003
 40
1.0
 40
1.0
 40
1.0
 40
1.0
 10
115.919104726351
 20
30.51515722543351
 30
0.0
 10
115.1069227493012
 20
31.32733920248329
 30
0.0
 10
114.2677708347299
 20
32.16649111705465
 30
0.0
 10
112.9297096223446
 20
33.50455232943988
 30
0.0
 10
112.4655650720349
 20
33.96869687974954
 30
0.0
 10
111.5380626805606
 20
34.89619927122384
 30
0.0
 10
111.0722153259904
 20
35.36204662579405
 30
0.0
 10
110.3700603663785
 20
36.06420158540597
 30
0.0
 10
110.1354473699566
 20
36.29881458182795
 30
0.0
 10
109.6650940938726
 20
36.76916785791186
 30
0.0
 10
109.4282067511147
 20
37.00605520066977
 30
0.0
 10
108.725944193229
 20
37.70831775855548
 30
0.0
 10
108.2691798892828
 20
38.16508206250169
 30
0.0
 10
106.9254359523461
 20
39.50882599943841
 30
0.0
 10
106.0602728926509
 20
40.37398905913361
 30
0.0
 10
105.2325606936415
 20
41.20170125814297
 30
0.0
  0
SPLINE
  5
99
330
1F
100
AcDbEntity
  8
0
  6
Continuous
 62
     7
370
    25
100
AcDbSpline
210
0.0
220
0.0
230
1.0
 70
    24
 71
     3
 72
    12
 73
     8
 74
     0
 42
0.000000001
 43
0.00000001
 40
0.0
 40
0.0
 40
0.0
 40
0.0
 40
0.5
 40
0.5
 40
0.75
 40
0.75
 40
1.0
 40
1.0
 40
1.0
 40
1.0
 10
105.2325606936416
 20
41.20170125814292
 30
0.0
 10
105.2325606936416
 20
42.12532072988809
 30
0.0
 10
105.2325606936416
 20
43.05262338946056
 30
0.0
 10
105.2325606936416
 20
44.44960957674977
 30
0.0
 10
105.2325606936416
 20
44.91627023482373
 30
0.0
 10
105.2325606936416
 20
45.85158247479452
 30
0.0
 10
105.2325606936416
 20
46.31982874600322
 30
0.0
 10
105.2325606936416
 20
46.77861319270401
 30
0.0
  0
SPLINE
  5
9A
330
1F
100
AcDbEntity
  8
0
  6
Continuous
 62
     7
370
    25
100
AcDbSpline
210
0.0
220
0.0
230
1.0
 70
    24
 71
     3
 72
    20
 73
    16
 74
     0
 42
0.000000001
 43
0.00000001
 40
0.0
 40
0.0
 40
0.0
 40
0.0
 40
0.2500000000000004
 40
0.2500000000000004
 40
0.3750000000000007
 40
0.3750000000000007
 40
0.5000000000000009
 40
0.5000000000000009
 40
0.5625000000000008
 40
0.5625000000000008
 40
0.6250000000000007
 40
0.6250000000000007
 40
0.7500000000000004
 40
0.7500000000000004
 40
1.0
 40
1.0
 40
1.0
 40
1.0
 10
105.2325606936349
 20
46.77861319271742
 30
0.0
 10
106.0447426706856
 20
47.59079516976814
 30
0.0
 10
106.8838945852579
 20
48.42994708434044
 30
0.0
 10
108.2219557976447
 20
49.76800829672725
 30
0.0
 10
108.6861003479549
 20
50.23215284703748
 30
0.0
 10
109.6136027394305
 20
51.15965523851301
 30
0.0
 10
110.0794500940013
 20
51.62550259308384
 30
0.0
 10
110.7816050536142
 20
52.32765755269669
 30
0.0
 10
111.0162180500364
 20
52.56227054911898
 30
0.0
 10
111.486571326121
 20
53.03262382520353
 30
0.0
 10
111.7234586688792
 20
53.26951116796177
 30
0.0
 10
112.4257212267658
 20
53.97177372584837
 30
0.0
 10
112.8824855307126
 20
54.42853802979515
 30
0.0
 10
114.226229467651
 20
55.77228196673353
 30
0.0
 10
115.0913925273472
 20
56.63744502642976
 30
0.0
 10
115.9191047263575
 20
57.46515722544006
 30
0.0
  0
SPLINE
  5
9B
330
1F
100
AcDbEntity
  8
0
  6
Continuous
 62
     7
370
    25
100
AcDbSpline
210
0.0
220
0.0
230
1.0
 70
    24
 71
     3
 72
    12
 73
     8
 74
     0
 42
0.000000001
 43
0.00000001
 40
0.0
 40
0.0
 40
0.0
 40
0.0
 40
0.5
 40
0.5
 40
0.75
 40
0.75
 40
1.0
 40
1.0
 40
1.0
 40
1.0
 10
121.4960166609322
 20
57.46515722543351
 30
0.0
 10
120.5723971891844
 20
57.46515722543351
 30
0.0
 10
119.6450945296093
 20
57.4651572254335
 30
0.0
 10
118.2481083423161
 20
57.46515722543351
 30
0.0
 10
117.7814476842408
 20
57.46515722543351
 30
0.0
 10
116.8461354442674
 20
57.46515722543351
 30
0.0
 10
116.3778891730575
 20
57.46515722543351
 30
0.0
 10
115.9191047263556
 20
57.46515722543351
 30
0.0
  0
SPLINE
  5
9C
330
1F
100
AcDbEntity
  8
0
  6
Continuous
 62
     7
370
    25
100
AcDbSpline
210
0.0
220
0.0
230
1.0
 70
     8
 71
     3
 72
    31
 73
    27
 74
     0
 42
0.000000001
 43
0.00000001
 40
0.0
 40
0.0
 40
0.0
 40
0.0
 40
0.0340625437668025
 40
0.06731388559767
 40
0.1002986917293194
 40
0.1328915753415364
 40
0.1654542126705891
 40
0.1984564401369066
 40
0.231559282490288
 40
0.2655034986764516
 40
0.2998732210996856
 40
0.3348750234665335
 40
0.3704365550514274
 40
0.4070493254137255
 40
0.4446490562916618
 40
0.4836382628524704
 40
0.5240535084233169
 40
0.5661466743313504
 40
0.6102573304114861
 40
0.6569339262658019
 40
0.7066268298851165
 40
0.7589305312314923
 40
0.8142977160234048
 40
0.8730747594856018
 40
0.9349497890039752
 40
1.0
 40
1.0
 40
1.0
 40
1.0
 10
116.1833671899954
 20
46.9658274823447
 30
0.0
 10
116.1993683252624
 20
46.98127361088867
 30
0.0
 10
116.2309895276063
 20
47.01179801731156
 30
0.0
 10
116.2827297536306
 20
47.05200963924084
 30
0.0
 10
116.3357229538658
 20
47.08883927916051
 30
0.0
 10
116.3916539991723
 20
47.12019374381772
 30
0.0
 10
116.4497009287808
 20
47.14739948719578
 30
0.0
 10
116.5102000674693
 20
47.1696143878173
 30
0.0
 10
116.5729552644853
 20
47.18777196472787
 30
0.0
 10
116.6378247237993
 20
47.20122472846558
 30
0.0
 10
116.7047759313577
 20
47.20950414855849
 30
0.0
 10
116.7732347851509
 20
47.21324571932107
 30
0.0
 10
116.843161830444
 20
47.209880018767
 30
0.0
 10
116.9144438762874
 20
47.20232250512674
 30
0.0
 10
116.9870283042413
 20
47.1883493725401
 30
0.0
 10
117.0612524570836
 20
47.17024302449943
 30
0.0
 10
117.1364363139348
 20
47.14490171408414
 30
0.0
 10
117.2135878071877
 20
47.11530750738694
 30
0.0
 10
117.2925799224753
 20
47.07938274572163
 30
0.0
 10
117.3729707576946
 20
47.03519151696081
 30
0.0
 10
117.4550409234231
 20
46.98341455262197
 30
0.0
 10
117.5395637400661
 20
46.92505176574574
 30
0.0
 10
117.6253975078069
 20
46.85843881800785
 30
0.0
 10
117.7132294510423
 20
46.78441371811893
 30
0.0
 10
117.8030928683394
 20
46.70308621779437
 30
0.0
 10
117.8621529224094
 20
46.64502396067667
 30
0.0
 10
117.8924216771749
 20
46.6152665849088
 30
0.0
  0
SPLINE
  5
9D
330
1F
100
AcDbEntity
  8
0
  6
Continuous
 62
     7
370
    25
100
AcDbSpline
210
0.0
220
0.0
230
1.0
 70
     8
 71
     3
 72
    31
 73
    27
 74
     0
 42
0.000000001
 43
0.00000001
 40
0.0
 40
0.0
 40
0.0
 40
0.0
 40
0.0685392375563685
 40
0.1330574173017167
 40
0.1936310771831158
 40
0.2505306821562902
 40
0.3036142074401766
 40
0.3534609049693047
 40
0.3995800908164908
 40
0.4424160216489256
 40
0.4830723824124626
 40
0.5220229044503062
 40
0.5599473210514604
 40
0.596663301315678
 40
0.6323728579706365
 40
0.6673061936474427
 40
0.7019513182513506
 40
0.7359417873892767
 40
0.7694887228848919
 40
0.8027329281118954
 40
0.8353134843410182
 40
0.8678314089480393
 40
0.9002481012228694
 40
0.9330513656415884
 40
0.9661186419532684
 40
0.9999999999999999
 40
0.9999999999999999
 40
0.9999999999999999
 40
0.9999999999999999
 10
116.5546812925595
 20
45.27752620029342
 30
0.0
 10
116.5234281472767
 20
45.30910201599531
 30
0.0
 10
116.4627554152454
 20
45.37040115844688
 30
0.0
 10
116.3780291988403
 20
45.46303484238972
 30
0.0
 10
116.3015331063311
 20
45.55286159718635
 30
0.0
 10
116.2331522013152
 20
45.6397496840846
 30
0.0
 10
116.1720204866519
 20
45.72343063295811
 30
0.0
 10
116.1193996317678
 20
45.80450500823299
 30
0.0
 10
116.0745798782596
 20
45.88258290212793
 30
0.0
 10
116.0383293564882
 20
45.9584634975874
 30
0.0
 10
116.0092980167278
 20
46.03236942850191
 30
0.0
 10
115.9848015444425
 20
46.10453841243827
 30
0.0
 10
115.9656314676253
 20
46.17568265019981
 30
0.0
 10
115.9520041116938
 20
46.24597255041414
 30
0.0
 10
115.944274785949
 20
46.3151840733989
 30
0.0
 10
115.9411676124469
 20
46.38342728322921
 30
0.0
 10
115.9441472365352
 20
46.45056720469712
 30
0.0
 10
115.9518766000131
 20
46.51641129277412
 30
0.0
 10
115.9649682644908
 20
46.5804780403493
 30
0.0
 10
115.982190261845
 20
46.64258964134198
 30
0.0
 10
116.0040458761273
 20
46.70257094150276
 30
0.0
 10
116.0313511272096
 20
46.75963472841556
 30
0.0
 10
116.0619922653912
 20
46.8151678463659
 30
0.0
 10
116.0983150804912
 20
46.86757854717544
 30
0.0
 10
116.1379524388464
 20
46.91876598414203
 30
0.0
 10
116.168106716325
 20
46.95001366115137
 30
0.0
 10
116.1833671899954
 20
46.9658274823447
 30
0.0
  0
SPLINE
  5
9E
330
1F
100
AcDbEntity
  8
0
  6
Continuous
 62
     7
370
    25
100
AcDbSpline
210
0.0
220
0.0
230
1.0
 70
     8
 71
     3
 72
    31
 73
    27
 74
     0
 42
0.000000001
 43
0.00000001
 40
0.0
 40
0.0
 40
0.0
 40
0.0
 40
0.0339161406116254
 40
0.0667911467684396
 40
0.09962808698232
 40
0.1318265592299254
 40
0.1643778667025713
 40
0.1967210286892329
 40
0.2297213409237041
 40
0.2630197127526299
 40
0.2967583839686785
 40
0.3311505724363449
 40
0.3661197706371224
 40
0.4018997925665818
 40
0.4386534654157431
 40
0.4765431671037201
 40
0.5160815487196688
 40
0.5571548844457244
 40
0.6004200138433166
 40
0.6470895029678524
 40
0.6968308887516993
 40
0.7500347714651302
 40
0.8069927895101678
 40
0.8674089097323787
 40
0.9317987325696281
 40
1.0
 40
1.0
 40
1.0
 40
1.0
 10
118.241860779739
 20
44.90733389260111
 30
0.0
 10
118.2260211340216
 20
44.8921066853265
 30
0.0
 10
118.1948280771823
 20
44.86211970515686
 30
0.0
 10
118.1441445035559
 20
44.82207472385712
 30
0.0
 10
118.0918260696397
 20
44.7861667222647
 30
0.0
 10
118.036705060633
 20
44.75513547867225
 30
0.0
 10
117.9798494949589
 20
44.72816588285942
 30
0.0
 10
117.9203250366432
 20
44.70613239732121
 30
0.0
 10
117.858756219344
 20
44.68894146140728
 30
0.0
 10
117.7952540809701
 20
44.67584525171714
 30
0.0
 10
117.7299659830136
 20
44.668099213872
 30
0.0
 10
117.6632054845399
 20
44.66518301245941
 30
0.0
 10
117.5951009951743
 20
44.66805809494259
 30
0.0
 10
117.5259690157507
 20
44.67669848932906
 30
0.0
 10
117.4557185058747
 20
44.69023902585155
 30
0.0
 10
117.3841062107731
 20
44.70883214328779
 30
0.0
 10
117.3112557610468
 20
44.73307172940272
 30
0.0
 10
117.2367253110175
 20
44.76286912280091
 30
0.0
 10
117.1603360017123
 20
44.79989215733575
 30
0.0
 10
117.0813960112159
 20
44.84413954174607
 30
0.0
 10
116.9999876425012
 20
44.89674130676742
 30
0.0
 10
116.9156808689903
 20
44.95689890924837
 30
0.0
 10
116.8289500249236
 20
45.02535703012526
 30
0.0
 10
116.7397896225733
 20
45.10219923663344
 30
0.0
 10
116.6469764258453
 20
45.18593405065283
 30
0.0
 10
116.5860303196834
 20
45.24641594906785
 30
0.0
 10
116.5546812925595
 20
45.27752620029342
 30
0.0
  0
SPLINE
  5
9F
330
1F
100
AcDbEntity
  8
0
  6
Continuous
 62
     7
370
    25
100
AcDbSpline
210
0.0
220
0.0
230
1.0
 70
     8
 71
     3
 72
    31
 73
    27
 74
     0
 42
0.000000001
 43
0.00000001
 40
0.0
 40
0.0
 40
0.0
 40
0.0
 40
0.0650931380611511
 40
0.1266039765373225
 40
0.1850158110860341
 40
0.2401927525856703
 40
0.2926948785080096
 40
0.3417823620468378
 40
0.3882382327930629
 40
0.4321173744957394
 40
0.4739710174663259
 40
0.5141406009624557
 40
0.5528774178269757
 40
0.5905019610163778
 40
0.6271388923883595
 40
0.6630104030816908
 40
0.6983217028166657
 40
0.732998616177379
 40
0.7672460775099879
 40
0.8006463810336941
 40
0.8339394285304621
 40
0.8667836833964284
 40
0.8993980752684347
 40
0.9326416935233395
 40
0.9659149781349369
 40
1.0
 40
1.0
 40
1.0
 40
1.0
 10
117.8924216771749
 20
46.6152665849088
 30
0.0
 10
117.9221796669359
 20
46.58499867918329
 30
0.0
 10
117.9800579617872
 20
46.52612861483479
 30
0.0
 10
118.0610344531786
 20
46.43665573028162
 30
0.0
 10
118.1344624967258
 20
46.3492063692709
 30
0.0
 10
118.201188874704
 20
46.2638610294697
 30
0.0
 10
118.2598039351884
 20
46.18006127358571
 30
0.0
 10
118.3112827740296
 20
46.09836230361978
 30
0.0
 10
118.3554191451282
 20
46.01880378221033
 30
0.0
 10
118.391329684273
 20
45.94036084860544
 30
0.0
 10
118.4209329958061
 20
45.86377244558444
 30
0.0
 10
118.4462629973459
 20
45.78914862096525
 30
0.0
 10
118.4644548198669
 20
45.71531252989345
 30
0.0
 10
118.4783442051973
 20
45.64289552859973
 30
0.0
 10
118.4859427444342
 20
45.57143047446026
 30
0.0
 10
118.489273832739
 20
45.50112729476166
 30
0.0
 10
118.4855382394091
 20
45.4321101377971
 30
0.0
 10
118.477258412026
 20
45.36459914238249
 30
0.0
 10
118.4638026150927
 20
45.2991722201
 30
0.0
 10
118.4456567927921
 20
45.23585134570095
 30
0.0
 10
118.4234081318432
 20
45.17481345462404
 30
0.0
 10
118.3963970265954
 20
45.11628279879955
 30
0.0
 10
118.3646830194734
 20
45.0601896040199
 30
0.0
 10
118.3282354538274
 20
45.00675318549746
 30
0.0
 10
118.2878062241366
 20
44.95497307127381
 30
0.0
 10
118.257298477836
 20
44.92334068647545
 30
0.0
 10
118.241860779739
 20
44.90733389260111
 30
0.0
  0
LINE
  5
A0
330
1F
100
AcDbEntity
  8
0
  6
Continuous
 62
     7
370
    25
100
AcDbLine
 10
121.8991655253
 20
43.2720637472
 30
0.0
 11
121.6994860381
 21
43.07238426
 31
0.0
  0
LINE
  5
A1
330
1F
100
AcDbEntity
  8
0
  6
Continuous
 62
     7
370
    25
100
AcDbLine
 10
120.1300950125
 20
45.04113426
 30
0.0
 11
121.8991655253
 21
43.2720637472
 31
0.0
  0
LINE
  5
A2
330
1F
100
AcDbEntity
  8
0
  6
Continuous
 62
     7
370
    25
100
AcDbLine
 10
120.567034115
 20
45.4780733626
 30
0.0
 11
120.1300950125
 21
45.04113426
 31
0.0
  0
LINE
  5
A3
330
1F
100
AcDbEntity
  8
0
  6
Continuous
 62
     7
370
    25
100
AcDbLine
 10
120.3763289868
 20
45.6687784908
 30
0.0
 11
120.567034115
 21
45.4780733626
 31
0.0
  0
LINE
  5
A4
330
1F
100
AcDbEntity
  8
0
  6
Continuous
 62
     7
370
    25
100
AcDbLine
 10
119.3010886022
 20
44.5935381062
 30
0.0
 11
120.3763289868
 21
45.6687784908
 31
0.0
  0
LINE
  5
A5
330
1F
100
AcDbEntity
  8
0
  6
Continuous
 62
     7
370
    25
100
AcDbLine
 10
119.4917937304
 20
44.402832978
 30
0.0
 11
119.3010886022
 21
44.5935381062
 31
0.0
  0
LINE
  5
A6
330
1F
100
AcDbEntity
  8
0
  6
Continuous
 62
     7
370
    25
100
AcDbLine
 10
119.9304155253
 20
44.8414547729
 30
0.0
 11
119.4917937304
 21
44.402832978
 31
0.0
  0
LINE
  5
A7
330
1F
100
AcDbEntity
  8
0
  6
Continuous
 62
     7
370
    25
100
AcDbLine
 10
121.6994860381
 20
43.07238426
 30
0.0
 11
119.9304155253
 21
44.8414547729
 31
0.0
  0
LINE
  5
A8
330
1F
100
AcDbEntity
  8
0
  6
Continuous
 62
     7
370
    25
100
AcDbLine
 10
118.4600887949
 20
42.0568827302
 30
0.0
 11
119.3715471282
 21
41.1454243969
 31
0.0
  0
LINE
  5
A9
330
1F
100
AcDbEntity
  8
0
  6
Continuous
 62
     7
370
    25
100
AcDbLine
 10
118.5997522564
 20
42.1965461917
 30
0.0
 11
118.4600887949
 21
42.0568827302
 31
0.0
  0
SPLINE
  5
AA
330
1F
100
AcDbEntity
  8
0
  6
Continuous
 62
     7
370
    25
100
AcDbSpline
210
0.0
220
0.0
230
1.0
 70
     8
 71
     3
 72
    15
 73
    11
 74
     0
 42
0.000000001
 43
0.00000001
 40
0.0
 40
0.0
 40
0.0
 40
0.0
 40
0.0753901858551261
 40
0.1649443888154755
 40
0.2680434861778919
 40
0.3855477860922088
 40
0.517966154166672
 40
0.6643098712270734
 40
0.8251607063646663
 40
1.0
 40
1.0
 40
1.0
 40
1.0
 10
119.0664189230851
 20
42.72715516608909
 30
0.0
 10
119.0566283303683
 20
42.71230398434189
 30
0.0
 10
119.0352077261679
 20
42.67981143814777
 30
0.0
 10
118.9976305030653
 20
42.62889681758517
 30
0.0
 10
118.9510338958307
 20
42.57246326529155
 30
0.0
 10
118.8974083422781
 20
42.50872618365091
 30
0.0
 10
118.834327662754
 20
42.43970387747984
 30
0.0
 10
118.7636937776397
 20
42.36375936711243
 30
0.0
 10
118.6845377022463
 20
42.28209473838278
 30
0.0
 10
118.6287884427937
 20
42.22584371467742
 30
0.0
 10
118.5997522564184
 20
42.19654619173012
 30
0.0
  0
SPLINE
  5
AB
330
1F
100
AcDbEntity
  8
0
  6
Continuous
 62
     7
370
    25
100
AcDbSpline
210
0.0
220
0.0
230
1.0
 70
     8
 71
     3
 72
    23
 73
    19
 74
     0
 42
0.000000001
 43
0.00000001
 40
0.0
 40
0.0
 40
0.0
 40
0.0
 40
0.069584411480941
 40
0.1366237229743219
 40
0.2019334138781219
 40
0.2643611311562475
 40
0.3254530953890702
 40
0.3856538430923492
 40
0.4452848548136248
 40
0.5049270901396904
 40
0.5646141987799761
 40
0.6236473059504294
 40
0.6836364314990078
 40
0.7438816365130284
 40
0.8048337486793985
 40
0.8682164437659138
 40
0.9329082916196966
 40
1.0
 40
1.0
 40
1.0
 40
1.0
 10
118.9620920000081
 20
43.61112952506345
 30
0.0
 10
118.9776632591703
 20
43.59489204817779
 30
0.0
 10
119.0082362474711
 20
43.56301099182315
 30
0.0
 10
119.0493204030602
 20
43.51220605810826
 30
0.0
 10
119.0852706742333
 20
43.46044207440431
 30
0.0
 10
119.1151803895143
 20
43.40714932151752
 30
0.0
 10
119.1399960141569
 20
43.35314179735684
 30
0.0
 10
119.1598429171513
 20
43.29805133805815
 30
0.0
 10
119.1739619447512
 20
43.24168138102776
 30
0.0
 10
119.1822080668596
 20
43.18435147440415
 30
0.0
 10
119.1856214170474
 20
43.12673878866315
 30
0.0
 10
119.1838861104904
 20
43.06893425295627
 30
0.0
 10
119.1771872528118
 20
43.01131116509761
 30
0.0
 10
119.1653195997549
 20
42.9538986831126
 30
0.0
 10
119.1483608909263
 20
42.89661861670753
 30
0.0
 10
119.1257103359809
 20
42.83982545325783
 30
0.0
 10
119.0988767941881
 20
42.78266634710859
 30
0.0
 10
119.077368771609
 20
42.74588218061263
 30
0.0
 10
119.0664189230851
 20
42.72715516608909
 30
0.0
  0
SPLINE
  5
AC
330
1F
100
AcDbEntity
  8
0
  6
Continuous
 62
     7
370
    25
100
AcDbSpline
210
0.0
220
0.0
230
1.0
 70
     8
 71
     3
 72
    23
 73
    19
 74
     0
 42
0.000000001
 43
0.00000001
 40
0.0
 40
0.0
 40
0.0
 40
0.0
 40
0.0631120667195007
 40
0.1246204889042283
 40
0.1854063864272505
 40
0.2452855145665089
 40
0.3045096995741357
 40
0.3641375552122479
 40
0.4246759440160571
 40
0.4858777714932493
 40
0.547610248411983
 40
0.6086002211440635
 40
0.6704667414166823
 40
0.7330433104550825
 40
0.7964418486351544
 40
0.8616201805525385
 40
0.9293334730091429
 40
1.0
 40
1.0
 40
1.0
 40
1.0
 10
118.0887746923158
 20
43.72274811480705
 30
0.0
 10
118.1062097116494
 20
43.73273366969382
 30
0.0
 10
118.1406367356139
 20
43.75245105175171
 30
0.0
 10
118.1942884523867
 20
43.77720330794732
 30
0.0
 10
118.2486933890524
 20
43.79736946382108
 30
0.0
 10
118.3037506880065
 20
43.81326883016855
 30
0.0
 10
118.3596894549719
 20
43.82410830592718
 30
0.0
 10
118.4165946220846
 20
43.82930380034428
 30
0.0
 10
118.4743294491647
 20
43.831370928054
 30
0.0
 10
118.5326914176796
 20
43.82783708647919
 30
0.0
 10
118.5907258503297
 20
43.8196327627709
 30
0.0
 10
118.6478867321083
 20
43.80582262537146
 30
0.0
 10
118.7041652136325
 20
43.78773468000523
 30
0.0
 10
118.758539782939
 20
43.76261116847842
 30
0.0
 10
118.8115576317965
 20
43.7326774802392
 30
0.0
 10
118.8633987239926
 20
43.69771467418285
 30
0.0
 10
118.9141221212225
 20
43.65726442323655
 30
0.0
 10
118.945876147439
 20
43.626725076397
 30
0.0
 10
118.9620920000081
 20
43.61112952506345
 30
0.0
  0
SPLINE
  5
AD
330
1F
100
AcDbEntity
  8
0
  6
Continuous
 62
     7
370
    25
100
AcDbSpline
210
0.0
220
0.0
230
1.0
 70
     8
 71
     3
 72
    15
 73
    11
 74
     0
 42
0.000000001
 43
0.00000001
 40
0.0
 40
0.0
 40
0.0
 40
0.0
 40
0.1771214341944267
 40
0.338855584180858
 40
0.4858188358501852
 40
0.6186783670831187
 40
0.7356853745542105
 40
0.8381870473681525
 40
0.9261641814985229
 40
1.0
 40
1.0
 40
1.0
 40
1.0
 10
117.606402897444
 20
43.29983144814037
 30
0.0
 10
117.6331970978169
 20
43.326699566566
 30
0.0
 10
117.6844577736426
 20
43.37810165692487
 30
0.0
 10
117.7599792568202
 20
43.44971897636279
 30
0.0
 10
117.8289169715511
 20
43.51448943730019
 30
0.0
 10
117.8919198258971
 20
43.57156586850071
 30
0.0
 10
117.9491980902329
 20
43.62076814736118
 30
0.0
 10
118.0009542207284
 20
43.66150405741229
 30
0.0
 10
118.0460153614245
 20
43.69587232522645
 30
0.0
 10
118.075376913156
 20
43.71432712490748
 30
0.0
 10
118.0887746923158
 20
43.72274811480705
 30
0.0
  0
LINE
  5
AE
330
1F
100
AcDbEntity
  8
0
  6
Continuous
 62
     7
370
    25
100
AcDbLine
 10
117.2160182821
 20
42.9094468328
 30
0.0
 11
117.6064028974
 21
43.2998314481
 31
0.0
  0
LINE
  5
AF
330
1F
100
AcDbEntity
  8
0
  6
Continuous
 62
     7
370
    25
100
AcDbLine
 10
119.1757939231
 20
40.9496711917
 30
0.0
 11
117.2160182821
 21
42.9094468328
 31
0.0
  0
LINE
  5
B0
330
1F
100
AcDbEntity
  8
0
  6
Continuous
 62
     7
370
    25
100
AcDbLine
 10
119.3715471282
 20
41.1454243969
 30
0.0
 11
119.1757939231
 21
40.9496711917
 31
0.0
  0
SPLINE
  5
B1
330
1F
100
AcDbEntity
  8
0
  6
Continuous
 62
     7
370
    25
100
AcDbSpline
210
0.0
220
0.0
230
1.0
 70
     8
 71
     3
 72
    19
 73
    15
 74
     0
 42
0.000000001
 43
0.00000001
 40
0.0
 40
0.0
 40
0.0
 40
0.0
 40
0.1057289484176123
 40
0.206912970561797
 40
0.3055579932413628
 40
0.4022404034576859
 40
0.4942954987103589
 40
0.5780610980893167
 40
0.6557675958613727
 40
0.7279268856081793
 40
0.7976084712980801
 40
0.8651260054669643
 40
0.9319580036291374
 40
1.0
 40
1.0
 40
1.0
 40
1.0
 10
114.7049534231627
 20
44.15293104792904
 30
0.0
 10
114.7263364446381
 20
44.17554188659089
 30
0.0
 10
114.7681833045498
 20
44.21979160120959
 30
0.0
 10
114.8224664926184
 20
44.29168587566121
 30
0.0
 10
114.8676337291214
 20
44.36649890711019
 30
0.0
 10
114.9030988747105
 20
44.44339664453995
 30
0.0
 10
114.9296817019937
 20
44.51919494651097
 30
0.0
 10
114.9452668080313
 20
44.59234950553039
 30
0.0
 10
114.9502547169652
 20
44.66115831378445
 30
0.0
 10
114.9440971584034
 20
44.72579049320532
 30
0.0
 10
114.9278764444504
 20
44.78541755218355
 30
0.0
 10
114.9051452823889
 20
44.84116054061093
 30
0.0
 10
114.8733048862719
 20
44.89194303292366
 30
0.0
 10
114.8464074230683
 20
44.92118946354105
 30
0.0
 10
114.8328380385474
 20
44.93594386844186
 30
0.0
  0
LINE
  5
B2
330
1F
100
AcDbEntity
  8
0
  6
Continuous
 62
     7
370
    25
100
AcDbLine
 10
114.8844406026
 20
43.9734438684
 30
0.0
 11
114.7049534232
 21
44.1529310479
 31
0.0
  0
SPLINE
  5
B3
330
1F
100
AcDbEntity
  8
0
  6
Continuous
 62
     7
370
    25
100
AcDbSpline
210
0.0
220
0.0
230
1.0
 70
     8
 71
     3
 72
    23
 73
    19
 74
     0
 42
0.000000001
 43
0.00000001
 40
0.0
 40
0.0
 40
0.0
 40
0.0
 40
0.0703488477789895
 40
0.1396280802335949
 40
0.2103430788637842
 40
0.282686193359841
 40
0.3554925770820697
 40
0.4270637206804204
 40
0.4988235429721522
 40
0.5723889365327269
 40
0.6113453637448514
 40
0.6543900516773973
 40
0.7012892835300567
 40
0.7519446404334633
 40
0.8074317301970525
 40
0.8672605470112176
 40
0.9310927794988618
 40
1.0
 40
1.0
 40
1.0
 40
1.0
 10
115.8867643205986
 20
44.11983809921109
 30
0.0
 10
115.86704837045
 20
44.13781664045441
 30
0.0
 10
115.827916240271
 20
44.17350036916439
 30
0.0
 10
115.760484654792
 20
44.21673924730192
 30
0.0
 10
115.6865706850089
 20
44.24915110704323
 30
0.0
 10
115.6076403235526
 20
44.27135128039929
 30
0.0
 10
115.5261590333677
 20
44.28338580434776
 30
0.0
 10
115.444024343265
 20
44.28315581331002
 30
0.0
 10
115.3623307151613
 20
44.27212553125083
 30
0.0
 10
115.2951900689241
 20
44.25204701129965
 30
0.0
 10
115.2406395201208
 20
44.22967858709971
 30
0.0
 10
115.1969724106958
 20
44.20771468469634
 30
0.0
 10
115.151150544282
 20
44.18053257020092
 30
0.0
 10
115.1024608037992
 20
44.14902522447225
 30
0.0
 10
115.0518160142119
 20
44.11173708368732
 30
0.0
 10
114.9980218504184
 20
44.07037408794264
 30
0.0
 10
114.9415323893571
 20
44.02419348563762
 30
0.0
 10
114.9039501550137
 20
43.99078615830925
 30
0.0
 10
114.8844406026499
 20
43.97344386844186
 30
0.0
  0
SPLINE
  5
B4
330
1F
100
AcDbEntity
  8
0
  6
Continuous
 62
     7
370
    25
100
AcDbSpline
210
0.0
220
0.0
230
1.0
 70
     8
 71
     3
 72
    23
 73
    19
 74
     0
 42
0.000000001
 43
0.00000001
 40
0.0
 40
0.0
 40
0.0
 40
0.0
 40
0.0730680158386374
 40
0.1430722448992376
 40
0.2104157717152759
 40
0.2758231607745294
 40
0.338739629807794
 40
0.401841514877047
 40
0.464698535264879
 40
0.527859638507861
 40
0.590413588067563
 40
0.6511994053649361
 40
0.7101059465004965
 40
0.7678237372418047
 40
0.8250128290906082
 40
0.8820655679442742
 40
0.9403393445630304
 40
1.0
 40
1.0
 40
1.0
 40
1.0
 10
115.8424534231628
 20
43.2207195094675
 30
0.0
 10
115.8594451113062
 20
43.23836033440546
 30
0.0
 10
115.8927160156741
 20
43.27290229365781
 30
0.0
 10
115.9356974845361
 20
43.32891136309408
 30
0.0
 10
115.9732580060942
 20
43.38558003248514
 30
0.0
 10
116.0035772863586
 20
43.44384156481871
 30
0.0
 10
116.0269624455222
 20
43.50368365186526
 30
0.0
 10
116.0435847966133
 20
43.56481507805249
 30
0.0
 10
116.0547694276112
 20
43.6273191207219
 30
0.0
 10
116.0574977716526
 20
43.69055344886537
 30
0.0
 10
116.0555513423353
 20
43.75306099079349
 30
0.0
 10
116.047558792925
 20
43.81367426334489
 30
0.0
 10
116.0348572705805
 20
43.87181533554423
 30
0.0
 10
116.0162635241759
 20
43.92712164557986
 30
0.0
 10
115.9919537497216
 20
43.97946262650117
 30
0.0
 10
115.9624840955785
 20
44.02925339654524
 30
0.0
 10
115.9278301229626
 20
44.07672472091902
 30
0.0
 10
115.9005598186592
 20
44.10535474585193
 30
0.0
 10
115.8867643205986
 20
44.11983809921109
 30
0.0
  0
SPLINE
  5
B5
330
1F
100
AcDbEntity
  8
0
  6
Continuous
 62
     7
370
    25
100
AcDbSpline
210
0.0
220
0.0
230
1.0
 70
     8
 71
     3
 72
    15
 73
    11
 74
     0
 42
0.000000001
 43
0.00000001
 40
0.0
 40
0.0
 40
0.0
 40
0.0
 40
0.1203457795138436
 40
0.2388232513984641
 40
0.3594485260350548
 40
0.4804570524015698
 40
0.6028834931914648
 40
0.7310108502422923
 40
0.8625425629612503
 40
1.0
 40
1.0
 40
1.0
 40
1.0
 10
115.425706628291
 20
43.01935732998032
 30
0.0
 10
115.4446353492541
 20
43.0210609457775
 30
0.0
 10
115.4821989323185
 20
43.02444172959441
 30
0.0
 10
115.5379319281544
 20
43.0358071641419
 30
0.0
 10
115.5920888444769
 20
43.05336381652813
 30
0.0
 10
115.6450323212719
 20
43.07587611932871
 30
0.0
 10
115.6967844055177
 20
43.10367308881893
 30
0.0
 10
115.7468592087554
 20
43.13740696757597
 30
0.0
 10
115.7961780285258
 20
43.17623840102501
 30
0.0
 10
115.8268034033289
 20
43.20567630486997
 30
0.0
 10
115.8424534231628
 20
43.2207195094675
 30
0.0
  0
SPLINE
  5
B6
330
1F
100
AcDbEntity
  8
0
  6
Continuous
 62
     7
370
    25
100
AcDbSpline
210
0.0
220
0.0
230
1.0
 70
     8
 71
     3
 72
    15
 73
    11
 74
     0
 42
0.000000001
 43
0.00000001
 40
0.0
 40
0.0
 40
0.0
 40
0.0
 40
0.1516443853000927
 40
0.2942091114866408
 40
0.4291745983467757
 40
0.556575911727435
 40
0.676224604706451
 40
0.7899405813610038
 40
0.8970885352767688
 40
1.0
 40
1.0
 40
1.0
 40
1.0
 10
115.004472653932
 20
43.15004643254443
 30
0.0
 10
115.0241912176107
 20
43.13901422309547
 30
0.0
 10
115.0624477022688
 20
43.1176103542131
 30
0.0
 10
115.1198981231218
 20
43.08948766741828
 30
0.0
 10
115.1753415483838
 20
43.06560651029089
 30
0.0
 10
115.2292480725993
 20
43.04721132882712
 30
0.0
 10
115.2811020157546
 20
43.03293739229297
 30
0.0
 10
115.3309448980872
 20
43.02322324146628
 30
0.0
 10
115.3790592818112
 20
43.01845835911772
 30
0.0
 10
115.4103679913541
 20
43.01906172929307
 30
0.0
 10
115.425706628291
 20
43.01935732998032
 30
0.0
  0
LINE
  5
B7
330
1F
100
AcDbEntity
  8
0
  6
Continuous
 62
     7
370
    25
100
AcDbLine
 10
114.8126457309
 20
42.9582195095
 30
0.0
 11
115.0044726539
 21
43.1500464325
 31
0.0
  0
SPLINE
  5
B8
330
1F
100
AcDbEntity
  8
0
  6
Continuous
 62
     7
370
    25
100
AcDbSpline
210
0.0
220
0.0
230
1.0
 70
     8
 71
     3
 72
    23
 73
    19
 74
     0
 42
0.000000001
 43
0.00000001
 40
0.0
 40
0.0
 40
0.0
 40
0.0
 40
0.0651136382988
 40
0.1282185933053531
 40
0.1894734259769021
 40
0.248995646255472
 40
0.3072701941117208
 40
0.3652120214271444
 40
0.4230586502763893
 40
0.4816341671326471
 40
0.5406263849922193
 40
0.6002014930275463
 40
0.6609241575761041
 40
0.7233279014169866
 40
0.7879045943012337
 40
0.855653348283499
 40
0.9258587867477691
 40
1.0
 40
1.0
 40
1.0
 40
1.0
 10
116.0303540641884
 20
43.02720989408289
 30
0.0
 10
116.0093462434369
 20
43.00704984550932
 30
0.0
 10
115.9679786698296
 20
42.96735166342943
 30
0.0
 10
115.9015832605604
 20
42.91456153108481
 30
0.0
 10
115.8330753876965
 20
42.86898175407542
 30
0.0
 10
115.7627159754745
 20
42.83062460175175
 30
0.0
 10
115.6904943822983
 20
42.79940088001258
 30
0.0
 10
115.6161716429603
 20
42.77601363119626
 30
0.0
 10
115.5400357596761
 20
42.75889303723498
 30
0.0
 10
115.4620721781662
 20
42.74934756656536
 30
0.0
 10
115.3827793845793
 20
42.74770337047098
 30
0.0
 10
115.3027583677644
 20
42.75395571655159
 30
0.0
 10
115.2222082474116
 20
42.7681230885003
 30
0.0
 10
115.1411656847312
 20
42.79022698183095
 30
0.0
 10
115.0593090300031
 20
42.82014903959554
 30
0.0
 10
114.9772631030199
 20
42.85858351106742
 30
0.0
 10
114.8939757006244
 20
42.90408176597425
 30
0.0
 10
114.8402440719956
 20
42.93984852128515
 30
0.0
 10
114.8126457308551
 20
42.9582195094675
 30
0.0
  0
SPLINE
  5
B9
330
1F
100
AcDbEntity
  8
0
  6
Continuous
 62
     7
370
    25
100
AcDbSpline
210
0.0
220
0.0
230
1.0
 70
     8
 71
     3
 72
    19
 73
    15
 74
     0
 42
0.000000001
 43
0.00000001
 40
0.0
 40
0.0
 40
0.0
 40
0.0
 40
0.0805764361033051
 40
0.1603714906653941
 40
0.2414880191094221
 40
0.3250087558576585
 40
0.4089616532479636
 40
0.4906870084144029
 40
0.5725768746389616
 40
0.6557926854219237
 40
0.7398417121155405
 40
0.824076455248573
 40
0.9104351150664252
 40
1.0
 40
1.0
 40
1.0
 40
1.0
 10
116.0634470129063
 20
44.32905284280083
 30
0.0
 10
116.0899009533581
 20
44.30038053556124
 30
0.0
 10
116.1425522999476
 20
44.24331396777542
 30
0.0
 10
116.2068099602325
 20
44.14519069795887
 30
0.0
 10
116.2581001837651
 20
44.03839623610801
 30
0.0
 10
116.295821399058
 20
43.92394652939205
 30
0.0
 10
116.3196301069249
 20
43.80549823049011
 30
0.0
 10
116.3265793155138
 20
43.68557527003887
 30
0.0
 10
116.3161464418456
 20
43.56630276141927
 30
0.0
 10
116.2896953046144
 20
43.44842648381464
 30
0.0
 10
116.2475733655588
 20
43.33396642646029
 30
0.0
 10
116.1902045872412
 20
43.22469798451178
 30
0.0
 10
116.1181079955632
 20
43.12106895397982
 30
0.0
 10
116.0599586340575
 20
43.05887408340223
 30
0.0
 10
116.0303540641884
 20
43.02720989408289
 30
0.0
  0
SPLINE
  5
BA
330
1F
100
AcDbEntity
  8
0
  6
Continuous
 62
     7
370
    25
100
AcDbSpline
210
0.0
220
0.0
230
1.0
 70
     8
 71
     3
 72
    15
 73
    11
 74
     0
 42
0.000000001
 43
0.00000001
 40
0.0
 40
0.0
 40
0.0
 40
0.0
 40
0.1308828194382191
 40
0.2582596653094881
 40
0.3832751894435334
 40
0.5061956902646076
 40
0.6278103920359803
 40
0.7505216511654048
 40
0.8741562318766932
 40
1.0
 40
1.0
 40
1.0
 40
1.0
 10
115.5866841923935
 20
44.55004643254443
 30
0.0
 10
115.60992333668
 20
44.54723509872368
 30
0.0
 10
115.6557791155459
 20
44.5416877386138
 30
0.0
 10
115.7228721866234
 20
44.52709166326473
 30
0.0
 10
115.7868008401352
 20
44.50652905603624
 30
0.0
 10
115.8483813425849
 20
44.48230301034792
 30
0.0
 10
115.906388896014
 20
44.45132534836596
 30
0.0
 10
115.9621941799885
 20
44.41633483977187
 30
0.0
 10
116.0144366375252
 20
44.37490443822205
 30
0.0
 10
116.0470140609527
 20
44.34442667045863
 30
0.0
 10
116.0634470129063
 20
44.32905284280083
 30
0.0
  0
SPLINE
  5
BB
330
1F
100
AcDbEntity
  8
0
  6
Continuous
 62
     7
370
    25
100
AcDbSpline
210
0.0
220
0.0
230
1.0
 70
     8
 71
     3
 72
    11
 73
     7
 74
     0
 42
0.000000001
 43
0.00000001
 40
0.0
 40
0.0
 40
0.0
 40
0.0
 40
0.2579472690479104
 40
0.5087322070443626
 40
0.7541032680070245
 40
1.0
 40
1.0
 40
1.0
 40
1.0
 10
115.1873252180345
 20
44.48610412485212
 30
0.0
 10
115.2201623266693
 20
44.49867272028145
 30
0.0
 10
115.2849247674982
 20
44.52346092337356
 30
0.0
 10
115.3853486992611
 20
44.54654437505371
 30
0.0
 10
115.4863580781726
 20
44.55595501011838
 30
0.0
 10
115.5532183068475
 20
44.55201736286865
 30
0.0
 10
115.5866841923935
 20
44.55004643254443
 30
0.0
  0
SPLINE
  5
BC
330
1F
100
AcDbEntity
  8
0
  6
Continuous
 62
     7
370
    25
100
AcDbSpline
210
0.0
220
0.0
230
1.0
 70
     8
 71
     3
 72
    15
 73
    11
 74
     0
 42
0.000000001
 43
0.00000001
 40
0.0
 40
0.0
 40
0.0
 40
0.0
 40
0.1242196178718101
 40
0.2437921031270659
 40
0.3610694411538695
 40
0.4785415562187781
 40
0.5994738985980937
 40
0.7254247600032048
 40
0.8584023739957896
 40
1.0
 40
1.0
 40
1.0
 40
1.0
 10
115.0381265000858
 20
45.13898874023673
 30
0.0
 10
115.058031952613
 20
45.11764373842331
 30
0.0
 10
115.0970981823957
 20
45.07575226449594
 30
0.0
 10
115.1438679877803
 20
45.0046383169219
 30
0.0
 10
115.1797158557912
 20
44.92936688970374
 30
0.0
 10
115.2041294294206
 20
44.84921673544144
 30
0.0
 10
115.2166537578839
 20
44.76440029617196
 30
0.0
 10
115.2189888995541
 20
44.67509278613927
 30
0.0
 10
115.20907619975
 20
44.58134799427397
 30
0.0
 10
115.1947257182252
 20
44.5185096632794
 30
0.0
 10
115.1873252180345
 20
44.48610412485212
 30
0.0
  0
SPLINE
  5
BD
330
1F
100
AcDbEntity
  8
0
  6
Continuous
 62
     7
370
    25
100
AcDbSpline
210
0.0
220
0.0
230
1.0
 70
     8
 71
     3
 72
    19
 73
    15
 74
     0
 42
0.000000001
 43
0.00000001
 40
0.0
 40
0.0
 40
0.0
 40
0.0
 40
0.0895929914958804
 40
0.1777045492777577
 40
0.264879662896191
 40
0.3531465390832663
 40
0.4405958711776065
 40
0.5246598301314997
 40
0.6068103143079134
 40
0.6891287180192625
 40
0.77004310832735
 40
0.8475352562635295
 40
0.9237274558445456
 40
1.0
 40
1.0
 40
1.0
 40
1.0
 10
113.9679341923935
 20
45.0817772017752
 30
0.0
 10
113.9939470180906
 20
45.10596929854324
 30
0.0
 10
114.0455425434633
 20
45.15395347208708
 30
0.0
 10
114.1318839229188
 20
45.21431628675768
 30
0.0
 10
114.2249917210394
 20
45.26209875582725
 30
0.0
 10
114.3226000222645
 20
45.29909026573367
 30
0.0
 10
114.4228005989696
 20
45.32367125608731
 30
0.0
 10
114.5229081071256
 20
45.33544033118446
 30
0.0
 10
114.6216939339877
 20
45.33253343170781
 30
0.0
 10
114.7177478991838
 20
45.31602497514188
 30
0.0
 10
114.8094070512984
 20
45.2885700211964
 30
0.0
 10
114.8938018051011
 20
45.24912298609963
 30
0.0
 10
114.9714978706421
 20
45.20067257431799
 30
0.0
 10
115.0159091557774
 20
45.15955724046685
 30
0.0
 10
115.0381265000858
 20
45.13898874023673
 30
0.0
  0
SPLINE
  5
BE
330
1F
100
AcDbEntity
  8
0
  6
Continuous
 62
     7
370
    25
100
AcDbSpline
210
0.0
220
0.0
230
1.0
 70
     8
 71
     3
 72
    23
 73
    19
 74
     0
 42
0.000000001
 43
0.00000001
 40
0.0
 40
0.0
 40
0.0
 40
0.0
 40
0.0731350659025823
 40
0.1433188428756376
 40
0.2106501399906881
 40
0.2762700695936495
 40
0.3395547839766537
 40
0.4016838389936606
 40
0.4628588934626659
 40
0.5234847455120771
 40
0.5835961311287841
 40
0.6426304656932165
 40
0.7011635571821349
 40
0.7595409545756663
 40
0.817791544098742
 40
0.87706243621205
 40
0.9375567908908983
 40
1.0
 40
1.0
 40
1.0
 40
1.0
 10
113.8972611154704
 20
44.00373232998032
 30
0.0
 10
113.882223414608
 20
44.02816339737775
 30
0.0
 10
113.8527548435399
 20
44.0760396420547
 30
0.0
 10
113.8171357407068
 20
44.15061468407197
 30
0.0
 10
113.7850522245717
 20
44.22357677271916
 30
0.0
 10
113.762238905493
 20
44.29713659778501
 30
0.0
 10
113.7439094787222
 20
44.36984161903479
 30
0.0
 10
113.7345332599524
 20
44.44247817907692
 30
0.0
 10
113.7292650097391
 20
44.51446430572742
 30
0.0
 10
113.7324931332181
 20
44.58584218321498
 30
0.0
 10
113.7414516352968
 20
44.65578850397473
 30
0.0
 10
113.7558605654869
 20
44.72403285617573
 30
0.0
 10
113.7768688409509
 20
44.78982617386178
 30
0.0
 10
113.8031780202631
 20
44.85332555111347
 30
0.0
 10
113.8353472984821
 20
44.91444086764755
 30
0.0
 10
113.8738387083834
 20
44.97272554916317
 30
0.0
 10
113.9175237601867
 20
45.02937851056848
 30
0.0
 10
113.950954064895
 20
45.06412735394615
 30
0.0
 10
113.9679341923935
 20
45.0817772017752
 30
0.0
  0
LINE
  5
BF
330
1F
100
AcDbEntity
  8
0
  6
Continuous
 62
     7
370
    25
100
AcDbLine
 10
114.0975015001
 20
44.2039727146
 30
0.0
 11
113.8972611155
 21
44.00373233
 31
0.0
  0
SPLINE
  5
C0
330
1F
100
AcDbEntity
  8
0
  6
Continuous
 62
     7
370
    25
100
AcDbSpline
210
0.0
220
0.0
230
1.0
 70
     8
 71
     3
 72
    19
 73
    15
 74
     0
 42
0.000000001
 43
0.00000001
 40
0.0
 40
0.0
 40
0.0
 40
0.0
 40
0.116767580171319
 40
0.2280775627199391
 40
0.3372206510249979
 40
0.4461255525158012
 40
0.5021574110359222
 40
0.5618439075693564
 40
0.6241640260185539
 40
0.6909917051104404
 40
0.7609854225273328
 40
0.8362480651247745
 40
0.9153845753823189
 40
1.0
 40
1.0
 40
1.0
 40
1.0
 10
114.1586393205987
 20
44.89107207357007
 30
0.0
 10
114.139035006335
 20
44.86977727107674
 30
0.0
 10
114.1007426634648
 20
44.82818296344312
 30
0.0
 10
114.0563235294312
 20
44.75686573183825
 30
0.0
 10
114.025836003034
 20
44.68092580605862
 30
0.0
 10
114.0111828309221
 20
44.61423830789999
 30
0.0
 10
114.0078178993635
 20
44.55869261867204
 30
0.0
 10
114.0080785963311
 20
44.51457037383619
 30
0.0
 10
114.0135609218502
 20
44.46808141989839
 30
0.0
 10
114.0226384557856
 20
44.41962489542028
 30
0.0
 10
114.0349569765399
 20
44.36856390095015
 30
0.0
 10
114.051922063141
 20
44.31564332174193
 30
0.0
 10
114.0728567520621
 20
44.26029180328376
 30
0.0
 10
114.0891053653325
 20
44.22315987193051
 30
0.0
 10
114.0975015000858
 20
44.20397271459571
 30
0.0
  0
SPLINE
  5
C1
330
1F
100
AcDbEntity
  8
0
  6
Continuous
 62
     7
370
    25
100
AcDbSpline
210
0.0
220
0.0
230
1.0
 70
     8
 71
     3
 72
    23
 73
    19
 74
     0
 42
0.000000001
 43
0.00000001
 40
0.0
 40
0.0
 40
0.0
 40
0.0
 40
0.0591437275897559
 40
0.1167150890705872
 40
0.1741558975962604
 40
0.2309492319425765
 40
0.2887375262637098
 40
0.3472383681560691
 40
0.4086788038810791
 40
0.4720661100984871
 40
0.5364760336796571
 40
0.600243837718152
 40
0.6632439347766346
 40
0.727090179388262
 40
0.7924599631338876
 40
0.8592686518663306
 40
0.9282156920095
 40
1.0
 40
1.0
 40
1.0
 40
1.0
 10
114.8328380385474
 20
44.93594386844186
 30
0.0
 10
114.8219851398078
 20
44.94605693197703
 30
0.0
 10
114.8005678721671
 20
44.96601419810457
 30
0.0
 10
114.7655056728153
 20
44.99223920691441
 30
0.0
 10
114.7278765749315
 20
45.01342351041555
 30
0.0
 10
114.6881425720729
 20
45.03036705845563
 30
0.0
 10
114.6466518559481
 20
45.0433857513187
 30
0.0
 10
114.6027934174423
 20
45.05169279323108
 30
0.0
 10
114.5569889615743
 20
45.05622948059354
 30
0.0
 10
114.5094704152009
 20
45.05611729191905
 30
0.0
 10
114.4615741047054
 20
45.05172108186572
 30
0.0
 10
114.4144265764244
 20
45.04273537769522
 30
0.0
 10
114.3684360154998
 20
45.02934426849103
 30
0.0
 10
114.3241210944601
 20
45.01023956919418
 30
0.0
 10
114.280125007939
 20
44.98821696011564
 30
0.0
 10
114.2378894117711
 20
44.9604441246985
 30
0.0
 10
114.1975210389346
 20
44.92751238077385
 30
0.0
 10
114.1717729282355
 20
44.90338101251269
 30
0.0
 10
114.1586393205987
 20
44.89107207357007
 30
0.0
  0
LINE
  5
C2
330
1F
100
AcDbEntity
  8
0
  6
Continuous
 62
     7
370
    25
100
AcDbLine
 10
120.4784919694
 20
47.0228079194
 30
0.0
 11
120.0230432515
 21
47.4782566374
 31
0.0
  0
LINE
  5
C3
330
1F
100
AcDbEntity
  8
0
  6
Continuous
 62
     7
370
    25
100
AcDbLine
 10
120.6742451745
 20
47.2185611246
 30
0.0
 11
120.4784919694
 21
47.0228079194
 31
0.0
  0
LINE
  5
C4
330
1F
100
AcDbEntity
  8
0
  6
Continuous
 62
     7
370
    25
100
AcDbLine
 10
120.2187964566
 20
47.6740098425
 30
0.0
 11
120.6742451745
 21
47.2185611246
 31
0.0
  0
LINE
  5
C5
330
1F
100
AcDbEntity
  8
0
  6
Continuous
 62
     7
370
    25
100
AcDbLine
 10
120.456056072
 20
47.9112694579
 30
0.0
 11
120.2187964566
 21
47.6740098425
 31
0.0
  0
LINE
  5
C6
330
1F
100
AcDbEntity
  8
0
  6
Continuous
 62
     7
370
    25
100
AcDbLine
 10
120.268155431
 20
48.0991700989
 30
0.0
 11
120.456056072
 21
47.9112694579
 31
0.0
  0
LINE
  5
C7
330
1F
100
AcDbEntity
  8
0
  6
Continuous
 62
     7
370
    25
100
AcDbLine
 10
120.0308958156
 20
47.8619104835
 30
0.0
 11
120.268155431
 21
48.0991700989
 31
0.0
  0
LINE
  5
C8
330
1F
100
AcDbEntity
  8
0
  6
Continuous
 62
     7
370
    25
100
AcDbLine
 10
118.6651105592
 20
49.2276957399
 30
0.0
 11
120.0308958156
 21
47.8619104835
 31
0.0
  0
LINE
  5
C9
330
1F
100
AcDbEntity
  8
0
  6
Continuous
 62
     7
370
    25
100
AcDbLine
 10
118.6252868412
 20
49.187872022
 30
0.0
 11
118.6651105592
 21
49.2276957399
 31
0.0
  0
LINE
  5
CA
330
1F
100
AcDbEntity
  8
0
  6
Continuous
 62
     7
370
    25
100
AcDbLine
 10
119.086905431
 20
46.5421188169
 30
0.0
 11
118.6252868412
 21
49.187872022
 31
0.0
  0
LINE
  5
CB
330
1F
100
AcDbEntity
  8
0
  6
Continuous
 62
     7
370
    25
100
AcDbLine
 10
120.0230432515
 20
47.4782566374
 30
0.0
 11
119.086905431
 21
46.5421188169
 31
0.0
  0
SPLINE
  5
CC
330
1F
100
AcDbEntity
  8
0
  6
Continuous
 62
     7
370
    25
100
AcDbSpline
210
0.0
220
0.0
230
1.0
 70
     8
 71
     3
 72
    15
 73
    11
 74
     0
 42
0.000000001
 43
0.00000001
 40
0.0
 40
0.0
 40
0.0
 40
0.0
 40
0.1099847056450848
 40
0.2240098420297774
 40
0.3417046373339412
 40
0.4641704618794933
 40
0.5906562692884738
 40
0.7222624860498263
 40
0.8584596182455
 40
1.0
 40
1.0
 40
1.0
 40
1.0
 10
118.143142831021
 20
45.8507633797806
 30
0.0
 10
118.1312328904474
 20
45.87444973475479
 30
0.0
 10
118.1069754821937
 20
45.92269259365874
 30
0.0
 10
118.0653633464944
 20
45.9938397974318
 30
0.0
 10
118.0182409552945
 20
46.06502733621242
 30
0.0
 10
117.9678581237307
 20
46.1376767979169
 30
0.0
 10
117.9103294613102
 20
46.20916574728802
 30
0.0
 10
117.8496296210505
 20
46.28228758629932
 30
0.0
 10
117.7831759662497
 20
46.3552615445091
 30
0.0
 10
117.7362751557956
 20
46.40302484620514
 30
0.0
 10
117.7123736002518
 20
46.42736594388317
 30
0.0
  0
SPLINE
  5
CD
330
1F
100
AcDbEntity
  8
0
  6
Continuous
 62
     7
370
    25
100
AcDbSpline
210
0.0
220
0.0
230
1.0
 70
     8
 71
     3
 72
    19
 73
    15
 74
     0
 42
0.000000001
 43
0.00000001
 40
0.0
 40
0.0
 40
0.0
 40
0.0
 40
0.1116234689182526
 40
0.2221443256546964
 40
0.3354380430278006
 40
0.4548148709752029
 40
0.5168870261290478
 40
0.5794061580887488
 40
0.6435314246458346
 40
0.7096032329016746
 40
0.778088132372387
 40
0.8493556809199185
 40
0.9228466968340716
 40
1.0
 40
1.0
 40
1.0
 40
1.0
 10
118.0713479592262
 20
45.09130825157547
 30
0.0
 10
118.0918966586349
 20
45.11379662523119
 30
0.0
 10
118.1327910782178
 20
45.15855123328301
 30
0.0
 10
118.1780841662594
 20
45.2386069719407
 30
0.0
 10
118.2116281788913
 20
45.32604106774728
 30
0.0
 10
118.2283310501436
 20
45.40493180379332
 30
0.0
 10
118.2340231672624
 20
45.47111782178322
 30
0.0
 10
118.2349757397551
 20
45.52255421035393
 30
0.0
 10
118.2299576885589
 20
45.57483745518991
 30
0.0
 10
118.2217185865438
 20
45.62830877248688
 30
0.0
 10
118.2086721457744
 20
45.68285766319408
 30
0.0
 10
118.1910787561441
 20
45.73818505569071
 30
0.0
 10
118.1699677870432
 20
45.79483770148933
 30
0.0
 10
118.1522282373742
 20
45.83182178254432
 30
0.0
 10
118.143142831021
 20
45.8507633797806
 30
0.0
  0
SPLINE
  5
CE
330
1F
100
AcDbEntity
  8
0
  6
Continuous
 62
     7
370
    25
100
AcDbSpline
210
0.0
220
0.0
230
1.0
 70
     8
 71
     3
 72
    27
 73
    23
 74
     0
 42
0.000000001
 43
0.00000001
 40
0.0
 40
0.0
 40
0.0
 40
0.0
 40
0.0592049091423239
 40
0.1186381156964758
 40
0.1794099962647923
 40
0.2434403905684776
 40
0.2767263209819804
 40
0.31025072081163
 40
0.3445967272097261
 40
0.3795861309306518
 40
0.4161835169775523
 40
0.4535278654524004
 40
0.4925073825928413
 40
0.5331297869118885
 40
0.5763200343895354
 40
0.6237516935997309
 40
0.6753965042887892
 40
0.731293205424897
 40
0.7916177602785753
 40
0.8564364250289894
 40
0.9260500040603649
 40
1.0
 40
1.0
 40
1.0
 40
1.0
 10
116.37687680538
 20
46.78577940542163
 30
0.0
 10
116.3563356005401
 20
46.7632872199987
 30
0.0
 10
116.3151739828358
 20
46.71821611803896
 30
0.0
 10
116.2695012195881
 20
46.63745911008214
 30
0.0
 10
116.2360606426545
 20
46.54876141881171
 30
0.0
 10
116.2193535401321
 20
46.4689733646411
 30
0.0
 10
116.2135986882651
 20
46.40203903430713
 30
0.0
 10
116.2128543089378
 20
46.35007402401023
 30
0.0
 10
116.2170374663818
 20
46.29740103814168
 30
0.0
 10
116.2248985557851
 20
46.24357858369527
 30
0.0
 10
116.237155935731
 20
46.188983134167
 30
0.0
 10
116.2542407758726
 20
46.13355939095524
 30
0.0
 10
116.2758245875766
 20
46.07753949088494
 30
0.0
 10
116.301021291118
 20
46.01975672812789
 30
0.0
 10
116.3323603610815
 20
45.96007045646058
 30
0.0
 10
116.3708751710063
 20
45.89801604973513
 30
0.0
 10
116.4156380419365
 20
45.83225241859812
 30
0.0
 10
116.4682395515957
 20
45.76399994609199
 30
0.0
 10
116.5271862286407
 20
45.69219324248991
 30
0.0
 10
116.5929605182405
 20
45.61693666343172
 30
0.0
 10
116.665732559801
 20
45.53857036031114
 30
0.0
 10
116.7175653907862
 20
45.48622183843834
 30
0.0
 10
116.7442646258928
 20
45.45925696952418
 30
0.0
  0
SPLINE
  5
CF
330
1F
100
AcDbEntity
  8
0
  6
Continuous
 62
     7
370
    25
100
AcDbSpline
210
0.0
220
0.0
230
1.0
 70
     8
 71
     3
 72
    27
 73
    23
 74
     0
 42
0.000000001
 43
0.00000001
 40
0.0
 40
0.0
 40
0.0
 40
0.0
 40
0.0665682887066776
 40
0.1298384398761199
 40
0.1903854166577238
 40
0.2477638774268024
 40
0.3026463387477554
 40
0.3547594337319391
 40
0.4043168527786023
 40
0.4513184057942145
 40
0.4962182809861096
 40
0.5384964490913654
 40
0.579110957160127
 40
0.6178689498676122
 40
0.6548770745485871
 40
0.6907509929392046
 40
0.7250465884647678
 40
0.758739154699732
 40
0.8228526037433925
 40
0.8832333648382241
 40
0.9417466416330511
 40
1.0
 40
1.0
 40
1.0
 40
1.0
 10
117.7123736002518
 20
46.42736594388317
 30
0.0
 10
117.688026776408
 20
46.45126293788365
 30
0.0
 10
117.6405393963772
 20
46.49787294512632
 30
0.0
 10
117.5684692043424
 20
46.5636690602168
 30
0.0
 10
117.4979880839874
 20
46.62413008972819
 30
0.0
 10
117.4289489900406
 20
46.67964931271884
 30
0.0
 10
117.3603978832978
 20
46.72863960862797
 30
0.0
 10
117.2938031829915
 20
46.77342910003759
 30
0.0
 10
117.228030500247
 20
46.81195306908302
 30
0.0
 10
117.163984222856
 20
46.84597304070942
 30
0.0
 10
117.1013438292118
 20
46.87442966066756
 30
0.0
 10
117.0403240103199
 20
46.89830186756805
 30
0.0
 10
116.98092268686
 20
46.91733855936904
 30
0.0
 10
116.9231168668928
 20
46.93219238559325
 30
0.0
 10
116.8666600084415
 20
46.94191969117968
 30
0.0
 10
116.8118491692291
 20
46.9462932943402
 30
0.0
 10
116.7585606736875
 20
46.94643992025325
 30
0.0
 10
116.6910565756115
 20
46.94047489193323
 30
0.0
 10
116.6113515592995
 20
46.92378415640787
 30
0.0
 10
116.5232382304912
 20
46.89098018655183
 30
0.0
 10
116.4433302030272
 20
46.8463914046917
 30
0.0
 10
116.3989950417586
 20
46.80595340065284
 30
0.0
 10
116.37687680538
 20
46.78577940542163
 30
0.0
  0
SPLINE
  5
D0
330
1F
100
AcDbEntity
  8
0
  6
Continuous
 62
     7
370
    25
100
AcDbSpline
210
0.0
220
0.0
230
1.0
 70
     8
 71
     3
 72
    27
 73
    23
 74
     0
 42
0.000000001
 43
0.00000001
 40
0.0
 40
0.0
 40
0.0
 40
0.0
 40
0.0739414287635762
 40
0.1432995467909239
 40
0.2078367058012861
 40
0.268154271998974
 40
0.3240444974500777
 40
0.3756833250396089
 40
0.422799203576972
 40
0.4659844474241321
 40
0.5062690802671607
 40
0.545244081594155
 40
0.5829326287344929
 40
0.6191703782421354
 40
0.6542106995986448
 40
0.6889160634209298
 40
0.7228008900413518
 40
0.756082964248745
 40
0.8208193220025545
 40
0.881925072178466
 40
0.941036732120393
 40
1.0
 40
1.0
 40
1.0
 40
1.0
 10
116.7442646258928
 20
45.45925696952418
 30
0.0
 10
116.7711850982482
 20
45.43250917758876
 30
0.0
 10
116.823357358812
 20
45.38067157414917
 30
0.0
 10
116.9021242130598
 20
45.30873444616976
 30
0.0
 10
116.9766420102547
 20
45.24252892647956
 30
0.0
 10
117.0484777221472
 20
45.18383088231027
 30
0.0
 10
117.1166736946592
 20
45.1311522667755
 30
0.0
 10
117.1823968572194
 20
45.08662608477913
 30
0.0
 10
117.244034800386
 20
45.04773167215131
 30
0.0
 10
117.3035369648
 20
45.01674870044184
 30
0.0
 10
117.3609924868136
 20
44.99125060874088
 30
0.0
 10
117.417043604991
 20
44.96969943239257
 30
0.0
 10
117.4725355447066
 20
44.95283719848671
 30
0.0
 10
117.5271295029536
 20
44.94057195681744
 30
0.0
 10
117.5808553716511
 20
44.93180972894803
 30
0.0
 10
117.6339679013609
 20
44.92790568227962
 30
0.0
 10
117.6862977306935
 20
44.92855357677792
 30
0.0
 10
117.7537835719293
 20
44.93441939622019
 30
0.0
 10
117.8341180561861
 20
44.95100677572868
 30
0.0
 10
117.9233781867631
 20
44.98418870994696
 30
0.0
 10
118.0036822397095
 20
45.03038145358298
 30
0.0
 10
118.0488116250169
 20
45.07101634170342
 30
0.0
 10
118.0713479592262
 20
45.09130825157547
 30
0.0
  0
LINE
  5
D1
330
1F
100
AcDbEntity
  8
0
  6
Continuous
 62
     7
370
    25
100
AcDbLine
 10
119.8351426104
 20
47.6661572784
 30
0.0
 11
119.0184759438
 21
48.4828239451
 31
0.0
  0
LINE
  5
D2
330
1F
100
AcDbEntity
  8
0
  6
Continuous
 62
     7
370
    25
100
AcDbLine
 10
119.2585400463
 20
47.0895547143
 30
0.0
 11
119.8351426104
 21
47.6661572784
 31
0.0
  0
LINE
  5
D3
330
1F
100
AcDbEntity
  8
0
  6
Continuous
 62
     7
370
    25
100
AcDbLine
 10
119.0184759438
 20
48.4828239451
 30
0.0
 11
119.2585400463
 21
47.0895547143
 31
0.0
  0
CIRCLE
  5
D4
330
1F
100
AcDbEntity
  8
0
  6
Continuous
 62
     7
370
    25
100
AcDbCircle
 10
118.7075606936
 20
43.9901572254
 30
0.0
 40
21.12454545454545
  0
CIRCLE
  5
D5
330
1F
100
AcDbEntity
  8
0
  6
Continuous
 62
     7
370
    25
100
AcDbCircle
 10
118.7075606936
 20
43.9901572254
 30
0.0
 40
18.25
  0
INSERT
  5
E1
330
1F
100
AcDbEntity
  8
0
  6
Continuous
 62
     7
370
    18
100
AcDbBlockReference
  2
SW_CENTERMARKSYMBOL_0
 10
118.7075606936
 20
43.9901572254
 30
0.0
  0
INSERT
  5
ED
330
1F
100
AcDbEntity
  8
0
  6
Continuous
 62
     7
370
    18
100
AcDbBlockReference
  2
SW_CENTERMARKSYMBOL_1
 10
118.7075606936
 20
43.9901572254
 30
0.0
  0
ARC
  5
EE
330
1F
100
AcDbEntity
  8
0
  6
Continuous
 62
     7
370
    18
100
AcDbCircle
 10
118.7075606936
 20
43.9901572254
 30
0.0
 40
19.47600000000001
100
AcDbArc
 50
75.0
 51
345.0
  0
ENDSEC
  0
SECTION
  2
OBJECTS
  0
DICTIONARY
  5
C
330
0
100
AcDbDictionary
281
     1
  3
ACAD_GROUP
350
D
  3
ACAD_LAYOUT
350
1A
  3
ACAD_MLINESTYLE
350
17
  3
ACAD_PLOTSETTINGS
350
19
  3
ACAD_PLOTSTYLENAME
350
E
  3
ACAD_SCALELIST
350
47
  0
DICTIONARY
  5
D
102
{ACAD_REACTORS
330
C
102
}
330
C
100
AcDbDictionary
281
     1
  0
DICTIONARY
  5
1A
102
{ACAD_REACTORS
330
C
102
}
330
C
100
AcDbDictionary
281
     1
  3
Layout1
350
1E
  3
Layout2
350
26
  3
Model
350
22
  0
DICTIONARY
  5
17
102
{ACAD_REACTORS
330
C
102
}
330
C
100
AcDbDictionary
281
     1
  3
Standard
350
18
  0
DICTIONARY
  5
19
102
{ACAD_REACTORS
330
C
102
}
330
C
100
AcDbDictionary
281
     1
  0
ACDBDICTIONARYWDFLT
  5
E
102
{ACAD_REACTORS
330
C
102
}
330
C
100
AcDbDictionary
281
     1
  3
Normal
350
F
100
AcDbDictionaryWithDefault
340
F
  0
DICTIONARY
  5
47
102
{ACAD_REACTORS
330
C
102
}
330
C
100
AcDbDictionary
281
     1
  3
A0
350
48
  3
A1
350
49
  3
A2
350
4A
  3
A3
350
4B
  3
A4
350
4C
  3
A5
350
4D
  3
A6
350
4E
  3
A7
350
4F
  3
A8
350
50
  3
A9
350
51
  3
B0
350
52
  3
B1
350
53
  3
B2
350
54
  3
B3
350
55
  3
B4
350
56
  3
B5
350
57
  3
B6
350
58
  3
B7
350
59
  3
B8
350
5A
  3
B9
350
5B
  3
C0
350
5C
  3
C1
350
5D
  3
C2
350
5E
  3
C3
350
5F
  3
C4
350
60
  3
C5
350
61
  3
C6
350
62
  3
C7
350
63
  3
C8
350
64
  3
C9
350
65
  3
D0
350
66
  3
D1
350
67
  3
D2
350
68
  0
LAYOUT
  5
1E
102
{ACAD_REACTORS
330
1A
102
}
330
1A
100
AcDbPlotSettings
  1

  2
none_device
  4

  6

 40
0.0
 41
0.0
 42
0.0
 43
0.0
 44
0.0
 45
0.0
 46
0.0
 47
0.0
 48
0.0
 49
0.0
140
0.0
141
0.0
142
1.0
143
1.0
 70
   688
 72
     1
 73
     0
 74
     5
  7

 75
    16
147
1.0
148
0.0
149
0.0
100
AcDbLayout
  1
Layout1
 70
     1
 71
     1
 10
0.0
 20
0.0
 11
420.0
 21
297.0
 12
0.0
 22
0.0
 32
0.0
 14
1.0000000000E+20
 24
1.0000000000E+20
 34
1.0000000000E+20
 15
-1.0000000000E+20
 25
-1.0000000000E+20
 35
-1.0000000000E+20
146
0.0
 13
0.0
 23
0.0
 33
0.0
 16
1.0
 26
0.0
 36
0.0
 17
0.0
 27
1.0
 37
0.0
 76
     0
330
1B
  0
LAYOUT
  5
26
102
{ACAD_REACTORS
330
1A
102
}
330
1A
100
AcDbPlotSettings
  1

  2
none_device
  4

  6

 40
0.0
 41
0.0
 42
0.0
 43
0.0
 44
0.0
 45
0.0
 46
0.0
 47
0.0
 48
0.0
 49
0.0
140
0.0
141
0.0
142
1.0
143
1.0
 70
   688
 72
     1
 73
     0
 74
     5
  7

 75
    16
147
1.0
148
0.0
149
0.0
100
AcDbLayout
  1
Layout2
 70
     1
 71
     2
 10
0.0
 20
0.0
 11
0.0
 21
0.0
 12
0.0
 22
0.0
 32
0.0
 14
0.0
 24
0.0
 34
0.0
 15
0.0
 25
0.0
 35
0.0
146
0.0
 13
0.0
 23
0.0
 33
0.0
 16
1.0
 26
0.0
 36
0.0
 17
0.0
 27
1.0
 37
0.0
 76
     0
330
23
  0
LAYOUT
  5
22
102
{ACAD_REACTORS
330
1A
102
}
330
1A
100
AcDbPlotSettings
  1

  2
none_device
  4
Letter_(8.50_x_11.00_Inches)
  6

 40
6.35
 41
6.35
 42
6.35000508
 43
6.35000508
 44
215.9
 45
279.4
 46
0.0
 47
0.0
 48
0.0
 49
0.0
140
0.0
141
0.0
142
1.0
143
1.0
 70
  1712
 72
     1
 73
     0
 74
     0
  7

 75
     0
147
1.0
148
0.0
149
0.0
100
AcDbLayout
  1
Model
 70
     1
 71
     0
 10
0.0
 20
0.0
 11
431.8
 21
279.4
 12
0.0
 22
0.0
 32
0.0
 14
0.0
 24
0.0
 34
0.0
 15
431.8
 25
279.4
 35
0.0
146
0.0
 13
0.0
 23
0.0
 33
0.0
 16
1.0
 26
0.0
 36
0.0
 17
0.0
 27
1.0
 37
0.0
 76
     0
330
1F
331
29
  0
MLINESTYLE
  5
18
102
{ACAD_REACTORS
330
17
102
}
330
17
100
AcDbMlineStyle
  2
Standard
 70
     0
  3

 62
   256
 51
90.0
 52
90.0
 71
     2
 49
0.5
 62
   256
  6
BYLAYER
 49
-0.5
 62
   256
  6
BYLAYER
  0
ACDBPLACEHOLDER
  5
F
102
{ACAD_REACTORS
330
E
102
}
330
E
  0
SCALE
  5
48
102
{ACAD_REACTORS
330
47
102
}
330
47
100
AcDbScale
 70
     0
300
1:1
140
1.0
141
1.0
290
     1
  0
SCALE
  5
49
102
{ACAD_REACTORS
330
47
102
}
330
47
100
AcDbScale
 70
     0
300
1:2
140
1.0
141
2.0
290
     0
  0
SCALE
  5
4A
102
{ACAD_REACTORS
330
47
102
}
330
47
100
AcDbScale
 70
     0
300
1:4
140
1.0
141
4.0
290
     0
  0
SCALE
  5
4B
102
{ACAD_REACTORS
330
47
102
}
330
47
100
AcDbScale
 70
     0
300
1:5
140
1.0
141
5.0
290
     0
  0
SCALE
  5
4C
102
{ACAD_REACTORS
330
47
102
}
330
47
100
AcDbScale
 70
     0
300
1:8
140
1.0
141
8.0
290
     0
  0
SCALE
  5
4D
102
{ACAD_REACTORS
330
47
102
}
330
47
100
AcDbScale
 70
     0
300
1:10
140
1.0
141
10.0
290
     0
  0
SCALE
  5
4E
102
{ACAD_REACTORS
330
47
102
}
330
47
100
AcDbScale
 70
     0
300
1:16
140
1.0
141
16.0
290
     0
  0
SCALE
  5
4F
102
{ACAD_REACTORS
330
47
102
}
330
47
100
AcDbScale
 70
     0
300
1:20
140
1.0
141
20.0
290
     0
  0
SCALE
  5
50
102
{ACAD_REACTORS
330
47
102
}
330
47
100
AcDbScale
 70
     0
300
1:30
140
1.0
141
30.0
290
     0
  0
SCALE
  5
51
102
{ACAD_REACTORS
330
47
102
}
330
47
100
AcDbScale
 70
     0
300
1:40
140
1.0
141
40.0
290
     0
  0
SCALE
  5
52
102
{ACAD_REACTORS
330
47
102
}
330
47
100
AcDbScale
 70
     0
300
1:50
140
1.0
141
50.0
290
     0
  0
SCALE
  5
53
102
{ACAD_REACTORS
330
47
102
}
330
47
100
AcDbScale
 70
     0
300
1:100
140
1.0
141
100.0
290
     0
  0
SCALE
  5
54
102
{ACAD_REACTORS
330
47
102
}
330
47
100
AcDbScale
 70
     0
300
2:1
140
2.0
141
1.0
290
     0
  0
SCALE
  5
55
102
{ACAD_REACTORS
330
47
102
}
330
47
100
AcDbScale
 70
     0
300
4:1
140
4.0
141
1.0
290
     0
  0
SCALE
  5
56
102
{ACAD_REACTORS
330
47
102
}
330
47
100
AcDbScale
 70
     0
300
8:1
140
8.0
141
1.0
290
     0
  0
SCALE
  5
57
102
{ACAD_REACTORS
330
47
102
}
330
47
100
AcDbScale
 70
     0
300
10:1
140
10.0
141
1.0
290
     0
  0
SCALE
  5
58
102
{ACAD_REACTORS
330
47
102
}
330
47
100
AcDbScale
 70
     0
300
100:1
140
100.0
141
1.0
290
     0
  0
SCALE
  5
59
102
{ACAD_REACTORS
330
47
102
}
330
47
100
AcDbScale
 70
     0
300
1/128" = 1'-0"
140
0.0078125
141
12.0
290
     0
  0
SCALE
  5
5A
102
{ACAD_REACTORS
330
47
102
}
330
47
100
AcDbScale
 70
     0
300
1/64" = 1'-0"
140
0.015625
141
12.0
290
     0
  0
SCALE
  5
5B
102
{ACAD_REACTORS
330
47
102
}
330
47
100
AcDbScale
 70
     0
300
1/32" = 1'-0"
140
0.03125
141
12.0
290
     0
  0
SCALE
  5
5C
102
{ACAD_REACTORS
330
47
102
}
330
47
100
AcDbScale
 70
     0
300
1/16" = 1'-0"
140
0.0625
141
12.0
290
     0
  0
SCALE
  5
5D
102
{ACAD_REACTORS
330
47
102
}
330
47
100
AcDbScale
 70
     0
300
3/32" = 1'-0"
140
0.09375
141
12.0
290
     0
  0
SCALE
  5
5E
102
{ACAD_REACTORS
330
47
102
}
330
47
100
AcDbScale
 70
     0
300
1/8" = 1'-0"
140
0.125
141
12.0
290
     0
  0
SCALE
  5
5F
102
{ACAD_REACTORS
330
47
102
}
330
47
100
AcDbScale
 70
     0
300
3/16" = 1'-0"
140
0.1875
141
12.0
290
     0
  0
SCALE
  5
60
102
{ACAD_REACTORS
330
47
102
}
330
47
100
AcDbScale
 70
     0
300
1/4" = 1'-0"
140
0.25
141
12.0
290
     0
  0
SCALE
  5
61
102
{ACAD_REACTORS
330
47
102
}
330
47
100
AcDbScale
 70
     0
300
3/8" = 1'-0"
140
0.375
141
12.0
290
     0
  0
SCALE
  5
62
102
{ACAD_REACTORS
330
47
102
}
330
47
100
AcDbScale
 70
     0
300
1/2" = 1'-0"
140
0.5
141
12.0
290
     0
  0
SCALE
  5
63
102
{ACAD_REACTORS
330
47
102
}
330
47
100
AcDbScale
 70
     0
300
3/4" = 1'-0"
140
0.75
141
12.0
290
     0
  0
SCALE
  5
64
102
{ACAD_REACTORS
330
47
102
}
330
47
100
AcDbScale
 70
     0
300
1" = 1'-0"
140
1.0
141
12.0
290
     0
  0
SCALE
  5
65
102
{ACAD_REACTORS
330
47
102
}
330
47
100
AcDbScale
 70
     0
300
1-1/2" = 1'-0"
140
1.5
141
12.0
290
     0
  0
SCALE
  5
66
102
{ACAD_REACTORS
330
47
102
}
330
47
100
AcDbScale
 70
     0
300
3" = 1'-0"
140
3.0
141
12.0
290
     0
  0
SCALE
  5
67
102
{ACAD_REACTORS
330
47
102
}
330
47
100
AcDbScale
 70
     0
300
6" = 1'-0"
140
6.0
141
12.0
290
     0
  0
SCALE
  5
68
102
{ACAD_REACTORS
330
47
102
}
330
47
100
AcDbScale
 70
     0
300
1'-0" = 1'-0"
140
12.0
141
12.0
290
     0
  0
ENDSEC
  0
EOF
