  0
SECTION
  2
HEADER
  9
$ACADVER
  1
AC1015
  9
$ACADMAINTVER
 70
     6
  9
$DWGCODEPAGE
  3
DOS932
  9
$INSBASE
 10
0.0
 20
0.0
 30
0.0
  9
$EXTMIN
 10
0.0
 20
0.0
 30
0.0
  9
$EXTMAX
 10
215.9
 20
139.7
 30
0.0
  9
$LIMMIN
 10
0.0
 20
0.0
  9
$LIMMAX
 10
215.9
 20
139.7
  9
$ORTHOMODE
 70
     0
  9
$REGENMODE
 70
     1
  9
$FILLMODE
 70
     1
  9
$QTEXTMODE
 70
     0
  9
$MIRRTEXT
 70
     1
  9
$LTSCALE
 40
0.5
  9
$ATTMODE
 70
     1
  9
$TEXTSIZE
 40
1.75
  9
$TRACEWID
 40
1.0
  9
$TEXTSTYLE
  7
Standard
  9
$CLAYER
  8
0
  9
$CELTYPE
  6
ByLayer
  9
$CECOLOR
 62
   256
  9
$CELTSCALE
 40
1.0
  9
$DISPSILH
 70
     0
  9
$DIMSCALE
 40
1.0
  9
$DIMASZ
 40
1.651
  9
$DIMEXO
 40
0.5
  9
$DIMDLI
 40
3.75
  9
$DIMRND
 40
0.0
  9
$DIMDLE
 40
0.0
  9
$DIMEXE
 40
0.5
  9
$DIMTP
 40
0.0
  9
$DIMTM
 40
0.0
  9
$DIMTXT
 40
1.75
  9
$DIMCEN
 40
2.5
  9
$DIMTSZ
 40
0.0
  9
$DIMTOL
 70
     0
  9
$DIMLIM
 70
     0
  9
$DIMTIH
 70
     1
  9
$DIMTOH
 70
     1
  9
$DIMSE1
 70
     0
  9
$DIMSE2
 70
     0
  9
$DIMTAD
 70
     1
  9
$DIMZIN
 70
     1
  9
$DIMBLK
  1

  9
$DIMASO
 70
     1
  9
$DIMSHO
 70
     1
  9
$DIMPOST
  1

  9
$DIMAPOST
  1

  9
$DIMALT
 70
     0
  9
$DIMALTD
 70
     3
  9
$DIMALTF
 40
0.0393700787
  9
$DIMLFAC
 40
1.0
  9
$DIMTOFL
 70
     1
  9
$DIMTVP
 40
0.0
  9
$DIMTIX
 70
     0
  9
$DIMSOXD
 70
     0
  9
$DIMSAH
 70
     0
  9
$DIMBLK1
  1

  9
$DIMBLK2
  1

  9
$DIMSTYLE
  2
ISO-25
  9
$DIMCLRD
 70
     0
  9
$DIMCLRE
 70
     0
  9
$DIMCLRT
 70
     0
  9
$DIMTFAC
 40
1.0
  9
$DIMGAP
 40
0.762
  9
$DIMJUST
 70
     0
  9
$DIMSD1
 70
     0
  9
$DIMSD2
 70
     0
  9
$DIMTOLJ
 70
     0
  9
$DIMTZIN
 70
     1
  9
$DIMALTZ
 70
     0
  9
$DIMALTTZ
 70
     0
  9
$DIMUPT
 70
     0
  9
$DIMDEC
 70
     2
  9
$DIMTDEC
 70
     2
  9
$DIMALTU
 70
     2
  9
$DIMALTTD
 70
     3
  9
$DIMTXSTY
  7
Standard
  9
$DIMAUNIT
 70
     0
  9
$DIMADEC
 70
     2
  9
$DIMALTRND
 40
0.0
  9
$DIMAZIN
 70
     0
  9
$DIMDSEP
 70
    44
  9
$DIMATFIT
 70
     3
  9
$DIMFRAC
 70
     0
  9
$DIMLDRBLK
  1

  9
$DIMLUNIT
 70
     2
  9
$DIMLWD
 70
    -2
  9
$DIMLWE
 70
    -2
  9
$DIMTMOVE
 70
     0
  9
$LUNITS
 70
     2
  9
$LUPREC
 70
     2
  9
$SKETCHINC
 40
1.0
  9
$FILLETRAD
 40
10.0
  9
$AUNITS
 70
     0
  9
$AUPREC
 70
     2
  9
$MENU
  1
.
  9
$ELEVATION
 40
0.0
  9
$PELEVATION
 40
0.0
  9
$THICKNESS
 40
0.0
  9
$LIMCHECK
 70
     0
  9
$CHAMFERA
 40
0.0
  9
$CHAMFERB
 40
0.0
  9
$CHAMFERC
 40
0.0
  9
$CHAMFERD
 40
0.0
  9
$SKPOLY
 70
     0
  9
$TDCREATE
 40
2460090.441942674
  9
$TDUCREATE
 40
2460090.066942674
  9
$TDUPDATE
 40
2460090.441943044
  9
$TDUUPDATE
 40
2460090.066943044
  9
$TDINDWG
 40
0.0000000116
  9
$TDUSRTIMER
 40
0.0000000116
  9
$USRTIMER
 70
     1
  9
$ANGBASE
 50
0.0
  9
$ANGDIR
 70
     0
  9
$PDMODE
 70
     0
  9
$PDSIZE
 40
-1.0
  9
$PLINEWID
 40
0.0
  9
$SPLFRAME
 70
     0
  9
$SPLINETYPE
 70
     6
  9
$SPLINESEGS
 70
     8
  9
$HANDSEED
  5
EE
  9
$SURFTAB1
 70
     6
  9
$SURFTAB2
 70
     6
  9
$SURFTYPE
 70
     6
  9
$SURFU
 70
     6
  9
$SURFV
 70
     6
  9
$UCSBASE
  2

  9
$UCSNAME
  2

  9
$UCSORG
 10
0.0
 20
0.0
 30
0.0
  9
$UCSXDIR
 10
1.0
 20
0.0
 30
0.0
  9
$UCSYDIR
 10
0.0
 20
1.0
 30
0.0
  9
$UCSORTHOREF
  2

  9
$UCSORTHOVIEW
 70
     0
  9
$UCSORGTOP
 10
0.0
 20
0.0
 30
0.0
  9
$UCSORGBOTTOM
 10
0.0
 20
0.0
 30
0.0
  9
$UCSORGLEFT
 10
0.0
 20
0.0
 30
0.0
  9
$UCSORGRIGHT
 10
0.0
 20
0.0
 30
0.0
  9
$UCSORGFRONT
 10
0.0
 20
0.0
 30
0.0
  9
$UCSORGBACK
 10
0.0
 20
0.0
 30
0.0
  9
$PUCSBASE
  2

  9
$PUCSNAME
  2

  9
$PUCSORG
 10
0.0
 20
0.0
 30
0.0
  9
$PUCSXDIR
 10
1.0
 20
0.0
 30
0.0
  9
$PUCSYDIR
 10
0.0
 20
1.0
 30
0.0
  9
$PUCSORTHOREF
  2

  9
$PUCSORTHOVIEW
 70
     0
  9
$PUCSORGTOP
 10
0.0
 20
0.0
 30
0.0
  9
$PUCSORGBOTTOM
 10
0.0
 20
0.0
 30
0.0
  9
$PUCSORGLEFT
 10
0.0
 20
0.0
 30
0.0
  9
$PUCSORGRIGHT
 10
0.0
 20
0.0
 30
0.0
  9
$PUCSORGFRONT
 10
0.0
 20
0.0
 30
0.0
  9
$PUCSORGBACK
 10
0.0
 20
0.0
 30
0.0
  9
$USERI1
 70
     0
  9
$USERI2
 70
     0
  9
$USERI3
 70
     0
  9
$USERI4
 70
     0
  9
$USERI5
 70
     0
  9
$USERR1
 40
0.0
  9
$USERR2
 40
0.0
  9
$USERR3
 40
0.0
  9
$USERR4
 40
0.0
  9
$USERR5
 40
0.0
  9
$WORLDVIEW
 70
     1
  9
$SHADEDGE
 70
     3
  9
$SHADEDIF
 70
    70
  9
$TILEMODE
 70
     1
  9
$MAXACTVP
 70
    64
  9
$PINSBASE
 10
0.0
 20
0.0
 30
0.0
  9
$PLIMCHECK
 70
     0
  9
$PEXTMIN
 10
1.0000000000E+20
 20
1.0000000000E+20
 30
1.0000000000E+20
  9
$PEXTMAX
 10
-1.0000000000E+20
 20
-1.0000000000E+20
 30
-1.0000000000E+20
  9
$PLIMMIN
 10
0.0
 20
0.0
  9
$PLIMMAX
 10
420.0
 20
297.0
  9
$UNITMODE
 70
     0
  9
$VISRETAIN
 70
     1
  9
$PLINEGEN
 70
     0
  9
$PSLTSCALE
 70
     1
  9
$TREEDEPTH
 70
  3020
  9
$CMLSTYLE
  2
Standard
  9
$CMLJUST
 70
     0
  9
$CMLSCALE
 40
20.0
  9
$PROXYGRAPHICS
 70
     1
  9
$MEASUREMENT
 70
     1
  9
$CELWEIGHT
370
    -1
  9
$ENDCAPS
280
     0
  9
$JOINSTYLE
280
     0
  9
$LWDISPLAY
290
     1
  9
$INSUNITS
 70
     4
  9
$HYPERLINKBASE
  1

  9
$STYLESHEET
  1

  9
$XEDIT
290
     1
  9
$CEPSNTYPE
380
     0
  9
$PSTYLEMODE
290
     1
  9
$FINGERPRINTGUID
  2
{3E15F6BA-74FB-47A3-BB60-802C56A834C9}
  9
$VERSIONGUID
  2
{FAEB1C32-E019-11D5-929B-00C0DF256EC4}
  9
$EXTNAMES
290
     1
  9
$PSVPSCALE
 40
0.0
  9
$OLESTARTUP
290
     0
  0
ENDSEC
  0
SECTION
  2
CLASSES
  0
CLASS
  1
ACDBDICTIONARYWDFLT
  2
AcDbDictionaryWithDefault
  3
ObjectDBX Classes
 90
        0
280
     0
281
     0
  0
CLASS
  1
VISUALSTYLE
  2
AcDbVisualStyle
  3
ObjectDBX Classes
 90
     4095
280
     0
281
     0
  0
CLASS
  1
MATERIAL
  2
AcDbMaterial
  3
ObjectDBX Classes
 90
     1153
280
     0
281
     0
  0
CLASS
  1
SCALE
  2
AcDbScale
  3
ObjectDBX Classes
 90
     1153
280
     0
281
     0
  0
CLASS
  1
TABLESTYLE
  2
AcDbTableStyle
  3
ObjectDBX Classes
 90
     4095
280
     0
281
     0
  0
CLASS
  1
MLEADERSTYLE
  2
AcDbMLeaderStyle
  3
ACDB_MLEADERSTYLE_CLASS
 90
     4095
280
     0
281
     0
  0
CLASS
  1
SUN
  2
AcDbSun
  3
SCENEOE
 90
     1153
280
     0
281
     0
  0
CLASS
  1
ACDBPLACEHOLDER
  2
AcDbPlaceHolder
  3
ObjectDBX Classes
 90
        0
280
     0
281
     0
  0
CLASS
  1
LAYOUT
  2
AcDbLayout
  3
ObjectDBX Classes
 90
        0
280
     0
281
     0
  0
ENDSEC
  0
SECTION
  2
TABLES
  0
TABLE
  2
VPORT
  5
8
330
0
100
AcDbSymbolTable
 70
     1
  0
VPORT
  5
29
330
8
100
AcDbSymbolTableRecord
100
AcDbViewportTableRecord
  2
*Active
 70
     0
 10
0.0
 20
0.0
 11
1.0
 21
1.0
 12
107.95
 22
69.85
 13
0.0
 23
0.0
 14
10.0
 24
10.0
 15
10.0
 25
10.0
 16
0.0
 26
0.0
 36
1.0
 17
0.0
 27
0.0
 37
0.0
 40
139.7
 41
1.5454545455
 42
50.0
 43
0.0
 44
0.0
 50
0.0
 51
0.0
 71
     0
 72
  2000
 73
     1
 74
     3
 75
     0
 76
     0
 77
     0
 78
     0
281
     0
 65
     1
110
0.0
120
0.0
130
0.0
111
1.0
121
0.0
131
0.0
112
0.0
122
1.0
132
0.0
 79
     0
146
0.0
  0
ENDTAB
  0
TABLE
  2
LTYPE
  5
5
330
0
100
AcDbSymbolTable
 70
     6
  0
LTYPE
  5
14
330
5
100
AcDbSymbolTableRecord
100
AcDbLinetypeTableRecord
  2
ByBlock
 70
     0
  3

 72
    65
 73
     0
 40
0.0
  0
LTYPE
  5
15
330
5
100
AcDbSymbolTableRecord
100
AcDbLinetypeTableRecord
  2
ByLayer
 70
     0
  3

 72
    65
 73
     0
 40
0.0
  0
LTYPE
  5
16
330
5
100
AcDbSymbolTableRecord
100
AcDbLinetypeTableRecord
  2
Continuous
 70
     0
  3
Solid line
 72
    65
 73
     0
 40
0.0
  0
LTYPE
  5
6E
330
5
100
AcDbSymbolTableRecord
100
AcDbLinetypeTableRecord
  2
HIDDEN
 70
     0
  3
Hidden __ __ __ __ __ __ __ __ __ __ __ __ __ __
 72
    65
 73
     2
 40
1.905
 49
1.27
 74
     0
 49
-0.635
 74
     0
  0
LTYPE
  5
6F
330
5
100
AcDbSymbolTableRecord
100
AcDbLinetypeTableRecord
  2
PHANTOM
 70
     0
  3
Phantom ______  __  __  ______  __  __  ______
 72
    65
 73
     6
 40
12.7
 49
6.35
 74
     0
 49
-1.27
 74
     0
 49
1.27
 74
     0
 49
-1.27
 74
     0
 49
1.27
 74
     0
 49
-1.27
 74
     0
  0
LTYPE
  5
70
330
5
100
AcDbSymbolTableRecord
100
AcDbLinetypeTableRecord
  2
CENTER
 70
     0
  3
Center ____ _ ____ _ ____ _ ____ _ ____ _ ____
 72
    65
 73
     4
 40
10.16
 49
6.35
 74
     0
 49
-1.27
 74
     0
 49
1.27
 74
     0
 49
-1.27
 74
     0
  0
LTYPE
  5
71
330
5
100
AcDbSymbolTableRecord
100
AcDbLinetypeTableRecord
  2
CENTERX2
 70
     0
  3
Center (2x) ________  __  ________  __  _____
 72
    65
 73
     4
 40
20.32
 49
12.7
 74
     0
 49
-2.54
 74
     0
 49
2.54
 74
     0
 49
-2.54
 74
     0
  0
LTYPE
  5
72
330
5
100
AcDbSymbolTableRecord
100
AcDbLinetypeTableRecord
  2
DOT2
 70
     0
  3
Dot (.5x) ........................................
 72
    65
 73
     2
 40
0.635
 49
0.0
 74
     0
 49
-0.635
 74
     0
  0
ENDTAB
  0
TABLE
  2
LAYER
  5
2
330
0
100
AcDbSymbolTable
 70
     1
  0
LAYER
  5
10
330
2
100
AcDbSymbolTableRecord
100
AcDbLayerTableRecord
  2
0
 70
     0
 62
     7
  6
Continuous
370
    -3
390
F
  0
ENDTAB
  0
TABLE
  2
STYLE
  5
3
330
0
100
AcDbSymbolTable
 70
     2
  0
STYLE
  5
11
330
3
100
AcDbSymbolTableRecord
100
AcDbTextStyleTableRecord
  2
Standard
 70
     0
 40
0.0
 41
1.0
 50
0.0
 71
     0
 42
1.75
  3
txt
  4
bigfont
  0
STYLE
  5
73
330
3
100
AcDbSymbolTableRecord
100
AcDbTextStyleTableRecord
  2
SLDTEXTSTYLE0
 70
     0
 40
0.0
 41
0.75
 50
0.0
 71
     0
 42
1.75
  3
TXT
  4
bigfont
  0
ENDTAB
  0
TABLE
  2
VIEW
  5
6
330
0
100
AcDbSymbolTable
 70
     0
  0
ENDTAB
  0
TABLE
  2
UCS
  5
7
330
0
100
AcDbSymbolTable
 70
     0
  0
ENDTAB
  0
TABLE
  2
APPID
  5
9
330
0
100
AcDbSymbolTable
 70
     1
  0
APPID
  5
12
330
9
100
AcDbSymbolTableRecord
100
AcDbRegAppTableRecord
  2
ACAD
 70
     0
  0
ENDTAB
  0
TABLE
  2
DIMSTYLE
  5
A
330
0
100
AcDbSymbolTable
 70
     1
100
AcDbDimStyleTable
  0
DIMSTYLE
105
27
330
A
100
AcDbSymbolTableRecord
100
AcDbDimStyleTableRecord
  2
ISO-25
 70
     0
 41
2.5
 42
0.625
 43
3.75
 44
1.25
 73
     0
 74
     0
 77
     1
 78
     8
140
2.5
141
2.5
143
0.0393700787
147
0.625
171
     3
172
     1
178
     0
271
     2
272
     2
274
     3
278
    44
283
     0
284
     8
340
11
  0
ENDTAB
  0
TABLE
  2
BLOCK_RECORD
  5
1
330
0
100
AcDbSymbolTable
 70
     2
  0
BLOCK_RECORD
  5
1F
330
1
100
AcDbSymbolTableRecord
100
AcDbBlockTableRecord
  2
*Model_Space
340
22
  0
BLOCK_RECORD
  5
1B
330
1
100
AcDbSymbolTableRecord
100
AcDbBlockTableRecord
  2
*Paper_Space
340
1E
  0
BLOCK_RECORD
  5
23
330
1
100
AcDbSymbolTableRecord
100
AcDbBlockTableRecord
  2
*Paper_Space0
340
26
  0
BLOCK_RECORD
  5
E1
330
1
100
AcDbSymbolTableRecord
100
AcDbBlockTableRecord
  2
SW_CENTERMARKSYMBOL_0
340
0
102
{BLKREFS
331
EC
102
}
  0
ENDTAB
  0
ENDSEC
  0
SECTION
  2
BLOCKS
  0
BLOCK
  5
20
330
1F
100
AcDbEntity
  8
0
100
AcDbBlockBegin
  2
*Model_Space
 70
     0
 10
0.0
 20
0.0
 30
0.0
  3
*Model_Space
  1

  0
ENDBLK
  5
21
330
1F
100
AcDbEntity
  8
0
100
AcDbBlockEnd
  0
BLOCK
  5
1C
330
1B
100
AcDbEntity
 67
     1
  8
0
100
AcDbBlockBegin
  2
*Paper_Space
 70
     0
 10
0.0
 20
0.0
 30
0.0
  3
*Paper_Space
  1

  0
ENDBLK
  5
1D
330
1B
100
AcDbEntity
 67
     1
  8
0
100
AcDbBlockEnd
  0
BLOCK
  5
24
330
23
100
AcDbEntity
  8
0
100
AcDbBlockBegin
  2
*Paper_Space0
 70
     0
 10
0.0
 20
0.0
 30
0.0
  3
*Paper_Space0
  1

  0
ENDBLK
  5
25
330
23
100
AcDbEntity
  8
0
100
AcDbBlockEnd
  0
BLOCK
  5
E2
330
E1
100
AcDbEntity
  8
0
100
AcDbBlockBegin
  2
SW_CENTERMARKSYMBOL_0
 70
     0
 10
0.0
 20
0.0
 30
0.0
  3
SW_CENTERMARKSYMBOL_0
  1

  0
LINE
  5
E4
330
E1
100
AcDbEntity
  8
0
  6
Continuous
 62
     0
370
    18
100
AcDbLine
 10
0.0
 20
0.0
 30
0.0
 11
0.0
 21
2.5
 31
0.0
  0
LINE
  5
E5
330
E1
100
AcDbEntity
  8
0
  6
Continuous
 62
     0
370
    18
100
AcDbLine
 10
0.0
 20
0.0
 30
0.0
 11
-2.5
 21
0.0
 31
0.0
  0
LINE
  5
E6
330
E1
100
AcDbEntity
  8
0
  6
Continuous
 62
     0
370
    18
100
AcDbLine
 10
0.0
 20
0.0
 30
0.0
 11
0.0
 21
-2.5
 31
0.0
  0
LINE
  5
E7
330
E1
100
AcDbEntity
  8
0
  6
Continuous
 62
     0
370
    18
100
AcDbLine
 10
0.0
 20
0.0
 30
0.0
 11
2.5
 21
0.0
 31
0.0
  0
LINE
  5
E8
330
E1
100
AcDbEntity
  8
0
  6
Continuous
 62
     0
370
    18
100
AcDbLine
 10
0.0
 20
5.0
 30
0.0
 11
0.0
 21
19.3513333333
 31
0.0
  0
LINE
  5
E9
330
E1
100
AcDbEntity
  8
0
  6
Continuous
 62
     0
370
    18
100
AcDbLine
 10
-5.0
 20
0.0
 30
0.0
 11
-19.3513333333
 21
0.0
 31
0.0
  0
LINE
  5
EA
330
E1
100
AcDbEntity
  8
0
  6
Continuous
 62
     0
370
    18
100
AcDbLine
 10
0.0
 20
-5.0
 30
0.0
 11
0.0
 21
-19.3513333333
 31
0.0
  0
LINE
  5
EB
330
E1
100
AcDbEntity
  8
0
  6
Continuous
 62
     0
370
    18
100
AcDbLine
 10
5.0
 20
0.0
 30
0.0
 11
19.3513333333
 21
0.0
 31
0.0
  0
ENDBLK
  5
E3
330
E1
100
AcDbEntity
  8
0
100
AcDbBlockEnd
  0
ENDSEC
  0
SECTION
  2
ENTITIES
  0
MTEXT
  5
74
330
1F
100
AcDbEntity
  8
0
  6
Continuous
 62
     7
370
     0
100
AcDbMText
 10
40.7105295292
 20
51.2527165138
 30
0.0
 40
3.7041666667
 41
0.0
 71
     1
 72
     1
  1
NP-7008
  7
SLDTEXTSTYLE0
 73
     1
 44
1.0
  0
LINE
  5
75
330
1F
100
AcDbEntity
  8
0
  6
Continuous
 62
     7
370
    25
100
AcDbLine
 10
30.3621186898
 20
42.8000026975
 30
0.0
 11
16.0092066703
 21
42.3514741969
 31
0.0
  0
LINE
  5
76
330
1F
100
AcDbEntity
  8
0
  6
Continuous
 62
     7
370
    25
100
AcDbLine
 10
16.0092066703
 20
9.5458645314
 30
0.0
 11
30.3621186898
 21
9.0973360308
 31
0.0
  0
LINE
  5
77
330
1F
100
AcDbEntity
  8
0
  6
Continuous
 62
     7
370
    25
100
AcDbLine
 10
30.3621186898
 20
9.0973360308
 30
0.0
 11
32.7134520231
 21
11.4486693642
 31
0.0
  0
LINE
  5
78
330
1F
100
AcDbEntity
  8
0
  6
Continuous
 62
     7
370
    25
100
AcDbLine
 10
32.7134520231
 20
40.4486693642
 30
0.0
 11
30.3621186898
 21
42.8000026975
 31
0.0
  0
LINE
  5
79
330
1F
100
AcDbEntity
  8
0
  6
Continuous
 62
     7
370
    25
100
AcDbLine
 10
16.0092066703
 20
42.3514741969
 30
0.0
 11
12.7134520231
 21
40.4486693642
 31
0.0
  0
LINE
  5
7A
330
1F
100
AcDbEntity
  8
0
  6
Continuous
 62
     7
370
    25
100
AcDbLine
 10
12.7134520231
 20
11.4486693642
 30
0.0
 11
16.0092066703
 21
9.5458645314
 31
0.0
  0
LINE
  5
7B
330
1F
100
AcDbEntity
  8
0
  6
Continuous
 62
     7
370
    25
100
AcDbLine
 10
44.7134520231
 20
35.4486693642
 30
0.0
 11
42.2384520231
 21
37.9236693642
 31
0.0
  0
LINE
  5
7C
330
1F
100
AcDbEntity
  8
0
  6
Continuous
 62
     7
370
    25
100
AcDbLine
 10
42.2384520231
 20
13.9736693642
 30
0.0
 11
44.7134520231
 21
16.4486693642
 31
0.0
  0
LINE
  5
7D
330
1F
100
AcDbEntity
  8
0
  6
Continuous
 62
     7
370
    25
100
AcDbLine
 10
30.3621186898
 20
42.8000026975
 30
0.0
 11
30.3621186898
 21
9.0973360308
 31
0.0
  0
LINE
  5
7E
330
1F
100
AcDbEntity
  8
0
  6
Continuous
 62
     7
370
    25
100
AcDbLine
 10
16.0092066703
 20
9.5458645314
 30
0.0
 11
16.0092066703
 21
42.3514741969
 31
0.0
  0
LINE
  5
7F
330
1F
100
AcDbEntity
  8
0
  6
Continuous
 62
     7
370
    25
100
AcDbLine
 10
32.7134520231
 20
40.4486693642
 30
0.0
 11
32.7134520231
 21
11.4486693642
 31
0.0
  0
LINE
  5
80
330
1F
100
AcDbEntity
  8
0
  6
Continuous
 62
     7
370
    25
100
AcDbLine
 10
12.7134520231
 20
11.4486693642
 30
0.0
 11
12.7134520231
 21
40.4486693642
 31
0.0
  0
SPLINE
  5
81
330
1F
100
AcDbEntity
  8
0
  6
Continuous
 62
     7
370
    25
100
AcDbSpline
210
0.0
220
0.0
230
1.0
 70
     8
 71
     3
 72
    16
 73
    12
 74
     0
 42
0.000000001
 43
0.00000001
 40
0.0
 40
0.0
 40
0.0
 40
0.0
 40
0.25
 40
0.25
 40
0.5
 40
0.5
 40
0.6249999999999999
 40
0.6249999999999999
 40
0.7499999999999998
 40
0.7499999999999998
 40
1.0
 40
1.0
 40
1.0
 40
1.0
 10
42.14977475534451
 20
13.97366936416185
 30
0.0
 10
42.49643622214705
 20
14.37138914808295
 30
0.0
 10
42.82486167498637
 20
14.77572722695434
 30
0.0
 10
43.42850890230529
 20
15.60371229927323
 30
0.0
 10
43.70387189642378
 20
16.02730804066397
 30
0.0
 10
44.05758608305224
 20
16.68423406963619
 30
0.0
 10
44.16551500789174
 20
16.90682987560826
 30
0.0
 10
44.35689424984283
 20
17.36090537227865
 30
0.0
 10
44.44062680408967
 20
17.59378501798796
 30
0.0
 10
44.64276848350974
 20
18.29217290465831
 30
0.0
 10
44.71345202312076
 20
18.76027786656781
 30
0.0
 10
44.71345202312076
 20
19.23115494288965
 30
0.0
  0
LINE
  5
82
330
1F
100
AcDbEntity
  8
0
  6
Continuous
 62
     7
370
    25
100
AcDbLine
 10
32.7134520231
 20
13.9736693642
 30
0.0
 11
42.1497747553
 21
13.9736693642
 31
0.0
  0
LINE
  5
83
330
1F
100
AcDbEntity
  8
0
  6
Continuous
 62
     7
370
    25
100
AcDbLine
 10
42.1497747553
 20
24.4886405216
 30
0.0
 11
32.7134520231
 21
24.4886405216
 31
0.0
  0
SPLINE
  5
84
330
1F
100
AcDbEntity
  8
0
  6
Continuous
 62
     7
370
    25
100
AcDbSpline
210
0.0
220
0.0
230
1.0
 70
     8
 71
     3
 72
    16
 73
    12
 74
     0
 42
0.000000001
 43
0.00000001
 40
0.0
 40
0.0
 40
0.0
 40
0.0
 40
0.1250000000000001
 40
0.1250000000000001
 40
0.2500000000000002
 40
0.2500000000000002
 40
0.5000000000000001
 40
0.5000000000000001
 40
0.75
 40
0.75
 40
1.0
 40
1.0
 40
1.0
 40
1.0
 10
44.71345202312076
 20
19.23115494288965
 30
0.0
 10
44.71345202312076
 20
19.46394458136096
 30
0.0
 10
44.69629269149431
 20
19.69740718599624
 30
0.0
 10
44.62761805743538
 20
20.16567979074734
 30
0.0
 10
44.57582707330891
 20
20.40065861377839
 30
0.0
 10
44.37650211759718
 20
21.09156288748341
 30
0.0
 10
44.18472564127341
 20
21.53924131455818
 30
0.0
 10
43.71559588479803
 20
22.41581788087251
 30
0.0
 10
43.43707345120216
 20
22.84620853447733
 30
0.0
 10
42.82847421242825
 20
23.68225646749883
 30
0.0
 10
42.49795055259421
 20
24.08918336785312
 30
0.0
 10
42.1497747553445
 20
24.48864052161745
 30
0.0
  0
SPLINE
  5
85
330
1F
100
AcDbEntity
  8
0
  6
Continuous
 62
     7
370
    25
100
AcDbSpline
210
0.0
220
0.0
230
1.0
 70
     8
 71
     3
 72
    16
 73
    12
 74
     0
 42
0.000000001
 43
0.00000001
 40
0.0
 40
0.0
 40
0.0
 40
0.0
 40
0.1249999999999999
 40
0.1249999999999999
 40
0.2499999999999998
 40
0.2499999999999998
 40
0.4999999999999998
 40
0.4999999999999998
 40
0.7499999999999999
 40
0.7499999999999999
 40
1.0
 40
1.0
 40
1.0
 40
1.0
 10
44.71345202312076
 20
32.66618378543404
 30
0.0
 10
44.71345202312076
 20
32.89897342390536
 30
0.0
 10
44.69629269149431
 20
33.13243602854064
 30
0.0
 10
44.62761805743538
 20
33.60070863329174
 30
0.0
 10
44.57582707330891
 20
33.83568745632279
 30
0.0
 10
44.37650211759718
 20
34.5265917300278
 30
0.0
 10
44.1847256412734
 20
34.97427015710258
 30
0.0
 10
43.71559588479803
 20
35.8508467234169
 30
0.0
 10
43.43707345120217
 20
36.28123737702172
 30
0.0
 10
42.82847421242825
 20
37.11728531004324
 30
0.0
 10
42.49795055259421
 20
37.52421221039752
 30
0.0
 10
42.14977475534451
 20
37.92366936416185
 30
0.0
  0
SPLINE
  5
86
330
1F
100
AcDbEntity
  8
0
  6
Continuous
 62
     7
370
    25
100
AcDbSpline
210
0.0
220
0.0
230
1.0
 70
     8
 71
     3
 72
    16
 73
    12
 74
     0
 42
0.000000001
 43
0.00000001
 40
0.0
 40
0.0
 40
0.0
 40
0.0
 40
0.2499999999999999
 40
0.2499999999999999
 40
0.4999999999999998
 40
0.4999999999999998
 40
0.6249999999999998
 40
0.6249999999999998
 40
0.7499999999999997
 40
0.7499999999999997
 40
1.0
 40
1.0
 40
1.0
 40
1.0
 10
42.14977475534451
 20
27.40869820670625
 30
0.0
 10
42.49643622214705
 20
27.80641799062735
 30
0.0
 10
42.82486167498636
 20
28.21075606949874
 30
0.0
 10
43.42850890230529
 20
29.03874114181763
 30
0.0
 10
43.70387189642377
 20
29.46233688320837
 30
0.0
 10
44.05758608305224
 20
30.1192629121806
 30
0.0
 10
44.16551500789174
 20
30.34185871815266
 30
0.0
 10
44.35689424984283
 20
30.79593421482306
 30
0.0
 10
44.44062680408967
 20
31.02881386053236
 30
0.0
 10
44.64276848350975
 20
31.72720174720271
 30
0.0
 10
44.71345202312076
 20
32.19530670911222
 30
0.0
 10
44.71345202312076
 20
32.66618378543404
 30
0.0
  0
LINE
  5
87
330
1F
100
AcDbEntity
  8
0
  6
Continuous
 62
     7
370
    25
100
AcDbLine
 10
32.7134520231
 20
27.4086982067
 30
0.0
 11
42.1497747553
 21
27.4086982067
 31
0.0
  0
LINE
  5
88
330
1F
100
AcDbEntity
  8
0
  6
Continuous
 62
     7
370
    25
100
AcDbLine
 10
32.7134520231
 20
37.9236693642
 30
0.0
 11
42.1497747553
 21
37.9236693642
 31
0.0
  0
SPLINE
  5
89
330
1F
100
AcDbEntity
  8
0
  6
Continuous
 62
     7
370
    25
100
AcDbSpline
210
0.0
220
0.0
230
1.0
 70
     8
 71
     3
 72
    12
 73
     8
 74
     0
 42
0.000000001
 43
0.00000001
 40
0.0
 40
0.0
 40
0.0
 40
0.0
 40
0.25
 40
0.25
 40
0.5
 40
0.5
 40
1.0
 40
1.0
 40
1.0
 40
1.0
 10
42.14977475534451
 20
24.48864052161744
 30
0.0
 10
42.17895962347531
 20
24.72978427164036
 30
0.0
 10
42.2012056549278
 20
24.97248987111152
 30
0.0
 10
42.23101665601703
 20
25.46120560211879
 30
0.0
 10
42.2385424084417
 20
25.70808195371493
 30
0.0
 10
42.23826876357928
 20
26.44321682288773
 30
0.0
 10
42.20791882469612
 20
26.92827530871014
 30
0.0
 10
42.1497747553445
 20
27.40869820670625
 30
0.0
  0
LINE
  5
8A
330
1F
100
AcDbEntity
  8
0
  6
Continuous
 62
     7
370
    25
100
AcDbLine
 10
44.7134520231
 20
32.6661837854
 30
0.0
 11
44.7134520231
 21
19.2311549429
 31
0.0
  0
SPLINE
  5
8B
330
1F
100
AcDbEntity
  8
0
  6
Continuous
 62
     7
370
    25
100
AcDbSpline
210
0.0
220
0.0
230
1.0
 70
    24
 71
     3
 72
     9
 73
     5
 74
     0
 42
0.000000001
 43
0.00000001
 40
0.0
 40
0.0
 40
0.0
 40
0.0
 40
0.6108431718732253
 40
1.0
 40
1.0
 40
1.0
 40
1.0
 10
42.14977475534451
 20
37.92366936416185
 30
0.0
 10
42.18156537493151
 20
37.92366936416185
 30
0.0
 10
42.23360920721257
 20
37.92366936416185
 30
0.0
 10
42.23146201777339
 20
37.92366936416185
 30
0.0
 10
42.23062642434185
 20
37.92366936416185
 30
0.0
  0
LINE
  5
8C
330
1F
100
AcDbEntity
  8
0
  6
Continuous
 62
     7
370
    25
100
AcDbLine
 10
44.7134520231
 20
35.4486693642
 30
0.0
 11
44.7134520231
 21
32.6661837854
 31
0.0
  0
SPLINE
  5
8D
330
1F
100
AcDbEntity
  8
0
  6
Continuous
 62
     7
370
    25
100
AcDbSpline
210
0.0
220
0.0
230
1.0
 70
    24
 71
     3
 72
     9
 73
     5
 74
     0
 42
0.000000001
 43
0.00000001
 40
0.0
 40
0.0
 40
0.0
 40
0.0
 40
0.6108431718732268
 40
1.0
 40
1.0
 40
1.0
 40
1.0
 10
42.14977475534451
 20
13.97366936416185
 30
0.0
 10
42.18156537493152
 20
13.97366936416184
 30
0.0
 10
42.23360920721257
 20
13.97366936416185
 30
0.0
 10
42.23146201777339
 20
13.97366936416185
 30
0.0
 10
42.23062642434185
 20
13.97366936416185
 30
0.0
  0
LINE
  5
8E
330
1F
100
AcDbEntity
  8
0
  6
Continuous
 62
     7
370
    25
100
AcDbLine
 10
44.7134520231
 20
19.2311549429
 30
0.0
 11
44.7134520231
 21
16.4486693642
 31
0.0
  0
LINE
  5
8F
330
1F
100
AcDbEntity
  8
0
  6
Continuous
 62
     7
370
    18
100
AcDbLine
 10
30.3621186898
 20
10.8031693642
 30
0.0
 11
12.8855434356
 21
11.3493123409
 31
0.0
  0
LINE
  5
90
330
1F
100
AcDbEntity
  8
0
  6
Continuous
 62
     7
370
    18
100
AcDbLine
 10
30.3621186898
 20
41.0941693642
 30
0.0
 11
12.8855434356
 21
40.5480263875
 31
0.0
  0
LINE
  5
91
330
1F
100
AcDbEntity
  8
0
  6
CENTERX2
 62
     7
370
    18
100
AcDbLine
 10
46.6693433526
 20
25.9486693642
 30
0.0
 11
10.2633618497
 21
25.9486693642
 31
0.0
  0
SPLINE
  5
92
330
1F
100
AcDbEntity
  8
0
  6
Continuous
 62
     7
370
    25
100
AcDbSpline
210
0.0
220
0.0
230
1.0
 70
     8
 71
     3
 72
    23
 73
    19
 74
     0
 42
0.000000001
 43
0.00000001
 40
0.0
 40
0.0
 40
0.0
 40
0.0
 40
0.0714340508655357
 40
0.1375891490131986
 40
0.1988671272749593
 40
0.2554435599219266
 40
0.3076933861665009
 40
0.3550325418254515
 40
0.3974487289008684
 40
0.4361373033546199
 40
0.5081119058244425
 40
0.5772270526050617
 40
0.646334884194341
 40
0.7166178483288136
 40
0.7873525362986344
 40
0.856732945264368
 40
0.9275818981340936
 40
1.0
 40
1.0
 40
1.0
 40
1.0
 10
74.08037847621456
 20
24.59189735337185
 30
0.0
 10
74.09486213779975
 20
24.60646754972263
 30
0.0
 10
74.12275912317237
 20
24.6345312097359
 30
0.0
 10
74.16103183865711
 20
24.67702351627473
 30
0.0
 10
74.19665210924002
 20
24.71617804310561
 30
0.0
 10
74.2269269057774
 20
24.75461613593277
 30
0.0
 10
74.25428078567789
 20
24.7902526024192
 30
0.0
 10
74.27664914568626
 20
24.82443901827959
 30
0.0
 10
74.29569187503216
 20
24.85611884322894
 30
0.0
 10
74.3147882657213
 20
24.89583327733142
 30
0.0
 10
74.33203658587419
 20
24.94476661123371
 30
0.0
 10
74.34343399671191
 20
25.00437805463399
 30
0.0
 10
74.34485932332342
 20
25.06458054106798
 30
0.0
 10
74.3367767622128
 20
25.12470924205671
 30
0.0
 10
74.31962719411924
 20
25.18292864760945
 30
0.0
 10
74.29500107862735
 20
25.23858396184658
 30
0.0
 10
74.26117942358576
 20
25.28993612399957
 30
0.0
 10
74.23322880621419
 20
25.32025950602827
 30
0.0
 10
74.21910043134277
 20
25.335587257218
 30
0.0
  0
LINE
  5
93
330
1F
100
AcDbEntity
  8
0
  6
Continuous
 62
     7
370
    25
100
AcDbLine
 10
73.7803985083
 20
24.2999302059
 30
0.0
 11
74.0803784762
 21
24.5918973534
 31
0.0
  0
LINE
  5
94
330
1F
100
AcDbEntity
  8
0
  6
Continuous
 62
     7
370
    25
100
AcDbLine
 10
73.1859473865
 20
24.8943813277
 30
0.0
 11
73.7803985083
 21
24.2999302059
 31
0.0
  0
LINE
  5
95
330
1F
100
AcDbEntity
  8
0
  6
Continuous
 62
     7
370
    25
100
AcDbLine
 10
73.4949417775
 20
25.2033757188
 30
0.0
 11
73.1859473865
 21
24.8943813277
 31
0.0
  0
SPLINE
  5
96
330
1F
100
AcDbEntity
  8
0
  6
Continuous
 62
     7
370
    25
100
AcDbSpline
210
0.0
220
0.0
230
1.0
 70
     8
 71
     3
 72
    23
 73
    19
 74
     0
 42
0.000000001
 43
0.00000001
 40
0.0
 40
0.0
 40
0.0
 40
0.0
 40
0.072681328437904
 40
0.1434600890843442
 40
0.2141609783754212
 40
0.2866317423066647
 40
0.3582937434852109
 40
0.4274496270517901
 40
0.4958614884323622
 40
0.5652405595167557
 40
0.6025654069960297
 40
0.6444912751488164
 40
0.6912842453022057
 40
0.7427916792484177
 40
0.7995856524042377
 40
0.8612748596826223
 40
0.9283330396850044
 40
1.0
 40
1.0
 40
1.0
 40
1.0
 10
74.21910043134277
 20
25.335587257218
 30
0.0
 10
74.20414309369995
 20
25.34944743513053
 30
0.0
 10
74.17461995430749
 20
25.37680497524146
 30
0.0
 10
74.12355790081565
 20
25.40882543698319
 30
0.0
 10
74.06896449422248
 20
25.43395981745894
 30
0.0
 10
74.01072407343355
 20
25.44990649161303
 30
0.0
 10
73.95150632641882
 20
25.45872512613802
 30
0.0
 10
73.892614691671
 20
25.45850171243814
 30
0.0
 10
73.83539380456374
 20
25.44804350447738
 30
0.0
 10
73.78865604730757
 20
25.43235111456087
 30
0.0
 10
73.75161792830964
 20
25.41328606047835
 30
0.0
 10
73.72085314337335
 20
25.39594237004861
 30
0.0
 10
73.68849833438829
 20
25.3736188600084
 30
0.0
 10
73.65387827661708
 20
25.347393573676
 30
0.0
 10
73.61690358510954
 20
25.31739898663928
 30
0.0
 10
73.5777087806886
 20
25.28327334400893
 30
0.0
 10
73.53695491610293
 20
25.24467571851863
 30
0.0
 10
73.50925293237437
 20
25.21744395342434
 30
0.0
 10
73.4949417774966
 20
25.20337571875646
 30
0.0
  0
ARC
  5
97
330
1F
100
AcDbEntity
  8
0
  6
Continuous
 62
     7
370
    25
100
AcDbCircle
 10
73.8502797688
 20
25.9486693642
 30
0.0
 40
9.499999999999998
100
AcDbArc
 50
315.0
 51
45.0
  0
SPLINE
  5
98
330
1F
100
AcDbEntity
  8
0
  6
Continuous
 62
     7
370
    25
100
AcDbSpline
210
0.0
220
0.0
230
1.0
 70
    24
 71
     3
 72
    16
 73
    12
 74
     0
 42
0.000000001
 43
0.00000001
 40
0.0
 40
0.0
 40
0.0
 40
0.0
 40
0.125
 40
0.125
 40
0.25
 40
0.25
 40
0.5
 40
0.5
 40
0.75
 40
0.75
 40
1.0
 40
1.0
 40
1.0
 40
1.0
 10
80.5677941900583
 20
32.66618378543405
 30
0.0
 10
80.8005838285296
 20
32.43339414696274
 30
0.0
 10
81.03404643316489
 20
32.19993154232746
 30
0.0
 10
81.50231903791598
 20
31.73165893757636
 30
0.0
 10
81.73729786094704
 20
31.49668011454531
 30
0.0
 10
82.42820213465204
 20
30.80577584084029
 30
0.0
 10
82.87588056172683
 20
30.35809741376552
 30
0.0
 10
83.75245712804114
 20
29.48152084745119
 30
0.0
 10
84.18284778164598
 20
29.05113019384637
 30
0.0
 10
85.01889571466748
 20
28.21508226082487
 30
0.0
 10
85.42582261502177
 20
27.80815536047058
 30
0.0
 10
85.82527976878609
 20
27.40869820670626
 30
0.0
  0
SPLINE
  5
99
330
1F
100
AcDbEntity
  8
0
  6
Continuous
 62
     7
370
    25
100
AcDbSpline
210
0.0
220
0.0
230
1.0
 70
    24
 71
     3
 72
    10
 73
     6
 74
     0
 42
0.000000001
 43
0.00000001
 40
0.0
 40
0.0
 40
0.0
 40
0.0
 40
0.5
 40
0.5
 40
1.0
 40
1.0
 40
1.0
 40
1.0
 10
85.82527976878609
 20
24.48864052161744
 30
0.0
 10
85.82527976878609
 20
24.96971181156235
 30
0.0
 10
85.82527976878609
 20
25.45591463689848
 30
0.0
 10
85.82527976878609
 20
26.43953201079793
 30
0.0
 10
85.82527976878609
 20
26.92704511555647
 30
0.0
 10
85.82527976878609
 20
27.40869820670626
 30
0.0
  0
SPLINE
  5
9A
330
1F
100
AcDbEntity
  8
0
  6
Continuous
 62
     7
370
    25
100
AcDbSpline
210
0.0
220
0.0
230
1.0
 70
    24
 71
     3
 72
    16
 73
    12
 74
     0
 42
0.000000001
 43
0.00000001
 40
0.0
 40
0.0
 40
0.0
 40
0.0
 40
0.1250000000000001
 40
0.1250000000000001
 40
0.2500000000000001
 40
0.2500000000000001
 40
0.5
 40
0.5
 40
0.75
 40
0.75
 40
1.0
 40
1.0
 40
1.0
 40
1.0
 10
80.5677941900583
 20
19.23115494288965
 30
0.0
 10
80.8005838285296
 20
19.46394458136096
 30
0.0
 10
81.03404643316487
 20
19.69740718599623
 30
0.0
 10
81.502319037916
 20
20.16567979074733
 30
0.0
 10
81.73729786094704
 20
20.40065861377838
 30
0.0
 10
82.42820213465204
 20
21.09156288748341
 30
0.0
 10
82.87588056172683
 20
21.53924131455818
 30
0.0
 10
83.75245712804114
 20
22.41581788087251
 30
0.0
 10
84.18284778164598
 20
22.84620853447733
 30
0.0
 10
85.0188957146675
 20
23.68225646749883
 30
0.0
 10
85.42582261502177
 20
24.08918336785312
 30
0.0
 10
85.82527976878609
 20
24.48864052161744
 30
0.0
  0
LINE
  5
9B
330
1F
100
AcDbEntity
  8
0
  6
Continuous
 62
     7
370
    25
100
AcDbLine
 10
75.7215759481
 20
28.1769948328
 30
0.0
 11
75.3149253071
 21
28.5836454738
 31
0.0
  0
LINE
  5
9C
330
1F
100
AcDbEntity
  8
0
  6
Continuous
 62
     7
370
    25
100
AcDbLine
 10
75.8963555955
 20
28.3517744802
 30
0.0
 11
75.7215759481
 21
28.1769948328
 31
0.0
  0
LINE
  5
9D
330
1F
100
AcDbEntity
  8
0
  6
Continuous
 62
     7
370
    25
100
AcDbLine
 10
75.4897049545
 20
28.7584251212
 30
0.0
 11
75.8963555955
 21
28.3517744802
 31
0.0
  0
LINE
  5
9E
330
1F
100
AcDbEntity
  8
0
  6
Continuous
 62
     7
370
    25
100
AcDbLine
 10
75.7015438968
 20
28.9702640636
 30
0.0
 11
75.4897049545
 21
28.7584251212
 31
0.0
  0
LINE
  5
9F
330
1F
100
AcDbEntity
  8
0
  6
Continuous
 62
     7
370
    25
100
AcDbLine
 10
75.5337754673
 20
29.138032493
 30
0.0
 11
75.7015438968
 21
28.9702640636
 31
0.0
  0
LINE
  5
A0
330
1F
100
AcDbEntity
  8
0
  6
Continuous
 62
     7
370
    25
100
AcDbLine
 10
75.321936525
 20
28.9261935507
 30
0.0
 11
75.5337754673
 21
29.138032493
 31
0.0
  0
LINE
  5
A1
330
1F
100
AcDbEntity
  8
0
  6
Continuous
 62
     7
370
    25
100
AcDbLine
 10
74.1024854032
 20
30.1456446725
 30
0.0
 11
75.321936525
 21
28.9261935507
 31
0.0
  0
LINE
  5
A2
330
1F
100
AcDbEntity
  8
0
  6
Continuous
 62
     7
370
    25
100
AcDbLine
 10
74.0669285122
 20
30.1100877815
 30
0.0
 11
74.1024854032
 21
30.1456446725
 31
0.0
  0
LINE
  5
A3
330
1F
100
AcDbEntity
  8
0
  6
Continuous
 62
     7
370
    25
100
AcDbLine
 10
74.4790879673
 20
27.7478081341
 30
0.0
 11
74.0669285122
 21
30.1100877815
 31
0.0
  0
LINE
  5
A4
330
1F
100
AcDbEntity
  8
0
  6
Continuous
 62
     7
370
    25
100
AcDbLine
 10
75.3149253071
 20
28.5836454738
 30
0.0
 11
74.4790879673
 21
27.7478081341
 31
0.0
  0
LINE
  5
A5
330
1F
100
AcDbEntity
  8
0
  6
Continuous
 62
     7
370
    25
100
AcDbLine
 10
76.7669632355
 20
25.0329174265
 30
0.0
 11
76.5886779791
 21
24.8546321701
 31
0.0
  0
LINE
  5
A6
330
1F
100
AcDbEntity
  8
0
  6
Continuous
 62
     7
370
    25
100
AcDbLine
 10
75.1874359919
 20
26.6124446701
 30
0.0
 11
76.7669632355
 21
25.0329174265
 31
0.0
  0
LINE
  5
A7
330
1F
100
AcDbEntity
  8
0
  6
Continuous
 62
     7
370
    25
100
AcDbLine
 10
75.5775601906
 20
27.0025688688
 30
0.0
 11
75.1874359919
 21
26.6124446701
 31
0.0
  0
LINE
  5
A8
330
1F
100
AcDbEntity
  8
0
  6
Continuous
 62
     7
370
    25
100
AcDbLine
 10
75.4072877547
 20
27.1728413047
 30
0.0
 11
75.5775601906
 21
27.0025688688
 31
0.0
  0
LINE
  5
A9
330
1F
100
AcDbEntity
  8
0
  6
Continuous
 62
     7
370
    25
100
AcDbLine
 10
74.447251697
 20
26.212805247
 30
0.0
 11
75.4072877547
 21
27.1728413047
 31
0.0
  0
LINE
  5
AA
330
1F
100
AcDbEntity
  8
0
  6
Continuous
 62
     7
370
    25
100
AcDbLine
 10
74.6175241329
 20
26.0425328111
 30
0.0
 11
74.447251697
 21
26.212805247
 31
0.0
  0
LINE
  5
AB
330
1F
100
AcDbEntity
  8
0
  6
Continuous
 62
     7
370
    25
100
AcDbLine
 10
75.0091507355
 20
26.4341594137
 30
0.0
 11
74.6175241329
 21
26.0425328111
 31
0.0
  0
LINE
  5
AC
330
1F
100
AcDbEntity
  8
0
  6
Continuous
 62
     7
370
    25
100
AcDbLine
 10
76.5886779791
 20
24.8546321701
 30
0.0
 11
75.0091507355
 21
26.4341594137
 31
0.0
  0
LINE
  5
AD
330
1F
100
AcDbEntity
  8
0
  6
Continuous
 62
     7
370
    25
100
AcDbLine
 10
73.9516725467
 20
24.1286561675
 30
0.0
 11
74.7654746301
 21
23.3148540841
 31
0.0
  0
LINE
  5
AE
330
1F
100
AcDbEntity
  8
0
  6
Continuous
 62
     7
370
    25
100
AcDbLine
 10
74.076372066
 20
24.2533556867
 30
0.0
 11
73.9516725467
 21
24.1286561675
 31
0.0
  0
SPLINE
  5
AF
330
1F
100
AcDbEntity
  8
0
  6
Continuous
 62
     7
370
    25
100
AcDbSpline
210
0.0
220
0.0
230
1.0
 70
     8
 71
     3
 72
    15
 73
    11
 74
     0
 42
0.000000001
 43
0.00000001
 40
0.0
 40
0.0
 40
0.0
 40
0.0
 40
0.0753901858551261
 40
0.1649443888154752
 40
0.2680434861778917
 40
0.3855477860922085
 40
0.5179661541666718
 40
0.6643098712270733
 40
0.8251607063646664
 40
1.0
 40
1.0
 40
1.0
 40
1.0
 10
74.49303873262481
 20
24.72711369952569
 30
0.0
 10
74.48429713198487
 20
24.71385371582283
 30
0.0
 10
74.46517159252018
 20
24.6848425138638
 30
0.0
 10
74.4316205004643
 20
24.63938303121862
 30
0.0
 10
74.39001638686202
 20
24.58899593095646
 30
0.0
 10
74.34213642833285
 20
24.53208782234875
 30
0.0
 10
74.28581439304348
 20
24.47046076326744
 30
0.0
 10
74.22274842419142
 20
24.4026531647251
 30
0.0
 10
74.15207335687592
 20
24.32973831764506
 30
0.0
 10
74.10229723236463
 20
24.2795141893367
 30
0.0
 10
74.07637206595814
 20
24.25335568670518
 30
0.0
  0
SPLINE
  5
B0
330
1F
100
AcDbEntity
  8
0
  6
Continuous
 62
     7
370
    25
100
AcDbSpline
210
0.0
220
0.0
230
1.0
 70
     8
 71
     3
 72
    23
 73
    19
 74
     0
 42
0.000000001
 43
0.00000001
 40
0.0
 40
0.0
 40
0.0
 40
0.0
 40
0.069584411480941
 40
0.1366237229743222
 40
0.201933413878122
 40
0.2643611311562475
 40
0.32545309538907
 40
0.3856538430923489
 40
0.4452848548136247
 40
0.5049270901396904
 40
0.5646141987799764
 40
0.6236473059504292
 40
0.6836364314990074
 40
0.7438816365130281
 40
0.8048337486793983
 40
0.8682164437659133
 40
0.9329082916196967
 40
1.0
 40
1.0
 40
1.0
 40
1.0
 10
74.39988969416326
 20
25.51637652003851
 30
0.0
 10
74.41379260412943
 20
25.50187877281917
 30
0.0
 10
74.4410899151123
 20
25.4734135439311
 30
0.0
 10
74.4777721968883
 20
25.42805199597137
 30
0.0
 10
74.50987065329285
 20
25.38183415337857
 30
0.0
 10
74.53657575622232
 20
25.33425133830107
 30
0.0
 10
74.55873256393893
 20
25.28603033458618
 30
0.0
 10
74.57645301304112
 20
25.23684242449806
 30
0.0
 10
74.58905928768388
 20
25.18651210572093
 30
0.0
 10
74.59642189670924
 20
25.1353246890927
 30
0.0
 10
74.59946953080545
 20
25.08388479110967
 30
0.0
 10
74.59792014995097
 20
25.03227359851424
 30
0.0
 10
74.59193902702366
 20
24.98082441292615
 30
0.0
 10
74.58134290822287
 20
24.92956326829668
 30
0.0
 10
74.56620120391162
 20
24.87842035186358
 30
0.0
 10
74.54597749413894
 20
24.82771217021207
 30
0.0
 10
74.52201897468107
 20
24.77667725400739
 30
0.0
 10
74.50281538309262
 20
24.74383424820742
 30
0.0
 10
74.49303873262481
 20
24.72711369952569
 30
0.0
  0
SPLINE
  5
B1
330
1F
100
AcDbEntity
  8
0
  6
Continuous
 62
     7
370
    25
100
AcDbSpline
210
0.0
220
0.0
230
1.0
 70
     8
 71
     3
 72
    23
 73
    19
 74
     0
 42
0.000000001
 43
0.00000001
 40
0.0
 40
0.0
 40
0.0
 40
0.0
 40
0.0631120667195008
 40
0.1246204889042283
 40
0.1854063864272505
 40
0.2452855145665088
 40
0.3045096995741357
 40
0.3641375552122478
 40
0.4246759440160571
 40
0.4858777714932493
 40
0.547610248411983
 40
0.6086002211440634
 40
0.670466741416682
 40
0.7330433104550823
 40
0.7964418486351543
 40
0.8616201805525384
 40
0.9293334730091427
 40
1.0
 40
1.0
 40
1.0
 40
1.0
 10
73.62014209800942
 20
25.61603597516672
 30
0.0
 10
73.63570907955724
 20
25.62495164917278
 30
0.0
 10
73.66644749381129
 20
25.6425564545816
 30
0.0
 10
73.71435081235845
 20
25.66465668332769
 30
0.0
 10
73.76292664866705
 20
25.68266217964354
 30
0.0
 10
73.81208495130463
 20
25.69685804245378
 30
0.0
 10
73.8620302789523
 20
25.70653614580969
 30
0.0
 10
73.91283846387441
 20
25.71117498011068
 30
0.0
 10
73.9643874166245
 20
25.7130206298515
 30
0.0
 10
74.01649631708425
 20
25.7098654141597
 30
0.0
 10
74.0683127748075
 20
25.70254012513445
 30
0.0
 10
74.11934927639555
 20
25.69020964531353
 30
0.0
 10
74.16959792061357
 20
25.67405969409367
 30
0.0
 10
74.21814664320867
 20
25.65162798737331
 30
0.0
 10
74.26548400826003
 20
25.62490148001686
 30
0.0
 10
74.31177069772085
 20
25.59368468889512
 30
0.0
 10
74.35705944524751
 20
25.55756839340735
 30
0.0
 10
74.38541125436943
 20
25.53030111944346
 30
0.0
 10
74.39988969416326
 20
25.51637652003851
 30
0.0
  0
SPLINE
  5
B2
330
1F
100
AcDbEntity
  8
0
  6
Continuous
 62
     7
370
    25
100
AcDbSpline
210
0.0
220
0.0
230
1.0
 70
     8
 71
     3
 72
    15
 73
    11
 74
     0
 42
0.000000001
 43
0.00000001
 40
0.0
 40
0.0
 40
0.0
 40
0.0
 40
0.1771214341944268
 40
0.3388555841808579
 40
0.4858188358501848
 40
0.6186783670831189
 40
0.7356853745542108
 40
0.8381870473681523
 40
0.9261641814985228
 40
1.0
 40
1.0
 40
1.0
 40
1.0
 10
73.18945299544532
 20
25.23843180850005
 30
0.0
 10
73.21337638863541
 20
25.2624211999515
 30
0.0
 10
73.25914484919406
 20
25.30831592348621
 30
0.0
 10
73.32657474488833
 20
25.37225995869863
 30
0.0
 10
73.38812627589809
 20
25.43009072739274
 30
0.0
 10
73.4443788244213
 20
25.48105182667893
 30
0.0
 10
73.49552013186398
 20
25.52498243280434
 30
0.0
 10
73.5417309626635
 20
25.56135378106427
 30
0.0
 10
73.58196412399933
 20
25.59203973446976
 30
0.0
 10
73.60817979518812
 20
25.60851723418497
 30
0.0
 10
73.62014209800942
 20
25.61603597516672
 30
0.0
  0
LINE
  5
B3
330
1F
100
AcDbEntity
  8
0
  6
Continuous
 62
     7
370
    25
100
AcDbLine
 10
72.8408953031
 20
24.8898741162
 30
0.0
 11
73.1894529954
 21
25.2384318085
 31
0.0
  0
LINE
  5
B4
330
1F
100
AcDbEntity
  8
0
  6
Continuous
 62
     7
370
    25
100
AcDbLine
 10
74.5906949826
 20
23.1400744367
 30
0.0
 11
72.8408953031
 21
24.8898741162
 31
0.0
  0
LINE
  5
B5
330
1F
100
AcDbEntity
  8
0
  6
Continuous
 62
     7
370
    25
100
AcDbLine
 10
74.7654746301
 20
23.3148540841
 30
0.0
 11
74.5906949826
 21
23.1400744367
 31
0.0
  0
ARC
  5
B6
330
1F
100
AcDbEntity
  8
0
  6
Continuous
 62
     7
370
    25
100
AcDbCircle
 10
73.8502797688
 20
25.9486693642
 30
0.0
 40
9.499999999999998
100
AcDbArc
 50
225.0
 51
315.0
  0
ARC
  5
B7
330
1F
100
AcDbEntity
  8
0
  6
Continuous
 62
     7
370
    25
100
AcDbCircle
 10
73.8502797688
 20
25.9486693642
 30
0.0
 40
9.499999999999998
100
AcDbArc
 50
135.0
 51
225.0
  0
ARC
  5
B8
330
1F
100
AcDbEntity
  8
0
  6
Continuous
 62
     7
370
    25
100
AcDbCircle
 10
73.8502797688
 20
25.9486693642
 30
0.0
 40
9.499999999999998
100
AcDbArc
 50
45.0
 51
135.0
  0
SPLINE
  5
B9
330
1F
100
AcDbEntity
  8
0
  6
Continuous
 62
     7
370
    25
100
AcDbSpline
210
0.0
220
0.0
230
1.0
 70
     8
 71
     3
 72
    19
 73
    15
 74
     0
 42
0.000000001
 43
0.00000001
 40
0.0
 40
0.0
 40
0.0
 40
0.0
 40
0.1057289484176118
 40
0.2069129705617965
 40
0.3055579932413627
 40
0.4022404034576857
 40
0.494295498710359
 40
0.5780610980893164
 40
0.6557675958613727
 40
0.7279268856081791
 40
0.79760847129808
 40
0.8651260054669643
 40
0.9319580036291376
 40
1.0
 40
1.0
 40
1.0
 40
1.0
 10
71.02020317588445
 20
26.23132991656621
 30
0.0
 10
71.03929515934456
 20
26.25151816537143
 30
0.0
 10
71.0766584271229
 20
26.29102683913813
 30
0.0
 10
71.12512555932705
 20
26.35521815561279
 30
0.0
 10
71.1654534490618
 20
26.42201550512081
 30
0.0
 10
71.19711875762354
 20
26.49067419925453
 30
0.0
 10
71.22085342484071
 20
26.55835125458579
 30
0.0
 10
71.23476869808853
 20
26.62366782513885
 30
0.0
 10
71.23922218820802
 20
26.68510426107997
 30
0.0
 10
71.23372436806362
 20
26.74281156413432
 30
0.0
 10
71.21924158774844
 20
26.79605000965059
 30
0.0
 10
71.19894590733638
 20
26.84582053503219
 30
0.0
 10
71.17051698223194
 20
26.89116204602569
 30
0.0
 10
71.14650139008582
 20
26.91727493050551
 30
0.0
 10
71.13438586819214
 20
26.9304485063098
 30
0.0
  0
LINE
  5
BA
330
1F
100
AcDbEntity
  8
0
  6
Continuous
 62
     7
370
    25
100
AcDbLine
 10
71.1804595861
 20
26.0710735063
 30
0.0
 11
71.0202031759
 21
26.2313299166
 31
0.0
  0
SPLINE
  5
BB
330
1F
100
AcDbEntity
  8
0
  6
Continuous
 62
     7
370
    25
100
AcDbSpline
210
0.0
220
0.0
230
1.0
 70
     8
 71
     3
 72
    23
 73
    19
 74
     0
 42
0.000000001
 43
0.00000001
 40
0.0
 40
0.0
 40
0.0
 40
0.0
 40
0.0703488477789894
 40
0.1396280802335952
 40
0.2103430788637843
 40
0.282686193359841
 40
0.3554925770820698
 40
0.4270637206804205
 40
0.4988235429721527
 40
0.572388936532727
 40
0.6113453637448516
 40
0.6543900516773975
 40
0.7012892835300567
 40
0.7519446404334634
 40
0.8074317301970528
 40
0.8672605470112177
 40
0.9310927794988622
 40
1.0
 40
1.0
 40
1.0
 40
1.0
 10
72.0753914771665
 20
26.20178264092519
 30
0.0
 10
72.05778795024808
 20
26.21783490989244
 30
0.0
 10
72.02284854830249
 20
26.24969538195491
 30
0.0
 10
71.96264177555345
 20
26.28830152314914
 30
0.0
 10
71.89664715967568
 20
26.31724068363246
 30
0.0
 10
71.82617362266112
 20
26.33706226698607
 30
0.0
 10
71.75342247071033
 20
26.34780737765435
 30
0.0
 10
71.68008792597578
 20
26.34760202851352
 30
0.0
 10
71.60714718659744
 20
26.33775356238924
 30
0.0
 10
71.54720018102851
 20
26.31982631243283
 30
0.0
 10
71.49849433388266
 20
26.29985450511146
 30
0.0
 10
71.4595058433247
 20
26.28024387796559
 30
0.0
 10
71.41859346259805
 20
26.25597413288039
 30
0.0
 10
71.37512048002411
 20
26.22784257419408
 30
0.0
 10
71.32990191789263
 20
26.1945495913504
 30
0.0
 10
71.28187141450556
 20
26.15761834514979
 30
0.0
 10
71.23143439570084
 20
26.1163856645203
 30
0.0
 10
71.19787882932283
 20
26.0865576936914
 30
0.0
 10
71.18045958614086
 20
26.0710735063098
 30
0.0
  0
SPLINE
  5
BC
330
1F
100
AcDbEntity
  8
0
  6
Continuous
 62
     7
370
    25
100
AcDbSpline
210
0.0
220
0.0
230
1.0
 70
     8
 71
     3
 72
    23
 73
    19
 74
     0
 42
0.000000001
 43
0.00000001
 40
0.0
 40
0.0
 40
0.0
 40
0.0
 40
0.0730680158386376
 40
0.1430722448992377
 40
0.2104157717152759
 40
0.2758231607745295
 40
0.3387396298077942
 40
0.4018415148770472
 40
0.4646985352648791
 40
0.5278596385078609
 40
0.5904135880675632
 40
0.6511994053649361
 40
0.7101059465004967
 40
0.7678237372418047
 40
0.8250128290906084
 40
0.8820655679442742
 40
0.9403393445630304
 40
1.0
 40
1.0
 40
1.0
 40
1.0
 10
72.03582817588446
 20
25.39899818579698
 30
0.0
 10
72.05099932601256
 20
25.41474892234873
 30
0.0
 10
72.0807054906267
 20
25.44558995739547
 30
0.0
 10
72.1190818021107
 20
25.49559805510642
 30
0.0
 10
72.15261798207324
 20
25.54619508134845
 30
0.0
 10
72.17968876802362
 20
25.59821430664628
 30
0.0
 10
72.20056837441969
 20
25.65164474150926
 30
0.0
 10
72.21540975932247
 20
25.70622637203358
 30
0.0
 10
72.22539603699913
 20
25.76203355298841
 30
0.0
 10
72.22783205846468
 20
25.81849277454508
 30
0.0
 10
72.22609417514566
 20
25.87430307983804
 30
0.0
 10
72.21895797031499
 20
25.92842207318751
 30
0.0
 10
72.20761732536458
 20
25.98033374479406
 30
0.0
 10
72.19101576607471
 20
26.02971437875445
 30
0.0
 10
72.16931061031197
 20
26.07644739743418
 30
0.0
 10
72.14299841911281
 20
26.12090344211639
 30
0.0
 10
72.1120573721343
 20
26.16328855316441
 30
0.0
 10
72.08770888614919
 20
26.18885107542594
 30
0.0
 10
72.0753914771665
 20
26.20178264092519
 30
0.0
  0
SPLINE
  5
BD
330
1F
100
AcDbEntity
  8
0
  6
Continuous
 62
     7
370
    25
100
AcDbSpline
210
0.0
220
0.0
230
1.0
 70
     8
 71
     3
 72
    15
 73
    11
 74
     0
 42
0.000000001
 43
0.00000001
 40
0.0
 40
0.0
 40
0.0
 40
0.0
 40
0.1203457795138439
 40
0.2388232513984634
 40
0.3594485260350542
 40
0.4804570524015691
 40
0.6028834931914646
 40
0.731010850242292
 40
0.8625425629612501
 40
1.0
 40
1.0
 40
1.0
 40
1.0
 10
71.66373282332034
 20
25.21921052554057
 30
0.0
 10
71.6806334670374
 20
25.22073161107376
 30
0.0
 10
71.7141723804878
 20
25.22375016805315
 30
0.0
 10
71.76393398391268
 20
25.23389787747055
 30
0.0
 10
71.81228837348633
 20
25.24957345995826
 30
0.0
 10
71.85955933491046
 20
25.26967373031592
 30
0.0
 10
71.90576655298707
 20
25.29449245307504
 30
0.0
 10
71.95047619873505
 20
25.32461198767954
 30
0.0
 10
71.99451085924431
 20
25.3592829104019
 30
0.0
 10
72.02185494388998
 20
25.38556675312062
 30
0.0
 10
72.03582817588446
 20
25.39899818579698
 30
0.0
  0
SPLINE
  5
BE
330
1F
100
AcDbEntity
  8
0
  6
Continuous
 62
     7
370
    25
100
AcDbSpline
210
0.0
220
0.0
230
1.0
 70
     8
 71
     3
 72
    15
 73
    11
 74
     0
 42
0.000000001
 43
0.00000001
 40
0.0
 40
0.0
 40
0.0
 40
0.0
 40
0.1516443853000919
 40
0.2942091114866408
 40
0.4291745983467754
 40
0.556575911727435
 40
0.6762246047064512
 40
0.7899405813610039
 40
0.8970885352767685
 40
1.0
 40
1.0
 40
1.0
 40
1.0
 10
71.28763106049983
 20
25.33589722425852
 30
0.0
 10
71.30523692092729
 20
25.32604703725053
 30
0.0
 10
71.33939449651487
 20
25.30693644003412
 30
0.0
 10
71.39068951513363
 20
25.28182689825303
 30
0.0
 10
71.44019257340324
 20
25.26050443653216
 30
0.0
 10
71.4883233985957
 20
25.24408016736808
 30
0.0
 10
71.5346215621272
 20
25.23133558117686
 30
0.0
 10
71.57912413563845
 20
25.22266223222446
 30
0.0
 10
71.62208340682052
 20
25.21840787298468
 30
0.0
 10
71.65003761176962
 20
25.21894659635552
 30
0.0
 10
71.66373282332034
 20
25.21921052554057
 30
0.0
  0
LINE
  5
BF
330
1F
100
AcDbEntity
  8
0
  6
Continuous
 62
     7
370
    25
100
AcDbLine
 10
71.116357022
 20
25.1646231858
 30
0.0
 11
71.2876310605
 21
25.3358972243
 31
0.0
  0
SPLINE
  5
C0
330
1F
100
AcDbEntity
  8
0
  6
Continuous
 62
     7
370
    25
100
AcDbSpline
210
0.0
220
0.0
230
1.0
 70
     8
 71
     3
 72
    23
 73
    19
 74
     0
 42
0.000000001
 43
0.00000001
 40
0.0
 40
0.0
 40
0.0
 40
0.0
 40
0.0651136382987998
 40
0.1282185933053529
 40
0.1894734259769019
 40
0.2489956462554719
 40
0.3072701941117208
 40
0.3652120214271442
 40
0.4230586502763891
 40
0.4816341671326473
 40
0.5406263849922194
 40
0.6002014930275466
 40
0.6609241575761041
 40
0.7233279014169864
 40
0.7879045943012339
 40
0.855653348283499
 40
0.925858786747769
 40
1.0
 40
1.0
 40
1.0
 40
1.0
 10
72.20359660537164
 20
25.22622174348929
 30
0.0
 10
72.18483962255783
 20
25.20822170012003
 30
0.0
 10
72.14790428897987
 20
25.17277689469156
 30
0.0
 10
72.0886226735609
 20
25.12564284795529
 30
0.0
 10
72.02745492993246
 20
25.08494661848263
 30
0.0
 10
71.96463402616281
 20
25.05069916105078
 30
0.0
 10
71.90015046082691
 20
25.02282083806937
 30
0.0
 10
71.83379087213224
 20
25.00193936591194
 30
0.0
 10
71.76581240491421
 20
24.98665312130366
 30
0.0
 10
71.69620206428033
 20
24.97813037963436
 30
0.0
 10
71.62540492714922
 20
24.97666234740723
 30
0.0
 10
71.55395759070734
 20
24.98224479926492
 30
0.0
 10
71.48203784039234
 20
24.99489423850483
 30
0.0
 10
71.40967840942773
 20
25.01462985755007
 30
0.0
 10
71.33659211056339
 20
25.04134598055416
 30
0.0
 10
71.26333681861405
 20
25.07566247293977
 30
0.0
 10
71.1889730664752
 20
25.11628591482087
 30
0.0
 10
71.1409983980566
 20
25.14822051777703
 30
0.0
 10
71.11635702203829
 20
25.16462318579698
 30
0.0
  0
SPLINE
  5
C1
330
1F
100
AcDbEntity
  8
0
  6
Continuous
 62
     7
370
    25
100
AcDbSpline
210
0.0
220
0.0
230
1.0
 70
     8
 71
     3
 72
    19
 73
    15
 74
     0
 42
0.000000001
 43
0.00000001
 40
0.0
 40
0.0
 40
0.0
 40
0.0
 40
0.0805764361033052
 40
0.1603714906653941
 40
0.241488019109422
 40
0.3250087558576586
 40
0.4089616532479636
 40
0.490687008414403
 40
0.5725768746389617
 40
0.6557926854219236
 40
0.7398417121155406
 40
0.8240764552485731
 40
0.9104351150664253
 40
1.0
 40
1.0
 40
1.0
 40
1.0
 10
72.23314388101265
 20
26.38858151913032
 30
0.0
 10
72.25676347070171
 20
26.36298124480925
 30
0.0
 10
72.30377360158518
 20
26.31202895214334
 30
0.0
 10
72.36114651255387
 20
26.22441888980713
 30
0.0
 10
72.40694135499365
 20
26.12906669172601
 30
0.0
 10
72.4406210115052
 20
26.02687945358676
 30
0.0
 10
72.46187878638642
 20
25.92112204385288
 30
0.0
 10
72.46808343691215
 20
25.81404797202142
 30
0.0
 10
72.45876837113701
 20
25.70755466075392
 30
0.0
 10
72.4351512843234
 20
25.6023079843212
 30
0.0
 10
72.39754241016668
 20
25.50011150454054
 30
0.0
 10
72.34632028666877
 20
25.40255039565795
 30
0.0
 10
72.28194832981346
 20
25.31002447554012
 30
0.0
 10
72.2300292570405
 20
25.25449334109585
 30
0.0
 10
72.20359660537164
 20
25.22622174348929
 30
0.0
  0
SPLINE
  5
C2
330
1F
100
AcDbEntity
  8
0
  6
Continuous
 62
     7
370
    25
100
AcDbSpline
210
0.0
220
0.0
230
1.0
 70
     8
 71
     3
 72
    15
 73
    11
 74
     0
 42
0.000000001
 43
0.00000001
 40
0.0
 40
0.0
 40
0.0
 40
0.0
 40
0.1308828194382193
 40
0.2582596653094886
 40
0.3832751894435339
 40
0.506195690264608
 40
0.6278103920359813
 40
0.7505216511654054
 40
0.8741562318766936
 40
1.0
 40
1.0
 40
1.0
 40
1.0
 10
71.80746279126906
 20
26.58589722425852
 30
0.0
 10
71.82821202723913
 20
26.58338710477571
 30
0.0
 10
71.8691546869408
 20
26.57843410467761
 30
0.0
 10
71.92905921468859
 20
26.56540189454451
 30
0.0
 10
71.98613836960986
 20
26.54704242380479
 30
0.0
 10
72.04112096108284
 20
26.52541202586879
 30
0.0
 10
72.09291341950163
 20
26.49775339909917
 30
0.0
 10
72.14273956590743
 20
26.46651187356874
 30
0.0
 10
72.18938461727953
 20
26.42952044361354
 30
0.0
 10
72.21847160248265
 20
26.40230815096764
 30
0.0
 10
72.23314388101265
 20
26.38858151913032
 30
0.0
  0
SPLINE
  5
C3
330
1F
100
AcDbEntity
  8
0
  6
Continuous
 62
     7
370
    25
100
AcDbSpline
210
0.0
220
0.0
230
1.0
 70
     8
 71
     3
 72
    11
 73
     7
 74
     0
 42
0.000000001
 43
0.00000001
 40
0.0
 40
0.0
 40
0.0
 40
0.0
 40
0.2579472690479106
 40
0.5087322070443636
 40
0.7541032680070251
 40
1.0
 40
1.0
 40
1.0
 40
1.0
 10
71.45089227844856
 20
26.52880587810467
 30
0.0
 10
71.48021112544384
 20
26.54002783830944
 30
0.0
 10
71.53803473332677
 20
26.56216016249882
 30
0.0
 10
71.62769895811512
 20
26.58277038721324
 30
0.0
 10
71.7178859035718
 20
26.59117273994955
 30
0.0
 10
71.7775825363173
 20
26.58765698347657
 30
0.0
 10
71.80746279126906
 20
26.58589722425852
 30
0.0
  0
SPLINE
  5
C4
330
1F
100
AcDbEntity
  8
0
  6
Continuous
 62
     7
370
    25
100
AcDbSpline
210
0.0
220
0.0
230
1.0
 70
     8
 71
     3
 72
    15
 73
    11
 74
     0
 42
0.000000001
 43
0.00000001
 40
0.0
 40
0.0
 40
0.0
 40
0.0
 40
0.1242196178718095
 40
0.2437921031270655
 40
0.3610694411538694
 40
0.4785415562187784
 40
0.5994738985980931
 40
0.7254247600032048
 40
0.8584023739957898
 40
1.0
 40
1.0
 40
1.0
 40
1.0
 10
71.31767913742291
 20
27.11173857041237
 30
0.0
 10
71.33545186289359
 20
27.09268053307896
 30
0.0
 10
71.37033242519954
 20
27.05527743135809
 30
0.0
 10
71.41209118000724
 20
26.99178283530983
 30
0.0
 10
71.444098205017
 20
26.92457620386506
 30
0.0
 10
71.46589603861463
 20
26.85301356613085
 30
0.0
 10
71.47707847474263
 20
26.77728460249739
 30
0.0
 10
71.47916342266248
 20
26.69754575425392
 30
0.0
 10
71.47031279783735
 20
26.61384504723133
 30
0.0
 10
71.45749986790445
 20
26.5577393945576
 30
0.0
 10
71.45089227844856
 20
26.52880587810467
 30
0.0
  0
SPLINE
  5
C5
330
1F
100
AcDbEntity
  8
0
  6
Continuous
 62
     7
370
    25
100
AcDbSpline
210
0.0
220
0.0
230
1.0
 70
     8
 71
     3
 72
    19
 73
    15
 74
     0
 42
0.000000001
 43
0.00000001
 40
0.0
 40
0.0
 40
0.0
 40
0.0
 40
0.0895929914958802
 40
0.1777045492777574
 40
0.2648796628961911
 40
0.3531465390832664
 40
0.4405958711776067
 40
0.5246598301314999
 40
0.6068103143079132
 40
0.6891287180192622
 40
0.7700431083273497
 40
0.8475352562635289
 40
0.9237274558445451
 40
0.9999999999999999
 40
0.9999999999999999
 40
0.9999999999999999
 40
0.9999999999999999
 10
70.36215029126906
 20
27.06065683964313
 30
0.0
 10
70.38537602849863
 20
27.08225692604318
 30
0.0
 10
70.43144346186712
 20
27.12509993813589
 30
0.0
 10
70.50853397923805
 20
27.1789953083775
 30
0.0
 10
70.59166594184579
 20
27.22165822718962
 30
0.0
 10
70.6788162107967
 20
27.25468636103463
 30
0.0
 10
70.7682810114263
 20
27.27663367385038
 30
0.0
 10
70.85766271513704
 20
27.2871417766157
 30
0.0
 10
70.94586434626387
 20
27.2845463306544
 30
0.0
 10
71.03162681518896
 20
27.26980663729196
 30
0.0
 10
71.11346534386271
 20
27.24529328555492
 30
0.0
 10
71.18881780261509
 20
27.21007271850424
 30
0.0
 10
71.25818928970529
 20
27.16681342227063
 30
0.0
 10
71.29784222286185
 20
27.13010330276068
 30
0.0
 10
71.31767913742291
 20
27.11173857041237
 30
0.0
  0
SPLINE
  5
C6
330
1F
100
AcDbEntity
  8
0
  6
Continuous
 62
     7
370
    25
100
AcDbSpline
210
0.0
220
0.0
230
1.0
 70
     8
 71
     3
 72
    23
 73
    19
 74
     0
 42
0.000000001
 43
0.00000001
 40
0.0
 40
0.0
 40
0.0
 40
0.0
 40
0.0731350659025821
 40
0.1433188428756373
 40
0.2106501399906879
 40
0.2762700695936492
 40
0.3395547839766536
 40
0.4016838389936602
 40
0.4628588934626658
 40
0.5234847455120767
 40
0.5835961311287837
 40
0.6426304656932159
 40
0.7011635571821344
 40
0.7595409545756655
 40
0.8177915440987417
 40
0.8770624362120497
 40
0.9375567908908975
 40
1.0
 40
1.0
 40
1.0
 40
1.0
 10
70.29904932973061
 20
26.09811677554057
 30
0.0
 10
70.28562281110341
 20
26.11993022857399
 30
0.0
 10
70.2593115869355
 20
26.16267687560698
 30
0.0
 10
70.2275088165488
 20
26.22926173455097
 30
0.0
 10
70.19886281999955
 20
26.29440645655739
 30
0.0
 10
70.17849378510789
 20
26.36008487179475
 30
0.0
 10
70.16212822549114
 20
26.4250000693392
 30
0.0
 10
70.15375660158948
 20
26.48985414080539
 30
0.0
 10
70.1490528067562
 20
26.5541274681719
 30
0.0
 10
70.15193505986245
 20
26.61785771592865
 30
0.0
 10
70.15993372243268
 20
26.68030978803558
 30
0.0
 10
70.17279883867388
 20
26.74124224535789
 30
0.0
 10
70.191556227481
 20
26.79998627900616
 30
0.0
 10
70.21504656615261
 20
26.85668215155231
 30
0.0
 10
70.24376913599103
 20
26.91124939845774
 30
0.0
 10
70.27813646626
 20
26.96328929266812
 30
0.0
 10
70.31714097679865
 20
27.01387229392285
 30
0.0
 10
70.34698946314535
 20
27.04489804693863
 30
0.0
 10
70.36215029126906
 20
27.06065683964313
 30
0.0
  0
LINE
  5
C7
330
1F
100
AcDbEntity
  8
0
  6
Continuous
 62
     7
370
    25
100
AcDbLine
 10
70.4778353874
 20
26.2769028332
 30
0.0
 11
70.2990493297
 21
26.0981167755
 31
0.0
  0
SPLINE
  5
C8
330
1F
100
AcDbEntity
  8
0
  6
Continuous
 62
     7
370
    25
100
AcDbSpline
210
0.0
220
0.0
230
1.0
 70
     8
 71
     3
 72
    19
 73
    15
 74
     0
 42
0.000000001
 43
0.00000001
 40
0.0
 40
0.0
 40
0.0
 40
0.0
 40
0.116767580171319
 40
0.2280775627199389
 40
0.3372206510249973
 40
0.4461255525158009
 40
0.502157411035922
 40
0.561843907569356
 40
0.6241640260185531
 40
0.69099170511044
 40
0.7609854225273327
 40
0.8362480651247743
 40
0.9153845753823182
 40
0.9999999999999999
 40
0.9999999999999999
 40
0.9999999999999999
 40
0.9999999999999999
 10
70.5324227271665
 20
26.8903844037457
 30
0.0
 10
70.51491887514541
 20
26.8713711872338
 30
0.0
 10
70.48072928329701
 20
26.83423341256093
 30
0.0
 10
70.44106934219553
 20
26.77055731291372
 30
0.0
 10
70.41384833648372
 20
26.70275380775334
 30
0.0
 10
70.40076514709811
 20
26.64321139868314
 30
0.0
 10
70.39776074392086
 20
26.59361703330104
 30
0.0
 10
70.39799350907047
 20
26.55422217184045
 30
0.0
 10
70.40288844256968
 20
26.51271417725313
 30
0.0
 10
70.4109933835834
 20
26.46944942325482
 30
0.0
 10
70.42199206282828
 20
26.42385924962077
 30
0.0
 10
70.43713946157929
 20
26.37660873247058
 30
0.0
 10
70.45583114811596
 20
26.32718773384721
 30
0.0
 10
70.47033883853602
 20
26.29403422371038
 30
0.0
 10
70.47783538742291
 20
26.27690283323288
 30
0.0
  0
SPLINE
  5
C9
330
1F
100
AcDbEntity
  8
0
  6
Continuous
 62
     7
370
    25
100
AcDbSpline
210
0.0
220
0.0
230
1.0
 70
     8
 71
     3
 72
    23
 73
    19
 74
     0
 42
0.000000001
 43
0.00000001
 40
0.0
 40
0.0
 40
0.0
 40
0.0
 40
0.0591437275897553
 40
0.1167150890705874
 40
0.1741558975962601
 40
0.2309492319425766
 40
0.2887375262637097
 40
0.3472383681560682
 40
0.4086788038810789
 40
0.4720661100984862
 40
0.5364760336796571
 40
0.6002438377181526
 40
0.6632439347766349
 40
0.7270901793882615
 40
0.7924599631338879
 40
0.8592686518663302
 40
0.9282156920095002
 40
1.0
 40
1.0
 40
1.0
 40
1.0
 10
71.13438586819214
 20
26.9304485063098
 30
0.0
 10
71.12469578003183
 20
26.93947802732335
 30
0.0
 10
71.10557321963833
 20
26.95729701493723
 30
0.0
 10
71.07426768450281
 20
26.98071220137458
 30
0.0
 10
71.040670275678
 20
26.99962675807203
 30
0.0
 10
71.0051934874114
 20
27.01475492596495
 30
0.0
 10
70.96814820515706
 20
27.0263787588784
 30
0.0
 10
70.92898888506258
 20
27.03379576058589
 30
0.0
 10
70.88809204946617
 20
27.03784637430237
 30
0.0
 10
70.84566477591845
 20
27.03774620584301
 30
0.0
 10
70.80290021297608
 20
27.0338210182954
 30
0.0
 10
70.76080420558236
 20
27.02579806814316
 30
0.0
 10
70.71974120475686
 20
27.01384172063942
 30
0.0
 10
70.68017431097137
 20
26.99678395341009
 30
0.0
 10
70.64089209086325
 20
26.97712090958996
 30
0.0
 10
70.60318173714192
 20
26.95232373511038
 30
0.0
 10
70.56713854710931
 20
26.9229203923205
 30
0.0
 10
70.54414916255656
 20
26.90137452780162
 30
0.0
 10
70.5324227271665
 20
26.8903844037457
 30
0.0
  0
SPLINE
  5
CA
330
1F
100
AcDbEntity
  8
0
  6
Continuous
 62
     7
370
    25
100
AcDbSpline
210
0.0
220
0.0
230
1.0
 70
     8
 71
     3
 72
    31
 73
    27
 74
     0
 42
0.000000001
 43
0.00000001
 40
0.0
 40
0.0
 40
0.0
 40
0.0
 40
0.0340625437668025
 40
0.06731388559767
 40
0.1002986917293196
 40
0.1328915753415364
 40
0.1654542126705893
 40
0.1984564401369067
 40
0.231559282490288
 40
0.2655034986764516
 40
0.2998732210996857
 40
0.3348750234665335
 40
0.3704365550514275
 40
0.4070493254137256
 40
0.4446490562916619
 40
0.4836382628524705
 40
0.5240535084233169
 40
0.5661466743313504
 40
0.6102573304114862
 40
0.6569339262658019
 40
0.7066268298851165
 40
0.7589305312314926
 40
0.814297716023405
 40
0.8730747594856019
 40
0.9349497890039753
 40
0.9999999999999999
 40
0.9999999999999999
 40
0.9999999999999999
 40
0.9999999999999999
 10
72.10297746408783
 20
28.40760365903364
 30
0.0
 10
72.1172641920048
 20
28.42139484523361
 30
0.0
 10
72.14549740838328
 20
28.44864877953977
 30
0.0
 10
72.19169403876208
 20
28.4845520134052
 30
0.0
 10
72.23900939611498
 20
28.51743562047632
 30
0.0
 10
72.28894782942436
 20
28.54543067820597
 30
0.0
 10
72.34077544514624
 20
28.56972152050782
 30
0.0
 10
72.39479253326097
 20
28.5895562532056
 30
0.0
 10
72.45082395916806
 20
28.60576837544718
 30
0.0
 10
72.50874311926984
 20
28.61777977164156
 30
0.0
 10
72.56852098316132
 20
28.62517211101023
 30
0.0
 10
72.6296449597624
 20
28.62851279919112
 30
0.0
 10
72.69207982163124
 20
28.62550770941069
 30
0.0
 10
72.75572450541996
 20
28.61875992937474
 30
0.0
 10
72.8205320303788
 20
28.60628391813668
 30
0.0
 10
72.88680359541661
 20
28.59011753595751
 30
0.0
 10
72.95393203903369
 20
28.56749136594386
 30
0.0
 10
73.02281730086665
 20
28.54106796710706
 30
0.0
 10
73.09334597523053
 20
28.50899228704876
 30
0.0
 10
73.1651235066764
 20
28.46953583279802
 30
0.0
 10
73.23840044036254
 20
28.42330640035263
 30
0.0
 10
73.31386724093663
 20
28.37119676921314
 30
0.0
 10
73.39050453356238
 20
28.3117209230186
 30
0.0
 10
73.46892591145114
 20
28.24562708383207
 30
0.0
 10
73.5491611054664
 20
28.17301324425656
 30
0.0
 10
73.60189329660028
 20
28.12117194325861
 30
0.0
 10
73.62891897049808
 20
28.09460285775159
 30
0.0
  0
SPLINE
  5
CB
330
1F
100
AcDbEntity
  8
0
  6
Continuous
 62
     7
370
    25
100
AcDbSpline
210
0.0
220
0.0
230
1.0
 70
     8
 71
     3
 72
    31
 73
    27
 74
     0
 42
0.000000001
 43
0.00000001
 40
0.0
 40
0.0
 40
0.0
 40
0.0
 40
0.0685392375563686
 40
0.1330574173017168
 40
0.1936310771831161
 40
0.2505306821562904
 40
0.3036142074401768
 40
0.3534609049693049
 40
0.3995800908164909
 40
0.4424160216489259
 40
0.4830723824124631
 40
0.5220229044503063
 40
0.5599473210514605
 40
0.5966633013156782
 40
0.6323728579706367
 40
0.6673061936474428
 40
0.7019513182513509
 40
0.735941787389277
 40
0.7694887228848919
 40
0.8027329281118959
 40
0.8353134843410183
 40
0.8678314089480396
 40
0.9002481012228696
 40
0.9330513656415885
 40
0.9661186419532686
 40
1.0
 40
1.0
 40
1.0
 40
1.0
 10
72.43450791280577
 20
26.90019180005928
 30
0.0
 10
72.40660331880325
 20
26.92838449265026
 30
0.0
 10
72.35243123663244
 20
26.98311586983916
 30
0.0
 10
72.2767828291279
 20
27.06582451621669
 30
0.0
 10
72.20848274653042
 20
27.14602697585654
 30
0.0
 10
72.14742836705192
 20
27.22360562487284
 30
0.0
 10
72.09284647895969
 20
27.29832075779562
 30
0.0
 10
72.04586357281318
 20
27.37070859286247
 30
0.0
 10
72.00584593575226
 20
27.44042099812581
 30
0.0
 10
71.9734793984564
 20
27.50817152978605
 30
0.0
 10
71.9475585593846
 20
27.57415896810258
 30
0.0
 10
71.92568670912989
 20
27.6385955609029
 30
0.0
 10
71.90857056911452
 20
27.70211720176142
 30
0.0
 10
71.8964032870328
 20
27.76487604123849
 30
0.0
 10
71.88950210333213
 20
27.82667204390346
 30
0.0
 10
71.88672784127668
 20
27.88760348125195
 30
0.0
 10
71.8893882199269
 20
27.94754983970545
 30
0.0
 10
71.89628943731792
 20
28.00633920405991
 30
0.0
 10
71.90797842345876
 20
28.06354165725203
 30
0.0
 10
71.9233552068107
 20
28.11899844385265
 30
0.0
 10
71.94286914813414
 20
28.17255317613905
 30
0.0
 10
71.96724883660049
 20
28.22350298588263
 30
0.0
 10
71.99460699569124
 20
28.27308612690971
 30
0.0
 10
72.02703808060193
 20
28.31988139548966
 30
0.0
 10
72.0624285791334
 20
28.36558446420982
 30
0.0
 10
72.08935204116786
 20
28.39348417582531
 30
0.0
 10
72.10297746408783
 20
28.40760365903364
 30
0.0
  0
SPLINE
  5
CC
330
1F
100
AcDbEntity
  8
0
  6
Continuous
 62
     7
370
    25
100
AcDbSpline
210
0.0
220
0.0
230
1.0
 70
     8
 71
     3
 72
    31
 73
    27
 74
     0
 42
0.000000001
 43
0.00000001
 40
0.0
 40
0.0
 40
0.0
 40
0.0
 40
0.0339161406116254
 40
0.0667911467684395
 40
0.09962808698232
 40
0.1318265592299254
 40
0.1643778667025712
 40
0.1967210286892328
 40
0.2297213409237039
 40
0.2630197127526299
 40
0.2967583839686783
 40
0.3311505724363447
 40
0.3661197706371222
 40
0.4018997925665817
 40
0.438653465415743
 40
0.47654316710372
 40
0.5160815487196687
 40
0.5571548844457243
 40
0.6004200138433164
 40
0.6470895029678524
 40
0.6968308887516992
 40
0.7500347714651302
 40
0.8069927895101678
 40
0.8674089097323786
 40
0.931798732569628
 40
1.0
 40
1.0
 40
1.0
 40
1.0
 10
73.94091816921602
 20
26.56966295390544
 30
0.0
 10
73.92677562839692
 20
26.55606723312454
 30
0.0
 10
73.89892468479037
 20
26.52929314368735
 30
0.0
 10
73.85367149405253
 20
26.4935386960983
 30
0.0
 10
73.80695860662738
 20
26.46147798039078
 30
0.0
 10
73.75774342001422
 20
26.43377151289752
 30
0.0
 10
73.70697952209092
 20
26.40969151663607
 30
0.0
 10
73.6538326843091
 20
26.39001876169124
 30
0.0
 10
73.59886052600619
 20
26.37466971176809
 30
0.0
 10
73.5421621881724
 20
26.36297666740189
 30
0.0
 10
73.48386924356838
 20
26.35606056218302
 30
0.0
 10
73.42426165564544
 20
26.35345681092177
 30
0.0
 10
73.36345407585466
 20
26.35602384885318
 30
0.0
 10
73.3017290942265
 20
26.36373848669825
 30
0.0
 10
73.2390054246943
 20
26.37582825145047
 30
0.0
 10
73.17506587549646
 20
26.3924292491614
 30
0.0
 10
73.11002083109804
 20
26.41407173676402
 30
0.0
 10
73.04347578642898
 20
26.44067655229811
 30
0.0
 10
72.97527104597792
 20
26.4737328331328
 30
0.0
 10
72.90478891160609
 20
26.51323942635629
 30
0.0
 10
72.83210286811087
 20
26.5602052879825
 30
0.0
 10
72.75682896319044
 20
26.61391743305478
 30
0.0
 10
72.67939070955946
 20
26.67504075526629
 30
0.0
 10
72.59978320746092
 20
26.74364986822001
 30
0.0
 10
72.51691428181091
 20
26.81841309502305
 30
0.0
 10
72.46249811559495
 20
26.87241479003645
 30
0.0
 10
72.43450791280577
 20
26.90019180005928
 30
0.0
  0
SPLINE
  5
CD
330
1F
100
AcDbEntity
  8
0
  6
Continuous
 62
     7
370
    25
100
AcDbSpline
210
0.0
220
0.0
230
1.0
 70
     8
 71
     3
 72
    31
 73
    27
 74
     0
 42
0.000000001
 43
0.00000001
 40
0.0
 40
0.0
 40
0.0
 40
0.0
 40
0.0650931380611512
 40
0.1266039765373226
 40
0.1850158110860341
 40
0.2401927525856704
 40
0.2926948785080097
 40
0.3417823620468379
 40
0.3882382327930629
 40
0.4321173744957394
 40
0.473971017466326
 40
0.5141406009624558
 40
0.5528774178269757
 40
0.5905019610163776
 40
0.6271388923883594
 40
0.6630104030816907
 40
0.6983217028166656
 40
0.7329986161773789
 40
0.7672460775099879
 40
0.800646381033694
 40
0.8339394285304619
 40
0.8667836833964283
 40
0.8993980752684347
 40
0.9326416935233395
 40
0.9659149781349369
 40
1.0
 40
1.0
 40
1.0
 40
1.0
 10
73.62891897049808
 20
28.09460285775159
 30
0.0
 10
73.65548860421325
 20
28.06757794192524
 30
0.0
 10
73.7071656531876
 20
28.01501538447122
 30
0.0
 10
73.77946609192995
 20
27.93512888040589
 30
0.0
 10
73.84502684509711
 20
27.85704909378918
 30
0.0
 10
73.90460396829192
 20
27.78084789753811
 30
0.0
 10
73.9569388437244
 20
27.7060266869274
 30
0.0
 10
74.00290209268974
 20
27.63308117802925
 30
0.0
 10
74.042309566885
 20
27.56204678391367
 30
0.0
 10
74.07437254826422
 20
27.49200845033787
 30
0.0
 10
74.1008040764188
 20
27.42362594764055
 30
0.0
 10
74.1234201492222
 20
27.35699753280199
 30
0.0
 10
74.1396628479017
 20
27.29107245148788
 30
0.0
 10
74.15206408480384
 20
27.22641441461849
 30
0.0
 10
74.15884849483675
 20
27.16260633056539
 30
0.0
 10
74.16182268082324
 20
27.09983563440593
 30
0.0
 10
74.15848732963572
 20
27.03821317283042
 30
0.0
 10
74.15109462661509
 20
26.97793549835309
 30
0.0
 10
74.1390805222104
 20
26.91951860345802
 30
0.0
 10
74.1228788951563
 20
26.86298210845886
 30
0.0
 10
74.1030140193091
 20
26.80848399142591
 30
0.0
 10
74.07889696105214
 20
26.7562244772969
 30
0.0
 10
74.05058088326464
 20
26.70614126767222
 30
0.0
 10
74.0180384139378
 20
26.65843017970575
 30
0.0
 10
73.98194088742821
 20
26.6121979348632
 30
0.0
 10
73.95470182823121
 20
26.58395473415038
 30
0.0
 10
73.94091816921602
 20
26.56966295390544
 30
0.0
  0
SPLINE
  5
CE
330
1F
100
AcDbEntity
  8
0
  6
Continuous
 62
     7
370
    25
100
AcDbSpline
210
0.0
220
0.0
230
1.0
 70
    24
 71
     3
 72
    12
 73
     8
 74
     0
 42
0.000000001
 43
0.00000001
 40
0.0
 40
0.0
 40
0.0
 40
0.0
 40
0.25
 40
0.25
 40
0.5
 40
0.5
 40
1.0
 40
1.0
 40
1.0
 40
1.0
 10
75.3103086113305
 20
13.97366936416185
 30
0.0
 10
75.06916486130758
 20
13.97366936416185
 30
0.0
 10
74.82645926183642
 20
13.97366936416185
 30
0.0
 10
74.33774353082916
 20
13.97366936416185
 30
0.0
 10
74.09086717923302
 20
13.97366936416185
 30
0.0
 10
73.35573231006022
 20
13.97366936416185
 30
0.0
 10
72.87067382423781
 20
13.97366936416185
 30
0.0
 10
72.39025092624169
 20
13.97366936416185
 30
0.0
  0
SPLINE
  5
CF
330
1F
100
AcDbEntity
  8
0
  6
Continuous
 62
     7
370
    25
100
AcDbSpline
210
0.0
220
0.0
230
1.0
 70
    24
 71
     3
 72
    16
 73
    12
 74
     0
 42
0.000000001
 43
0.00000001
 40
0.0
 40
0.0
 40
0.0
 40
0.0
 40
0.25
 40
0.25
 40
0.5
 40
0.5
 40
0.6249999999999999
 40
0.6249999999999999
 40
0.7499999999999998
 40
0.7499999999999998
 40
1.0
 40
1.0
 40
1.0
 40
1.0
 10
72.39025092624169
 20
13.97366936416185
 30
0.0
 10
71.9925311423206
 20
14.37138914808295
 30
0.0
 10
71.5881930634492
 20
14.77572722695434
 30
0.0
 10
70.76020799113032
 20
15.60371229927323
 30
0.0
 10
70.33661224973959
 20
16.02730804066397
 30
0.0
 10
69.67968622076735
 20
16.68423406963619
 30
0.0
 10
69.45709041479527
 20
16.90682987560826
 30
0.0
 10
69.00301491812488
 20
17.36090537227865
 30
0.0
 10
68.77013527241559
 20
17.59378501798796
 30
0.0
 10
68.07174738574524
 20
18.29217290465831
 30
0.0
 10
67.60364242383574
 20
18.76027786656781
 30
0.0
 10
67.1327653475139
 20
19.23115494288965
 30
0.0
  0
SPLINE
  5
D0
330
1F
100
AcDbEntity
  8
0
  6
Continuous
 62
     7
370
    25
100
AcDbSpline
210
0.0
220
0.0
230
1.0
 70
    24
 71
     3
 72
    16
 73
    12
 74
     0
 42
0.000000001
 43
0.00000001
 40
0.0
 40
0.0
 40
0.0
 40
0.0
 40
0.2499999999999998
 40
0.2499999999999998
 40
0.4999999999999996
 40
0.4999999999999996
 40
0.6249999999999996
 40
0.6249999999999996
 40
0.7499999999999996
 40
0.7499999999999996
 40
1.0
 40
1.0
 40
1.0
 40
1.0
 10
75.3103086113305
 20
13.97366936416185
 30
0.0
 10
75.70802839525159
 20
14.37138914808294
 30
0.0
 10
76.112366474123
 20
14.77572722695434
 30
0.0
 10
76.94035154644189
 20
15.60371229927323
 30
0.0
 10
77.36394728783262
 20
16.02730804066397
 30
0.0
 10
78.02087331680484
 20
16.68423406963619
 30
0.0
 10
78.24346912277692
 20
16.90682987560826
 30
0.0
 10
78.69754461944731
 20
17.36090537227865
 30
0.0
 10
78.9304242651566
 20
17.59378501798796
 30
0.0
 10
79.62881215182696
 20
18.29217290465831
 30
0.0
 10
80.09691711373645
 20
18.76027786656781
 30
0.0
 10
80.5677941900583
 20
19.23115494288965
 30
0.0
  0
SPLINE
  5
D1
330
1F
100
AcDbEntity
  8
0
  6
Continuous
 62
     7
370
    25
100
AcDbSpline
210
0.0
220
0.0
230
1.0
 70
    24
 71
     3
 72
    16
 73
    12
 74
     0
 42
0.000000001
 43
0.00000001
 40
0.0
 40
0.0
 40
0.0
 40
0.0
 40
0.1249999999999999
 40
0.1249999999999999
 40
0.2499999999999998
 40
0.2499999999999998
 40
0.4999999999999998
 40
0.4999999999999998
 40
0.7499999999999999
 40
0.7499999999999999
 40
1.0
 40
1.0
 40
1.0
 40
1.0
 10
67.1327653475139
 20
32.66618378543404
 30
0.0
 10
67.3655549859852
 20
32.89897342390536
 30
0.0
 10
67.59901759062048
 20
33.13243602854064
 30
0.0
 10
68.06729019537158
 20
33.60070863329174
 30
0.0
 10
68.30226901840263
 20
33.83568745632279
 30
0.0
 10
68.99317329210764
 20
34.5265917300278
 30
0.0
 10
69.44085171918243
 20
34.97427015710258
 30
0.0
 10
70.31742828549675
 20
35.8508467234169
 30
0.0
 10
70.74781893910158
 20
36.28123737702172
 30
0.0
 10
71.58386687212308
 20
37.11728531004324
 30
0.0
 10
71.99079377247737
 20
37.52421221039752
 30
0.0
 10
72.39025092624169
 20
37.92366936416185
 30
0.0
  0
SPLINE
  5
D2
330
1F
100
AcDbEntity
  8
0
  6
Continuous
 62
     7
370
    25
100
AcDbSpline
210
0.0
220
0.0
230
1.0
 70
    24
 71
     3
 72
    12
 73
     8
 74
     0
 42
0.000000001
 43
0.00000001
 40
0.0
 40
0.0
 40
0.0
 40
0.0
 40
0.2500000000000001
 40
0.2500000000000001
 40
0.5000000000000001
 40
0.5000000000000001
 40
1.0
 40
1.0
 40
1.0
 40
1.0
 10
75.31030861133051
 20
37.92366936416185
 30
0.0
 10
75.06916486130758
 20
37.92366936416185
 30
0.0
 10
74.82645926183642
 20
37.92366936416185
 30
0.0
 10
74.33774353082916
 20
37.92366936416185
 30
0.0
 10
74.09086717923302
 20
37.92366936416185
 30
0.0
 10
73.3557323100602
 20
37.92366936416185
 30
0.0
 10
72.8706738242378
 20
37.92366936416185
 30
0.0
 10
72.39025092624169
 20
37.92366936416185
 30
0.0
  0
SPLINE
  5
D3
330
1F
100
AcDbEntity
  8
0
  6
Continuous
 62
     7
370
    25
100
AcDbSpline
210
0.0
220
0.0
230
1.0
 70
    24
 71
     3
 72
    16
 73
    12
 74
     0
 42
0.000000001
 43
0.00000001
 40
0.0
 40
0.0
 40
0.0
 40
0.0
 40
0.2500000000000001
 40
0.2500000000000001
 40
0.5000000000000002
 40
0.5000000000000002
 40
0.6250000000000002
 40
0.6250000000000002
 40
0.7500000000000003
 40
0.7500000000000003
 40
1.0
 40
1.0
 40
1.0
 40
1.0
 10
75.3103086113305
 20
37.92366936416185
 30
0.0
 10
75.7080283952516
 20
37.52594958024075
 30
0.0
 10
76.112366474123
 20
37.12161150136935
 30
0.0
 10
76.94035154644189
 20
36.29362642905046
 30
0.0
 10
77.36394728783262
 20
35.87003068765973
 30
0.0
 10
78.02087331680484
 20
35.21310465868751
 30
0.0
 10
78.24346912277692
 20
34.99050885271543
 30
0.0
 10
78.69754461944731
 20
34.53643335604504
 30
0.0
 10
78.9304242651566
 20
34.30355371033573
 30
0.0
 10
79.62881215182696
 20
33.60516582366539
 30
0.0
 10
80.09691711373645
 20
33.13706086175588
 30
0.0
 10
80.5677941900583
 20
32.66618378543405
 30
0.0
  0
SPLINE
  5
D4
330
1F
100
AcDbEntity
  8
0
  6
Continuous
 62
     7
370
    25
100
AcDbSpline
210
0.0
220
0.0
230
1.0
 70
     8
 71
     3
 72
    15
 73
    11
 74
     0
 42
0.000000001
 43
0.00000001
 40
0.0
 40
0.0
 40
0.0
 40
0.0
 40
0.1099847056450848
 40
0.2240098420297771
 40
0.3417046373339413
 40
0.4641704618794937
 40
0.590656269288474
 40
0.7222624860498263
 40
0.8584596182455002
 40
1.0
 40
1.0
 40
1.0
 40
1.0
 10
73.852777143575
 20
27.41201071031569
 30
0.0
 10
73.8421432680628
 20
27.43315924154265
 30
0.0
 10
73.82048486783633
 20
27.4762332227069
 30
0.0
 10
73.78333117524765
 20
27.53975751178998
 30
0.0
 10
73.74125761167629
 20
27.60331781427267
 30
0.0
 10
73.69627294063714
 20
27.66818340508025
 30
0.0
 10
73.64490806347601
 20
27.7320128241616
 30
0.0
 10
73.5907117775299
 20
27.79730018042169
 30
0.0
 10
73.53137815717201
 20
27.86245550025185
 30
0.0
 10
73.48950243355227
 20
27.9051013053376
 30
0.0
 10
73.46816175895961
 20
27.92683442826441
 30
0.0
  0
SPLINE
  5
D5
330
1F
100
AcDbEntity
  8
0
  6
Continuous
 62
     7
370
    25
100
AcDbSpline
210
0.0
220
0.0
230
1.0
 70
     8
 71
     3
 72
    19
 73
    15
 74
     0
 42
0.000000001
 43
0.00000001
 40
0.0
 40
0.0
 40
0.0
 40
0.0
 40
0.1116234689182527
 40
0.2221443256546966
 40
0.3354380430278007
 40
0.454814870975203
 40
0.5168870261290479
 40
0.5794061580887492
 40
0.6435314246458348
 40
0.7096032329016746
 40
0.778088132372387
 40
0.8493556809199183
 40
0.9228466968340716
 40
1.0
 40
1.0
 40
1.0
 40
1.0
 10
73.78867457947243
 20
26.73392577441826
 30
0.0
 10
73.80702163251597
 20
26.75400467946801
 30
0.0
 10
73.84353450714354
 20
26.79396415094285
 30
0.0
 10
73.88397476432353
 20
26.86544248903006
 30
0.0
 10
73.91392477560203
 20
26.94350864600023
 30
0.0
 10
73.92883805350583
 20
27.01394680318419
 30
0.0
 10
73.93392030093331
 20
27.07304146210375
 30
0.0
 10
73.93477081208756
 20
27.11896680904188
 30
0.0
 10
73.93029040923379
 20
27.16564827764543
 30
0.0
 10
73.92293406814892
 20
27.21339052523202
 30
0.0
 10
73.9112854603191
 20
27.26209489193487
 30
0.0
 10
73.8955770767206
 20
27.31149434952115
 30
0.0
 10
73.87672799716626
 20
27.36207706898421
 30
0.0
 10
73.86088911353319
 20
27.39509856992616
 30
0.0
 10
73.852777143575
 20
27.41201071031569
 30
0.0
  0
SPLINE
  5
D6
330
1F
100
AcDbEntity
  8
0
  6
Continuous
 62
     7
370
    25
100
AcDbSpline
210
0.0
220
0.0
230
1.0
 70
     8
 71
     3
 72
    27
 73
    23
 74
     0
 42
0.000000001
 43
0.00000001
 40
0.0
 40
0.0
 40
0.0
 40
0.0
 40
0.0739414287635762
 40
0.1432995467909238
 40
0.2078367058012861
 40
0.268154271998974
 40
0.3240444974500776
 40
0.3756833250396089
 40
0.4227992035769721
 40
0.4659844474241322
 40
0.5062690802671607
 40
0.5452440815941552
 40
0.582932628734493
 40
0.6191703782421355
 40
0.654210699598645
 40
0.6889160634209301
 40
0.7228008900413521
 40
0.7560829642487451
 40
0.8208193220025545
 40
0.8819250721784662
 40
0.941036732120393
 40
1.0
 40
1.0
 40
1.0
 40
1.0
 10
72.6037787461391
 20
27.0624514154439
 30
0.0
 10
72.62781488217065
 20
27.0385694583587
 30
0.0
 10
72.67439725767412
 20
26.99228588385906
 30
0.0
 10
72.74472480610962
 20
26.92805630530601
 30
0.0
 10
72.81125855360504
 20
26.86894423415405
 30
0.0
 10
72.87539758208054
 20
26.81653526614575
 30
0.0
 10
72.93628684325193
 20
26.76950078798971
 30
0.0
 10
72.99496823839492
 20
26.72974526835009
 30
0.0
 10
73.05000211622227
 20
26.69501811421812
 30
0.0
 10
73.1031290487348
 20
26.66735474662037
 30
0.0
 10
73.15442862196117
 20
26.64458859331595
 30
0.0
 10
73.20447426319105
 20
26.62534647157638
 30
0.0
 10
73.25402063793707
 20
26.610290905589
 30
0.0
 10
73.30276524351477
 20
26.59933979695573
 30
0.0
 10
73.35073476913757
 20
26.59151637921518
 30
0.0
 10
73.39815667066419
 20
26.58803062326124
 30
0.0
 10
73.44487973256827
 20
26.58860910049188
 30
0.0
 10
73.50513494795742
 20
26.59384643927961
 30
0.0
 10
73.57686216604377
 20
26.60865659955505
 30
0.0
 10
73.65655871120182
 20
26.63828332653565
 30
0.0
 10
73.7282587584754
 20
26.67952684763925
 30
0.0
 10
73.76855285249987
 20
26.71580799774679
 30
0.0
 10
73.78867457947243
 20
26.73392577441826
 30
0.0
  0
SPLINE
  5
D7
330
1F
100
AcDbEntity
  8
0
  6
Continuous
 62
     7
370
    25
100
AcDbSpline
210
0.0
220
0.0
230
1.0
 70
     8
 71
     3
 72
    27
 73
    23
 74
     0
 42
0.000000001
 43
0.00000001
 40
0.0
 40
0.0
 40
0.0
 40
0.0
 40
0.059204909142324
 40
0.1186381156964756
 40
0.1794099962647921
 40
0.2434403905684774
 40
0.2767263209819804
 40
0.3102507208116301
 40
0.3445967272097261
 40
0.3795861309306517
 40
0.4161835169775525
 40
0.4535278654524003
 40
0.4925073825928414
 40
0.5331297869118885
 40
0.5763200343895354
 40
0.6237516935997309
 40
0.6753965042887891
 40
0.7312932054248968
 40
0.7916177602785753
 40
0.8564364250289892
 40
0.9260500040603648
 40
1.0
 40
1.0
 40
1.0
 40
1.0
 10
72.27575390639551
 20
28.24684644749518
 30
0.0
 10
72.25741354493135
 20
28.22676413908186
 30
0.0
 10
72.22066210055249
 20
28.18652208376066
 30
0.0
 10
72.17988284765269
 20
28.11441761237064
 30
0.0
 10
72.15002518967627
 20
28.0352232451649
 30
0.0
 10
72.13510813385275
 20
27.96398391108399
 30
0.0
 10
72.12996987325722
 20
27.90422111614296
 30
0.0
 10
72.12930524885782
 20
27.85782378552072
 30
0.0
 10
72.13304021086141
 20
27.81079433385237
 30
0.0
 10
72.14005904068577
 20
27.76273857095379
 30
0.0
 10
72.15100312992317
 20
27.71399263387498
 30
0.0
 10
72.16625745147816
 20
27.66450714886448
 30
0.0
 10
72.18552871192817
 20
27.61448938094456
 30
0.0
 10
72.20802576866154
 20
27.56289762848291
 30
0.0
 10
72.23600708112896
 20
27.50960631449424
 30
0.0
 10
72.27039530427611
 20
27.45420059420366
 30
0.0
 10
72.31036215332095
 20
27.39548306640277
 30
0.0
 10
72.35732778694519
 20
27.334543358808
 30
0.0
 10
72.40995874859259
 20
27.27043023059187
 30
0.0
 10
72.46868579287806
 20
27.20323685643277
 30
0.0
 10
72.53366082998569
 20
27.13326694293225
 30
0.0
 10
72.57994014336535
 20
27.0865271912601
 30
0.0
 10
72.6037787461391
 20
27.0624514154439
 30
0.0
  0
SPLINE
  5
D8
330
1F
100
AcDbEntity
  8
0
  6
Continuous
 62
     7
370
    25
100
AcDbSpline
210
0.0
220
0.0
230
1.0
 70
     8
 71
     3
 72
    27
 73
    23
 74
     0
 42
0.000000001
 43
0.00000001
 40
0.0
 40
0.0
 40
0.0
 40
0.0
 40
0.0665682887066777
 40
0.1298384398761199
 40
0.1903854166577238
 40
0.2477638774268024
 40
0.3026463387477553
 40
0.3547594337319389
 40
0.4043168527786022
 40
0.4513184057942145
 40
0.4962182809861096
 40
0.5384964490913653
 40
0.5791109571601266
 40
0.6178689498676121
 40
0.6548770745485872
 40
0.6907509929392046
 40
0.7250465884647678
 40
0.7587391546997317
 40
0.8228526037433924
 40
0.8832333648382237
 40
0.9417466416330509
 40
0.9999999999999999
 40
0.9999999999999999
 40
0.9999999999999999
 40
0.9999999999999999
 10
73.46816175895961
 20
27.92683442826441
 30
0.0
 10
73.44642352338481
 20
27.94817103005055
 30
0.0
 10
73.40402407692872
 20
27.98978710794581
 30
0.0
 10
73.33967569118337
 20
28.04853363927659
 30
0.0
 10
73.2767461194378
 20
28.10251670134033
 30
0.0
 10
73.21510407127103
 20
28.15208743615342
 30
0.0
 10
73.15389772596491
 20
28.19582877178656
 30
0.0
 10
73.09443817212008
 20
28.23581938911657
 30
0.0
 10
73.03571256252677
 20
28.27021579005
 30
0.0
 10
72.97852838628481
 20
28.30059076471643
 30
0.0
 10
72.9225994633882
 20
28.32599846110762
 30
0.0
 10
72.8681174822347
 20
28.34731293155449
 30
0.0
 10
72.81508058628836
 20
28.36430997780537
 30
0.0
 10
72.76346824703195
 20
28.37757232264842
 30
0.0
 10
72.71306033770043
 20
28.38625741692201
 30
0.0
 10
72.66412208840363
 20
28.39016241974391
 30
0.0
 10
72.61654307452719
 20
28.39029333573771
 30
0.0
 10
72.55627155838786
 20
28.38496741759482
 30
0.0
 10
72.48510636525224
 20
28.37006497516147
 30
0.0
 10
72.40643375024476
 20
28.34077571636143
 30
0.0
 10
72.33508729715192
 20
28.30096430398631
 30
0.0
 10
72.29550233173352
 20
28.26485894323734
 30
0.0
 10
72.27575390639551
 20
28.24684644749518
 30
0.0
  0
LINE
  5
D9
330
1F
100
AcDbEntity
  8
0
  6
Continuous
 62
     7
370
    25
100
AcDbLine
 10
74.4179902109
 20
29.48058057
 30
0.0
 11
74.6323331596
 21
28.2365901853
 31
0.0
  0
LINE
  5
DA
330
1F
100
AcDbEntity
  8
0
  6
Continuous
 62
     7
370
    25
100
AcDbLine
 10
75.1471568776
 20
28.7514139033
 30
0.0
 11
74.4179902109
 21
29.48058057
 31
0.0
  0
LINE
  5
DB
330
1F
100
AcDbEntity
  8
0
  6
Continuous
 62
     7
370
    25
100
AcDbLine
 10
74.6323331596
 20
28.2365901853
 30
0.0
 11
75.1471568776
 21
28.7514139033
 31
0.0
  0
SPLINE
  5
DC
330
1F
100
AcDbEntity
  8
0
  6
Continuous
 62
     7
370
    25
100
AcDbSpline
210
0.0
220
0.0
230
1.0
 70
    24
 71
     3
 72
    12
 73
     8
 74
     0
 42
0.000000001
 43
0.00000001
 40
0.0
 40
0.0
 40
0.0
 40
0.0
 40
0.25
 40
0.25
 40
0.5
 40
0.5
 40
1.0
 40
1.0
 40
1.0
 40
1.0
 10
61.87527976878609
 20
24.48864052161744
 30
0.0
 10
61.87527976878609
 20
24.72978427164036
 30
0.0
 10
61.87527976878609
 20
24.97248987111152
 30
0.0
 10
61.87527976878609
 20
25.46120560211879
 30
0.0
 10
61.87527976878609
 20
25.70808195371493
 30
0.0
 10
61.87527976878609
 20
26.44321682288773
 30
0.0
 10
61.87527976878609
 20
26.92827530871014
 30
0.0
 10
61.87527976878609
 20
27.40869820670625
 30
0.0
  0
SPLINE
  5
DD
330
1F
100
AcDbEntity
  8
0
  6
Continuous
 62
     7
370
    25
100
AcDbSpline
210
0.0
220
0.0
230
1.0
 70
    24
 71
     3
 72
    16
 73
    12
 74
     0
 42
0.000000001
 43
0.00000001
 40
0.0
 40
0.0
 40
0.0
 40
0.0
 40
0.1250000000000001
 40
0.1250000000000001
 40
0.2500000000000002
 40
0.2500000000000002
 40
0.5000000000000001
 40
0.5000000000000001
 40
0.75
 40
0.75
 40
1.0
 40
1.0
 40
1.0
 40
1.0
 10
67.1327653475139
 20
19.23115494288965
 30
0.0
 10
66.8999757090426
 20
19.46394458136096
 30
0.0
 10
66.66651310440731
 20
19.69740718599624
 30
0.0
 10
66.19824049965621
 20
20.16567979074734
 30
0.0
 10
65.96326167662515
 20
20.40065861377839
 30
0.0
 10
65.27235740292014
 20
21.09156288748341
 30
0.0
 10
64.82467897584536
 20
21.53924131455818
 30
0.0
 10
63.94810240953104
 20
22.41581788087251
 30
0.0
 10
63.51771175592621
 20
22.84620853447733
 30
0.0
 10
62.6816638229047
 20
23.68225646749883
 30
0.0
 10
62.27473692255042
 20
24.08918336785312
 30
0.0
 10
61.87527976878609
 20
24.48864052161745
 30
0.0
  0
SPLINE
  5
DE
330
1F
100
AcDbEntity
  8
0
  6
Continuous
 62
     7
370
    25
100
AcDbSpline
210
0.0
220
0.0
230
1.0
 70
    24
 71
     3
 72
    16
 73
    12
 74
     0
 42
0.000000001
 43
0.00000001
 40
0.0
 40
0.0
 40
0.0
 40
0.0
 40
0.2499999999999999
 40
0.2499999999999999
 40
0.4999999999999998
 40
0.4999999999999998
 40
0.6249999999999998
 40
0.6249999999999998
 40
0.7499999999999997
 40
0.7499999999999997
 40
1.0
 40
1.0
 40
1.0
 40
1.0
 10
61.87527976878609
 20
27.40869820670625
 30
0.0
 10
62.2729995527072
 20
27.80641799062735
 30
0.0
 10
62.6773376315786
 20
28.21075606949874
 30
0.0
 10
63.50532270389748
 20
29.03874114181763
 30
0.0
 10
63.92891844528823
 20
29.46233688320837
 30
0.0
 10
64.58584447426044
 20
30.1192629121806
 30
0.0
 10
64.80844028023252
 20
30.34185871815266
 30
0.0
 10
65.2625157769029
 20
30.79593421482306
 30
0.0
 10
65.4953954226122
 20
31.02881386053236
 30
0.0
 10
66.19378330928257
 20
31.72720174720271
 30
0.0
 10
66.66188827119205
 20
32.19530670911222
 30
0.0
 10
67.1327653475139
 20
32.66618378543404
 30
0.0
  0
CIRCLE
  5
DF
330
1F
100
AcDbEntity
  8
0
  6
Continuous
 62
     7
370
    25
100
AcDbCircle
 10
73.8502797688
 20
25.9486693642
 30
0.0
 40
16.85133333333335
  0
CIRCLE
  5
E0
330
1F
100
AcDbEntity
  8
0
  6
Continuous
 62
     7
370
    25
100
AcDbCircle
 10
73.8502797688
 20
25.9486693642
 30
0.0
 40
14.5
  0
INSERT
  5
EC
330
1F
100
AcDbEntity
  8
0
  6
Continuous
 62
     7
370
    18
100
AcDbBlockReference
  2
SW_CENTERMARKSYMBOL_0
 10
73.8502797688
 20
25.9486693642
 30
0.0
  0
ARC
  5
ED
330
1F
100
AcDbEntity
  8
0
  6
Continuous
 62
     7
370
    18
100
AcDbCircle
 10
73.8502797688
 20
25.9486693642
 30
0.0
 40
15.1455
100
AcDbArc
 50
75.0
 51
345.0
  0
ENDSEC
  0
SECTION
  2
OBJECTS
  0
DICTIONARY
  5
C
330
0
100
AcDbDictionary
281
     1
  3
ACAD_GROUP
350
D
  3
ACAD_LAYOUT
350
1A
  3
ACAD_MLINESTYLE
350
17
  3
ACAD_PLOTSETTINGS
350
19
  3
ACAD_PLOTSTYLENAME
350
E
  3
ACAD_SCALELIST
350
47
  0
DICTIONARY
  5
D
102
{ACAD_REACTORS
330
C
102
}
330
C
100
AcDbDictionary
281
     1
  0
DICTIONARY
  5
1A
102
{ACAD_REACTORS
330
C
102
}
330
C
100
AcDbDictionary
281
     1
  3
Layout1
350
1E
  3
Layout2
350
26
  3
Model
350
22
  0
DICTIONARY
  5
17
102
{ACAD_REACTORS
330
C
102
}
330
C
100
AcDbDictionary
281
     1
  3
Standard
350
18
  0
DICTIONARY
  5
19
102
{ACAD_REACTORS
330
C
102
}
330
C
100
AcDbDictionary
281
     1
  0
ACDBDICTIONARYWDFLT
  5
E
102
{ACAD_REACTORS
330
C
102
}
330
C
100
AcDbDictionary
281
     1
  3
Normal
350
F
100
AcDbDictionaryWithDefault
340
F
  0
DICTIONARY
  5
47
102
{ACAD_REACTORS
330
C
102
}
330
C
100
AcDbDictionary
281
     1
  3
A0
350
48
  3
A1
350
49
  3
A2
350
4A
  3
A3
350
4B
  3
A4
350
4C
  3
A5
350
4D
  3
A6
350
4E
  3
A7
350
4F
  3
A8
350
50
  3
A9
350
51
  3
B0
350
52
  3
B1
350
53
  3
B2
350
54
  3
B3
350
55
  3
B4
350
56
  3
B5
350
57
  3
B6
350
58
  3
B7
350
59
  3
B8
350
5A
  3
B9
350
5B
  3
C0
350
5C
  3
C1
350
5D
  3
C2
350
5E
  3
C3
350
5F
  3
C4
350
60
  3
C5
350
61
  3
C6
350
62
  3
C7
350
63
  3
C8
350
64
  3
C9
350
65
  3
D0
350
66
  3
D1
350
67
  3
D2
350
68
  0
LAYOUT
  5
1E
102
{ACAD_REACTORS
330
1A
102
}
330
1A
100
AcDbPlotSettings
  1

  2
none_device
  4

  6

 40
0.0
 41
0.0
 42
0.0
 43
0.0
 44
0.0
 45
0.0
 46
0.0
 47
0.0
 48
0.0
 49
0.0
140
0.0
141
0.0
142
1.0
143
1.0
 70
   688
 72
     1
 73
     0
 74
     5
  7

 75
    16
147
1.0
148
0.0
149
0.0
100
AcDbLayout
  1
Layout1
 70
     1
 71
     1
 10
0.0
 20
0.0
 11
420.0
 21
297.0
 12
0.0
 22
0.0
 32
0.0
 14
1.0000000000E+20
 24
1.0000000000E+20
 34
1.0000000000E+20
 15
-1.0000000000E+20
 25
-1.0000000000E+20
 35
-1.0000000000E+20
146
0.0
 13
0.0
 23
0.0
 33
0.0
 16
1.0
 26
0.0
 36
0.0
 17
0.0
 27
1.0
 37
0.0
 76
     0
330
1B
  0
LAYOUT
  5
26
102
{ACAD_REACTORS
330
1A
102
}
330
1A
100
AcDbPlotSettings
  1

  2
none_device
  4

  6

 40
0.0
 41
0.0
 42
0.0
 43
0.0
 44
0.0
 45
0.0
 46
0.0
 47
0.0
 48
0.0
 49
0.0
140
0.0
141
0.0
142
1.0
143
1.0
 70
   688
 72
     1
 73
     0
 74
     5
  7

 75
    16
147
1.0
148
0.0
149
0.0
100
AcDbLayout
  1
Layout2
 70
     1
 71
     2
 10
0.0
 20
0.0
 11
0.0
 21
0.0
 12
0.0
 22
0.0
 32
0.0
 14
0.0
 24
0.0
 34
0.0
 15
0.0
 25
0.0
 35
0.0
146
0.0
 13
0.0
 23
0.0
 33
0.0
 16
1.0
 26
0.0
 36
0.0
 17
0.0
 27
1.0
 37
0.0
 76
     0
330
23
  0
LAYOUT
  5
22
102
{ACAD_REACTORS
330
1A
102
}
330
1A
100
AcDbPlotSettings
  1

  2
none_device
  4
Letter_(8.50_x_11.00_Inches)
  6

 40
6.35
 41
6.35
 42
6.35000508
 43
6.35000508
 44
215.9
 45
279.4
 46
0.0
 47
0.0
 48
0.0
 49
0.0
140
0.0
141
0.0
142
1.0
143
1.0
 70
  1712
 72
     1
 73
     0
 74
     0
  7

 75
     0
147
1.0
148
0.0
149
0.0
100
AcDbLayout
  1
Model
 70
     1
 71
     0
 10
0.0
 20
0.0
 11
215.9
 21
139.7
 12
0.0
 22
0.0
 32
0.0
 14
0.0
 24
0.0
 34
0.0
 15
215.9
 25
139.7
 35
0.0
146
0.0
 13
0.0
 23
0.0
 33
0.0
 16
1.0
 26
0.0
 36
0.0
 17
0.0
 27
1.0
 37
0.0
 76
     0
330
1F
331
29
  0
MLINESTYLE
  5
18
102
{ACAD_REACTORS
330
17
102
}
330
17
100
AcDbMlineStyle
  2
Standard
 70
     0
  3

 62
   256
 51
90.0
 52
90.0
 71
     2
 49
0.5
 62
   256
  6
BYLAYER
 49
-0.5
 62
   256
  6
BYLAYER
  0
ACDBPLACEHOLDER
  5
F
102
{ACAD_REACTORS
330
E
102
}
330
E
  0
SCALE
  5
48
102
{ACAD_REACTORS
330
47
102
}
330
47
100
AcDbScale
 70
     0
300
1:1
140
1.0
141
1.0
290
     1
  0
SCALE
  5
49
102
{ACAD_REACTORS
330
47
102
}
330
47
100
AcDbScale
 70
     0
300
1:2
140
1.0
141
2.0
290
     0
  0
SCALE
  5
4A
102
{ACAD_REACTORS
330
47
102
}
330
47
100
AcDbScale
 70
     0
300
1:4
140
1.0
141
4.0
290
     0
  0
SCALE
  5
4B
102
{ACAD_REACTORS
330
47
102
}
330
47
100
AcDbScale
 70
     0
300
1:5
140
1.0
141
5.0
290
     0
  0
SCALE
  5
4C
102
{ACAD_REACTORS
330
47
102
}
330
47
100
AcDbScale
 70
     0
300
1:8
140
1.0
141
8.0
290
     0
  0
SCALE
  5
4D
102
{ACAD_REACTORS
330
47
102
}
330
47
100
AcDbScale
 70
     0
300
1:10
140
1.0
141
10.0
290
     0
  0
SCALE
  5
4E
102
{ACAD_REACTORS
330
47
102
}
330
47
100
AcDbScale
 70
     0
300
1:16
140
1.0
141
16.0
290
     0
  0
SCALE
  5
4F
102
{ACAD_REACTORS
330
47
102
}
330
47
100
AcDbScale
 70
     0
300
1:20
140
1.0
141
20.0
290
     0
  0
SCALE
  5
50
102
{ACAD_REACTORS
330
47
102
}
330
47
100
AcDbScale
 70
     0
300
1:30
140
1.0
141
30.0
290
     0
  0
SCALE
  5
51
102
{ACAD_REACTORS
330
47
102
}
330
47
100
AcDbScale
 70
     0
300
1:40
140
1.0
141
40.0
290
     0
  0
SCALE
  5
52
102
{ACAD_REACTORS
330
47
102
}
330
47
100
AcDbScale
 70
     0
300
1:50
140
1.0
141
50.0
290
     0
  0
SCALE
  5
53
102
{ACAD_REACTORS
330
47
102
}
330
47
100
AcDbScale
 70
     0
300
1:100
140
1.0
141
100.0
290
     0
  0
SCALE
  5
54
102
{ACAD_REACTORS
330
47
102
}
330
47
100
AcDbScale
 70
     0
300
2:1
140
2.0
141
1.0
290
     0
  0
SCALE
  5
55
102
{ACAD_REACTORS
330
47
102
}
330
47
100
AcDbScale
 70
     0
300
4:1
140
4.0
141
1.0
290
     0
  0
SCALE
  5
56
102
{ACAD_REACTORS
330
47
102
}
330
47
100
AcDbScale
 70
     0
300
8:1
140
8.0
141
1.0
290
     0
  0
SCALE
  5
57
102
{ACAD_REACTORS
330
47
102
}
330
47
100
AcDbScale
 70
     0
300
10:1
140
10.0
141
1.0
290
     0
  0
SCALE
  5
58
102
{ACAD_REACTORS
330
47
102
}
330
47
100
AcDbScale
 70
     0
300
100:1
140
100.0
141
1.0
290
     0
  0
SCALE
  5
59
102
{ACAD_REACTORS
330
47
102
}
330
47
100
AcDbScale
 70
     0
300
1/128" = 1'-0"
140
0.0078125
141
12.0
290
     0
  0
SCALE
  5
5A
102
{ACAD_REACTORS
330
47
102
}
330
47
100
AcDbScale
 70
     0
300
1/64" = 1'-0"
140
0.015625
141
12.0
290
     0
  0
SCALE
  5
5B
102
{ACAD_REACTORS
330
47
102
}
330
47
100
AcDbScale
 70
     0
300
1/32" = 1'-0"
140
0.03125
141
12.0
290
     0
  0
SCALE
  5
5C
102
{ACAD_REACTORS
330
47
102
}
330
47
100
AcDbScale
 70
     0
300
1/16" = 1'-0"
140
0.0625
141
12.0
290
     0
  0
SCALE
  5
5D
102
{ACAD_REACTORS
330
47
102
}
330
47
100
AcDbScale
 70
     0
300
3/32" = 1'-0"
140
0.09375
141
12.0
290
     0
  0
SCALE
  5
5E
102
{ACAD_REACTORS
330
47
102
}
330
47
100
AcDbScale
 70
     0
300
1/8" = 1'-0"
140
0.125
141
12.0
290
     0
  0
SCALE
  5
5F
102
{ACAD_REACTORS
330
47
102
}
330
47
100
AcDbScale
 70
     0
300
3/16" = 1'-0"
140
0.1875
141
12.0
290
     0
  0
SCALE
  5
60
102
{ACAD_REACTORS
330
47
102
}
330
47
100
AcDbScale
 70
     0
300
1/4" = 1'-0"
140
0.25
141
12.0
290
     0
  0
SCALE
  5
61
102
{ACAD_REACTORS
330
47
102
}
330
47
100
AcDbScale
 70
     0
300
3/8" = 1'-0"
140
0.375
141
12.0
290
     0
  0
SCALE
  5
62
102
{ACAD_REACTORS
330
47
102
}
330
47
100
AcDbScale
 70
     0
300
1/2" = 1'-0"
140
0.5
141
12.0
290
     0
  0
SCALE
  5
63
102
{ACAD_REACTORS
330
47
102
}
330
47
100
AcDbScale
 70
     0
300
3/4" = 1'-0"
140
0.75
141
12.0
290
     0
  0
SCALE
  5
64
102
{ACAD_REACTORS
330
47
102
}
330
47
100
AcDbScale
 70
     0
300
1" = 1'-0"
140
1.0
141
12.0
290
     0
  0
SCALE
  5
65
102
{ACAD_REACTORS
330
47
102
}
330
47
100
AcDbScale
 70
     0
300
1-1/2" = 1'-0"
140
1.5
141
12.0
290
     0
  0
SCALE
  5
66
102
{ACAD_REACTORS
330
47
102
}
330
47
100
AcDbScale
 70
     0
300
3" = 1'-0"
140
3.0
141
12.0
290
     0
  0
SCALE
  5
67
102
{ACAD_REACTORS
330
47
102
}
330
47
100
AcDbScale
 70
     0
300
6" = 1'-0"
140
6.0
141
12.0
290
     0
  0
SCALE
  5
68
102
{ACAD_REACTORS
330
47
102
}
330
47
100
AcDbScale
 70
     0
300
1'-0" = 1'-0"
140
12.0
141
12.0
290
     0
  0
ENDSEC
  0
EOF
