  0
SECTION
  2
HEADER
  9
$ACADVER
  1
AC1015
  9
$ACADMAINTVER
 70
     6
  9
$DWGCODEPAGE
  3
DOS932
  9
$INSBASE
 10
0.0
 20
0.0
 30
0.0
  9
$EXTMIN
 10
0.0
 20
0.0
 30
0.0
  9
$EXTMAX
 10
215.9
 20
139.7
 30
0.0
  9
$LIMMIN
 10
0.0
 20
0.0
  9
$LIMMAX
 10
215.9
 20
139.7
  9
$ORTHOMODE
 70
     0
  9
$REGENMODE
 70
     1
  9
$FILLMODE
 70
     1
  9
$QTEXTMODE
 70
     0
  9
$MIRRTEXT
 70
     1
  9
$LTSCALE
 40
0.5
  9
$ATTMODE
 70
     1
  9
$TEXTSIZE
 40
1.75
  9
$TRACEWID
 40
1.0
  9
$TEXTSTYLE
  7
Standard
  9
$CLAYER
  8
0
  9
$CELTYPE
  6
ByLayer
  9
$CECOLOR
 62
   256
  9
$CELTSCALE
 40
1.0
  9
$DISPSILH
 70
     0
  9
$DIMSCALE
 40
1.0
  9
$DIMASZ
 40
1.651
  9
$DIMEXO
 40
0.5
  9
$DIMDLI
 40
3.75
  9
$DIMRND
 40
0.0
  9
$DIMDLE
 40
0.0
  9
$DIMEXE
 40
0.5
  9
$DIMTP
 40
0.0
  9
$DIMTM
 40
0.0
  9
$DIMTXT
 40
1.75
  9
$DIMCEN
 40
2.5
  9
$DIMTSZ
 40
0.0
  9
$DIMTOL
 70
     0
  9
$DIMLIM
 70
     0
  9
$DIMTIH
 70
     1
  9
$DIMTOH
 70
     1
  9
$DIMSE1
 70
     0
  9
$DIMSE2
 70
     0
  9
$DIMTAD
 70
     1
  9
$DIMZIN
 70
     1
  9
$DIMBLK
  1

  9
$DIMASO
 70
     1
  9
$DIMSHO
 70
     1
  9
$DIMPOST
  1

  9
$DIMAPOST
  1

  9
$DIMALT
 70
     0
  9
$DIMALTD
 70
     3
  9
$DIMALTF
 40
0.0393700787
  9
$DIMLFAC
 40
1.0
  9
$DIMTOFL
 70
     1
  9
$DIMTVP
 40
0.0
  9
$DIMTIX
 70
     0
  9
$DIMSOXD
 70
     0
  9
$DIMSAH
 70
     0
  9
$DIMBLK1
  1

  9
$DIMBLK2
  1

  9
$DIMSTYLE
  2
ISO-25
  9
$DIMCLRD
 70
     0
  9
$DIMCLRE
 70
     0
  9
$DIMCLRT
 70
     0
  9
$DIMTFAC
 40
1.0
  9
$DIMGAP
 40
0.762
  9
$DIMJUST
 70
     0
  9
$DIMSD1
 70
     0
  9
$DIMSD2
 70
     0
  9
$DIMTOLJ
 70
     0
  9
$DIMTZIN
 70
     1
  9
$DIMALTZ
 70
     0
  9
$DIMALTTZ
 70
     0
  9
$DIMUPT
 70
     0
  9
$DIMDEC
 70
     2
  9
$DIMTDEC
 70
     2
  9
$DIMALTU
 70
     2
  9
$DIMALTTD
 70
     3
  9
$DIMTXSTY
  7
Standard
  9
$DIMAUNIT
 70
     0
  9
$DIMADEC
 70
     2
  9
$DIMALTRND
 40
0.0
  9
$DIMAZIN
 70
     0
  9
$DIMDSEP
 70
    44
  9
$DIMATFIT
 70
     3
  9
$DIMFRAC
 70
     0
  9
$DIMLDRBLK
  1

  9
$DIMLUNIT
 70
     2
  9
$DIMLWD
 70
    -2
  9
$DIMLWE
 70
    -2
  9
$DIMTMOVE
 70
     0
  9
$LUNITS
 70
     2
  9
$LUPREC
 70
     2
  9
$SKETCHINC
 40
1.0
  9
$FILLETRAD
 40
10.0
  9
$AUNITS
 70
     0
  9
$AUPREC
 70
     2
  9
$MENU
  1
.
  9
$ELEVATION
 40
0.0
  9
$PELEVATION
 40
0.0
  9
$THICKNESS
 40
0.0
  9
$LIMCHECK
 70
     0
  9
$CHAMFERA
 40
0.0
  9
$CHAMFERB
 40
0.0
  9
$CHAMFERC
 40
0.0
  9
$CHAMFERD
 40
0.0
  9
$SKPOLY
 70
     0
  9
$TDCREATE
 40
2460090.430954664
  9
$TDUCREATE
 40
2460090.055954664
  9
$TDUPDATE
 40
2460090.430955023
  9
$TDUUPDATE
 40
2460090.055955023
  9
$TDINDWG
 40
0.0000000116
  9
$TDUSRTIMER
 40
0.0000000116
  9
$USRTIMER
 70
     1
  9
$ANGBASE
 50
0.0
  9
$ANGDIR
 70
     0
  9
$PDMODE
 70
     0
  9
$PDSIZE
 40
-1.0
  9
$PLINEWID
 40
0.0
  9
$SPLFRAME
 70
     0
  9
$SPLINETYPE
 70
     6
  9
$SPLINESEGS
 70
     8
  9
$HANDSEED
  5
FC
  9
$SURFTAB1
 70
     6
  9
$SURFTAB2
 70
     6
  9
$SURFTYPE
 70
     6
  9
$SURFU
 70
     6
  9
$SURFV
 70
     6
  9
$UCSBASE
  2

  9
$UCSNAME
  2

  9
$UCSORG
 10
0.0
 20
0.0
 30
0.0
  9
$UCSXDIR
 10
1.0
 20
0.0
 30
0.0
  9
$UCSYDIR
 10
0.0
 20
1.0
 30
0.0
  9
$UCSORTHOREF
  2

  9
$UCSORTHOVIEW
 70
     0
  9
$UCSORGTOP
 10
0.0
 20
0.0
 30
0.0
  9
$UCSORGBOTTOM
 10
0.0
 20
0.0
 30
0.0
  9
$UCSORGLEFT
 10
0.0
 20
0.0
 30
0.0
  9
$UCSORGRIGHT
 10
0.0
 20
0.0
 30
0.0
  9
$UCSORGFRONT
 10
0.0
 20
0.0
 30
0.0
  9
$UCSORGBACK
 10
0.0
 20
0.0
 30
0.0
  9
$PUCSBASE
  2

  9
$PUCSNAME
  2

  9
$PUCSORG
 10
0.0
 20
0.0
 30
0.0
  9
$PUCSXDIR
 10
1.0
 20
0.0
 30
0.0
  9
$PUCSYDIR
 10
0.0
 20
1.0
 30
0.0
  9
$PUCSORTHOREF
  2

  9
$PUCSORTHOVIEW
 70
     0
  9
$PUCSORGTOP
 10
0.0
 20
0.0
 30
0.0
  9
$PUCSORGBOTTOM
 10
0.0
 20
0.0
 30
0.0
  9
$PUCSORGLEFT
 10
0.0
 20
0.0
 30
0.0
  9
$PUCSORGRIGHT
 10
0.0
 20
0.0
 30
0.0
  9
$PUCSORGFRONT
 10
0.0
 20
0.0
 30
0.0
  9
$PUCSORGBACK
 10
0.0
 20
0.0
 30
0.0
  9
$USERI1
 70
     0
  9
$USERI2
 70
     0
  9
$USERI3
 70
     0
  9
$USERI4
 70
     0
  9
$USERI5
 70
     0
  9
$USERR1
 40
0.0
  9
$USERR2
 40
0.0
  9
$USERR3
 40
0.0
  9
$USERR4
 40
0.0
  9
$USERR5
 40
0.0
  9
$WORLDVIEW
 70
     1
  9
$SHADEDGE
 70
     3
  9
$SHADEDIF
 70
    70
  9
$TILEMODE
 70
     1
  9
$MAXACTVP
 70
    64
  9
$PINSBASE
 10
0.0
 20
0.0
 30
0.0
  9
$PLIMCHECK
 70
     0
  9
$PEXTMIN
 10
1.0000000000E+20
 20
1.0000000000E+20
 30
1.0000000000E+20
  9
$PEXTMAX
 10
-1.0000000000E+20
 20
-1.0000000000E+20
 30
-1.0000000000E+20
  9
$PLIMMIN
 10
0.0
 20
0.0
  9
$PLIMMAX
 10
420.0
 20
297.0
  9
$UNITMODE
 70
     0
  9
$VISRETAIN
 70
     1
  9
$PLINEGEN
 70
     0
  9
$PSLTSCALE
 70
     1
  9
$TREEDEPTH
 70
  3020
  9
$CMLSTYLE
  2
Standard
  9
$CMLJUST
 70
     0
  9
$CMLSCALE
 40
20.0
  9
$PROXYGRAPHICS
 70
     1
  9
$MEASUREMENT
 70
     1
  9
$CELWEIGHT
370
    -1
  9
$ENDCAPS
280
     0
  9
$JOINSTYLE
280
     0
  9
$LWDISPLAY
290
     1
  9
$INSUNITS
 70
     4
  9
$HYPERLINKBASE
  1

  9
$STYLESHEET
  1

  9
$XEDIT
290
     1
  9
$CEPSNTYPE
380
     0
  9
$PSTYLEMODE
290
     1
  9
$FINGERPRINTGUID
  2
{4546E222-D5E6-474D-81D1-E9D6FD6CACE9}
  9
$VERSIONGUID
  2
{FAEB1C32-E019-11D5-929B-00C0DF256EC4}
  9
$EXTNAMES
290
     1
  9
$PSVPSCALE
 40
0.0
  9
$OLESTARTUP
290
     0
  0
ENDSEC
  0
SECTION
  2
CLASSES
  0
CLASS
  1
ACDBDICTIONARYWDFLT
  2
AcDbDictionaryWithDefault
  3
ObjectDBX Classes
 90
        0
280
     0
281
     0
  0
CLASS
  1
VISUALSTYLE
  2
AcDbVisualStyle
  3
ObjectDBX Classes
 90
     4095
280
     0
281
     0
  0
CLASS
  1
MATERIAL
  2
AcDbMaterial
  3
ObjectDBX Classes
 90
     1153
280
     0
281
     0
  0
CLASS
  1
SCALE
  2
AcDbScale
  3
ObjectDBX Classes
 90
     1153
280
     0
281
     0
  0
CLASS
  1
TABLESTYLE
  2
AcDbTableStyle
  3
ObjectDBX Classes
 90
     4095
280
     0
281
     0
  0
CLASS
  1
MLEADERSTYLE
  2
AcDbMLeaderStyle
  3
ACDB_MLEADERSTYLE_CLASS
 90
     4095
280
     0
281
     0
  0
CLASS
  1
SUN
  2
AcDbSun
  3
SCENEOE
 90
     1153
280
     0
281
     0
  0
CLASS
  1
ACDBPLACEHOLDER
  2
AcDbPlaceHolder
  3
ObjectDBX Classes
 90
        0
280
     0
281
     0
  0
CLASS
  1
LAYOUT
  2
AcDbLayout
  3
ObjectDBX Classes
 90
        0
280
     0
281
     0
  0
ENDSEC
  0
SECTION
  2
TABLES
  0
TABLE
  2
VPORT
  5
8
330
0
100
AcDbSymbolTable
 70
     1
  0
VPORT
  5
29
330
8
100
AcDbSymbolTableRecord
100
AcDbViewportTableRecord
  2
*Active
 70
     0
 10
0.0
 20
0.0
 11
1.0
 21
1.0
 12
107.95
 22
69.85
 13
0.0
 23
0.0
 14
10.0
 24
10.0
 15
10.0
 25
10.0
 16
0.0
 26
0.0
 36
1.0
 17
0.0
 27
0.0
 37
0.0
 40
139.7
 41
1.5454545455
 42
50.0
 43
0.0
 44
0.0
 50
0.0
 51
0.0
 71
     0
 72
  2000
 73
     1
 74
     3
 75
     0
 76
     0
 77
     0
 78
     0
281
     0
 65
     1
110
0.0
120
0.0
130
0.0
111
1.0
121
0.0
131
0.0
112
0.0
122
1.0
132
0.0
 79
     0
146
0.0
  0
ENDTAB
  0
TABLE
  2
LTYPE
  5
5
330
0
100
AcDbSymbolTable
 70
     6
  0
LTYPE
  5
14
330
5
100
AcDbSymbolTableRecord
100
AcDbLinetypeTableRecord
  2
ByBlock
 70
     0
  3

 72
    65
 73
     0
 40
0.0
  0
LTYPE
  5
15
330
5
100
AcDbSymbolTableRecord
100
AcDbLinetypeTableRecord
  2
ByLayer
 70
     0
  3

 72
    65
 73
     0
 40
0.0
  0
LTYPE
  5
16
330
5
100
AcDbSymbolTableRecord
100
AcDbLinetypeTableRecord
  2
Continuous
 70
     0
  3
Solid line
 72
    65
 73
     0
 40
0.0
  0
LTYPE
  5
6E
330
5
100
AcDbSymbolTableRecord
100
AcDbLinetypeTableRecord
  2
HIDDEN
 70
     0
  3
Hidden __ __ __ __ __ __ __ __ __ __ __ __ __ __
 72
    65
 73
     2
 40
1.905
 49
1.27
 74
     0
 49
-0.635
 74
     0
  0
LTYPE
  5
6F
330
5
100
AcDbSymbolTableRecord
100
AcDbLinetypeTableRecord
  2
PHANTOM
 70
     0
  3
Phantom ______  __  __  ______  __  __  ______
 72
    65
 73
     6
 40
12.7
 49
6.35
 74
     0
 49
-1.27
 74
     0
 49
1.27
 74
     0
 49
-1.27
 74
     0
 49
1.27
 74
     0
 49
-1.27
 74
     0
  0
LTYPE
  5
70
330
5
100
AcDbSymbolTableRecord
100
AcDbLinetypeTableRecord
  2
CENTER
 70
     0
  3
Center ____ _ ____ _ ____ _ ____ _ ____ _ ____
 72
    65
 73
     4
 40
10.16
 49
6.35
 74
     0
 49
-1.27
 74
     0
 49
1.27
 74
     0
 49
-1.27
 74
     0
  0
LTYPE
  5
71
330
5
100
AcDbSymbolTableRecord
100
AcDbLinetypeTableRecord
  2
CENTERX2
 70
     0
  3
Center (2x) ________  __  ________  __  _____
 72
    65
 73
     4
 40
20.32
 49
12.7
 74
     0
 49
-2.54
 74
     0
 49
2.54
 74
     0
 49
-2.54
 74
     0
  0
LTYPE
  5
72
330
5
100
AcDbSymbolTableRecord
100
AcDbLinetypeTableRecord
  2
DOT2
 70
     0
  3
Dot (.5x) ........................................
 72
    65
 73
     2
 40
0.635
 49
0.0
 74
     0
 49
-0.635
 74
     0
  0
ENDTAB
  0
TABLE
  2
LAYER
  5
2
330
0
100
AcDbSymbolTable
 70
     1
  0
LAYER
  5
10
330
2
100
AcDbSymbolTableRecord
100
AcDbLayerTableRecord
  2
0
 70
     0
 62
     7
  6
Continuous
370
    -3
390
F
  0
ENDTAB
  0
TABLE
  2
STYLE
  5
3
330
0
100
AcDbSymbolTable
 70
     2
  0
STYLE
  5
11
330
3
100
AcDbSymbolTableRecord
100
AcDbTextStyleTableRecord
  2
Standard
 70
     0
 40
0.0
 41
1.0
 50
0.0
 71
     0
 42
1.75
  3
txt
  4
bigfont
  0
STYLE
  5
73
330
3
100
AcDbSymbolTableRecord
100
AcDbTextStyleTableRecord
  2
SLDTEXTSTYLE0
 70
     0
 40
0.0
 41
0.75
 50
0.0
 71
     0
 42
1.75
  3
TXT
  4
bigfont
  0
ENDTAB
  0
TABLE
  2
VIEW
  5
6
330
0
100
AcDbSymbolTable
 70
     0
  0
ENDTAB
  0
TABLE
  2
UCS
  5
7
330
0
100
AcDbSymbolTable
 70
     0
  0
ENDTAB
  0
TABLE
  2
APPID
  5
9
330
0
100
AcDbSymbolTable
 70
     1
  0
APPID
  5
12
330
9
100
AcDbSymbolTableRecord
100
AcDbRegAppTableRecord
  2
ACAD
 70
     0
  0
ENDTAB
  0
TABLE
  2
DIMSTYLE
  5
A
330
0
100
AcDbSymbolTable
 70
     1
100
AcDbDimStyleTable
  0
DIMSTYLE
105
27
330
A
100
AcDbSymbolTableRecord
100
AcDbDimStyleTableRecord
  2
ISO-25
 70
     0
 41
2.5
 42
0.625
 43
3.75
 44
1.25
 73
     0
 74
     0
 77
     1
 78
     8
140
2.5
141
2.5
143
0.0393700787
147
0.625
171
     3
172
     1
178
     0
271
     2
272
     2
274
     3
278
    44
283
     0
284
     8
340
11
  0
ENDTAB
  0
TABLE
  2
BLOCK_RECORD
  5
1
330
0
100
AcDbSymbolTable
 70
     2
  0
BLOCK_RECORD
  5
1F
330
1
100
AcDbSymbolTableRecord
100
AcDbBlockTableRecord
  2
*Model_Space
340
22
  0
BLOCK_RECORD
  5
1B
330
1
100
AcDbSymbolTableRecord
100
AcDbBlockTableRecord
  2
*Paper_Space
340
1E
  0
BLOCK_RECORD
  5
23
330
1
100
AcDbSymbolTableRecord
100
AcDbBlockTableRecord
  2
*Paper_Space0
340
26
  0
BLOCK_RECORD
  5
EF
330
1
100
AcDbSymbolTableRecord
100
AcDbBlockTableRecord
  2
SW_CENTERMARKSYMBOL_0
340
0
102
{BLKREFS
331
FA
102
}
  0
ENDTAB
  0
ENDSEC
  0
SECTION
  2
BLOCKS
  0
BLOCK
  5
20
330
1F
100
AcDbEntity
  8
0
100
AcDbBlockBegin
  2
*Model_Space
 70
     0
 10
0.0
 20
0.0
 30
0.0
  3
*Model_Space
  1

  0
ENDBLK
  5
21
330
1F
100
AcDbEntity
  8
0
100
AcDbBlockEnd
  0
BLOCK
  5
1C
330
1B
100
AcDbEntity
 67
     1
  8
0
100
AcDbBlockBegin
  2
*Paper_Space
 70
     0
 10
0.0
 20
0.0
 30
0.0
  3
*Paper_Space
  1

  0
ENDBLK
  5
1D
330
1B
100
AcDbEntity
 67
     1
  8
0
100
AcDbBlockEnd
  0
BLOCK
  5
24
330
23
100
AcDbEntity
  8
0
100
AcDbBlockBegin
  2
*Paper_Space0
 70
     0
 10
0.0
 20
0.0
 30
0.0
  3
*Paper_Space0
  1

  0
ENDBLK
  5
25
330
23
100
AcDbEntity
  8
0
100
AcDbBlockEnd
  0
BLOCK
  5
F0
330
EF
100
AcDbEntity
  8
0
100
AcDbBlockBegin
  2
SW_CENTERMARKSYMBOL_0
 70
     0
 10
0.0
 20
0.0
 30
0.0
  3
SW_CENTERMARKSYMBOL_0
  1

  0
LINE
  5
F2
330
EF
100
AcDbEntity
  8
0
  6
Continuous
 62
     0
370
    18
100
AcDbLine
 10
0.0
 20
0.0
 30
0.0
 11
0.0
 21
2.5
 31
0.0
  0
LINE
  5
F3
330
EF
100
AcDbEntity
  8
0
  6
Continuous
 62
     0
370
    18
100
AcDbLine
 10
0.0
 20
0.0
 30
0.0
 11
-2.5
 21
0.0
 31
0.0
  0
LINE
  5
F4
330
EF
100
AcDbEntity
  8
0
  6
Continuous
 62
     0
370
    18
100
AcDbLine
 10
0.0
 20
0.0
 30
0.0
 11
0.0
 21
-2.5
 31
0.0
  0
LINE
  5
F5
330
EF
100
AcDbEntity
  8
0
  6
Continuous
 62
     0
370
    18
100
AcDbLine
 10
0.0
 20
0.0
 30
0.0
 11
2.5
 21
0.0
 31
0.0
  0
LINE
  5
F6
330
EF
100
AcDbEntity
  8
0
  6
Continuous
 62
     0
370
    18
100
AcDbLine
 10
0.0
 20
5.0
 30
0.0
 11
0.0
 21
10.9921818182
 31
0.0
  0
LINE
  5
F7
330
EF
100
AcDbEntity
  8
0
  6
Continuous
 62
     0
370
    18
100
AcDbLine
 10
-5.0
 20
0.0
 30
0.0
 11
-10.9921818182
 21
0.0
 31
0.0
  0
LINE
  5
F8
330
EF
100
AcDbEntity
  8
0
  6
Continuous
 62
     0
370
    18
100
AcDbLine
 10
0.0
 20
-5.0
 30
0.0
 11
0.0
 21
-10.9921818182
 31
0.0
  0
LINE
  5
F9
330
EF
100
AcDbEntity
  8
0
  6
Continuous
 62
     0
370
    18
100
AcDbLine
 10
5.0
 20
0.0
 30
0.0
 11
10.9921818182
 21
0.0
 31
0.0
  0
ENDBLK
  5
F1
330
EF
100
AcDbEntity
  8
0
100
AcDbBlockEnd
  0
ENDSEC
  0
SECTION
  2
ENTITIES
  0
MTEXT
  5
74
330
1F
100
AcDbEntity
  8
0
  6
Continuous
 62
     7
370
     0
100
AcDbMText
 10
30.4970867546
 20
38.8977454155
 30
0.0
 40
3.7041666667
 41
0.0
 71
     1
 72
     1
  1
NP-7004
  7
SLDTEXTSTYLE0
 73
     1
 44
1.0
  0
LINE
  5
75
330
1F
100
AcDbEntity
  8
0
  6
Continuous
 62
     7
370
    25
100
AcDbLine
 10
25.9855626766
 20
26.8747840234
 30
0.0
 11
16.5516539285
 21
26.579974375
 31
0.0
  0
LINE
  5
76
330
1F
100
AcDbEntity
  8
0
  6
Continuous
 62
     7
370
    25
100
AcDbLine
 10
16.5516539285
 20
10.1852300354
 30
0.0
 11
25.9855626766
 21
9.890420387
 31
0.0
  0
LINE
  5
77
330
1F
100
AcDbEntity
  8
0
  6
Continuous
 62
     7
370
    25
100
AcDbLine
 10
25.9855626766
 20
9.890420387
 30
0.0
 11
27.4777444948
 21
11.3826022052
 31
0.0
  0
LINE
  5
78
330
1F
100
AcDbEntity
  8
0
  6
Continuous
 62
     7
370
    25
100
AcDbLine
 10
27.4777444948
 20
25.3826022052
 30
0.0
 11
25.9855626766
 21
26.8747840234
 31
0.0
  0
LINE
  5
79
330
1F
100
AcDbEntity
  8
0
  6
Continuous
 62
     7
370
    25
100
AcDbLine
 10
16.5516539285
 20
26.579974375
 30
0.0
 11
14.4777444948
 21
25.3826022052
 31
0.0
  0
LINE
  5
7A
330
1F
100
AcDbEntity
  8
0
  6
Continuous
 62
     7
370
    25
100
AcDbLine
 10
14.4777444948
 20
11.3826022052
 30
0.0
 11
16.5516539285
 21
10.1852300354
 31
0.0
  0
LINE
  5
7B
330
1F
100
AcDbEntity
  8
0
  6
Continuous
 62
     7
370
    25
100
AcDbLine
 10
34.2494457471
 20
11.4043034575
 30
0.0
 11
35.4777444948
 21
12.6326022052
 31
0.0
  0
LINE
  5
7C
330
1F
100
AcDbEntity
  8
0
  6
Continuous
 62
     7
370
    25
100
AcDbLine
 10
35.4777444948
 20
24.1326022052
 30
0.0
 11
34.2491842193
 21
25.3611624807
 31
0.0
  0
LINE
  5
7D
330
1F
100
AcDbEntity
  8
0
  6
Continuous
 62
     7
370
    25
100
AcDbLine
 10
35.4789944948
 20
18.9159608513
 30
0.0
 11
35.4777444948
 21
18.9159608513
 31
0.0
  0
LINE
  5
7E
330
1F
100
AcDbEntity
  8
0
  6
Continuous
 62
     7
370
    25
100
AcDbLine
 10
35.4789944948
 20
18.7671940304
 30
0.0
 11
35.4777444948
 21
18.7671940304
 31
0.0
  0
LINE
  5
7F
330
1F
100
AcDbEntity
  8
0
  6
Continuous
 62
     7
370
    25
100
AcDbLine
 10
35.4777444948
 20
17.5311388594
 30
0.0
 11
35.4789944948
 21
17.5311388594
 31
0.0
  0
LINE
  5
80
330
1F
100
AcDbEntity
  8
0
  6
Continuous
 62
     7
370
    25
100
AcDbLine
 10
35.4789944948
 20
18.3529864037
 30
0.0
 11
35.4777444948
 21
18.3529864037
 31
0.0
  0
LINE
  5
81
330
1F
100
AcDbEntity
  8
0
  6
Continuous
 62
     7
370
    25
100
AcDbLine
 10
35.4777444948
 20
17.6759608824
 30
0.0
 11
35.4789944948
 21
17.6759608824
 31
0.0
  0
LINE
  5
82
330
1F
100
AcDbEntity
  8
0
  6
Continuous
 62
     7
370
    25
100
AcDbLine
 10
35.4789944948
 20
18.4980132237
 30
0.0
 11
35.4777444948
 21
18.4980132237
 31
0.0
  0
LINE
  5
83
330
1F
100
AcDbEntity
  8
0
  6
Continuous
 62
     7
370
    25
100
AcDbLine
 10
35.4789944948
 20
19.7944168364
 30
0.0
 11
35.4777444948
 21
19.7944168364
 31
0.0
  0
LINE
  5
84
330
1F
100
AcDbEntity
  8
0
  6
Continuous
 62
     7
370
    25
100
AcDbLine
 10
35.4789944948
 20
19.6519806157
 30
0.0
 11
35.4777444948
 21
19.6519806157
 31
0.0
  0
LINE
  5
85
330
1F
100
AcDbEntity
  8
0
  6
Continuous
 62
     7
370
    25
100
AcDbLine
 10
35.4777444948
 20
18.4305319449
 30
0.0
 11
35.4789944948
 21
18.4305319449
 31
0.0
  0
LINE
  5
86
330
1F
100
AcDbEntity
  8
0
  6
Continuous
 62
     7
370
    25
100
AcDbLine
 10
35.4777444948
 20
18.5710067979
 30
0.0
 11
35.4789944948
 21
18.5710067979
 31
0.0
  0
LINE
  5
87
330
1F
100
AcDbEntity
  8
0
  6
Continuous
 62
     7
370
    25
100
AcDbLine
 10
35.4789944948
 20
18.1139297443
 30
0.0
 11
35.4777444948
 21
18.1139297443
 31
0.0
  0
LINE
  5
88
330
1F
100
AcDbEntity
  8
0
  6
Continuous
 62
     7
370
    25
100
AcDbLine
 10
35.4789944948
 20
18.2663318112
 30
0.0
 11
35.4777444948
 21
18.2663318112
 31
0.0
  0
LINE
  5
89
330
1F
100
AcDbEntity
  8
0
  6
Continuous
 62
     7
370
    25
100
AcDbLine
 10
25.9855626766
 20
26.8747840234
 30
0.0
 11
25.9855626766
 21
9.890420387
 31
0.0
  0
LINE
  5
8A
330
1F
100
AcDbEntity
  8
0
  6
Continuous
 62
     7
370
    25
100
AcDbLine
 10
16.5516539285
 20
10.1852300354
 30
0.0
 11
16.5516539285
 21
26.579974375
 31
0.0
  0
LINE
  5
8B
330
1F
100
AcDbEntity
  8
0
  6
Continuous
 62
     7
370
    25
100
AcDbLine
 10
27.4777444948
 20
25.1747526491
 30
0.0
 11
27.4777444948
 21
20.0757331355
 31
0.0
  0
LINE
  5
8C
330
1F
100
AcDbEntity
  8
0
  6
Continuous
 62
     7
370
    25
100
AcDbLine
 10
27.4777444948
 20
18.9736817261
 30
0.0
 11
27.4777444948
 21
17.7915226843
 31
0.0
  0
LINE
  5
8D
330
1F
100
AcDbEntity
  8
0
  6
Continuous
 62
     7
370
    25
100
AcDbLine
 10
27.4777444948
 20
16.6894712749
 30
0.0
 11
27.4777444948
 21
11.5904517613
 31
0.0
  0
LINE
  5
8E
330
1F
100
AcDbEntity
  8
0
  6
Continuous
 62
     7
370
    25
100
AcDbLine
 10
27.4777444948
 20
11.4076022052
 30
0.0
 11
27.4777444948
 21
11.3826022052
 31
0.0
  0
LINE
  5
8F
330
1F
100
AcDbEntity
  8
0
  6
Continuous
 62
     7
370
    25
100
AcDbLine
 10
27.4777444948
 20
25.3826022052
 30
0.0
 11
27.4777444948
 21
25.3576022052
 31
0.0
  0
LINE
  5
90
330
1F
100
AcDbEntity
  8
0
  6
Continuous
 62
     7
370
    25
100
AcDbLine
 10
14.4777444948
 20
11.3826022052
 30
0.0
 11
14.4777444948
 21
25.3826022052
 31
0.0
  0
LINE
  5
91
330
1F
100
AcDbEntity
  8
0
  6
Continuous
 62
     7
370
    25
100
AcDbLine
 10
27.4777444948
 20
16.6894712749
 30
0.0
 11
27.4777444948
 21
16.872320831
 31
0.0
  0
LINE
  5
92
330
1F
100
AcDbEntity
  8
0
  6
Continuous
 62
     7
370
    25
100
AcDbLine
 10
34.0911083944
 20
16.872320831
 30
0.0
 11
27.4777444948
 21
16.872320831
 31
0.0
  0
SPLINE
  5
93
330
1F
100
AcDbEntity
  8
0
  6
Continuous
 62
     7
370
    25
100
AcDbSpline
210
0.0
220
0.0
230
1.0
 70
     8
 71
     3
 72
    18
 73
    14
 74
     0
 42
0.000000001
 43
0.00000001
 40
0.0
 40
0.0
 40
0.0
 40
0.0
 40
0.2500000000000002
 40
0.2500000000000002
 40
0.3750000000000001
 40
0.3750000000000001
 40
0.5000000000000001
 40
0.5000000000000001
 40
0.6250000000000001
 40
0.6250000000000001
 40
0.75
 40
0.75
 40
1.0
 40
1.0
 40
1.0
 40
1.0
 10
34.09110839441595
 20
11.40760220518975
 30
0.0
 10
34.40956779998046
 20
11.82349349729508
 30
0.0
 10
34.68979152831545
 20
12.25326170968452
 30
0.0
 10
34.99918491693356
 20
12.9381784156419
 30
0.0
 10
35.08350533237209
 20
13.17543939222177
 30
0.0
 10
35.19673048387022
 20
13.64901295792351
 30
0.0
 10
35.2265841275379
 20
13.88684943321029
 30
0.0
 10
35.22883813341883
 20
14.36477614618282
 30
0.0
 10
35.20082459818652
 20
14.6064125892912
 30
0.0
 10
35.08979698578352
 20
15.08489257029948
 30
0.0
 10
35.00818334000839
 20
15.31840497572147
 30
0.0
 10
34.70221008494824
 20
16.00552676274288
 30
0.0
 10
34.41578208562883
 20
16.44831400750175
 30
0.0
 10
34.09110839441323
 20
16.87232083095477
 30
0.0
  0
LINE
  5
94
330
1F
100
AcDbEntity
  8
0
  6
Continuous
 62
     7
370
    25
100
AcDbLine
 10
27.4777444948
 20
11.4076022052
 30
0.0
 11
34.0911083944
 21
11.4076022052
 31
0.0
  0
LINE
  5
95
330
1F
100
AcDbEntity
  8
0
  6
Continuous
 62
     7
370
    25
100
AcDbLine
 10
27.4777444948
 20
11.4076022052
 30
0.0
 11
27.4777444948
 21
11.5904517613
 31
0.0
  0
SPLINE
  5
96
330
1F
100
AcDbEntity
  8
0
  6
Continuous
 62
     7
370
    25
100
AcDbSpline
210
0.0
220
0.0
230
1.0
 70
    24
 71
     3
 72
    10
 73
     6
 74
     0
 42
0.000000001
 43
0.00000001
 40
0.0
 40
0.0
 40
0.0
 40
0.0
 40
0.3531318276659461
 40
0.7568766999047697
 40
1.0
 40
1.0
 40
1.0
 40
1.0
 10
34.09110839441595
 20
11.40760220518975
 30
0.0
 10
34.12437279834361
 20
11.40760220518975
 30
0.0
 10
34.19566926696123
 20
11.40760220518975
 30
0.0
 10
34.2484065726566
 20
11.40760220518976
 30
0.0
 10
34.24676425804709
 20
11.40760220518975
 30
0.0
 10
34.24614699943903
 20
11.40760220518975
 30
0.0
  0
SPLINE
  5
97
330
1F
100
AcDbEntity
  8
0
  6
Continuous
 62
     7
370
    25
100
AcDbSpline
210
0.0
220
0.0
230
1.0
 70
     8
 71
     3
 72
    12
 73
     8
 74
     0
 42
0.000000001
 43
0.00000001
 40
0.0
 40
0.0
 40
0.0
 40
0.0
 40
0.5000000000000001
 40
0.5000000000000001
 40
0.7500000000000002
 40
0.7500000000000002
 40
1.0
 40
1.0
 40
1.0
 40
1.0
 10
34.09110839441644
 20
16.87232083095347
 30
0.0
 10
34.19704389778488
 20
17.37290512640262
 30
0.0
 10
34.25254950607241
 20
17.87538054047467
 30
0.0
 10
34.25284121196874
 20
18.63218030217721
 30
0.0
 10
34.23921269338916
 20
18.88495880823784
 30
0.0
 10
34.18465154685666
 20
19.39153416060848
 30
0.0
 10
34.14359241872396
 20
19.64487722182923
 30
0.0
 10
34.09110839441993
 20
19.89288357940949
 30
0.0
  0
SPLINE
  5
98
330
1F
100
AcDbEntity
  8
0
  6
Continuous
 62
     7
370
    25
100
AcDbSpline
210
0.0
220
0.0
230
1.0
 70
     8
 71
     3
 72
    18
 73
    14
 74
     0
 42
0.000000001
 43
0.00000001
 40
0.0
 40
0.0
 40
0.0
 40
0.0
 40
0.2499999999999998
 40
0.2499999999999998
 40
0.3749999999999998
 40
0.3749999999999998
 40
0.4999999999999999
 40
0.4999999999999999
 40
0.6249999999999999
 40
0.6249999999999999
 40
0.7499999999999999
 40
0.7499999999999999
 40
1.0
 40
1.0
 40
1.0
 40
1.0
 10
34.09110839441118
 20
19.89288357942209
 30
0.0
 10
34.40956779997665
 20
20.30877487152801
 30
0.0
 10
34.6897915283126
 20
20.73854308391805
 30
0.0
 10
34.999184916932
 20
21.42345978987639
 30
0.0
 10
35.08350533237095
 20
21.66072076645662
 30
0.0
 10
35.19673048386978
 20
22.13429433215919
 30
0.0
 10
35.22658412753772
 20
22.37213080744639
 30
0.0
 10
35.22883813341898
 20
22.85005752041976
 30
0.0
 10
35.20082459818674
 20
23.09169396352855
 30
0.0
 10
35.08979698578366
 20
23.57017394453771
 30
0.0
 10
35.00818334000838
 20
23.80368634996012
 30
0.0
 10
34.7022100849476
 20
24.49080813698274
 30
0.0
 10
34.41578208562751
 20
24.93359538174236
 30
0.0
 10
34.09110839441115
 20
25.35760220519606
 30
0.0
  0
SPLINE
  5
99
330
1F
100
AcDbEntity
  8
0
  6
Continuous
 62
     7
370
    25
100
AcDbSpline
210
0.0
220
0.0
230
1.0
 70
    24
 71
     3
 72
    10
 73
     6
 74
     0
 42
0.000000001
 43
0.00000001
 40
0.0
 40
0.0
 40
0.0
 40
0.0
 40
0.2272182708237213
 40
0.6468643926870102
 40
1.0
 40
1.0
 40
1.0
 40
1.0
 10
34.24562394383423
 20
25.35760220518975
 30
0.0
 10
34.24666667665108
 20
25.35760220518982
 30
0.0
 10
34.24963521755172
 20
25.35760220519002
 30
0.0
 10
34.19701388271543
 20
25.35760220518768
 30
0.0
 10
34.12432486396717
 20
25.35760220519342
 30
0.0
 10
34.09110839441113
 20
25.35760220519605
 30
0.0
  0
LINE
  5
9A
330
1F
100
AcDbEntity
  8
0
  6
Continuous
 62
     7
370
    25
100
AcDbLine
 10
35.4777444948
 20
24.1326022052
 30
0.0
 11
35.4777444948
 21
12.6326022052
 31
0.0
  0
LINE
  5
9B
330
1F
100
AcDbEntity
  8
0
  6
Continuous
 62
     7
370
    25
100
AcDbLine
 10
27.4777444948
 20
25.1747526491
 30
0.0
 11
27.4777444948
 21
25.3576022052
 31
0.0
  0
LINE
  5
9C
330
1F
100
AcDbEntity
  8
0
  6
Continuous
 62
     7
370
    25
100
AcDbLine
 10
34.0911083944
 20
25.3576022052
 30
0.0
 11
27.4777444948
 21
25.3576022052
 31
0.0
  0
LINE
  5
9D
330
1F
100
AcDbEntity
  8
0
  6
Continuous
 62
     7
370
    25
100
AcDbLine
 10
27.4777444948
 20
19.8928835794
 30
0.0
 11
34.0911083944
 21
19.8928835794
 31
0.0
  0
LINE
  5
9E
330
1F
100
AcDbEntity
  8
0
  6
Continuous
 62
     7
370
    25
100
AcDbLine
 10
27.4777444948
 20
19.8928835794
 30
0.0
 11
27.4777444948
 21
20.0757331355
 31
0.0
  0
LINE
  5
9F
330
1F
100
AcDbEntity
  8
0
  6
Continuous
 62
     7
370
    25
100
AcDbLine
 10
27.4777444948
 20
16.872320831
 30
0.0
 11
27.4777444948
 21
17.7915226843
 31
0.0
  0
LINE
  5
A0
330
1F
100
AcDbEntity
  8
0
  6
Continuous
 62
     7
370
    25
100
AcDbLine
 10
27.4777444948
 20
19.8928835794
 30
0.0
 11
27.4777444948
 21
18.9736817261
 31
0.0
  0
LINE
  5
A1
330
1F
100
AcDbEntity
  8
0
  6
Continuous
 62
     7
370
    18
100
AcDbLine
 10
25.9855626766
 20
10.9151779628
 30
0.0
 11
14.6751531582
 21
11.2686282602
 31
0.0
  0
LINE
  5
A2
330
1F
100
AcDbEntity
  8
0
  6
Continuous
 62
     7
370
    18
100
AcDbLine
 10
25.9855626766
 20
25.8500264476
 30
0.0
 11
14.6751531582
 21
25.4965761502
 31
0.0
  0
LINE
  5
A3
330
1F
100
AcDbEntity
  8
0
  6
CENTERX2
 62
     7
370
    18
100
AcDbLine
 10
37.5046828161
 20
18.3826022052
 30
0.0
 11
12.2665864923
 21
18.3826022052
 31
0.0
  0
SPLINE
  5
A4
330
1F
100
AcDbEntity
  8
0
  6
Continuous
 62
     7
370
    25
100
AcDbSpline
210
0.0
220
0.0
230
1.0
 70
     8
 71
     3
 72
    23
 73
    19
 74
     0
 42
0.000000001
 43
0.00000001
 40
0.0
 40
0.0
 40
0.0
 40
0.0
 40
0.0714340508655356
 40
0.1375891490131985
 40
0.1988671272749591
 40
0.2554435599219263
 40
0.3076933861665007
 40
0.3550325418254515
 40
0.3974487289008684
 40
0.4361373033546202
 40
0.5081119058244425
 40
0.5772270526050617
 40
0.6463348841943414
 40
0.7166178483288135
 40
0.7873525362986343
 40
0.8567329452643678
 40
0.9275818981340932
 40
1.0
 40
1.0
 40
1.0
 40
1.0
 10
54.37690692862758
 20
17.59413226978222
 30
0.0
 10
54.3855971255787
 20
17.6028743875927
 30
0.0
 10
54.40233531680227
 20
17.61971258360065
 30
0.0
 10
54.42529894609311
 20
17.64520796752395
 30
0.0
 10
54.44667110844286
 20
17.66870068362248
 30
0.0
 10
54.4648359863653
 20
17.69176353931878
 30
0.0
 10
54.48124831430558
 20
17.71314541921063
 30
0.0
 10
54.49466933031061
 20
17.73365726872687
 30
0.0
 10
54.50609496791814
 20
17.75266516369647
 30
0.0
 10
54.51755280233164
 20
17.77649382415796
 30
0.0
 10
54.52790179442336
 20
17.80585382449934
 30
0.0
 10
54.534740240926
 20
17.84162069053951
 30
0.0
 10
54.53559543689291
 20
17.8777421823999
 30
0.0
 10
54.53074590022653
 20
17.91381940299314
 30
0.0
 10
54.5204561593704
 20
17.94875104632478
 30
0.0
 10
54.50568049007526
 20
17.98214423486706
 30
0.0
 10
54.4853874970503
 20
18.01295553215886
 30
0.0
 10
54.46861712662736
 20
18.03114956137608
 30
0.0
 10
54.4601401017045
 20
18.04034621208991
 30
0.0
  0
LINE
  5
A5
330
1F
100
AcDbEntity
  8
0
  6
Continuous
 62
     7
370
    25
100
AcDbLine
 10
54.1969189479
 20
17.4189519813
 30
0.0
 11
54.3769069286
 21
17.5941322698
 31
0.0
  0
LINE
  5
A6
330
1F
100
AcDbEntity
  8
0
  6
Continuous
 62
     7
370
    25
100
AcDbLine
 10
54.0256449094
 20
17.961019289
 30
0.0
 11
53.8402482748
 21
17.7756226544
 31
0.0
  0
SPLINE
  5
A7
330
1F
100
AcDbEntity
  8
0
  6
Continuous
 62
     7
370
    25
100
AcDbSpline
210
0.0
220
0.0
230
1.0
 70
     8
 71
     3
 72
    23
 73
    19
 74
     0
 42
0.000000001
 43
0.00000001
 40
0.0
 40
0.0
 40
0.0
 40
0.0
 40
0.0726813284379039
 40
0.1434600890843438
 40
0.2141609783754209
 40
0.2866317423066645
 40
0.3582937434852108
 40
0.42744962705179
 40
0.4958614884323621
 40
0.5652405595167557
 40
0.6025654069960295
 40
0.6444912751488164
 40
0.6912842453022057
 40
0.7427916792484175
 40
0.7995856524042377
 40
0.8612748596826222
 40
0.928333039685004
 40
1.0
 40
1.0
 40
1.0
 40
1.0
 10
54.4601401017045
 20
18.04034621208991
 30
0.0
 10
54.45116569911882
 20
18.04866231883743
 30
0.0
 10
54.43345181548335
 20
18.06507684290399
 30
0.0
 10
54.40281458338824
 20
18.08428911994903
 30
0.0
 10
54.37005853943234
 20
18.09936974823448
 30
0.0
 10
54.33511428695898
 20
18.10893775272693
 30
0.0
 10
54.29958363875014
 20
18.11422893344193
 30
0.0
 10
54.26424865790144
 20
18.114094885222
 30
0.0
 10
54.2299161256371
 20
18.10781996044554
 30
0.0
 10
54.20187347128339
 20
18.09840452649564
 30
0.0
 10
54.17965059988464
 20
18.08696549404612
 30
0.0
 10
54.16119172892286
 20
18.07655927978827
 30
0.0
 10
54.14177884353182
 20
18.06316517376415
 30
0.0
 10
54.1210068088691
 20
18.04743000196471
 30
0.0
 10
54.09882199396457
 20
18.02943324974268
 30
0.0
 10
54.07530511131201
 20
18.00895786416448
 30
0.0
 10
54.05085279256061
 20
17.98579928887029
 30
0.0
 10
54.03423160232347
 20
17.96946022981372
 30
0.0
 10
54.02564490939681
 20
17.96101928901299
 30
0.0
  0
LINE
  5
A8
330
1F
100
AcDbEntity
  8
0
  6
Continuous
 62
     7
370
    25
100
AcDbLine
 10
53.8402482748
 20
17.7756226544
 30
0.0
 11
54.1969189479
 21
17.4189519813
 31
0.0
  0
LINE
  5
A9
330
1F
100
AcDbEntity
  8
0
  6
Continuous
 62
     7
370
    25
100
AcDbLine
 10
55.1166882531
 20
19.5911670547
 30
0.0
 11
54.8726978685
 21
19.8351574393
 31
0.0
  0
LINE
  5
AA
330
1F
100
AcDbEntity
  8
0
  6
Continuous
 62
     7
370
    25
100
AcDbLine
 10
55.2215560416
 20
19.6960348432
 30
0.0
 11
55.1166882531
 21
19.5911670547
 31
0.0
  0
LINE
  5
AB
330
1F
100
AcDbEntity
  8
0
  6
Continuous
 62
     7
370
    25
100
AcDbLine
 10
54.977565657
 20
19.9400252278
 30
0.0
 11
55.2215560416
 21
19.6960348432
 31
0.0
  0
LINE
  5
AC
330
1F
100
AcDbEntity
  8
0
  6
Continuous
 62
     7
370
    25
100
AcDbLine
 10
55.1046690223
 20
20.0671285932
 30
0.0
 11
54.977565657
 21
19.9400252278
 31
0.0
  0
LINE
  5
AD
330
1F
100
AcDbEntity
  8
0
  6
Continuous
 62
     7
370
    25
100
AcDbLine
 10
55.0040079647
 20
20.1677896508
 30
0.0
 11
55.1046690223
 21
20.0671285932
 31
0.0
  0
LINE
  5
AE
330
1F
100
AcDbEntity
  8
0
  6
Continuous
 62
     7
370
    25
100
AcDbLine
 10
54.8769045993
 20
20.0406862855
 30
0.0
 11
55.0040079647
 21
20.1677896508
 31
0.0
  0
LINE
  5
AF
330
1F
100
AcDbEntity
  8
0
  6
Continuous
 62
     7
370
    25
100
AcDbLine
 10
54.1452339262
 20
20.7723569585
 30
0.0
 11
54.8769045993
 21
20.0406862855
 31
0.0
  0
LINE
  5
B0
330
1F
100
AcDbEntity
  8
0
  6
Continuous
 62
     7
370
    25
100
AcDbLine
 10
54.1238997916
 20
20.7510228239
 30
0.0
 11
54.1452339262
 21
20.7723569585
 31
0.0
  0
LINE
  5
B1
330
1F
100
AcDbEntity
  8
0
  6
Continuous
 62
     7
370
    25
100
AcDbLine
 10
54.3711954647
 20
19.3336550355
 30
0.0
 11
54.1238997916
 21
20.7510228239
 31
0.0
  0
LINE
  5
B2
330
1F
100
AcDbEntity
  8
0
  6
Continuous
 62
     7
370
    25
100
AcDbLine
 10
54.8726978685
 20
19.8351574393
 30
0.0
 11
54.3711954647
 21
19.3336550355
 31
0.0
  0
LINE
  5
B3
330
1F
100
AcDbEntity
  8
0
  6
Continuous
 62
     7
370
    25
100
AcDbLine
 10
55.8061975344
 20
17.868489226
 30
0.0
 11
55.6992263806
 21
17.7615180722
 31
0.0
  0
LINE
  5
B4
330
1F
100
AcDbEntity
  8
0
  6
Continuous
 62
     7
370
    25
100
AcDbLine
 10
54.8584811883
 20
18.8162055722
 30
0.0
 11
55.8061975344
 21
17.868489226
 31
0.0
  0
LINE
  5
B5
330
1F
100
AcDbEntity
  8
0
  6
Continuous
 62
     7
370
    25
100
AcDbLine
 10
55.0925557075
 20
19.0502800914
 30
0.0
 11
54.8584811883
 21
18.8162055722
 31
0.0
  0
LINE
  5
B6
330
1F
100
AcDbEntity
  8
0
  6
Continuous
 62
     7
370
    25
100
AcDbLine
 10
54.990392246
 20
19.152443553
 30
0.0
 11
55.0925557075
 21
19.0502800914
 31
0.0
  0
LINE
  5
B7
330
1F
100
AcDbEntity
  8
0
  6
Continuous
 62
     7
370
    25
100
AcDbLine
 10
54.4143706114
 20
18.5764219183
 30
0.0
 11
54.990392246
 21
19.152443553
 31
0.0
  0
LINE
  5
B8
330
1F
100
AcDbEntity
  8
0
  6
Continuous
 62
     7
370
    25
100
AcDbLine
 10
54.5165340729
 20
18.4742584568
 30
0.0
 11
54.4143706114
 21
18.5764219183
 31
0.0
  0
LINE
  5
B9
330
1F
100
AcDbEntity
  8
0
  6
Continuous
 62
     7
370
    25
100
AcDbLine
 10
54.7515100344
 20
18.7092344183
 30
0.0
 11
54.5165340729
 21
18.4742584568
 31
0.0
  0
LINE
  5
BA
330
1F
100
AcDbEntity
  8
0
  6
Continuous
 62
     7
370
    25
100
AcDbLine
 10
55.6992263806
 20
17.7615180722
 30
0.0
 11
54.7515100344
 21
18.7092344183
 31
0.0
  0
LINE
  5
BB
330
1F
100
AcDbEntity
  8
0
  6
Continuous
 62
     7
370
    25
100
AcDbLine
 10
54.2996833709
 20
17.3161875582
 30
0.0
 11
54.7879646209
 21
16.8279063082
 31
0.0
  0
LINE
  5
BC
330
1F
100
AcDbEntity
  8
0
  6
Continuous
 62
     7
370
    25
100
AcDbLine
 10
54.3745030825
 20
17.3910072698
 30
0.0
 11
54.2996833709
 21
17.3161875582
 31
0.0
  0
SPLINE
  5
BD
330
1F
100
AcDbEntity
  8
0
  6
Continuous
 62
     7
370
    25
100
AcDbSpline
210
0.0
220
0.0
230
1.0
 70
     8
 71
     3
 72
    15
 73
    11
 74
     0
 42
0.000000001
 43
0.00000001
 40
0.0
 40
0.0
 40
0.0
 40
0.0
 40
0.0753901858551262
 40
0.1649443888154755
 40
0.2680434861778919
 40
0.3855477860922087
 40
0.5179661541666718
 40
0.6643098712270732
 40
0.8251607063646664
 40
1.0
 40
1.0
 40
1.0
 40
1.0
 10
54.62450308247374
 20
17.67526207747453
 30
0.0
 10
54.61925812208978
 20
17.66730608725281
 30
0.0
 10
54.60778279841097
 20
17.64989936607739
 30
0.0
 10
54.58765214317743
 20
17.62262367649029
 30
0.0
 10
54.56268967501606
 20
17.59239141633299
 30
0.0
 10
54.53396169989855
 20
17.55824655116836
 30
0.0
 10
54.50016847872494
 20
17.52127031571957
 30
0.0
 10
54.46232889741371
 20
17.48058575659417
 30
0.0
 10
54.41992385702441
 20
17.43683684834615
 30
0.0
 10
54.39005818231763
 20
17.40670237136113
 30
0.0
 10
54.37450308247374
 20
17.39100726978222
 30
0.0
  0
SPLINE
  5
BE
330
1F
100
AcDbEntity
  8
0
  6
Continuous
 62
     7
370
    25
100
AcDbSpline
210
0.0
220
0.0
230
1.0
 70
     8
 71
     3
 72
    23
 73
    19
 74
     0
 42
0.000000001
 43
0.00000001
 40
0.0
 40
0.0
 40
0.0
 40
0.0
 40
0.0695844114809412
 40
0.1366237229743221
 40
0.2019334138781217
 40
0.2643611311562475
 40
0.3254530953890702
 40
0.3856538430923491
 40
0.4452848548136245
 40
0.50492709013969
 40
0.5646141987799761
 40
0.6236473059504292
 40
0.6836364314990075
 40
0.7438816365130284
 40
0.8048337486793982
 40
0.8682164437659133
 40
0.9329082916196967
 40
1.0
 40
1.0
 40
1.0
 40
1.0
 10
54.56861365939681
 20
18.14881976978222
 30
0.0
 10
54.57695540537652
 20
18.14012112145062
 30
0.0
 10
54.59333379196623
 20
18.12304198411777
 30
0.0
 10
54.61534316103182
 20
18.09582505534193
 30
0.0
 10
54.63460223487457
 20
18.06809434978625
 30
0.0
 10
54.65062529663224
 20
18.03954466073976
 30
0.0
 10
54.66391938126221
 20
18.01061205851082
 30
0.0
 10
54.67455165072352
 20
17.98109931245795
 30
0.0
 10
54.68211541550918
 20
17.95090112119167
 30
0.0
 10
54.6865329809244
 20
17.92018867121473
 30
0.0
 10
54.68836156138212
 20
17.88932473242492
 30
0.0
 10
54.68743193286943
 20
17.85835801686766
 30
0.0
 10
54.68384325911305
 20
17.82748850551481
 30
0.0
 10
54.67748558783257
 20
17.79673181873712
 30
0.0
 10
54.66840056524583
 20
17.76604606887726
 30
0.0
 10
54.65626633938221
 20
17.73562115988635
 30
0.0
 10
54.6418912277075
 20
17.70500021016354
 30
0.0
 10
54.63036907275443
 20
17.68529440668357
 30
0.0
 10
54.62450308247374
 20
17.67526207747453
 30
0.0
  0
SPLINE
  5
BF
330
1F
100
AcDbEntity
  8
0
  6
Continuous
 62
     7
370
    25
100
AcDbSpline
210
0.0
220
0.0
230
1.0
 70
     8
 71
     3
 72
    23
 73
    19
 74
     0
 42
0.000000001
 43
0.00000001
 40
0.0
 40
0.0
 40
0.0
 40
0.0
 40
0.0631120667195007
 40
0.1246204889042282
 40
0.1854063864272504
 40
0.2452855145665087
 40
0.3045096995741357
 40
0.3641375552122477
 40
0.4246759440160569
 40
0.4858777714932492
 40
0.5476102484119828
 40
0.6086002211440633
 40
0.6704667414166822
 40
0.7330433104550824
 40
0.7964418486351543
 40
0.8616201805525383
 40
0.9293334730091428
 40
1.0
 40
1.0
 40
1.0
 40
1.0
 10
54.10076510170451
 20
18.20861544285914
 30
0.0
 10
54.1101052906332
 20
18.21396484726278
 30
0.0
 10
54.12854833918562
 20
18.22452773050808
 30
0.0
 10
54.15729033031392
 20
18.23778786775572
 30
0.0
 10
54.18643583209908
 20
18.24859116554524
 30
0.0
 10
54.21593081368163
 20
18.25710868323138
 30
0.0
 10
54.24589801027024
 20
18.26291554524493
 30
0.0
 10
54.27638292122349
 20
18.26569884582553
 30
0.0
 10
54.30731229287355
 20
18.26680623567001
 30
0.0
 10
54.3385776331494
 20
18.26491310625494
 30
0.0
 10
54.36966750778335
 20
18.26051793283978
 30
0.0
 10
54.40028940873619
 20
18.25311964494723
 30
0.0
 10
54.43043859526699
 20
18.24342967421531
 30
0.0
 10
54.45956782882405
 20
18.2299706501831
 30
0.0
 10
54.48797024785488
 20
18.21393474576923
 30
0.0
 10
54.51574226153136
 20
18.19520467109619
 30
0.0
 10
54.54291551004736
 20
18.17353489380352
 30
0.0
 10
54.5599265955205
 20
18.15717452942519
 30
0.0
 10
54.56861365939681
 20
18.14881976978222
 30
0.0
  0
SPLINE
  5
C0
330
1F
100
AcDbEntity
  8
0
  6
Continuous
 62
     7
370
    25
100
AcDbSpline
210
0.0
220
0.0
230
1.0
 70
     8
 71
     3
 72
    15
 73
    11
 74
     0
 42
0.000000001
 43
0.00000001
 40
0.0
 40
0.0
 40
0.0
 40
0.0
 40
0.1771214341944272
 40
0.338855584180858
 40
0.485818835850185
 40
0.6186783670831186
 40
0.7356853745542107
 40
0.8381870473681521
 40
0.9261641814985228
 40
0.9999999999999999
 40
0.9999999999999999
 40
0.9999999999999999
 40
0.9999999999999999
 10
53.84235164016604
 20
17.98205294285914
 30
0.0
 10
53.8567056760801
 20
17.99644657773001
 30
0.0
 10
53.88416675241529
 20
18.02398341185084
 30
0.0
 10
53.92462468983185
 20
18.0623498329783
 30
0.0
 10
53.96155560843771
 20
18.09704829419476
 30
0.0
 10
53.99530713755163
 20
18.12762495376647
 30
0.0
 10
54.02599192201724
 20
18.15398331744172
 30
0.0
 10
54.05371842049694
 20
18.17580612639767
 30
0.0
 10
54.07785831729844
 20
18.19421769844097
 30
0.0
 10
54.09358772001173
 20
18.2041041982701
 30
0.0
 10
54.10076510170451
 20
18.20861544285914
 30
0.0
  0
LINE
  5
C1
330
1F
100
AcDbEntity
  8
0
  6
Continuous
 62
     7
370
    25
100
AcDbLine
 10
53.6332170248
 20
17.7729183275
 30
0.0
 11
53.8423516402
 21
17.9820529429
 31
0.0
  0
LINE
  5
C2
330
1F
100
AcDbEntity
  8
0
  6
Continuous
 62
     7
370
    25
100
AcDbLine
 10
54.6830968325
 20
16.7230385198
 30
0.0
 11
53.6332170248
 21
17.7729183275
 31
0.0
  0
LINE
  5
C3
330
1F
100
AcDbEntity
  8
0
  6
Continuous
 62
     7
370
    25
100
AcDbLine
 10
54.7879646209
 20
16.8279063082
 30
0.0
 11
54.6830968325
 21
16.7230385198
 31
0.0
  0
CIRCLE
  5
C4
330
1F
100
AcDbEntity
  8
0
  6
Continuous
 62
     7
370
    25
100
AcDbCircle
 10
54.3607836455
 20
18.3826022052
 30
0.0
 40
5.75
  0
SPLINE
  5
C5
330
1F
100
AcDbEntity
  8
0
  6
Continuous
 62
     7
370
    25
100
AcDbSpline
210
0.0
220
0.0
230
1.0
 70
     8
 71
     3
 72
    19
 73
    15
 74
     0
 42
0.000000001
 43
0.00000001
 40
0.0
 40
0.0
 40
0.0
 40
0.0
 40
0.1057289484176121
 40
0.2069129705617966
 40
0.305557993241363
 40
0.4022404034576855
 40
0.4942954987103589
 40
0.5780610980893164
 40
0.6557675958613727
 40
0.7279268856081794
 40
0.7976084712980799
 40
0.8651260054669643
 40
0.9319580036291375
 40
1.0
 40
1.0
 40
1.0
 40
1.0
 10
52.66734139488321
 20
18.28341537251821
 30
0.0
 10
52.67879658495927
 20
18.29552832180135
 30
0.0
 10
52.70121454562628
 20
18.31923352606136
 30
0.0
 10
52.73029482494876
 20
18.35774831594616
 30
0.0
 10
52.75449155878962
 20
18.39782672565097
 30
0.0
 10
52.77349074392666
 20
18.43902194213121
 30
0.0
 10
52.78773154425696
 20
18.47962817532996
 30
0.0
 10
52.79608070820566
 20
18.5188181176618
 30
0.0
 10
52.79875280227736
 20
18.55567997922647
 30
0.0
 10
52.79545411019072
 20
18.59030436105908
 30
0.0
 10
52.7867644420016
 20
18.62224742836884
 30
0.0
 10
52.77458703375438
 20
18.6521097435978
 30
0.0
 10
52.7575296786917
 20
18.6793146501939
 30
0.0
 10
52.74312032340402
 20
18.69498238088179
 30
0.0
 10
52.73585101026783
 20
18.70288652636437
 30
0.0
  0
LINE
  5
C6
330
1F
100
AcDbEntity
  8
0
  6
Continuous
 62
     7
370
    25
100
AcDbLine
 10
52.763495241
 20
18.1872615264
 30
0.0
 11
52.6673413949
 21
18.2834153725
 31
0.0
  0
SPLINE
  5
C7
330
1F
100
AcDbEntity
  8
0
  6
Continuous
 62
     7
370
    25
100
AcDbSpline
210
0.0
220
0.0
230
1.0
 70
     8
 71
     3
 72
    23
 73
    19
 74
     0
 42
0.000000001
 43
0.00000001
 40
0.0
 40
0.0
 40
0.0
 40
0.0
 40
0.0703488477789896
 40
0.139628080233595
 40
0.2103430788637842
 40
0.2826861933598407
 40
0.3554925770820694
 40
0.4270637206804205
 40
0.4988235429721526
 40
0.5723889365327269
 40
0.6113453637448515
 40
0.6543900516773974
 40
0.7012892835300569
 40
0.7519446404334635
 40
0.8074317301970527
 40
0.8672605470112177
 40
0.931092779498862
 40
1.0
 40
1.0
 40
1.0
 40
1.0
 10
53.30045437565244
 20
18.2656870071336
 30
0.0
 10
53.28989225950139
 20
18.27531836851395
 30
0.0
 10
53.26892861833404
 20
18.29443465175144
 30
0.0
 10
53.23280455468461
 20
18.31759833646797
 30
0.0
 10
53.19320778515795
 20
18.33496183275796
 30
0.0
 10
53.1509236629492
 20
18.34685478277013
 30
0.0
 10
53.10727297177874
 20
18.3533018491711
 30
0.0
 10
53.06327224493801
 20
18.3531786396866
 30
0.0
 10
53.019507801311
 20
18.34726956001203
 30
0.0
 10
52.98353959796965
 20
18.33651321003818
 30
0.0
 10
52.95431608968214
 20
18.32453012564536
 30
0.0
 10
52.93092299534737
 20
18.31276374935784
 30
0.0
 10
52.90637556691138
 20
18.29820190230672
 30
0.0
 10
52.880291777367
 20
18.28132296709494
 30
0.0
 10
52.85316064008812
 20
18.26134717738872
 30
0.0
 10
52.82434233805588
 20
18.23918842966836
 30
0.0
 10
52.79408012677305
 20
18.21444882129067
 30
0.0
 10
52.77394678694623
 20
18.19655203879333
 30
0.0
 10
52.76349524103706
 20
18.18726152636437
 30
0.0
  0
SPLINE
  5
C8
330
1F
100
AcDbEntity
  8
0
  6
Continuous
 62
     7
370
    25
100
AcDbSpline
210
0.0
220
0.0
230
1.0
 70
     8
 71
     3
 72
    23
 73
    19
 74
     0
 42
0.000000001
 43
0.00000001
 40
0.0
 40
0.0
 40
0.0
 40
0.0
 40
0.0730680158386374
 40
0.1430722448992375
 40
0.2104157717152759
 40
0.2758231607745295
 40
0.338739629807794
 40
0.4018415148770468
 40
0.464698535264879
 40
0.5278596385078609
 40
0.5904135880675629
 40
0.651199405364936
 40
0.7101059465004965
 40
0.7678237372418046
 40
0.8250128290906081
 40
0.8820655679442739
 40
0.9403393445630305
 40
1.0
 40
1.0
 40
1.0
 40
1.0
 10
53.27671639488321
 20
17.78401633405668
 30
0.0
 10
53.28581908496008
 20
17.79346677598773
 30
0.0
 10
53.30364278372856
 20
17.81197139701577
 30
0.0
 10
53.32666857061896
 20
17.84197625564234
 30
0.0
 10
53.34679027859649
 20
17.87233447138756
 30
0.0
 10
53.36303275016672
 20
17.90354600656625
 30
0.0
 10
53.37556051400436
 20
17.93560426748405
 30
0.0
 10
53.38446534494603
 20
17.96835324579864
 30
0.0
 10
53.39045711155202
 20
18.00183755437153
 30
0.0
 10
53.39191872443135
 20
18.03571308730553
 30
0.0
 10
53.39087599443994
 20
18.06919927048131
 30
0.0
 10
53.38659427154153
 20
18.101670666491
 30
0.0
 10
53.3797898845713
 20
18.13281766945493
 30
0.0
 10
53.36982894899737
 20
18.16244604983116
 30
0.0
 10
53.35680585553973
 20
18.190485861039
 30
0.0
 10
53.34101854082023
 20
18.21715948784832
 30
0.0
 10
53.32245391263312
 20
18.24259055447713
 30
0.0
 10
53.30784482104205
 20
18.25792806783405
 30
0.0
 10
53.30045437565244
 20
18.2656870071336
 30
0.0
  0
SPLINE
  5
C9
330
1F
100
AcDbEntity
  8
0
  6
Continuous
 62
     7
370
    25
100
AcDbSpline
210
0.0
220
0.0
230
1.0
 70
     8
 71
     3
 72
    15
 73
    11
 74
     0
 42
0.000000001
 43
0.00000001
 40
0.0
 40
0.0
 40
0.0
 40
0.0
 40
0.1203457795138441
 40
0.2388232513984639
 40
0.3594485260350544
 40
0.4804570524015699
 40
0.602883493191465
 40
0.7310108502422924
 40
0.8625425629612502
 40
1.0
 40
1.0
 40
1.0
 40
1.0
 10
53.05345918334476
 20
17.67614373790283
 30
0.0
 10
53.06359956957499
 20
17.67705638922275
 30
0.0
 10
53.08372291764523
 20
17.67886752341038
 30
0.0
 10
53.11357987970015
 20
17.68495614906082
 30
0.0
 10
53.14259251344433
 20
17.69436149855344
 30
0.0
 10
53.17095509029883
 20
17.70642166076804
 30
0.0
 10
53.19867942114478
 20
17.72131289442351
 30
0.0
 10
53.22550520859357
 20
17.73938461518621
 30
0.0
 10
53.25192600489913
 20
17.76018716881963
 30
0.0
 10
53.26833245568653
 20
17.77595747445086
 30
0.0
 10
53.27671639488321
 20
17.78401633405668
 30
0.0
  0
SPLINE
  5
CA
330
1F
100
AcDbEntity
  8
0
  6
Continuous
 62
     7
370
    25
100
AcDbSpline
210
0.0
220
0.0
230
1.0
 70
     8
 71
     3
 72
    15
 73
    11
 74
     0
 42
0.000000001
 43
0.00000001
 40
0.0
 40
0.0
 40
0.0
 40
0.0
 40
0.1516443853000921
 40
0.2942091114866407
 40
0.4291745983467759
 40
0.556575911727435
 40
0.6762246047064512
 40
0.7899405813610038
 40
0.897088535276769
 40
1.0
 40
1.0
 40
1.0
 40
1.0
 10
52.82779812565244
 20
17.7461557571336
 30
0.0
 10
52.83836164190892
 20
17.7402456449288
 30
0.0
 10
52.85885618726147
 20
17.72877928659896
 30
0.0
 10
52.88963319843271
 20
17.71371356153031
 30
0.0
 10
52.91933503339449
 20
17.70092008449778
 30
0.0
 10
52.94821352850995
 20
17.69106552299933
 30
0.0
 10
52.97599242662886
 20
17.6834187712846
 30
0.0
 10
53.00269397073561
 20
17.67821476191316
 30
0.0
 10
53.02846953344486
 20
17.67566214636929
 30
0.0
 10
53.04524205641431
 20
17.6759853803918
 30
0.0
 10
53.05345918334476
 20
17.67614373790283
 30
0.0
  0
LINE
  5
CB
330
1F
100
AcDbEntity
  8
0
  6
Continuous
 62
     7
370
    25
100
AcDbLine
 10
52.7250337026
 20
17.6433913341
 30
0.0
 11
52.8277981257
 21
17.7461557571
 31
0.0
  0
SPLINE
  5
CC
330
1F
100
AcDbEntity
  8
0
  6
Continuous
 62
     7
370
    25
100
AcDbSpline
210
0.0
220
0.0
230
1.0
 70
     8
 71
     3
 72
    23
 73
    19
 74
     0
 42
0.000000001
 43
0.00000001
 40
0.0
 40
0.0
 40
0.0
 40
0.0
 40
0.0651136382987997
 40
0.1282185933053529
 40
0.1894734259769019
 40
0.2489956462554719
 40
0.3072701941117207
 40
0.3652120214271439
 40
0.423058650276389
 40
0.4816341671326471
 40
0.5406263849922192
 40
0.6002014930275462
 40
0.6609241575761039
 40
0.7233279014169866
 40
0.7879045943012336
 40
0.8556533482834988
 40
0.9258587867477687
 40
1.0
 40
1.0
 40
1.0
 40
1.0
 10
53.37737745257552
 20
17.68035046867206
 30
0.0
 10
53.36612326288724
 20
17.66955044265051
 30
0.0
 10
53.34396206274047
 20
17.64828355939342
 30
0.0
 10
53.30839309348908
 20
17.62000313135167
 30
0.0
 10
53.27169244731201
 20
17.59558539366806
 30
0.0
 10
53.23399990505022
 20
17.57503691920895
 30
0.0
 10
53.19530976584869
 20
17.55830992542011
 30
0.0
 10
53.15549401263188
 20
17.54578104212565
 30
0.0
 10
53.11470693230108
 20
17.53660929536068
 30
0.0
 10
53.07294072792075
 20
17.5314956503591
 30
0.0
 10
53.03046244564207
 20
17.53061483102283
 30
0.0
 10
52.98759404377695
 20
17.53396430213743
 30
0.0
 10
52.94444219358795
 20
17.54155396568139
 30
0.0
 10
52.90102653500919
 20
17.55339533710853
 30
0.0
 10
52.85717475569057
 20
17.56942501091098
 30
0.0
 10
52.81322158052097
 20
17.59001490634235
 30
0.0
 10
52.76860332923766
 20
17.61438897147101
 30
0.0
 10
52.7398185281865
 20
17.6335497332447
 30
0.0
 10
52.72503370257552
 20
17.64339133405668
 30
0.0
  0
SPLINE
  5
CD
330
1F
100
AcDbEntity
  8
0
  6
Continuous
 62
     7
370
    25
100
AcDbSpline
210
0.0
220
0.0
230
1.0
 70
     8
 71
     3
 72
    19
 73
    15
 74
     0
 42
0.000000001
 43
0.00000001
 40
0.0
 40
0.0
 40
0.0
 40
0.0
 40
0.080576436103305
 40
0.160371490665394
 40
0.2414880191094218
 40
0.3250087558576584
 40
0.4089616532479635
 40
0.4906870084144028
 40
0.5725768746389615
 40
0.6557926854219235
 40
0.7398417121155405
 40
0.8240764552485729
 40
0.9104351150664252
 40
1.0
 40
1.0
 40
1.0
 40
1.0
 10
53.39510581796014
 20
18.37776633405668
 30
0.0
 10
53.40927757177357
 20
18.36240616946404
 30
0.0
 10
53.43748365030365
 20
18.33183479386449
 30
0.0
 10
53.47190739688487
 20
18.27926875646277
 30
0.0
 10
53.49938430234872
 20
18.22205743761409
 30
0.0
 10
53.51959209625566
 20
18.16074509473054
 30
0.0
 10
53.53234676118439
 20
18.09729064889022
 30
0.0
 10
53.53606955149983
 20
18.03304620579134
 30
0.0
 10
53.53048051203476
 20
17.96915021903084
 30
0.0
 10
53.51631025994659
 20
17.90600221317121
 30
0.0
 10
53.49374493545255
 20
17.84468432530281
 30
0.0
 10
53.4630116613538
 20
17.78614765997326
 30
0.0
 10
53.42438848724061
 20
17.73063210790256
 30
0.0
 10
53.39323704357684
 20
17.697313427236
 30
0.0
 10
53.37737745257552
 20
17.68035046867206
 30
0.0
  0
SPLINE
  5
CE
330
1F
100
AcDbEntity
  8
0
  6
Continuous
 62
     7
370
    25
100
AcDbSpline
210
0.0
220
0.0
230
1.0
 70
     8
 71
     3
 72
    15
 73
    11
 74
     0
 42
0.000000001
 43
0.00000001
 40
0.0
 40
0.0
 40
0.0
 40
0.0
 40
0.1308828194382181
 40
0.258259665309488
 40
0.3832751894435328
 40
0.5061956902646068
 40
0.6278103920359801
 40
0.7505216511654043
 40
0.8741562318766931
 40
1.0
 40
1.0
 40
1.0
 40
1.0
 10
53.13969716411398
 20
18.4961557571336
 30
0.0
 10
53.15214670569601
 20
18.49464968544391
 30
0.0
 10
53.17671230151702
 20
18.49167788538506
 30
0.0
 10
53.2126550181657
 20
18.48385855930519
 30
0.0
 10
53.24690251111846
 20
18.47284287686136
 30
0.0
 10
53.27989206600224
 20
18.45986463809976
 30
0.0
 10
53.31096754105351
 20
18.44326946203799
 30
0.0
 10
53.340863228897
 20
18.42452454671973
 30
0.0
 10
53.36885025972026
 20
18.40232968874662
 30
0.0
 10
53.38630245084213
 20
18.38600231315907
 30
0.0
 10
53.39510581796014
 20
18.37776633405668
 30
0.0
  0
SPLINE
  5
CF
330
1F
100
AcDbEntity
  8
0
  6
Continuous
 62
     7
370
    25
100
AcDbSpline
210
0.0
220
0.0
230
1.0
 70
     8
 71
     3
 72
    11
 73
     7
 74
     0
 42
0.000000001
 43
0.00000001
 40
0.0
 40
0.0
 40
0.0
 40
0.0
 40
0.2579472690479108
 40
0.5087322070443625
 40
0.754103268007024
 40
1.0
 40
1.0
 40
1.0
 40
1.0
 10
52.92575485642168
 20
18.46190094944129
 30
0.0
 10
52.94334616461884
 20
18.46863412556415
 30
0.0
 10
52.97804032934861
 20
18.48191352007778
 30
0.0
 10
53.03183886422162
 20
18.49427965490643
 30
0.0
 10
53.08595103149562
 20
18.49932106654822
 30
0.0
 10
53.12176901114292
 20
18.49721161266443
 30
0.0
 10
53.13969716411398
 20
18.4961557571336
 30
0.0
  0
SPLINE
  5
D0
330
1F
100
AcDbEntity
  8
0
  6
Continuous
 62
     7
370
    25
100
AcDbSpline
210
0.0
220
0.0
230
1.0
 70
     8
 71
     3
 72
    15
 73
    11
 74
     0
 42
0.000000001
 43
0.00000001
 40
0.0
 40
0.0
 40
0.0
 40
0.0
 40
0.12421961787181
 40
0.2437921031270657
 40
0.3610694411538696
 40
0.4785415562187783
 40
0.5994738985980935
 40
0.7254247600032049
 40
0.8584023739957897
 40
1.0
 40
1.0
 40
1.0
 40
1.0
 10
52.84582697180629
 20
18.81166056482591
 30
0.0
 10
52.85649060708869
 20
18.80022574242586
 30
0.0
 10
52.87741894447227
 20
18.77778388139334
 30
0.0
 10
52.9024741973569
 20
18.73968712376439
 30
0.0
 10
52.92167841236274
 20
18.69936314489753
 30
0.0
 10
52.93475711252132
 20
18.656425562257
 30
0.0
 10
52.94146657419811
 20
18.61098818407692
 30
0.0
 10
52.94271754295004
 20
18.56314487513083
 30
0.0
 10
52.93740716805495
 20
18.51292445091728
 30
0.0
 10
52.92971941009522
 20
18.47926105931305
 30
0.0
 10
52.92575485642168
 20
18.46190094944129
 30
0.0
  0
SPLINE
  5
D1
330
1F
100
AcDbEntity
  8
0
  6
Continuous
 62
     7
370
    25
100
AcDbSpline
210
0.0
220
0.0
230
1.0
 70
     8
 71
     3
 72
    19
 73
    15
 74
     0
 42
0.000000001
 43
0.00000001
 40
0.0
 40
0.0
 40
0.0
 40
0.0
 40
0.0895929914958808
 40
0.1777045492777579
 40
0.2648796628961914
 40
0.3531465390832668
 40
0.4405958711776069
 40
0.5246598301314999
 40
0.6068103143079139
 40
0.6891287180192627
 40
0.7700431083273499
 40
0.8475352562635293
 40
0.9237274558445454
 40
1.0
 40
1.0
 40
1.0
 40
1.0
 10
52.27250966411398
 20
18.78101152636437
 30
0.0
 10
52.28644510645171
 20
18.79397157820439
 30
0.0
 10
52.31408556647282
 20
18.81967738546002
 30
0.0
 10
52.36033987689537
 20
18.85201460760499
 30
0.0
 10
52.41021905446001
 20
18.87761235889226
 30
0.0
 10
52.46250921583055
 20
18.89742923919926
 30
0.0
 10
52.51618809620832
 20
18.91059762688872
 30
0.0
 10
52.56981711843477
 20
18.9169024885479
 30
0.0
 10
52.62273809711086
 20
18.91534522097113
 30
0.0
 10
52.67419557846592
 20
18.90650140495367
 30
0.0
 10
52.72329869567017
 20
18.89179339391144
 30
0.0
 10
52.76851017092159
 20
18.87066105368103
 30
0.0
 10
52.81013306317572
 20
18.84470547594087
 30
0.0
 10
52.83392482306964
 20
18.8226794042349
 30
0.0
 10
52.84582697180629
 20
18.81166056482591
 30
0.0
  0
SPLINE
  5
D2
330
1F
100
AcDbEntity
  8
0
  6
Continuous
 62
     7
370
    25
100
AcDbSpline
210
0.0
220
0.0
230
1.0
 70
     8
 71
     3
 72
    23
 73
    19
 74
     0
 42
0.000000001
 43
0.00000001
 40
0.0
 40
0.0
 40
0.0
 40
0.0
 40
0.0731350659025822
 40
0.1433188428756373
 40
0.210650139990688
 40
0.2762700695936492
 40
0.3395547839766537
 40
0.4016838389936606
 40
0.462858893462666
 40
0.5234847455120769
 40
0.5835961311287838
 40
0.6426304656932164
 40
0.7011635571821346
 40
0.7595409545756663
 40
0.8177915440987422
 40
0.8770624362120503
 40
0.9375567908908979
 40
1.0
 40
1.0
 40
1.0
 40
1.0
 10
52.2346490871909
 20
18.20348748790283
 30
0.0
 10
52.22659317601459
 20
18.21657555972288
 30
0.0
 10
52.21080644151384
 20
18.24222354794268
 30
0.0
 10
52.19172477928183
 20
18.28217446330907
 30
0.0
 10
52.17453718135226
 20
18.32126129651292
 30
0.0
 10
52.16231576041728
 20
18.36066834565534
 30
0.0
 10
52.15249642464723
 20
18.39961746418201
 30
0.0
 10
52.14747345030623
 20
18.43852990706172
 30
0.0
 10
52.14465117340626
 20
18.47709390348163
 30
0.0
 10
52.14638052527
 20
18.51533205213568
 30
0.0
 10
52.15117972281215
 20
18.55280329539984
 30
0.0
 10
52.15889879255688
 20
18.58936276979322
 30
0.0
 10
52.17015322584113
 20
18.62460918998219
 30
0.0
 10
52.18424742904411
 20
18.65862671350988
 30
0.0
 10
52.20148097094717
 20
18.69136706165313
 30
0.0
 10
52.22210136910854
 20
18.72259099817936
 30
0.0
 10
52.24550407543173
 20
18.7529407989322
 30
0.0
 10
52.26341316723976
 20
18.77155625074166
 30
0.0
 10
52.27250966411398
 20
18.78101152636437
 30
0.0
  0
LINE
  5
D3
330
1F
100
AcDbEntity
  8
0
  6
Continuous
 62
     7
370
    25
100
AcDbLine
 10
52.3419207218
 20
18.3107591225
 30
0.0
 11
52.2346490872
 21
18.2034874879
 31
0.0
  0
SPLINE
  5
D4
330
1F
100
AcDbEntity
  8
0
  6
Continuous
 62
     7
370
    25
100
AcDbSpline
210
0.0
220
0.0
230
1.0
 70
     8
 71
     3
 72
    19
 73
    15
 74
     0
 42
0.000000001
 43
0.00000001
 40
0.0
 40
0.0
 40
0.0
 40
0.0
 40
0.1167675801713198
 40
0.2280775627199397
 40
0.3372206510249982
 40
0.4461255525158016
 40
0.5021574110359225
 40
0.5618439075693563
 40
0.6241640260185536
 40
0.6909917051104404
 40
0.7609854225273329
 40
0.836248065124775
 40
0.9153845753823187
 40
0.9999999999999999
 40
0.9999999999999999
 40
0.9999999999999999
 40
0.9999999999999999
 10
52.37467312565244
 20
18.67884806482591
 30
0.0
 10
52.36417081443978
 20
18.66744013491877
 30
0.0
 10
52.34365705933075
 20
18.64515747011504
 30
0.0
 10
52.31986109466986
 20
18.60695181032672
 30
0.0
 10
52.30352849124279
 20
18.56626970723049
 30
0.0
 10
52.29567857761141
 20
18.53054426178837
 30
0.0
 10
52.29387593570506
 20
18.50078764255911
 30
0.0
 10
52.29401559479482
 20
18.47715072568276
 30
0.0
 10
52.29695255489435
 20
18.45224592893036
 30
0.0
 10
52.30181551950259
 20
18.42628707653138
 30
0.0
 10
52.30841472704952
 20
18.39893297235095
 30
0.0
 10
52.31750316630012
 20
18.37058266206084
 30
0.0
 10
52.32871817822212
 20
18.34093006288682
 30
0.0
 10
52.33742279247416
 20
18.32103795680472
 30
0.0
 10
52.34192072180629
 20
18.31075912251821
 30
0.0
  0
SPLINE
  5
D5
330
1F
100
AcDbEntity
  8
0
  6
Continuous
 62
     7
370
    25
100
AcDbSpline
210
0.0
220
0.0
230
1.0
 70
     8
 71
     3
 72
    23
 73
    19
 74
     0
 42
0.000000001
 43
0.00000001
 40
0.0
 40
0.0
 40
0.0
 40
0.0
 40
0.0591437275897559
 40
0.1167150890705871
 40
0.1741558975962605
 40
0.2309492319425771
 40
0.28873752626371
 40
0.3472383681560689
 40
0.4086788038810793
 40
0.4720661100984869
 40
0.5364760336796572
 40
0.6002438377181529
 40
0.6632439347766351
 40
0.7270901793882615
 40
0.7924599631338878
 40
0.8592686518663304
 40
0.9282156920095006
 40
1.0
 40
1.0
 40
1.0
 40
1.0
 10
52.73585101026783
 20
18.70288652636437
 30
0.0
 10
52.73003695737164
 20
18.7083042389725
 30
0.0
 10
52.71856342113553
 20
18.71899563154082
 30
0.0
 10
52.69978010005423
 20
18.73304474340324
 30
0.0
 10
52.67962165475934
 20
18.7443934774217
 30
0.0
 10
52.65833558179938
 20
18.75347037815746
 30
0.0
 10
52.63610841244679
 20
18.76044467790553
 30
0.0
 10
52.61261282039009
 20
18.76489487893002
 30
0.0
 10
52.58807471903224
 20
18.76732524715991
 30
0.0
 10
52.56261835490362
 20
18.76726514608429
 30
0.0
 10
52.53695961713819
 20
18.76491003355573
 30
0.0
 10
52.51170201270196
 20
18.76009626346438
 30
0.0
 10
52.48706421220665
 20
18.75292245496214
 30
0.0
 10
52.46332407593536
 20
18.74268779462454
 30
0.0
 10
52.43975474387049
 20
18.73088996833246
 30
0.0
 10
52.41712853163769
 20
18.71601166364471
 30
0.0
 10
52.39550261761812
 20
18.69836965797079
 30
0.0
 10
52.38170898688648
 20
18.68544213925946
 30
0.0
 10
52.37467312565244
 20
18.67884806482591
 30
0.0
  0
SPLINE
  5
D6
330
1F
100
AcDbEntity
  8
0
  6
Continuous
 62
     7
370
    25
100
AcDbSpline
210
0.0
220
0.0
230
1.0
 70
     8
 71
     3
 72
    31
 73
    27
 74
     0
 42
0.000000001
 43
0.00000001
 40
0.0
 40
0.0
 40
0.0
 40
0.0
 40
0.0340625437668023
 40
0.0673138855976699
 40
0.1002986917293197
 40
0.1328915753415363
 40
0.1654542126705892
 40
0.1984564401369067
 40
0.2315592824902879
 40
0.2655034986764517
 40
0.2998732210996858
 40
0.3348750234665335
 40
0.3704365550514275
 40
0.4070493254137256
 40
0.444649056291662
 40
0.4836382628524705
 40
0.524053508423317
 40
0.5661466743313504
 40
0.6102573304114862
 40
0.6569339262658019
 40
0.7066268298851165
 40
0.7589305312314925
 40
0.814297716023405
 40
0.8730747594856018
 40
0.9349497890039754
 40
1.0
 40
1.0
 40
1.0
 40
1.0
 10
53.07016175901067
 20
19.66250334533781
 30
0.0
 10
53.07873379576085
 20
19.67077805705779
 30
0.0
 10
53.09567372558794
 20
19.68713041764148
 30
0.0
 10
53.12339170381522
 20
19.70867235796074
 30
0.0
 10
53.15178091822696
 20
19.72840252220342
 30
0.0
 10
53.18174397821259
 20
19.74519955684121
 30
0.0
 10
53.21284054764572
 20
19.75977406222232
 30
0.0
 10
53.24525080051455
 20
19.77167490184099
 30
0.0
 10
53.27886965605881
 20
19.78140217518594
 30
0.0
 10
53.31362115211987
 20
19.78860901290256
 30
0.0
 10
53.34948787045476
 20
19.79304441652376
 30
0.0
 10
53.38616225641542
 20
19.7950488294323
 30
0.0
 10
53.42362317353672
 20
19.79324577556404
 30
0.0
 10
53.46180998380996
 20
19.78919710754247
 30
0.0
 10
53.50069449878525
 20
19.78171150079963
 30
0.0
 10
53.54045743780794
 20
19.77201167149213
 30
0.0
 10
53.58073450397819
 20
19.75843596948394
 30
0.0
 10
53.62206566107797
 20
19.74258193018186
 30
0.0
 10
53.6643828656963
 20
19.72333652214688
 30
0.0
 10
53.70744938456382
 20
19.69966264959644
 30
0.0
 10
53.75141554477549
 20
19.6719249901292
 30
0.0
 10
53.79669562511996
 20
19.64065921144551
 30
0.0
 10
53.84267800069541
 20
19.60497370372878
 30
0.0
 10
53.88973082742866
 20
19.56531740021687
 30
0.0
 10
53.93787194383781
 20
19.52174909647156
 30
0.0
 10
53.96951125851814
 20
19.49064431587279
 30
0.0
 10
53.98572666285681
 20
19.47470286456858
 30
0.0
  0
SPLINE
  5
D7
330
1F
100
AcDbEntity
  8
0
  6
Continuous
 62
     7
370
    25
100
AcDbSpline
210
0.0
220
0.0
230
1.0
 70
     8
 71
     3
 72
    31
 73
    27
 74
     0
 42
0.000000001
 43
0.00000001
 40
0.0
 40
0.0
 40
0.0
 40
0.0
 40
0.0685392375563685
 40
0.1330574173017168
 40
0.193631077183116
 40
0.2505306821562904
 40
0.3036142074401768
 40
0.3534609049693049
 40
0.399580090816491
 40
0.4424160216489261
 40
0.4830723824124631
 40
0.5220229044503065
 40
0.5599473210514606
 40
0.5966633013156785
 40
0.6323728579706366
 40
0.6673061936474429
 40
0.7019513182513509
 40
0.735941787389277
 40
0.7694887228848919
 40
0.8027329281118958
 40
0.8353134843410184
 40
0.8678314089480395
 40
0.9002481012228697
 40
0.9330513656415885
 40
0.9661186419532682
 40
1.0
 40
1.0
 40
1.0
 40
1.0
 10
53.26908002824143
 20
18.75805622995319
 30
0.0
 10
53.25233727183992
 20
18.77497184550778
 30
0.0
 10
53.21983402253744
 20
18.80781067182112
 30
0.0
 10
53.17444497803471
 20
18.85743585964764
 30
0.0
 10
53.13346492847622
 20
18.90555733543155
 30
0.0
 10
53.09683230078912
 20
18.95210452484133
 30
0.0
 10
53.06408316793378
 20
18.996933604595
 30
0.0
 10
53.03589342424588
 20
19.04036630563511
 30
0.0
 10
53.01188284200934
 20
19.08219374879311
 30
0.0
 10
52.99246291963181
 20
19.12284406778926
 30
0.0
 10
52.97691041618874
 20
19.16243653077917
 30
0.0
 10
52.96378730603592
 20
19.20109848645936
 30
0.0
 10
52.95351762202668
 20
19.23921147097448
 30
0.0
 10
52.94621725277766
 20
19.27686677466072
 30
0.0
 10
52.94207654255725
 20
19.3139443762597
 30
0.0
 10
52.94041198532399
 20
19.35050323866879
 30
0.0
 10
52.94200821251412
 20
19.38647105374089
 30
0.0
 10
52.94614894294872
 20
19.42174467235357
 30
0.0
 10
52.95316233463322
 20
19.45606614426885
 30
0.0
 10
52.9623884046444
 20
19.48934021622921
 30
0.0
 10
52.97409676943845
 20
19.52147305560105
 30
0.0
 10
52.98872458251827
 20
19.5520429414472
 30
0.0
 10
53.00513947797273
 20
19.58179282606345
 30
0.0
 10
53.02459812891913
 20
19.60986998721142
 30
0.0
 10
53.04583242803801
 20
19.63729182844352
 30
0.0
 10
53.06198650525869
 20
19.65403165541281
 30
0.0
 10
53.07016175901067
 20
19.66250334533781
 30
0.0
  0
SPLINE
  5
D8
330
1F
100
AcDbEntity
  8
0
  6
Continuous
 62
     7
370
    25
100
AcDbSpline
210
0.0
220
0.0
230
1.0
 70
     8
 71
     3
 72
    31
 73
    27
 74
     0
 42
0.000000001
 43
0.00000001
 40
0.0
 40
0.0
 40
0.0
 40
0.0
 40
0.0339161406116254
 40
0.0667911467684395
 40
0.0996280869823199
 40
0.1318265592299254
 40
0.1643778667025712
 40
0.1967210286892328
 40
0.2297213409237039
 40
0.2630197127526298
 40
0.2967583839686782
 40
0.3311505724363447
 40
0.3661197706371222
 40
0.4018997925665817
 40
0.438653465415743
 40
0.47654316710372
 40
0.5160815487196686
 40
0.557154884445724
 40
0.6004200138433164
 40
0.6470895029678522
 40
0.6968308887516991
 40
0.75003477146513
 40
0.8069927895101677
 40
0.8674089097323783
 40
0.9317987325696279
 40
0.9999999999999999
 40
0.9999999999999999
 40
0.9999999999999999
 40
0.9999999999999999
 10
54.17292618208759
 20
18.55973892226088
 30
0.0
 10
54.16444065759613
 20
18.55158148979235
 30
0.0
 10
54.1477300914322
 20
18.53551703613003
 30
0.0
 10
54.1205781769895
 20
18.51406436757661
 30
0.0
 10
54.0925504445344
 20
18.49482793815209
 30
0.0
 10
54.06302133256651
 20
18.47820405765614
 30
0.0
 10
54.03256299381253
 20
18.46375605989927
 30
0.0
 10
54.00067489114343
 20
18.45195240693237
 30
0.0
 10
53.96769159616169
 20
18.44274297697848
 30
0.0
 10
53.93367259346142
 20
18.43572715035876
 30
0.0
 10
53.898696826699
 20
18.43157748722744
 30
0.0
 10
53.86293227394523
 20
18.43001523647068
 30
0.0
 10
53.82644772607077
 20
18.43155545922954
 30
0.0
 10
53.78941273709388
 20
18.43618424193658
 30
0.0
 10
53.75177853537456
 20
18.44343810078791
 30
0.0
 10
53.71341480585586
 20
18.45339869941446
 30
0.0
 10
53.67438777921679
 20
18.46638419197604
 30
0.0
 10
53.63446075241536
 20
18.48234708129649
 30
0.0
 10
53.59353790814473
 20
18.5021808497973
 30
0.0
 10
53.55124862752163
 20
18.5258848057314
 30
0.0
 10
53.50763700142451
 20
18.55406432270712
 30
0.0
 10
53.46247265847224
 20
18.58629160975049
 30
0.0
 10
53.41600970629365
 20
18.6229656030774
 30
0.0
 10
53.36824520503453
 20
18.66413107084963
 30
0.0
 10
53.31852384964452
 20
18.70898900693145
 30
0.0
 10
53.28587414991495
 20
18.74139002393949
 30
0.0
 10
53.26908002824143
 20
18.75805622995319
 30
0.0
  0
SPLINE
  5
D9
330
1F
100
AcDbEntity
  8
0
  6
Continuous
 62
     7
370
    25
100
AcDbSpline
210
0.0
220
0.0
230
1.0
 70
     8
 71
     3
 72
    31
 73
    27
 74
     0
 42
0.000000001
 43
0.00000001
 40
0.0
 40
0.0
 40
0.0
 40
0.0
 40
0.0650931380611512
 40
0.1266039765373226
 40
0.1850158110860341
 40
0.2401927525856705
 40
0.2926948785080097
 40
0.3417823620468381
 40
0.388238232793063
 40
0.4321173744957395
 40
0.4739710174663261
 40
0.5141406009624558
 40
0.5528774178269759
 40
0.5905019610163778
 40
0.6271388923883595
 40
0.6630104030816908
 40
0.6983217028166657
 40
0.7329986161773792
 40
0.7672460775099881
 40
0.8006463810336941
 40
0.8339394285304621
 40
0.8667836833964285
 40
0.8993980752684351
 40
0.9326416935233396
 40
0.9659149781349369
 40
1.0
 40
1.0
 40
1.0
 40
1.0
 10
53.98572666285681
 20
19.47470286456858
 30
0.0
 10
54.00166844308593
 20
19.45848791507277
 30
0.0
 10
54.03267467247054
 20
19.42695038060036
 30
0.0
 10
54.07605493571594
 20
19.37901847816116
 30
0.0
 10
54.11539138761623
 20
19.33217060619113
 30
0.0
 10
54.15113766153312
 20
19.28644988844049
 30
0.0
 10
54.18253858679262
 20
19.24155716207407
 30
0.0
 10
54.21011653617182
 20
19.19778985673518
 30
0.0
 10
54.23376102068897
 20
19.15516922026583
 30
0.0
 10
54.25299880951651
 20
19.11314622012035
 30
0.0
 10
54.26885772640925
 20
19.07211671850196
 30
0.0
 10
54.28242737009129
 20
19.03213966959882
 30
0.0
 10
54.29217298929899
 20
18.99258462081036
 30
0.0
 10
54.29961373144027
 20
18.95378979868872
 30
0.0
 10
54.30368437746002
 20
18.91550494825686
 30
0.0
 10
54.30546888905191
 20
18.87784253056118
 30
0.0
 10
54.30346767833941
 20
18.84086905361588
 30
0.0
 10
54.29903205652704
 20
18.80470244892948
 30
0.0
 10
54.29182359388422
 20
18.76965231199244
 30
0.0
 10
54.28210261765175
 20
18.73573041499294
 30
0.0
 10
54.27018369214343
 20
18.70303154477317
 30
0.0
 10
54.25571345718926
 20
18.67167583629577
 30
0.0
 10
54.23872381051677
 20
18.64162591052095
 30
0.0
 10
54.21919832892065
 20
18.61299925774107
 30
0.0
 10
54.1975398130149
 20
18.58525991083555
 30
0.0
 10
54.1811963774967
 20
18.56831399040785
 30
0.0
 10
54.17292618208759
 20
18.55973892226088
 30
0.0
  0
SPLINE
  5
DA
330
1F
100
AcDbEntity
  8
0
  6
Continuous
 62
     7
370
    25
100
AcDbSpline
210
0.0
220
0.0
230
1.0
 70
    24
 71
     3
 72
    12
 73
     8
 74
     0
 42
0.000000001
 43
0.00000001
 40
0.0
 40
0.0
 40
0.0
 40
0.0
 40
0.5
 40
0.5
 40
0.75
 40
0.75
 40
1.0
 40
1.0
 40
1.0
 40
1.0
 10
55.87106501973202
 20
11.40760220518975
 30
0.0
 10
55.3704807242797
 20
11.40760220518975
 30
0.0
 10
54.86800531020447
 20
11.40760220518976
 30
0.0
 10
54.11120554849709
 20
11.40760220518975
 30
0.0
 10
53.85842704243485
 20
11.40760220518975
 30
0.0
 10
53.35185169006097
 20
11.40760220518975
 30
0.0
 10
53.09850862883881
 20
11.40760220518975
 30
0.0
 10
52.85050227125717
 20
11.40760220518975
 30
0.0
  0
SPLINE
  5
DB
330
1F
100
AcDbEntity
  8
0
  6
Continuous
 62
     7
370
    25
100
AcDbSpline
210
0.0
220
0.0
230
1.0
 70
    24
 71
     3
 72
    18
 73
    14
 74
     0
 42
0.000000001
 43
0.00000001
 40
0.0
 40
0.0
 40
0.0
 40
0.0
 40
0.2500000000000002
 40
0.2500000000000002
 40
0.3750000000000001
 40
0.3750000000000001
 40
0.5000000000000001
 40
0.5000000000000001
 40
0.6250000000000001
 40
0.6250000000000001
 40
0.75
 40
0.75
 40
1.0
 40
1.0
 40
1.0
 40
1.0
 10
52.85050227125717
 20
11.40760220518975
 30
0.0
 10
52.43461097915184
 20
11.82349349729508
 30
0.0
 10
52.00484276676241
 20
12.25326170968452
 30
0.0
 10
51.31992606080502
 20
12.9381784156419
 30
0.0
 10
51.08266508422516
 20
13.17543939222177
 30
0.0
 10
50.60909151852342
 20
13.64901295792351
 30
0.0
 10
50.37125504323663
 20
13.88684943321029
 30
0.0
 10
49.8933283302641
 20
14.36477614618282
 30
0.0
 10
49.65169188715573
 20
14.6064125892912
 30
0.0
 10
49.17321190614744
 20
15.08489257029948
 30
0.0
 10
48.93969950072545
 20
15.31840497572147
 30
0.0
 10
48.25257771370404
 20
16.00552676274288
 30
0.0
 10
47.80979046894517
 20
16.44831400750175
 30
0.0
 10
47.38578364549215
 20
16.87232083095477
 30
0.0
  0
SPLINE
  5
DC
330
1F
100
AcDbEntity
  8
0
  6
Continuous
 62
     7
370
    25
100
AcDbSpline
210
0.0
220
0.0
230
1.0
 70
    24
 71
     3
 72
    12
 73
     8
 74
     0
 42
0.000000001
 43
0.00000001
 40
0.0
 40
0.0
 40
0.0
 40
0.0
 40
0.5000000000000001
 40
0.5000000000000001
 40
0.7500000000000002
 40
0.7500000000000002
 40
1.0
 40
1.0
 40
1.0
 40
1.0
 10
47.38578364549574
 20
16.87232083095347
 30
0.0
 10
47.38578364549574
 20
17.37290512640262
 30
0.0
 10
47.38578364549574
 20
17.87538054047467
 30
0.0
 10
47.38578364549574
 20
18.63218030217721
 30
0.0
 10
47.38578364549574
 20
18.88495880823784
 30
0.0
 10
47.38578364549574
 20
19.39153416060848
 30
0.0
 10
47.38578364549574
 20
19.64487722182923
 30
0.0
 10
47.38578364549574
 20
19.89288357940949
 30
0.0
  0
SPLINE
  5
DD
330
1F
100
AcDbEntity
  8
0
  6
Continuous
 62
     7
370
    25
100
AcDbSpline
210
0.0
220
0.0
230
1.0
 70
    24
 71
     3
 72
    18
 73
    14
 74
     0
 42
0.000000001
 43
0.00000001
 40
0.0
 40
0.0
 40
0.0
 40
0.0
 40
0.2499999999999998
 40
0.2499999999999998
 40
0.3749999999999998
 40
0.3749999999999998
 40
0.4999999999999999
 40
0.4999999999999999
 40
0.6249999999999999
 40
0.6249999999999999
 40
0.7499999999999999
 40
0.7499999999999999
 40
1.0
 40
1.0
 40
1.0
 40
1.0
 10
47.38578364548951
 20
19.89288357942209
 30
0.0
 10
47.80167493759544
 20
20.30877487152801
 30
0.0
 10
48.23144314998547
 20
20.73854308391805
 30
0.0
 10
48.91635985594381
 20
21.42345978987639
 30
0.0
 10
49.15362083252405
 20
21.66072076645662
 30
0.0
 10
49.62719439822661
 20
22.13429433215919
 30
0.0
 10
49.86503087351381
 20
22.37213080744639
 30
0.0
 10
50.34295758648718
 20
22.85005752041976
 30
0.0
 10
50.58459402959598
 20
23.09169396352855
 30
0.0
 10
51.06307401060513
 20
23.57017394453771
 30
0.0
 10
51.29658641602754
 20
23.80368634996012
 30
0.0
 10
51.98370820305016
 20
24.49080813698274
 30
0.0
 10
52.42649544780978
 20
24.93359538174236
 30
0.0
 10
52.85050227126348
 20
25.35760220519606
 30
0.0
  0
SPLINE
  5
DE
330
1F
100
AcDbEntity
  8
0
  6
Continuous
 62
     7
370
    25
100
AcDbSpline
210
0.0
220
0.0
230
1.0
 70
    24
 71
     3
 72
    12
 73
     8
 74
     0
 42
0.000000001
 43
0.00000001
 40
0.0
 40
0.0
 40
0.0
 40
0.0
 40
0.5
 40
0.5
 40
0.75
 40
0.75
 40
1.0
 40
1.0
 40
1.0
 40
1.0
 10
55.87106501972327
 20
25.35760220518975
 30
0.0
 10
55.37048072427293
 20
25.35760220518975
 30
0.0
 10
54.86800531020009
 20
25.35760220518975
 30
0.0
 10
54.11120554849605
 20
25.35760220518975
 30
0.0
 10
53.85842704243491
 20
25.35760220518975
 30
0.0
 10
53.35185169006326
 20
25.35760220518975
 30
0.0
 10
53.0985086288422
 20
25.35760220518975
 30
0.0
 10
52.8505022712616
 20
25.35760220518975
 30
0.0
  0
SPLINE
  5
DF
330
1F
100
AcDbEntity
  8
0
  6
Continuous
 62
     7
370
    25
100
AcDbSpline
210
0.0
220
0.0
230
1.0
 70
    24
 71
     3
 72
    18
 73
    14
 74
     0
 42
0.000000001
 43
0.00000001
 40
0.0
 40
0.0
 40
0.0
 40
0.0
 40
0.2499999999999999
 40
0.2499999999999999
 40
0.3749999999999999
 40
0.3749999999999999
 40
0.5
 40
0.5
 40
0.6250000000000001
 40
0.6250000000000001
 40
0.75
 40
0.75
 40
1.0
 40
1.0
 40
1.0
 40
1.0
 10
55.87106501973065
 20
25.35760220519341
 30
0.0
 10
56.28695631183645
 20
24.94171091308762
 30
0.0
 10
56.71672452422634
 20
24.51194270069772
 30
0.0
 10
57.4016412301845
 20
23.82702599473958
 30
0.0
 10
57.63890220676465
 20
23.58976501815942
 30
0.0
 10
58.11247577246699
 20
23.11619145245707
 30
0.0
 10
58.35031224775408
 20
22.87835497716998
 30
0.0
 10
58.82823896072724
 20
22.40042826419683
 30
0.0
 10
59.06987540383593
 20
22.15879182108813
 30
0.0
 10
59.54835538484483
 20
21.68031184007924
 30
0.0
 10
59.78186779026711
 20
21.44679943465696
 30
0.0
 10
60.46898957728936
 20
20.7596776476347
 30
0.0
 10
60.91177682204876
 20
20.3168904028753
 30
0.0
 10
61.33578364550225
 20
19.89288357942181
 30
0.0
  0
SPLINE
  5
E0
330
1F
100
AcDbEntity
  8
0
  6
Continuous
 62
     7
370
    25
100
AcDbSpline
210
0.0
220
0.0
230
1.0
 70
    24
 71
     3
 72
    12
 73
     8
 74
     0
 42
0.000000001
 43
0.00000001
 40
0.0
 40
0.0
 40
0.0
 40
0.0
 40
0.5
 40
0.5
 40
0.75
 40
0.75
 40
1.0
 40
1.0
 40
1.0
 40
1.0
 10
61.33578364549575
 20
16.87232083096223
 30
0.0
 10
61.33578364549575
 20
17.37290512641254
 30
0.0
 10
61.33578364549574
 20
17.87538054048536
 30
0.0
 10
61.33578364549574
 20
18.63218030218937
 30
0.0
 10
61.33578364549575
 20
18.88495880825049
 30
0.0
 10
61.33578364549575
 20
19.39153416062211
 30
0.0
 10
61.33578364549575
 20
19.64487722184317
 30
0.0
 10
61.33578364549575
 20
19.89288357942375
 30
0.0
  0
SPLINE
  5
E1
330
1F
100
AcDbEntity
  8
0
  6
Continuous
 62
     7
370
    25
100
AcDbSpline
210
0.0
220
0.0
230
1.0
 70
    24
 71
     3
 72
    18
 73
    14
 74
     0
 42
0.000000001
 43
0.00000001
 40
0.0
 40
0.0
 40
0.0
 40
0.0
 40
0.2499999999999997
 40
0.2499999999999997
 40
0.3749999999999997
 40
0.3749999999999997
 40
0.4999999999999997
 40
0.4999999999999997
 40
0.6249999999999997
 40
0.6249999999999997
 40
0.7499999999999996
 40
0.7499999999999996
 40
1.0
 40
1.0
 40
1.0
 40
1.0
 10
55.87106501973074
 20
11.40760220518618
 30
0.0
 10
56.28695631183626
 20
11.82349349729171
 30
0.0
 10
56.7167245242259
 20
12.25326170968134
 30
0.0
 10
57.40164123018357
 20
12.93817841563901
 30
0.0
 10
57.63890220676356
 20
13.175439392219
 30
0.0
 10
58.11247577246561
 20
13.64901295792105
 30
0.0
 10
58.35031224775255
 20
13.88684943320799
 30
0.0
 10
58.82823896072539
 20
14.36477614618084
 30
0.0
 10
59.06987540383391
 20
14.60641258928935
 30
0.0
 10
59.54835538484257
 20
15.08489257029802
 30
0.0
 10
59.78186779026475
 20
15.31840497572019
 30
0.0
 10
60.46898957728667
 20
16.00552676274211
 30
0.0
 10
60.91177682204587
 20
16.44831400750131
 30
0.0
 10
61.33578364549917
 20
16.87232083095462
 30
0.0
  0
SPLINE
  5
E2
330
1F
100
AcDbEntity
  8
0
  6
Continuous
 62
     7
370
    25
100
AcDbSpline
210
0.0
220
0.0
230
1.0
 70
     8
 71
     3
 72
    15
 73
    11
 74
     0
 42
0.000000001
 43
0.00000001
 40
0.0
 40
0.0
 40
0.0
 40
0.0
 40
0.1099847056450849
 40
0.2240098420297774
 40
0.3417046373339413
 40
0.4641704618794936
 40
0.5906562692884738
 40
0.7222624860498262
 40
0.8584596182455002
 40
1.0
 40
1.0
 40
1.0
 40
1.0
 10
54.12004156670297
 20
19.06514757610704
 30
0.0
 10
54.11366124139565
 20
19.07783669484321
 30
0.0
 10
54.10066620125976
 20
19.10368108354176
 30
0.0
 10
54.07837398570657
 20
19.14179565699162
 30
0.0
 10
54.05312984756375
 20
19.17993183848123
 30
0.0
 10
54.02613904494026
 20
19.21885119296577
 30
0.0
 10
53.99532011864358
 20
19.25714884441458
 30
0.0
 10
53.96280234707592
 20
19.29632125817064
 30
0.0
 10
53.92720217486119
 20
19.33541445006874
 30
0.0
 10
53.90207674068934
 20
19.36100193312019
 30
0.0
 10
53.88927233593374
 20
19.37404180687627
 30
0.0
  0
SPLINE
  5
E3
330
1F
100
AcDbEntity
  8
0
  6
Continuous
 62
     7
370
    25
100
AcDbSpline
210
0.0
220
0.0
230
1.0
 70
     8
 71
     3
 72
    27
 73
    23
 74
     0
 42
0.000000001
 43
0.00000001
 40
0.0
 40
0.0
 40
0.0
 40
0.0
 40
0.0739414287635761
 40
0.1432995467909239
 40
0.2078367058012861
 40
0.2681542719989739
 40
0.3240444974500776
 40
0.3756833250396089
 40
0.4227992035769721
 40
0.4659844474241323
 40
0.5062690802671607
 40
0.5452440815941552
 40
0.582932628734493
 40
0.6191703782421355
 40
0.6542106995986451
 40
0.6889160634209303
 40
0.7228008900413521
 40
0.7560829642487452
 40
0.8208193220025547
 40
0.8819250721784662
 40
0.9410367321203931
 40
1.0
 40
1.0
 40
1.0
 40
1.0
 10
53.37064252824143
 20
18.85541199918396
 30
0.0
 10
53.38506420986037
 20
18.84108282493285
 30
0.0
 10
53.41301363516244
 20
18.81331268023306
 30
0.0
 10
53.45521016422375
 20
18.77477493310123
 30
0.0
 10
53.495130412721
 20
18.73930769041005
 30
0.0
 10
53.5336138298063
 20
18.70786230960508
 30
0.0
 10
53.57014738650913
 20
18.67964162271145
 30
0.0
 10
53.60535622359492
 20
18.65578831092768
 30
0.0
 10
53.63837655029134
 20
18.63495201844849
 30
0.0
 10
53.67025270979885
 20
18.61835399788985
 30
0.0
 10
53.70103245373468
 20
18.60469430590719
 30
0.0
 10
53.7310598384726
 20
18.59314903286345
 30
0.0
 10
53.76078766332022
 20
18.58411569327103
 30
0.0
 10
53.79003442666684
 20
18.57754502809106
 30
0.0
 10
53.81881614204052
 20
18.57285097744673
 30
0.0
 10
53.8472692829565
 20
18.57075952387437
 30
0.0
 10
53.87530312009894
 20
18.57110661021275
 30
0.0
 10
53.91145624933242
 20
18.57424901348539
 30
0.0
 10
53.95449258018424
 20
18.58313510965066
 30
0.0
 10
54.00231050727907
 20
18.60091114583902
 30
0.0
 10
54.04533053564322
 20
18.62565725850117
 30
0.0
 10
54.06950699205789
 20
18.6474259485657
 30
0.0
 10
54.08158002824143
 20
18.65829661456858
 30
0.0
  0
SPLINE
  5
E4
330
1F
100
AcDbEntity
  8
0
  6
Continuous
 62
     7
370
    25
100
AcDbSpline
210
0.0
220
0.0
230
1.0
 70
     8
 71
     3
 72
    27
 73
    23
 74
     0
 42
0.000000001
 43
0.00000001
 40
0.0
 40
0.0
 40
0.0
 40
0.0
 40
0.059204909142324
 40
0.1186381156964756
 40
0.1794099962647922
 40
0.2434403905684774
 40
0.2767263209819801
 40
0.3102507208116299
 40
0.3445967272097261
 40
0.3795861309306516
 40
0.4161835169775525
 40
0.4535278654524
 40
0.4925073825928413
 40
0.5331297869118884
 40
0.5763200343895353
 40
0.6237516935997308
 40
0.6753965042887891
 40
0.731293205424897
 40
0.7916177602785751
 40
0.856436425028989
 40
0.9260500040603646
 40
0.9999999999999999
 40
0.9999999999999999
 40
0.9999999999999999
 40
0.9999999999999999
 10
53.17382762439528
 20
19.56604901841473
 30
0.0
 10
53.16282340751678
 20
19.55399963336674
 30
0.0
 10
53.14077254088946
 20
19.52985440017402
 30
0.0
 10
53.11630498914959
 20
19.48659171734001
 30
0.0
 10
53.09839039436374
 20
19.43907509701657
 30
0.0
 10
53.08944016086962
 20
19.39633149656802
 30
0.0
 10
53.08635720451231
 20
19.3604738196034
 30
0.0
 10
53.08595842987267
 20
19.33263542123006
 30
0.0
 10
53.08819940707482
 20
19.30441775022905
 30
0.0
 10
53.09241070496944
 20
19.2755842924899
 30
0.0
 10
53.09897715851188
 20
19.24633673024261
 30
0.0
 10
53.10812975144487
 20
19.21664543923632
 30
0.0
 10
53.11969250771487
 20
19.18663477848436
 30
0.0
 10
53.1331907417549
 20
19.15567972700737
 30
0.0
 10
53.14997952923535
 20
19.12370493861417
 30
0.0
 10
53.17061246312364
 20
19.09046150643982
 30
0.0
 10
53.19459257255055
 20
19.05523098975929
 30
0.0
 10
53.22277195272509
 20
19.01866716520242
 30
0.0
 10
53.25435052971353
 20
18.98019928827275
 30
0.0
 10
53.28958675628481
 20
18.93988326377729
 30
0.0
 10
53.32857177854939
 20
18.89790131567697
 30
0.0
 10
53.35633936657718
 20
18.86985746467369
 30
0.0
 10
53.37064252824143
 20
18.85541199918396
 30
0.0
  0
SPLINE
  5
E5
330
1F
100
AcDbEntity
  8
0
  6
Continuous
 62
     7
370
    25
100
AcDbSpline
210
0.0
220
0.0
230
1.0
 70
     8
 71
     3
 72
    27
 73
    23
 74
     0
 42
0.000000001
 43
0.00000001
 40
0.0
 40
0.0
 40
0.0
 40
0.0
 40
0.0665682887066777
 40
0.1298384398761199
 40
0.1903854166577237
 40
0.2477638774268024
 40
0.3026463387477553
 40
0.3547594337319389
 40
0.4043168527786022
 40
0.4513184057942146
 40
0.4962182809861095
 40
0.5384964490913653
 40
0.5791109571601266
 40
0.6178689498676121
 40
0.6548770745485871
 40
0.6907509929392046
 40
0.7250465884647678
 40
0.758739154699732
 40
0.8228526037433925
 40
0.8832333648382241
 40
0.9417466416330508
 40
1.0
 40
1.0
 40
1.0
 40
1.0
 10
53.88927233593374
 20
19.37404180687627
 30
0.0
 10
53.87622939458886
 20
19.38684376794795
 30
0.0
 10
53.85078972671521
 20
19.41181341468511
 30
0.0
 10
53.812180695268
 20
19.44706133348358
 30
0.0
 10
53.77442295222065
 20
19.47945117072182
 30
0.0
 10
53.7374377233206
 20
19.50919361160967
 30
0.0
 10
53.70071391613692
 20
19.53543841298956
 30
0.0
 10
53.66503818383003
 20
19.55943278338757
 30
0.0
 10
53.62980281807403
 20
19.58007062394762
 30
0.0
 10
53.59549231232886
 20
19.59829560874748
 30
0.0
 10
53.56193495859089
 20
19.6135402265822
 30
0.0
 10
53.52924576989879
 20
19.62632890885032
 30
0.0
 10
53.49742363233099
 20
19.63652713660085
 30
0.0
 10
53.46645622877715
 20
19.64448454350668
 30
0.0
 10
53.43621148317824
 20
19.64969560007083
 30
0.0
 10
53.40684853360015
 20
19.65203860176397
 30
0.0
 10
53.37830112527428
 20
19.65211715136025
 30
0.0
 10
53.34213821559069
 20
19.64892160047452
 30
0.0
 10
53.29943909970932
 20
19.6399801350145
 30
0.0
 10
53.25223553070483
 20
19.62240657973448
 30
0.0
 10
53.20942765884912
 20
19.59851973230941
 30
0.0
 10
53.18567667959808
 20
19.57685651586003
 30
0.0
 10
53.17382762439528
 20
19.56604901841473
 30
0.0
  0
SPLINE
  5
E6
330
1F
100
AcDbEntity
  8
0
  6
Continuous
 62
     7
370
    25
100
AcDbSpline
210
0.0
220
0.0
230
1.0
 70
     8
 71
     3
 72
    19
 73
    15
 74
     0
 42
0.000000001
 43
0.00000001
 40
0.0
 40
0.0
 40
0.0
 40
0.0
 40
0.1116234689182526
 40
0.2221443256546964
 40
0.3354380430278008
 40
0.4548148709752029
 40
0.5168870261290481
 40
0.5794061580887492
 40
0.6435314246458348
 40
0.7096032329016746
 40
0.7780881323723869
 40
0.8493556809199186
 40
0.9228466968340718
 40
1.0
 40
1.0
 40
1.0
 40
1.0
 10
54.08158002824143
 20
18.65829661456858
 30
0.0
 10
54.09258826006756
 20
18.67034395759843
 30
0.0
 10
54.1144959848441
 20
18.69431964048333
 30
0.0
 10
54.13876013915209
 20
18.73720664333566
 30
0.0
 10
54.15673014591919
 20
18.78404633751776
 30
0.0
 10
54.16567811266147
 20
18.82630923182814
 30
0.0
 10
54.16872746111796
 20
18.86176602717988
 30
0.0
 10
54.16923776781051
 20
18.88932123534275
 30
0.0
 10
54.16654952609826
 20
18.91733011650489
 30
0.0
 10
54.16213572144733
 20
18.94597546505683
 30
0.0
 10
54.15514655674944
 20
18.97519808507855
 30
0.0
 10
54.14572152659034
 20
19.00483775963032
 30
0.0
 10
54.13441207885773
 20
19.03518739130815
 30
0.0
 10
54.12490874867789
 20
19.05500029187332
 30
0.0
 10
54.12004156670297
 20
19.06514757610704
 30
0.0
  0
LINE
  5
E7
330
1F
100
AcDbEntity
  8
0
  6
Continuous
 62
     7
370
    25
100
AcDbLine
 10
54.46314258
 20
19.6269242662
 30
0.0
 11
54.7720368108
 21
19.935818497
 31
0.0
  0
LINE
  5
E8
330
1F
100
AcDbEntity
  8
0
  6
Continuous
 62
     7
370
    25
100
AcDbLine
 10
54.3345368108
 20
20.373318497
 30
0.0
 11
54.46314258
 21
19.6269242662
 31
0.0
  0
LINE
  5
E9
330
1F
100
AcDbEntity
  8
0
  6
Continuous
 62
     7
370
    25
100
AcDbLine
 10
54.7720368108
 20
19.935818497
 30
0.0
 11
54.3345368108
 21
20.373318497
 31
0.0
  0
CIRCLE
  5
EA
330
1F
100
AcDbEntity
  8
0
  6
Continuous
 62
     7
370
    25
100
AcDbCircle
 10
54.3607836455
 20
18.3826022052
 30
0.0
 40
8.492181818181816
  0
ARC
  5
EB
330
1F
100
AcDbEntity
  8
0
  6
Continuous
 62
     7
370
    25
100
AcDbCircle
 10
54.3607836455
 20
18.3826022052
 30
0.0
 40
7.000000000000003
100
AcDbArc
 50
103.9972808661
 51
166.0027191339
  0
ARC
  5
EC
330
1F
100
AcDbEntity
  8
0
  6
Continuous
 62
     7
370
    25
100
AcDbCircle
 10
54.3607836455
 20
18.3826022052
 30
0.0
 40
7.000000000000003
100
AcDbArc
 50
193.9972808661
 51
256.0027191339
  0
ARC
  5
ED
330
1F
100
AcDbEntity
  8
0
  6
Continuous
 62
     7
370
    25
100
AcDbCircle
 10
54.3607836455
 20
18.3826022052
 30
0.0
 40
7.000000000000003
100
AcDbArc
 50
283.9972808661
 51
346.0027191339
  0
ARC
  5
EE
330
1F
100
AcDbEntity
  8
0
  6
Continuous
 62
     7
370
    25
100
AcDbCircle
 10
54.3607836455
 20
18.3826022052
 30
0.0
 40
7.000000000000003
100
AcDbArc
 50
13.9972808661
 51
76.0027191339
  0
INSERT
  5
FA
330
1F
100
AcDbEntity
  8
0
  6
Continuous
 62
     7
370
    18
100
AcDbBlockReference
  2
SW_CENTERMARKSYMBOL_0
 10
54.3607836455
 20
18.3826022052
 30
0.0
  0
ARC
  5
FB
330
1F
100
AcDbEntity
  8
0
  6
Continuous
 62
     7
370
    18
100
AcDbCircle
 10
54.3607836455
 20
18.3826022052
 30
0.0
 40
7.475000000000003
100
AcDbArc
 50
75.0
 51
345.0
  0
ENDSEC
  0
SECTION
  2
OBJECTS
  0
DICTIONARY
  5
C
330
0
100
AcDbDictionary
281
     1
  3
ACAD_GROUP
350
D
  3
ACAD_LAYOUT
350
1A
  3
ACAD_MLINESTYLE
350
17
  3
ACAD_PLOTSETTINGS
350
19
  3
ACAD_PLOTSTYLENAME
350
E
  3
ACAD_SCALELIST
350
47
  0
DICTIONARY
  5
D
102
{ACAD_REACTORS
330
C
102
}
330
C
100
AcDbDictionary
281
     1
  0
DICTIONARY
  5
1A
102
{ACAD_REACTORS
330
C
102
}
330
C
100
AcDbDictionary
281
     1
  3
Layout1
350
1E
  3
Layout2
350
26
  3
Model
350
22
  0
DICTIONARY
  5
17
102
{ACAD_REACTORS
330
C
102
}
330
C
100
AcDbDictionary
281
     1
  3
Standard
350
18
  0
DICTIONARY
  5
19
102
{ACAD_REACTORS
330
C
102
}
330
C
100
AcDbDictionary
281
     1
  0
ACDBDICTIONARYWDFLT
  5
E
102
{ACAD_REACTORS
330
C
102
}
330
C
100
AcDbDictionary
281
     1
  3
Normal
350
F
100
AcDbDictionaryWithDefault
340
F
  0
DICTIONARY
  5
47
102
{ACAD_REACTORS
330
C
102
}
330
C
100
AcDbDictionary
281
     1
  3
A0
350
48
  3
A1
350
49
  3
A2
350
4A
  3
A3
350
4B
  3
A4
350
4C
  3
A5
350
4D
  3
A6
350
4E
  3
A7
350
4F
  3
A8
350
50
  3
A9
350
51
  3
B0
350
52
  3
B1
350
53
  3
B2
350
54
  3
B3
350
55
  3
B4
350
56
  3
B5
350
57
  3
B6
350
58
  3
B7
350
59
  3
B8
350
5A
  3
B9
350
5B
  3
C0
350
5C
  3
C1
350
5D
  3
C2
350
5E
  3
C3
350
5F
  3
C4
350
60
  3
C5
350
61
  3
C6
350
62
  3
C7
350
63
  3
C8
350
64
  3
C9
350
65
  3
D0
350
66
  3
D1
350
67
  3
D2
350
68
  0
LAYOUT
  5
1E
102
{ACAD_REACTORS
330
1A
102
}
330
1A
100
AcDbPlotSettings
  1

  2
none_device
  4

  6

 40
0.0
 41
0.0
 42
0.0
 43
0.0
 44
0.0
 45
0.0
 46
0.0
 47
0.0
 48
0.0
 49
0.0
140
0.0
141
0.0
142
1.0
143
1.0
 70
   688
 72
     1
 73
     0
 74
     5
  7

 75
    16
147
1.0
148
0.0
149
0.0
100
AcDbLayout
  1
Layout1
 70
     1
 71
     1
 10
0.0
 20
0.0
 11
420.0
 21
297.0
 12
0.0
 22
0.0
 32
0.0
 14
1.0000000000E+20
 24
1.0000000000E+20
 34
1.0000000000E+20
 15
-1.0000000000E+20
 25
-1.0000000000E+20
 35
-1.0000000000E+20
146
0.0
 13
0.0
 23
0.0
 33
0.0
 16
1.0
 26
0.0
 36
0.0
 17
0.0
 27
1.0
 37
0.0
 76
     0
330
1B
  0
LAYOUT
  5
26
102
{ACAD_REACTORS
330
1A
102
}
330
1A
100
AcDbPlotSettings
  1

  2
none_device
  4

  6

 40
0.0
 41
0.0
 42
0.0
 43
0.0
 44
0.0
 45
0.0
 46
0.0
 47
0.0
 48
0.0
 49
0.0
140
0.0
141
0.0
142
1.0
143
1.0
 70
   688
 72
     1
 73
     0
 74
     5
  7

 75
    16
147
1.0
148
0.0
149
0.0
100
AcDbLayout
  1
Layout2
 70
     1
 71
     2
 10
0.0
 20
0.0
 11
0.0
 21
0.0
 12
0.0
 22
0.0
 32
0.0
 14
0.0
 24
0.0
 34
0.0
 15
0.0
 25
0.0
 35
0.0
146
0.0
 13
0.0
 23
0.0
 33
0.0
 16
1.0
 26
0.0
 36
0.0
 17
0.0
 27
1.0
 37
0.0
 76
     0
330
23
  0
LAYOUT
  5
22
102
{ACAD_REACTORS
330
1A
102
}
330
1A
100
AcDbPlotSettings
  1

  2
none_device
  4
Letter_(8.50_x_11.00_Inches)
  6

 40
6.35
 41
6.35
 42
6.35000508
 43
6.35000508
 44
215.9
 45
279.4
 46
0.0
 47
0.0
 48
0.0
 49
0.0
140
0.0
141
0.0
142
1.0
143
1.0
 70
  1712
 72
     1
 73
     0
 74
     0
  7

 75
     0
147
1.0
148
0.0
149
0.0
100
AcDbLayout
  1
Model
 70
     1
 71
     0
 10
0.0
 20
0.0
 11
215.9
 21
139.7
 12
0.0
 22
0.0
 32
0.0
 14
0.0
 24
0.0
 34
0.0
 15
215.9
 25
139.7
 35
0.0
146
0.0
 13
0.0
 23
0.0
 33
0.0
 16
1.0
 26
0.0
 36
0.0
 17
0.0
 27
1.0
 37
0.0
 76
     0
330
1F
331
29
  0
MLINESTYLE
  5
18
102
{ACAD_REACTORS
330
17
102
}
330
17
100
AcDbMlineStyle
  2
Standard
 70
     0
  3

 62
   256
 51
90.0
 52
90.0
 71
     2
 49
0.5
 62
   256
  6
BYLAYER
 49
-0.5
 62
   256
  6
BYLAYER
  0
ACDBPLACEHOLDER
  5
F
102
{ACAD_REACTORS
330
E
102
}
330
E
  0
SCALE
  5
48
102
{ACAD_REACTORS
330
47
102
}
330
47
100
AcDbScale
 70
     0
300
1:1
140
1.0
141
1.0
290
     1
  0
SCALE
  5
49
102
{ACAD_REACTORS
330
47
102
}
330
47
100
AcDbScale
 70
     0
300
1:2
140
1.0
141
2.0
290
     0
  0
SCALE
  5
4A
102
{ACAD_REACTORS
330
47
102
}
330
47
100
AcDbScale
 70
     0
300
1:4
140
1.0
141
4.0
290
     0
  0
SCALE
  5
4B
102
{ACAD_REACTORS
330
47
102
}
330
47
100
AcDbScale
 70
     0
300
1:5
140
1.0
141
5.0
290
     0
  0
SCALE
  5
4C
102
{ACAD_REACTORS
330
47
102
}
330
47
100
AcDbScale
 70
     0
300
1:8
140
1.0
141
8.0
290
     0
  0
SCALE
  5
4D
102
{ACAD_REACTORS
330
47
102
}
330
47
100
AcDbScale
 70
     0
300
1:10
140
1.0
141
10.0
290
     0
  0
SCALE
  5
4E
102
{ACAD_REACTORS
330
47
102
}
330
47
100
AcDbScale
 70
     0
300
1:16
140
1.0
141
16.0
290
     0
  0
SCALE
  5
4F
102
{ACAD_REACTORS
330
47
102
}
330
47
100
AcDbScale
 70
     0
300
1:20
140
1.0
141
20.0
290
     0
  0
SCALE
  5
50
102
{ACAD_REACTORS
330
47
102
}
330
47
100
AcDbScale
 70
     0
300
1:30
140
1.0
141
30.0
290
     0
  0
SCALE
  5
51
102
{ACAD_REACTORS
330
47
102
}
330
47
100
AcDbScale
 70
     0
300
1:40
140
1.0
141
40.0
290
     0
  0
SCALE
  5
52
102
{ACAD_REACTORS
330
47
102
}
330
47
100
AcDbScale
 70
     0
300
1:50
140
1.0
141
50.0
290
     0
  0
SCALE
  5
53
102
{ACAD_REACTORS
330
47
102
}
330
47
100
AcDbScale
 70
     0
300
1:100
140
1.0
141
100.0
290
     0
  0
SCALE
  5
54
102
{ACAD_REACTORS
330
47
102
}
330
47
100
AcDbScale
 70
     0
300
2:1
140
2.0
141
1.0
290
     0
  0
SCALE
  5
55
102
{ACAD_REACTORS
330
47
102
}
330
47
100
AcDbScale
 70
     0
300
4:1
140
4.0
141
1.0
290
     0
  0
SCALE
  5
56
102
{ACAD_REACTORS
330
47
102
}
330
47
100
AcDbScale
 70
     0
300
8:1
140
8.0
141
1.0
290
     0
  0
SCALE
  5
57
102
{ACAD_REACTORS
330
47
102
}
330
47
100
AcDbScale
 70
     0
300
10:1
140
10.0
141
1.0
290
     0
  0
SCALE
  5
58
102
{ACAD_REACTORS
330
47
102
}
330
47
100
AcDbScale
 70
     0
300
100:1
140
100.0
141
1.0
290
     0
  0
SCALE
  5
59
102
{ACAD_REACTORS
330
47
102
}
330
47
100
AcDbScale
 70
     0
300
1/128" = 1'-0"
140
0.0078125
141
12.0
290
     0
  0
SCALE
  5
5A
102
{ACAD_REACTORS
330
47
102
}
330
47
100
AcDbScale
 70
     0
300
1/64" = 1'-0"
140
0.015625
141
12.0
290
     0
  0
SCALE
  5
5B
102
{ACAD_REACTORS
330
47
102
}
330
47
100
AcDbScale
 70
     0
300
1/32" = 1'-0"
140
0.03125
141
12.0
290
     0
  0
SCALE
  5
5C
102
{ACAD_REACTORS
330
47
102
}
330
47
100
AcDbScale
 70
     0
300
1/16" = 1'-0"
140
0.0625
141
12.0
290
     0
  0
SCALE
  5
5D
102
{ACAD_REACTORS
330
47
102
}
330
47
100
AcDbScale
 70
     0
300
3/32" = 1'-0"
140
0.09375
141
12.0
290
     0
  0
SCALE
  5
5E
102
{ACAD_REACTORS
330
47
102
}
330
47
100
AcDbScale
 70
     0
300
1/8" = 1'-0"
140
0.125
141
12.0
290
     0
  0
SCALE
  5
5F
102
{ACAD_REACTORS
330
47
102
}
330
47
100
AcDbScale
 70
     0
300
3/16" = 1'-0"
140
0.1875
141
12.0
290
     0
  0
SCALE
  5
60
102
{ACAD_REACTORS
330
47
102
}
330
47
100
AcDbScale
 70
     0
300
1/4" = 1'-0"
140
0.25
141
12.0
290
     0
  0
SCALE
  5
61
102
{ACAD_REACTORS
330
47
102
}
330
47
100
AcDbScale
 70
     0
300
3/8" = 1'-0"
140
0.375
141
12.0
290
     0
  0
SCALE
  5
62
102
{ACAD_REACTORS
330
47
102
}
330
47
100
AcDbScale
 70
     0
300
1/2" = 1'-0"
140
0.5
141
12.0
290
     0
  0
SCALE
  5
63
102
{ACAD_REACTORS
330
47
102
}
330
47
100
AcDbScale
 70
     0
300
3/4" = 1'-0"
140
0.75
141
12.0
290
     0
  0
SCALE
  5
64
102
{ACAD_REACTORS
330
47
102
}
330
47
100
AcDbScale
 70
     0
300
1" = 1'-0"
140
1.0
141
12.0
290
     0
  0
SCALE
  5
65
102
{ACAD_REACTORS
330
47
102
}
330
47
100
AcDbScale
 70
     0
300
1-1/2" = 1'-0"
140
1.5
141
12.0
290
     0
  0
SCALE
  5
66
102
{ACAD_REACTORS
330
47
102
}
330
47
100
AcDbScale
 70
     0
300
3" = 1'-0"
140
3.0
141
12.0
290
     0
  0
SCALE
  5
67
102
{ACAD_REACTORS
330
47
102
}
330
47
100
AcDbScale
 70
     0
300
6" = 1'-0"
140
6.0
141
12.0
290
     0
  0
SCALE
  5
68
102
{ACAD_REACTORS
330
47
102
}
330
47
100
AcDbScale
 70
     0
300
1'-0" = 1'-0"
140
12.0
141
12.0
290
     0
  0
ENDSEC
  0
EOF
