  0
SECTION
  2
HEADER
  9
$ACADVER
  1
AC1015
  9
$ACADMAINTVER
 70
     6
  9
$DWGCODEPAGE
  3
DOS932
  9
$INSBASE
 10
0.0
 20
0.0
 30
0.0
  9
$EXTMIN
 10
0.0
 20
0.0
 30
0.0
  9
$EXTMAX
 10
215.9
 20
139.7
 30
0.0
  9
$LIMMIN
 10
0.0
 20
0.0
  9
$LIMMAX
 10
215.9
 20
139.7
  9
$ORTHOMODE
 70
     0
  9
$REGENMODE
 70
     1
  9
$FILLMODE
 70
     1
  9
$QTEXTMODE
 70
     0
  9
$MIRRTEXT
 70
     1
  9
$LTSCALE
 40
0.5
  9
$ATTMODE
 70
     1
  9
$TEXTSIZE
 40
1.75
  9
$TRACEWID
 40
1.0
  9
$TEXTSTYLE
  7
Standard
  9
$CLAYER
  8
0
  9
$CELTYPE
  6
ByLayer
  9
$CECOLOR
 62
   256
  9
$CELTSCALE
 40
1.0
  9
$DISPSILH
 70
     0
  9
$DIMSCALE
 40
1.0
  9
$DIMASZ
 40
1.651
  9
$DIMEXO
 40
0.5
  9
$DIMDLI
 40
3.75
  9
$DIMRND
 40
0.0
  9
$DIMDLE
 40
0.0
  9
$DIMEXE
 40
0.5
  9
$DIMTP
 40
0.0
  9
$DIMTM
 40
0.0
  9
$DIMTXT
 40
1.75
  9
$DIMCEN
 40
2.5
  9
$DIMTSZ
 40
0.0
  9
$DIMTOL
 70
     0
  9
$DIMLIM
 70
     0
  9
$DIMTIH
 70
     1
  9
$DIMTOH
 70
     1
  9
$DIMSE1
 70
     0
  9
$DIMSE2
 70
     0
  9
$DIMTAD
 70
     1
  9
$DIMZIN
 70
     1
  9
$DIMBLK
  1

  9
$DIMASO
 70
     1
  9
$DIMSHO
 70
     1
  9
$DIMPOST
  1

  9
$DIMAPOST
  1

  9
$DIMALT
 70
     0
  9
$DIMALTD
 70
     3
  9
$DIMALTF
 40
0.0393700787
  9
$DIMLFAC
 40
1.0
  9
$DIMTOFL
 70
     1
  9
$DIMTVP
 40
0.0
  9
$DIMTIX
 70
     0
  9
$DIMSOXD
 70
     0
  9
$DIMSAH
 70
     0
  9
$DIMBLK1
  1

  9
$DIMBLK2
  1

  9
$DIMSTYLE
  2
ISO-25
  9
$DIMCLRD
 70
     0
  9
$DIMCLRE
 70
     0
  9
$DIMCLRT
 70
     0
  9
$DIMTFAC
 40
1.0
  9
$DIMGAP
 40
0.762
  9
$DIMJUST
 70
     0
  9
$DIMSD1
 70
     0
  9
$DIMSD2
 70
     0
  9
$DIMTOLJ
 70
     0
  9
$DIMTZIN
 70
     1
  9
$DIMALTZ
 70
     0
  9
$DIMALTTZ
 70
     0
  9
$DIMUPT
 70
     0
  9
$DIMDEC
 70
     2
  9
$DIMTDEC
 70
     2
  9
$DIMALTU
 70
     2
  9
$DIMALTTD
 70
     3
  9
$DIMTXSTY
  7
Standard
  9
$DIMAUNIT
 70
     0
  9
$DIMADEC
 70
     2
  9
$DIMALTRND
 40
0.0
  9
$DIMAZIN
 70
     0
  9
$DIMDSEP
 70
    44
  9
$DIMATFIT
 70
     3
  9
$DIMFRAC
 70
     0
  9
$DIMLDRBLK
  1

  9
$DIMLUNIT
 70
     2
  9
$DIMLWD
 70
    -2
  9
$DIMLWE
 70
    -2
  9
$DIMTMOVE
 70
     0
  9
$LUNITS
 70
     2
  9
$LUPREC
 70
     2
  9
$SKETCHINC
 40
1.0
  9
$FILLETRAD
 40
10.0
  9
$AUNITS
 70
     0
  9
$AUPREC
 70
     2
  9
$MENU
  1
.
  9
$ELEVATION
 40
0.0
  9
$PELEVATION
 40
0.0
  9
$THICKNESS
 40
0.0
  9
$LIMCHECK
 70
     0
  9
$CHAMFERA
 40
0.0
  9
$CHAMFERB
 40
0.0
  9
$CHAMFERC
 40
0.0
  9
$CHAMFERD
 40
0.0
  9
$SKPOLY
 70
     0
  9
$TDCREATE
 40
2460090.429767257
  9
$TDUCREATE
 40
2460090.054767257
  9
$TDUPDATE
 40
2460090.429767616
  9
$TDUUPDATE
 40
2460090.054767616
  9
$TDINDWG
 40
0.0000000116
  9
$TDUSRTIMER
 40
0.0000000116
  9
$USRTIMER
 70
     1
  9
$ANGBASE
 50
0.0
  9
$ANGDIR
 70
     0
  9
$PDMODE
 70
     0
  9
$PDSIZE
 40
-1.0
  9
$PLINEWID
 40
0.0
  9
$SPLFRAME
 70
     0
  9
$SPLINETYPE
 70
     6
  9
$SPLINESEGS
 70
     8
  9
$HANDSEED
  5
FC
  9
$SURFTAB1
 70
     6
  9
$SURFTAB2
 70
     6
  9
$SURFTYPE
 70
     6
  9
$SURFU
 70
     6
  9
$SURFV
 70
     6
  9
$UCSBASE
  2

  9
$UCSNAME
  2

  9
$UCSORG
 10
0.0
 20
0.0
 30
0.0
  9
$UCSXDIR
 10
1.0
 20
0.0
 30
0.0
  9
$UCSYDIR
 10
0.0
 20
1.0
 30
0.0
  9
$UCSORTHOREF
  2

  9
$UCSORTHOVIEW
 70
     0
  9
$UCSORGTOP
 10
0.0
 20
0.0
 30
0.0
  9
$UCSORGBOTTOM
 10
0.0
 20
0.0
 30
0.0
  9
$UCSORGLEFT
 10
0.0
 20
0.0
 30
0.0
  9
$UCSORGRIGHT
 10
0.0
 20
0.0
 30
0.0
  9
$UCSORGFRONT
 10
0.0
 20
0.0
 30
0.0
  9
$UCSORGBACK
 10
0.0
 20
0.0
 30
0.0
  9
$PUCSBASE
  2

  9
$PUCSNAME
  2

  9
$PUCSORG
 10
0.0
 20
0.0
 30
0.0
  9
$PUCSXDIR
 10
1.0
 20
0.0
 30
0.0
  9
$PUCSYDIR
 10
0.0
 20
1.0
 30
0.0
  9
$PUCSORTHOREF
  2

  9
$PUCSORTHOVIEW
 70
     0
  9
$PUCSORGTOP
 10
0.0
 20
0.0
 30
0.0
  9
$PUCSORGBOTTOM
 10
0.0
 20
0.0
 30
0.0
  9
$PUCSORGLEFT
 10
0.0
 20
0.0
 30
0.0
  9
$PUCSORGRIGHT
 10
0.0
 20
0.0
 30
0.0
  9
$PUCSORGFRONT
 10
0.0
 20
0.0
 30
0.0
  9
$PUCSORGBACK
 10
0.0
 20
0.0
 30
0.0
  9
$USERI1
 70
     0
  9
$USERI2
 70
     0
  9
$USERI3
 70
     0
  9
$USERI4
 70
     0
  9
$USERI5
 70
     0
  9
$USERR1
 40
0.0
  9
$USERR2
 40
0.0
  9
$USERR3
 40
0.0
  9
$USERR4
 40
0.0
  9
$USERR5
 40
0.0
  9
$WORLDVIEW
 70
     1
  9
$SHADEDGE
 70
     3
  9
$SHADEDIF
 70
    70
  9
$TILEMODE
 70
     1
  9
$MAXACTVP
 70
    64
  9
$PINSBASE
 10
0.0
 20
0.0
 30
0.0
  9
$PLIMCHECK
 70
     0
  9
$PEXTMIN
 10
1.0000000000E+20
 20
1.0000000000E+20
 30
1.0000000000E+20
  9
$PEXTMAX
 10
-1.0000000000E+20
 20
-1.0000000000E+20
 30
-1.0000000000E+20
  9
$PLIMMIN
 10
0.0
 20
0.0
  9
$PLIMMAX
 10
420.0
 20
297.0
  9
$UNITMODE
 70
     0
  9
$VISRETAIN
 70
     1
  9
$PLINEGEN
 70
     0
  9
$PSLTSCALE
 70
     1
  9
$TREEDEPTH
 70
  3020
  9
$CMLSTYLE
  2
Standard
  9
$CMLJUST
 70
     0
  9
$CMLSCALE
 40
20.0
  9
$PROXYGRAPHICS
 70
     1
  9
$MEASUREMENT
 70
     1
  9
$CELWEIGHT
370
    -1
  9
$ENDCAPS
280
     0
  9
$JOINSTYLE
280
     0
  9
$LWDISPLAY
290
     1
  9
$INSUNITS
 70
     4
  9
$HYPERLINKBASE
  1

  9
$STYLESHEET
  1

  9
$XEDIT
290
     1
  9
$CEPSNTYPE
380
     0
  9
$PSTYLEMODE
290
     1
  9
$FINGERPRINTGUID
  2
{6D49E2EA-E2BB-4618-AA47-FEAF2EB194AE}
  9
$VERSIONGUID
  2
{FAEB1C32-E019-11D5-929B-00C0DF256EC4}
  9
$EXTNAMES
290
     1
  9
$PSVPSCALE
 40
0.0
  9
$OLESTARTUP
290
     0
  0
ENDSEC
  0
SECTION
  2
CLASSES
  0
CLASS
  1
ACDBDICTIONARYWDFLT
  2
AcDbDictionaryWithDefault
  3
ObjectDBX Classes
 90
        0
280
     0
281
     0
  0
CLASS
  1
VISUALSTYLE
  2
AcDbVisualStyle
  3
ObjectDBX Classes
 90
     4095
280
     0
281
     0
  0
CLASS
  1
MATERIAL
  2
AcDbMaterial
  3
ObjectDBX Classes
 90
     1153
280
     0
281
     0
  0
CLASS
  1
SCALE
  2
AcDbScale
  3
ObjectDBX Classes
 90
     1153
280
     0
281
     0
  0
CLASS
  1
TABLESTYLE
  2
AcDbTableStyle
  3
ObjectDBX Classes
 90
     4095
280
     0
281
     0
  0
CLASS
  1
MLEADERSTYLE
  2
AcDbMLeaderStyle
  3
ACDB_MLEADERSTYLE_CLASS
 90
     4095
280
     0
281
     0
  0
CLASS
  1
SUN
  2
AcDbSun
  3
SCENEOE
 90
     1153
280
     0
281
     0
  0
CLASS
  1
ACDBPLACEHOLDER
  2
AcDbPlaceHolder
  3
ObjectDBX Classes
 90
        0
280
     0
281
     0
  0
CLASS
  1
LAYOUT
  2
AcDbLayout
  3
ObjectDBX Classes
 90
        0
280
     0
281
     0
  0
ENDSEC
  0
SECTION
  2
TABLES
  0
TABLE
  2
VPORT
  5
8
330
0
100
AcDbSymbolTable
 70
     1
  0
VPORT
  5
29
330
8
100
AcDbSymbolTableRecord
100
AcDbViewportTableRecord
  2
*Active
 70
     0
 10
0.0
 20
0.0
 11
1.0
 21
1.0
 12
107.95
 22
69.85
 13
0.0
 23
0.0
 14
10.0
 24
10.0
 15
10.0
 25
10.0
 16
0.0
 26
0.0
 36
1.0
 17
0.0
 27
0.0
 37
0.0
 40
139.7
 41
1.5454545455
 42
50.0
 43
0.0
 44
0.0
 50
0.0
 51
0.0
 71
     0
 72
  2000
 73
     1
 74
     3
 75
     0
 76
     0
 77
     0
 78
     0
281
     0
 65
     1
110
0.0
120
0.0
130
0.0
111
1.0
121
0.0
131
0.0
112
0.0
122
1.0
132
0.0
 79
     0
146
0.0
  0
ENDTAB
  0
TABLE
  2
LTYPE
  5
5
330
0
100
AcDbSymbolTable
 70
     6
  0
LTYPE
  5
14
330
5
100
AcDbSymbolTableRecord
100
AcDbLinetypeTableRecord
  2
ByBlock
 70
     0
  3

 72
    65
 73
     0
 40
0.0
  0
LTYPE
  5
15
330
5
100
AcDbSymbolTableRecord
100
AcDbLinetypeTableRecord
  2
ByLayer
 70
     0
  3

 72
    65
 73
     0
 40
0.0
  0
LTYPE
  5
16
330
5
100
AcDbSymbolTableRecord
100
AcDbLinetypeTableRecord
  2
Continuous
 70
     0
  3
Solid line
 72
    65
 73
     0
 40
0.0
  0
LTYPE
  5
6E
330
5
100
AcDbSymbolTableRecord
100
AcDbLinetypeTableRecord
  2
HIDDEN
 70
     0
  3
Hidden __ __ __ __ __ __ __ __ __ __ __ __ __ __
 72
    65
 73
     2
 40
1.905
 49
1.27
 74
     0
 49
-0.635
 74
     0
  0
LTYPE
  5
6F
330
5
100
AcDbSymbolTableRecord
100
AcDbLinetypeTableRecord
  2
PHANTOM
 70
     0
  3
Phantom ______  __  __  ______  __  __  ______
 72
    65
 73
     6
 40
12.7
 49
6.35
 74
     0
 49
-1.27
 74
     0
 49
1.27
 74
     0
 49
-1.27
 74
     0
 49
1.27
 74
     0
 49
-1.27
 74
     0
  0
LTYPE
  5
70
330
5
100
AcDbSymbolTableRecord
100
AcDbLinetypeTableRecord
  2
CENTER
 70
     0
  3
Center ____ _ ____ _ ____ _ ____ _ ____ _ ____
 72
    65
 73
     4
 40
10.16
 49
6.35
 74
     0
 49
-1.27
 74
     0
 49
1.27
 74
     0
 49
-1.27
 74
     0
  0
LTYPE
  5
71
330
5
100
AcDbSymbolTableRecord
100
AcDbLinetypeTableRecord
  2
CENTERX2
 70
     0
  3
Center (2x) ________  __  ________  __  _____
 72
    65
 73
     4
 40
20.32
 49
12.7
 74
     0
 49
-2.54
 74
     0
 49
2.54
 74
     0
 49
-2.54
 74
     0
  0
LTYPE
  5
72
330
5
100
AcDbSymbolTableRecord
100
AcDbLinetypeTableRecord
  2
DOT2
 70
     0
  3
Dot (.5x) ........................................
 72
    65
 73
     2
 40
0.635
 49
0.0
 74
     0
 49
-0.635
 74
     0
  0
ENDTAB
  0
TABLE
  2
LAYER
  5
2
330
0
100
AcDbSymbolTable
 70
     1
  0
LAYER
  5
10
330
2
100
AcDbSymbolTableRecord
100
AcDbLayerTableRecord
  2
0
 70
     0
 62
     7
  6
Continuous
370
    -3
390
F
  0
ENDTAB
  0
TABLE
  2
STYLE
  5
3
330
0
100
AcDbSymbolTable
 70
     2
  0
STYLE
  5
11
330
3
100
AcDbSymbolTableRecord
100
AcDbTextStyleTableRecord
  2
Standard
 70
     0
 40
0.0
 41
1.0
 50
0.0
 71
     0
 42
1.75
  3
txt
  4
bigfont
  0
STYLE
  5
73
330
3
100
AcDbSymbolTableRecord
100
AcDbTextStyleTableRecord
  2
SLDTEXTSTYLE0
 70
     0
 40
0.0
 41
0.75
 50
0.0
 71
     0
 42
1.75
  3
TXT
  4
bigfont
  0
ENDTAB
  0
TABLE
  2
VIEW
  5
6
330
0
100
AcDbSymbolTable
 70
     0
  0
ENDTAB
  0
TABLE
  2
UCS
  5
7
330
0
100
AcDbSymbolTable
 70
     0
  0
ENDTAB
  0
TABLE
  2
APPID
  5
9
330
0
100
AcDbSymbolTable
 70
     1
  0
APPID
  5
12
330
9
100
AcDbSymbolTableRecord
100
AcDbRegAppTableRecord
  2
ACAD
 70
     0
  0
ENDTAB
  0
TABLE
  2
DIMSTYLE
  5
A
330
0
100
AcDbSymbolTable
 70
     1
100
AcDbDimStyleTable
  0
DIMSTYLE
105
27
330
A
100
AcDbSymbolTableRecord
100
AcDbDimStyleTableRecord
  2
ISO-25
 70
     0
 41
2.5
 42
0.625
 43
3.75
 44
1.25
 73
     0
 74
     0
 77
     1
 78
     8
140
2.5
141
2.5
143
0.0393700787
147
0.625
171
     3
172
     1
178
     0
271
     2
272
     2
274
     3
278
    44
283
     0
284
     8
340
11
  0
ENDTAB
  0
TABLE
  2
BLOCK_RECORD
  5
1
330
0
100
AcDbSymbolTable
 70
     2
  0
BLOCK_RECORD
  5
1F
330
1
100
AcDbSymbolTableRecord
100
AcDbBlockTableRecord
  2
*Model_Space
340
22
  0
BLOCK_RECORD
  5
1B
330
1
100
AcDbSymbolTableRecord
100
AcDbBlockTableRecord
  2
*Paper_Space
340
1E
  0
BLOCK_RECORD
  5
23
330
1
100
AcDbSymbolTableRecord
100
AcDbBlockTableRecord
  2
*Paper_Space0
340
26
  0
BLOCK_RECORD
  5
EF
330
1
100
AcDbSymbolTableRecord
100
AcDbBlockTableRecord
  2
SW_CENTERMARKSYMBOL_0
340
0
102
{BLKREFS
331
FA
102
}
  0
ENDTAB
  0
ENDSEC
  0
SECTION
  2
BLOCKS
  0
BLOCK
  5
20
330
1F
100
AcDbEntity
  8
0
100
AcDbBlockBegin
  2
*Model_Space
 70
     0
 10
0.0
 20
0.0
 30
0.0
  3
*Model_Space
  1

  0
ENDBLK
  5
21
330
1F
100
AcDbEntity
  8
0
100
AcDbBlockEnd
  0
BLOCK
  5
1C
330
1B
100
AcDbEntity
 67
     1
  8
0
100
AcDbBlockBegin
  2
*Paper_Space
 70
     0
 10
0.0
 20
0.0
 30
0.0
  3
*Paper_Space
  1

  0
ENDBLK
  5
1D
330
1B
100
AcDbEntity
 67
     1
  8
0
100
AcDbBlockEnd
  0
BLOCK
  5
24
330
23
100
AcDbEntity
  8
0
100
AcDbBlockBegin
  2
*Paper_Space0
 70
     0
 10
0.0
 20
0.0
 30
0.0
  3
*Paper_Space0
  1

  0
ENDBLK
  5
25
330
23
100
AcDbEntity
  8
0
100
AcDbBlockEnd
  0
BLOCK
  5
F0
330
EF
100
AcDbEntity
  8
0
100
AcDbBlockBegin
  2
SW_CENTERMARKSYMBOL_0
 70
     0
 10
0.0
 20
0.0
 30
0.0
  3
SW_CENTERMARKSYMBOL_0
  1

  0
LINE
  5
F2
330
EF
100
AcDbEntity
  8
0
  6
Continuous
 62
     0
370
    18
100
AcDbLine
 10
0.0
 20
0.0
 30
0.0
 11
0.0
 21
2.5
 31
0.0
  0
LINE
  5
F3
330
EF
100
AcDbEntity
  8
0
  6
Continuous
 62
     0
370
    18
100
AcDbLine
 10
0.0
 20
0.0
 30
0.0
 11
-2.5
 21
0.0
 31
0.0
  0
LINE
  5
F4
330
EF
100
AcDbEntity
  8
0
  6
Continuous
 62
     0
370
    18
100
AcDbLine
 10
0.0
 20
0.0
 30
0.0
 11
0.0
 21
-2.5
 31
0.0
  0
LINE
  5
F5
330
EF
100
AcDbEntity
  8
0
  6
Continuous
 62
     0
370
    18
100
AcDbLine
 10
0.0
 20
0.0
 30
0.0
 11
2.5
 21
0.0
 31
0.0
  0
LINE
  5
F6
330
EF
100
AcDbEntity
  8
0
  6
Continuous
 62
     0
370
    18
100
AcDbLine
 10
0.0
 20
5.0
 30
0.0
 11
0.0
 21
10.9921818182
 31
0.0
  0
LINE
  5
F7
330
EF
100
AcDbEntity
  8
0
  6
Continuous
 62
     0
370
    18
100
AcDbLine
 10
-5.0
 20
0.0
 30
0.0
 11
-10.9921818182
 21
0.0
 31
0.0
  0
LINE
  5
F8
330
EF
100
AcDbEntity
  8
0
  6
Continuous
 62
     0
370
    18
100
AcDbLine
 10
0.0
 20
-5.0
 30
0.0
 11
0.0
 21
-10.9921818182
 31
0.0
  0
LINE
  5
F9
330
EF
100
AcDbEntity
  8
0
  6
Continuous
 62
     0
370
    18
100
AcDbLine
 10
5.0
 20
0.0
 30
0.0
 11
10.9921818182
 21
0.0
 31
0.0
  0
ENDBLK
  5
F1
330
EF
100
AcDbEntity
  8
0
100
AcDbBlockEnd
  0
ENDSEC
  0
SECTION
  2
ENTITIES
  0
MTEXT
  5
74
330
1F
100
AcDbEntity
  8
0
  6
Continuous
 62
     7
370
     0
100
AcDbMText
 10
37.7737641618
 20
43.4111276048
 30
0.0
 40
3.7041666667
 41
0.0
 71
     1
 72
     1
  1
NP-7003
  7
SLDTEXTSTYLE0
 73
     1
 44
1.0
  0
LINE
  5
75
330
1F
100
AcDbEntity
  8
0
  6
Continuous
 62
     7
370
    25
100
AcDbLine
 10
32.1531603965
 20
31.1686625799
 30
0.0
 11
22.7192516483
 21
30.8738529315
 31
0.0
  0
LINE
  5
76
330
1F
100
AcDbEntity
  8
0
  6
Continuous
 62
     7
370
    25
100
AcDbLine
 10
22.7192516483
 20
14.4791085919
 30
0.0
 11
32.1531603965
 21
14.1842989436
 31
0.0
  0
LINE
  5
77
330
1F
100
AcDbEntity
  8
0
  6
Continuous
 62
     7
370
    25
100
AcDbLine
 10
32.1531603965
 20
14.1842989436
 30
0.0
 11
33.6453422147
 21
15.6764807617
 31
0.0
  0
LINE
  5
78
330
1F
100
AcDbEntity
  8
0
  6
Continuous
 62
     7
370
    25
100
AcDbLine
 10
33.6453422147
 20
29.6764807617
 30
0.0
 11
32.1531603965
 21
31.1686625799
 31
0.0
  0
LINE
  5
79
330
1F
100
AcDbEntity
  8
0
  6
Continuous
 62
     7
370
    25
100
AcDbLine
 10
22.7192516483
 20
30.8738529315
 30
0.0
 11
20.6453422147
 21
29.6764807617
 31
0.0
  0
LINE
  5
7A
330
1F
100
AcDbEntity
  8
0
  6
Continuous
 62
     7
370
    25
100
AcDbLine
 10
20.6453422147
 20
15.6764807617
 30
0.0
 11
22.7192516483
 21
14.4791085919
 31
0.0
  0
LINE
  5
7B
330
1F
100
AcDbEntity
  8
0
  6
Continuous
 62
     7
370
    25
100
AcDbLine
 10
40.417033935
 20
15.6981724821
 30
0.0
 11
41.6453422147
 21
16.9264807617
 31
0.0
  0
LINE
  5
7C
330
1F
100
AcDbEntity
  8
0
  6
Continuous
 62
     7
370
    25
100
AcDbLine
 10
41.6453422147
 20
28.4264807617
 30
0.0
 11
40.416716778
 21
29.6551061984
 31
0.0
  0
LINE
  5
7D
330
1F
100
AcDbEntity
  8
0
  6
Continuous
 62
     7
370
    25
100
AcDbLine
 10
41.6465922147
 20
23.2098394078
 30
0.0
 11
41.6453422147
 21
23.2098394078
 31
0.0
  0
LINE
  5
7E
330
1F
100
AcDbEntity
  8
0
  6
Continuous
 62
     7
370
    25
100
AcDbLine
 10
41.6465922147
 20
23.0610725869
 30
0.0
 11
41.6453422147
 21
23.0610725869
 31
0.0
  0
LINE
  5
7F
330
1F
100
AcDbEntity
  8
0
  6
Continuous
 62
     7
370
    25
100
AcDbLine
 10
41.6453422147
 20
21.825017416
 30
0.0
 11
41.6465922147
 21
21.825017416
 31
0.0
  0
LINE
  5
80
330
1F
100
AcDbEntity
  8
0
  6
Continuous
 62
     7
370
    25
100
AcDbLine
 10
41.6465922147
 20
22.6468649602
 30
0.0
 11
41.6453422147
 21
22.6468649602
 31
0.0
  0
LINE
  5
81
330
1F
100
AcDbEntity
  8
0
  6
Continuous
 62
     7
370
    25
100
AcDbLine
 10
41.6453422147
 20
21.969839439
 30
0.0
 11
41.6465922147
 21
21.969839439
 31
0.0
  0
LINE
  5
82
330
1F
100
AcDbEntity
  8
0
  6
Continuous
 62
     7
370
    25
100
AcDbLine
 10
41.6465922147
 20
22.7918917803
 30
0.0
 11
41.6453422147
 21
22.7918917803
 31
0.0
  0
LINE
  5
83
330
1F
100
AcDbEntity
  8
0
  6
Continuous
 62
     7
370
    25
100
AcDbLine
 10
41.6465922147
 20
24.0882953929
 30
0.0
 11
41.6453422147
 21
24.0882953929
 31
0.0
  0
LINE
  5
84
330
1F
100
AcDbEntity
  8
0
  6
Continuous
 62
     7
370
    25
100
AcDbLine
 10
41.6465922147
 20
23.9458591723
 30
0.0
 11
41.6453422147
 21
23.9458591723
 31
0.0
  0
LINE
  5
85
330
1F
100
AcDbEntity
  8
0
  6
Continuous
 62
     7
370
    25
100
AcDbLine
 10
41.6453422147
 20
22.7244105014
 30
0.0
 11
41.6465922147
 21
22.7244105014
 31
0.0
  0
LINE
  5
86
330
1F
100
AcDbEntity
  8
0
  6
Continuous
 62
     7
370
    25
100
AcDbLine
 10
41.6453422147
 20
22.8648853544
 30
0.0
 11
41.6465922147
 21
22.8648853544
 31
0.0
  0
LINE
  5
87
330
1F
100
AcDbEntity
  8
0
  6
Continuous
 62
     7
370
    25
100
AcDbLine
 10
41.6465922147
 20
22.4078083008
 30
0.0
 11
41.6453422147
 21
22.4078083008
 31
0.0
  0
LINE
  5
88
330
1F
100
AcDbEntity
  8
0
  6
Continuous
 62
     7
370
    25
100
AcDbLine
 10
41.6465922147
 20
22.5602103677
 30
0.0
 11
41.6453422147
 21
22.5602103677
 31
0.0
  0
LINE
  5
89
330
1F
100
AcDbEntity
  8
0
  6
Continuous
 62
     7
370
    25
100
AcDbLine
 10
32.1531603965
 20
31.1686625799
 30
0.0
 11
32.1531603965
 21
14.1842989436
 31
0.0
  0
LINE
  5
8A
330
1F
100
AcDbEntity
  8
0
  6
Continuous
 62
     7
370
    25
100
AcDbLine
 10
22.7192516483
 20
14.4791085919
 30
0.0
 11
22.7192516483
 21
30.8738529315
 31
0.0
  0
LINE
  5
8B
330
1F
100
AcDbEntity
  8
0
  6
Continuous
 62
     7
370
    25
100
AcDbLine
 10
33.6453422147
 20
29.4686312057
 30
0.0
 11
33.6453422147
 21
24.3696116921
 31
0.0
  0
LINE
  5
8C
330
1F
100
AcDbEntity
  8
0
  6
Continuous
 62
     7
370
    25
100
AcDbLine
 10
33.6453422147
 20
23.2675602826
 30
0.0
 11
33.6453422147
 21
22.0854012409
 31
0.0
  0
LINE
  5
8D
330
1F
100
AcDbEntity
  8
0
  6
Continuous
 62
     7
370
    25
100
AcDbLine
 10
33.6453422147
 20
20.9833498314
 30
0.0
 11
33.6453422147
 21
15.8843303178
 31
0.0
  0
LINE
  5
8E
330
1F
100
AcDbEntity
  8
0
  6
Continuous
 62
     7
370
    25
100
AcDbLine
 10
33.6453422147
 20
15.7014807617
 30
0.0
 11
33.6453422147
 21
15.6764807617
 31
0.0
  0
LINE
  5
8F
330
1F
100
AcDbEntity
  8
0
  6
Continuous
 62
     7
370
    25
100
AcDbLine
 10
33.6453422147
 20
29.6764807617
 30
0.0
 11
33.6453422147
 21
29.6514807617
 31
0.0
  0
LINE
  5
90
330
1F
100
AcDbEntity
  8
0
  6
Continuous
 62
     7
370
    25
100
AcDbLine
 10
20.6453422147
 20
15.6764807617
 30
0.0
 11
20.6453422147
 21
29.6764807617
 31
0.0
  0
LINE
  5
91
330
1F
100
AcDbEntity
  8
0
  6
Continuous
 62
     7
370
    25
100
AcDbLine
 10
33.6453422147
 20
20.9833498314
 30
0.0
 11
33.6453422147
 21
21.1661993875
 31
0.0
  0
LINE
  5
92
330
1F
100
AcDbEntity
  8
0
  6
Continuous
 62
     7
370
    25
100
AcDbLine
 10
40.2587061143
 20
21.1661993875
 30
0.0
 11
33.6453422147
 21
21.1661993875
 31
0.0
  0
SPLINE
  5
93
330
1F
100
AcDbEntity
  8
0
  6
Continuous
 62
     7
370
    25
100
AcDbSpline
210
0.0
220
0.0
230
1.0
 70
     8
 71
     3
 72
    18
 73
    14
 74
     0
 42
0.000000001
 43
0.00000001
 40
0.0
 40
0.0
 40
0.0
 40
0.0
 40
0.2500000000000002
 40
0.2500000000000002
 40
0.3750000000000001
 40
0.3750000000000001
 40
0.5000000000000001
 40
0.5000000000000001
 40
0.6250000000000001
 40
0.6250000000000001
 40
0.75
 40
0.75
 40
1.0
 40
1.0
 40
1.0
 40
1.0
 10
40.25870611426637
 20
15.70148076174157
 30
0.0
 10
40.57716551983087
 20
16.1173720538469
 30
0.0
 10
40.85738924816586
 20
16.54714026623634
 30
0.0
 10
41.16678263678397
 20
17.23205697219372
 30
0.0
 10
41.2511030522225
 20
17.46931794877359
 30
0.0
 10
41.36432820372063
 20
17.94289151447532
 30
0.0
 10
41.39418184738831
 20
18.18072798976211
 30
0.0
 10
41.39643585326924
 20
18.65865470273464
 30
0.0
 10
41.36842231803693
 20
18.90029114584301
 30
0.0
 10
41.25739470563393
 20
19.3787711268513
 30
0.0
 10
41.1757810598588
 20
19.61228353227328
 30
0.0
 10
40.86980780479865
 20
20.2994053192947
 30
0.0
 10
40.58337980547924
 20
20.74219256405357
 30
0.0
 10
40.25870611426364
 20
21.16619938750659
 30
0.0
  0
LINE
  5
94
330
1F
100
AcDbEntity
  8
0
  6
Continuous
 62
     7
370
    25
100
AcDbLine
 10
33.6453422147
 20
15.7014807617
 30
0.0
 11
40.2587061143
 21
15.7014807617
 31
0.0
  0
LINE
  5
95
330
1F
100
AcDbEntity
  8
0
  6
Continuous
 62
     7
370
    25
100
AcDbLine
 10
33.6453422147
 20
15.7014807617
 30
0.0
 11
33.6453422147
 21
15.8843303178
 31
0.0
  0
SPLINE
  5
96
330
1F
100
AcDbEntity
  8
0
  6
Continuous
 62
     7
370
    25
100
AcDbSpline
210
0.0
220
0.0
230
1.0
 70
    24
 71
     3
 72
    10
 73
     6
 74
     0
 42
0.000000001
 43
0.00000001
 40
0.0
 40
0.0
 40
0.0
 40
0.0
 40
0.3531348146193589
 40
0.7584212644693971
 40
0.9999999999999999
 40
0.9999999999999999
 40
0.9999999999999999
 40
0.9999999999999999
 10
40.25870611426636
 20
15.70148076174157
 30
0.0
 10
40.29198775444702
 20
15.70148076174157
 30
0.0
 10
40.36346613206504
 20
15.70148076174157
 30
0.0
 10
40.41585306299325
 20
15.70148076174157
 30
0.0
 10
40.41430412344446
 20
15.70148076174157
 30
0.0
 10
40.41372565537095
 20
15.70148076174157
 30
0.0
  0
SPLINE
  5
97
330
1F
100
AcDbEntity
  8
0
  6
Continuous
 62
     7
370
    25
100
AcDbSpline
210
0.0
220
0.0
230
1.0
 70
     8
 71
     3
 72
    12
 73
     8
 74
     0
 42
0.000000001
 43
0.00000001
 40
0.0
 40
0.0
 40
0.0
 40
0.0
 40
0.5000000000000001
 40
0.5000000000000001
 40
0.7500000000000002
 40
0.7500000000000002
 40
1.0
 40
1.0
 40
1.0
 40
1.0
 10
40.25870611426685
 20
21.16619938750529
 30
0.0
 10
40.36464161763529
 20
21.66678368295444
 30
0.0
 10
40.42014722592283
 20
22.16925909702648
 30
0.0
 10
40.42043893181916
 20
22.92605885872903
 30
0.0
 10
40.40681041323957
 20
23.17883736478966
 30
0.0
 10
40.35224926670707
 20
23.6854127171603
 30
0.0
 10
40.31119013857437
 20
23.93875577838104
 30
0.0
 10
40.25870611427035
 20
24.18676213596131
 30
0.0
  0
SPLINE
  5
98
330
1F
100
AcDbEntity
  8
0
  6
Continuous
 62
     7
370
    25
100
AcDbSpline
210
0.0
220
0.0
230
1.0
 70
     8
 71
     3
 72
    18
 73
    14
 74
     0
 42
0.000000001
 43
0.00000001
 40
0.0
 40
0.0
 40
0.0
 40
0.0
 40
0.2499999999999998
 40
0.2499999999999998
 40
0.3749999999999998
 40
0.3749999999999998
 40
0.4999999999999999
 40
0.4999999999999999
 40
0.6249999999999999
 40
0.6249999999999999
 40
0.7499999999999999
 40
0.7499999999999999
 40
1.0
 40
1.0
 40
1.0
 40
1.0
 10
40.25870611426159
 20
24.1867621359739
 30
0.0
 10
40.57716551982706
 20
24.60265342807983
 30
0.0
 10
40.85738924816301
 20
25.03242164046986
 30
0.0
 10
41.16678263678241
 20
25.7173383464282
 30
0.0
 10
41.25110305222136
 20
25.95459932300844
 30
0.0
 10
41.36432820372019
 20
26.428172888711
 30
0.0
 10
41.39418184738813
 20
26.6660093639982
 30
0.0
 10
41.3964358532694
 20
27.14393607697157
 30
0.0
 10
41.36842231803715
 20
27.38557252008037
 30
0.0
 10
41.25739470563407
 20
27.86405250108953
 30
0.0
 10
41.17578105985879
 20
28.09756490651194
 30
0.0
 10
40.86980780479801
 20
28.78468669353455
 30
0.0
 10
40.58337980547792
 20
29.22747393829417
 30
0.0
 10
40.25870611426156
 20
29.65148076174787
 30
0.0
  0
SPLINE
  5
99
330
1F
100
AcDbEntity
  8
0
  6
Continuous
 62
     7
370
    25
100
AcDbSpline
210
0.0
220
0.0
230
1.0
 70
    24
 71
     3
 72
    10
 73
     6
 74
     0
 42
0.000000001
 43
0.00000001
 40
0.0
 40
0.0
 40
0.0
 40
0.0
 40
0.2289100794738454
 40
0.6468611193847075
 40
1.0
 40
1.0
 40
1.0
 40
1.0
 10
40.41309134131117
 20
29.65148076174157
 30
0.0
 10
40.41408795821682
 20
29.65148076174164
 30
0.0
 10
40.4169042288182
 20
29.65148076174184
 30
0.0
 10
40.36451771017162
 20
29.65148076173951
 30
0.0
 10
40.29194328848966
 20
29.65148076174524
 30
0.0
 10
40.25870611426154
 20
29.65148076174786
 30
0.0
  0
LINE
  5
9A
330
1F
100
AcDbEntity
  8
0
  6
Continuous
 62
     7
370
    25
100
AcDbLine
 10
41.6453422147
 20
28.4264807617
 30
0.0
 11
41.6453422147
 21
16.9264807617
 31
0.0
  0
LINE
  5
9B
330
1F
100
AcDbEntity
  8
0
  6
Continuous
 62
     7
370
    25
100
AcDbLine
 10
33.6453422147
 20
29.4686312057
 30
0.0
 11
33.6453422147
 21
29.6514807617
 31
0.0
  0
LINE
  5
9C
330
1F
100
AcDbEntity
  8
0
  6
Continuous
 62
     7
370
    25
100
AcDbLine
 10
40.2587061143
 20
29.6514807617
 30
0.0
 11
33.6453422147
 21
29.6514807617
 31
0.0
  0
LINE
  5
9D
330
1F
100
AcDbEntity
  8
0
  6
Continuous
 62
     7
370
    25
100
AcDbLine
 10
33.6453422147
 20
24.186762136
 30
0.0
 11
40.2587061143
 21
24.186762136
 31
0.0
  0
LINE
  5
9E
330
1F
100
AcDbEntity
  8
0
  6
Continuous
 62
     7
370
    25
100
AcDbLine
 10
33.6453422147
 20
24.186762136
 30
0.0
 11
33.6453422147
 21
24.3696116921
 31
0.0
  0
LINE
  5
9F
330
1F
100
AcDbEntity
  8
0
  6
Continuous
 62
     7
370
    25
100
AcDbLine
 10
33.6453422147
 20
21.1661993875
 30
0.0
 11
33.6453422147
 21
22.0854012409
 31
0.0
  0
LINE
  5
A0
330
1F
100
AcDbEntity
  8
0
  6
Continuous
 62
     7
370
    25
100
AcDbLine
 10
33.6453422147
 20
24.186762136
 30
0.0
 11
33.6453422147
 21
23.2675602826
 31
0.0
  0
LINE
  5
A1
330
1F
100
AcDbEntity
  8
0
  6
Continuous
 62
     7
370
    18
100
AcDbLine
 10
32.1531603965
 20
15.2090565193
 30
0.0
 11
20.8427508781
 21
15.5625068168
 31
0.0
  0
LINE
  5
A2
330
1F
100
AcDbEntity
  8
0
  6
Continuous
 62
     7
370
    18
100
AcDbLine
 10
32.1531603965
 20
30.1439050042
 30
0.0
 11
20.8427508781
 21
29.7904547067
 31
0.0
  0
LINE
  5
A3
330
1F
100
AcDbEntity
  8
0
  6
CENTERX2
 62
     7
370
    18
100
AcDbLine
 10
42.6410840661
 20
22.6764807617
 30
0.0
 11
19.0915014737
 21
22.6764807617
 31
0.0
  0
SPLINE
  5
A4
330
1F
100
AcDbEntity
  8
0
  6
Continuous
 62
     7
370
    25
100
AcDbSpline
210
0.0
220
0.0
230
1.0
 70
     8
 71
     3
 72
    23
 73
    19
 74
     0
 42
0.000000001
 43
0.00000001
 40
0.0
 40
0.0
 40
0.0
 40
0.0
 40
0.0714340508655356
 40
0.1375891490131985
 40
0.1988671272749591
 40
0.2554435599219263
 40
0.3076933861665007
 40
0.3550325418254515
 40
0.3974487289008684
 40
0.4361373033546202
 40
0.5081119058244425
 40
0.5772270526050617
 40
0.6463348841943414
 40
0.7166178483288135
 40
0.7873525362986343
 40
0.8567329452643678
 40
0.9275818981340932
 40
1.0
 40
1.0
 40
1.0
 40
1.0
 10
62.82929553746709
 20
21.88801082633404
 30
0.0
 10
62.83798573441822
 20
21.89675294414451
 30
0.0
 10
62.85472392564179
 20
21.91359114015247
 30
0.0
 10
62.87768755493263
 20
21.93908652407577
 30
0.0
 10
62.89905971728238
 20
21.9625792401743
 30
0.0
 10
62.91722459520481
 20
21.9856420958706
 30
0.0
 10
62.93363692314509
 20
22.00702397576245
 30
0.0
 10
62.94705793915012
 20
22.02753582527868
 30
0.0
 10
62.95848357675765
 20
22.04654372024829
 30
0.0
 10
62.96994141117114
 20
22.07037238070978
 30
0.0
 10
62.98029040326288
 20
22.09973238105115
 30
0.0
 10
62.98712884976551
 20
22.13549924709132
 30
0.0
 10
62.98798404573242
 20
22.17162073895172
 30
0.0
 10
62.98313450906605
 20
22.20769795954496
 30
0.0
 10
62.9728447682099
 20
22.2426296028766
 30
0.0
 10
62.95806909891477
 20
22.27602279141888
 30
0.0
 10
62.93777610588982
 20
22.30683408871067
 30
0.0
 10
62.92100573546687
 20
22.32502811792789
 30
0.0
 10
62.91252871054402
 20
22.33422476864173
 30
0.0
  0
LINE
  5
A5
330
1F
100
AcDbEntity
  8
0
  6
Continuous
 62
     7
370
    25
100
AcDbLine
 10
62.6493075567
 20
21.7128305379
 30
0.0
 11
62.8292955375
 21
21.8880108263
 31
0.0
  0
LINE
  5
A6
330
1F
100
AcDbEntity
  8
0
  6
Continuous
 62
     7
370
    25
100
AcDbLine
 10
62.4780335182
 20
22.2548978456
 30
0.0
 11
62.2926368836
 21
22.0695012109
 31
0.0
  0
SPLINE
  5
A7
330
1F
100
AcDbEntity
  8
0
  6
Continuous
 62
     7
370
    25
100
AcDbSpline
210
0.0
220
0.0
230
1.0
 70
     8
 71
     3
 72
    23
 73
    19
 74
     0
 42
0.000000001
 43
0.00000001
 40
0.0
 40
0.0
 40
0.0
 40
0.0
 40
0.0726813284379039
 40
0.1434600890843438
 40
0.2141609783754209
 40
0.2866317423066645
 40
0.3582937434852108
 40
0.42744962705179
 40
0.4958614884323621
 40
0.5652405595167557
 40
0.6025654069960295
 40
0.6444912751488164
 40
0.6912842453022057
 40
0.7427916792484175
 40
0.7995856524042377
 40
0.8612748596826222
 40
0.928333039685004
 40
1.0
 40
1.0
 40
1.0
 40
1.0
 10
62.91252871054402
 20
22.33422476864173
 30
0.0
 10
62.90355430795834
 20
22.34254087538924
 30
0.0
 10
62.88584042432285
 20
22.35895539945581
 30
0.0
 10
62.85520319222775
 20
22.37816767650084
 30
0.0
 10
62.82244714827186
 20
22.39324830478629
 30
0.0
 10
62.7875028957985
 20
22.40281630927875
 30
0.0
 10
62.75197224758966
 20
22.40810748999374
 30
0.0
 10
62.71663726674095
 20
22.40797344177381
 30
0.0
 10
62.6823047344766
 20
22.40169851699736
 30
0.0
 10
62.6542620801229
 20
22.39228308304745
 30
0.0
 10
62.63203920872415
 20
22.38084405059794
 30
0.0
 10
62.61358033776236
 20
22.37043783634009
 30
0.0
 10
62.59416745237134
 20
22.35704373031597
 30
0.0
 10
62.57339541770861
 20
22.34130855851653
 30
0.0
 10
62.55121060280408
 20
22.32331180629449
 30
0.0
 10
62.52769372015152
 20
22.30283642071629
 30
0.0
 10
62.50324140140012
 20
22.2796778454221
 30
0.0
 10
62.48662021116299
 20
22.26333878636553
 30
0.0
 10
62.47803351823632
 20
22.25489784556481
 30
0.0
  0
LINE
  5
A8
330
1F
100
AcDbEntity
  8
0
  6
Continuous
 62
     7
370
    25
100
AcDbLine
 10
62.2926368836
 20
22.0695012109
 30
0.0
 11
62.6493075567
 21
21.7128305379
 31
0.0
  0
LINE
  5
A9
330
1F
100
AcDbEntity
  8
0
  6
Continuous
 62
     7
370
    25
100
AcDbLine
 10
63.569076862
 20
23.8850456112
 30
0.0
 11
63.3250864773
 21
24.1290359959
 31
0.0
  0
LINE
  5
AA
330
1F
100
AcDbEntity
  8
0
  6
Continuous
 62
     7
370
    25
100
AcDbLine
 10
63.6739446504
 20
23.9899133997
 30
0.0
 11
63.569076862
 21
23.8850456112
 31
0.0
  0
LINE
  5
AB
330
1F
100
AcDbEntity
  8
0
  6
Continuous
 62
     7
370
    25
100
AcDbLine
 10
63.4299542658
 20
24.2339037843
 30
0.0
 11
63.6739446504
 21
23.9899133997
 31
0.0
  0
LINE
  5
AC
330
1F
100
AcDbEntity
  8
0
  6
Continuous
 62
     7
370
    25
100
AcDbLine
 10
63.5570576312
 20
24.3610071497
 30
0.0
 11
63.4299542658
 21
24.2339037843
 31
0.0
  0
LINE
  5
AD
330
1F
100
AcDbEntity
  8
0
  6
Continuous
 62
     7
370
    25
100
AcDbLine
 10
63.4563965735
 20
24.4616682074
 30
0.0
 11
63.5570576312
 21
24.3610071497
 31
0.0
  0
LINE
  5
AE
330
1F
100
AcDbEntity
  8
0
  6
Continuous
 62
     7
370
    25
100
AcDbLine
 10
63.3292932081
 20
24.334564842
 30
0.0
 11
63.4563965735
 21
24.4616682074
 31
0.0
  0
LINE
  5
AF
330
1F
100
AcDbEntity
  8
0
  6
Continuous
 62
     7
370
    25
100
AcDbLine
 10
62.597622535
 20
25.0662355151
 30
0.0
 11
63.3292932081
 21
24.334564842
 31
0.0
  0
LINE
  5
B0
330
1F
100
AcDbEntity
  8
0
  6
Continuous
 62
     7
370
    25
100
AcDbLine
 10
62.5762884004
 20
25.0449013805
 30
0.0
 11
62.597622535
 21
25.0662355151
 31
0.0
  0
LINE
  5
B1
330
1F
100
AcDbEntity
  8
0
  6
Continuous
 62
     7
370
    25
100
AcDbLine
 10
62.8235840735
 20
23.627533592
 30
0.0
 11
62.5762884004
 21
25.0449013805
 31
0.0
  0
LINE
  5
B2
330
1F
100
AcDbEntity
  8
0
  6
Continuous
 62
     7
370
    25
100
AcDbLine
 10
63.3250864773
 20
24.1290359959
 30
0.0
 11
62.8235840735
 21
23.627533592
 31
0.0
  0
LINE
  5
B3
330
1F
100
AcDbEntity
  8
0
  6
Continuous
 62
     7
370
    25
100
AcDbLine
 10
64.2585861433
 20
22.1623677826
 30
0.0
 11
64.1516149894
 21
22.0553966287
 31
0.0
  0
LINE
  5
B4
330
1F
100
AcDbEntity
  8
0
  6
Continuous
 62
     7
370
    25
100
AcDbLine
 10
63.3108697971
 20
23.1100841287
 30
0.0
 11
64.2585861433
 21
22.1623677826
 31
0.0
  0
LINE
  5
B5
330
1F
100
AcDbEntity
  8
0
  6
Continuous
 62
     7
370
    25
100
AcDbLine
 10
63.5449443164
 20
23.344158648
 30
0.0
 11
63.3108697971
 21
23.1100841287
 31
0.0
  0
LINE
  5
B6
330
1F
100
AcDbEntity
  8
0
  6
Continuous
 62
     7
370
    25
100
AcDbLine
 10
63.4427808548
 20
23.4463221095
 30
0.0
 11
63.5449443164
 21
23.344158648
 31
0.0
  0
LINE
  5
B7
330
1F
100
AcDbEntity
  8
0
  6
Continuous
 62
     7
370
    25
100
AcDbLine
 10
62.8667592202
 20
22.8703004749
 30
0.0
 11
63.4427808548
 21
23.4463221095
 31
0.0
  0
LINE
  5
B8
330
1F
100
AcDbEntity
  8
0
  6
Continuous
 62
     7
370
    25
100
AcDbLine
 10
62.9689226817
 20
22.7681370134
 30
0.0
 11
62.8667592202
 21
22.8703004749
 31
0.0
  0
LINE
  5
B9
330
1F
100
AcDbEntity
  8
0
  6
Continuous
 62
     7
370
    25
100
AcDbLine
 10
63.2038986433
 20
23.0031129749
 30
0.0
 11
62.9689226817
 21
22.7681370134
 31
0.0
  0
LINE
  5
BA
330
1F
100
AcDbEntity
  8
0
  6
Continuous
 62
     7
370
    25
100
AcDbLine
 10
64.1516149894
 20
22.0553966287
 30
0.0
 11
63.2038986433
 21
23.0031129749
 31
0.0
  0
LINE
  5
BB
330
1F
100
AcDbEntity
  8
0
  6
Continuous
 62
     7
370
    25
100
AcDbLine
 10
62.7520719798
 20
21.6100661148
 30
0.0
 11
63.2403532298
 21
21.1217848648
 31
0.0
  0
LINE
  5
BC
330
1F
100
AcDbEntity
  8
0
  6
Continuous
 62
     7
370
    25
100
AcDbLine
 10
62.8268916913
 20
21.6848858263
 30
0.0
 11
62.7520719798
 21
21.6100661148
 31
0.0
  0
SPLINE
  5
BD
330
1F
100
AcDbEntity
  8
0
  6
Continuous
 62
     7
370
    25
100
AcDbSpline
210
0.0
220
0.0
230
1.0
 70
     8
 71
     3
 72
    15
 73
    11
 74
     0
 42
0.000000001
 43
0.00000001
 40
0.0
 40
0.0
 40
0.0
 40
0.0
 40
0.0753901858551262
 40
0.1649443888154755
 40
0.2680434861778919
 40
0.3855477860922087
 40
0.5179661541666718
 40
0.6643098712270732
 40
0.8251607063646664
 40
1.0
 40
1.0
 40
1.0
 40
1.0
 10
63.07689169131325
 20
21.96914063402634
 30
0.0
 10
63.07164673092928
 20
21.96118464380462
 30
0.0
 10
63.06017140725046
 20
21.94377792262921
 30
0.0
 10
63.04004075201694
 20
21.9165022330421
 30
0.0
 10
63.01507828385558
 20
21.8862699728848
 30
0.0
 10
62.98635030873807
 20
21.85212510772018
 30
0.0
 10
62.95255708756445
 20
21.81514887227139
 30
0.0
 10
62.91471750625321
 20
21.77446431314599
 30
0.0
 10
62.87231246586391
 20
21.73071540489796
 30
0.0
 10
62.84244679115715
 20
21.70058092791295
 30
0.0
 10
62.82689169131325
 20
21.68488582633404
 30
0.0
  0
SPLINE
  5
BE
330
1F
100
AcDbEntity
  8
0
  6
Continuous
 62
     7
370
    25
100
AcDbSpline
210
0.0
220
0.0
230
1.0
 70
     8
 71
     3
 72
    23
 73
    19
 74
     0
 42
0.000000001
 43
0.00000001
 40
0.0
 40
0.0
 40
0.0
 40
0.0
 40
0.0695844114809412
 40
0.1366237229743221
 40
0.2019334138781217
 40
0.2643611311562475
 40
0.3254530953890702
 40
0.3856538430923491
 40
0.4452848548136245
 40
0.50492709013969
 40
0.5646141987799761
 40
0.6236473059504292
 40
0.6836364314990075
 40
0.7438816365130284
 40
0.8048337486793982
 40
0.8682164437659133
 40
0.9329082916196967
 40
1.0
 40
1.0
 40
1.0
 40
1.0
 10
63.02100226823633
 20
22.44269832633404
 30
0.0
 10
63.02934401421603
 20
22.43399967800243
 30
0.0
 10
63.04572240080575
 20
22.41692054066959
 30
0.0
 10
63.06773176987134
 20
22.38970361189375
 30
0.0
 10
63.08699084371408
 20
22.36197290633807
 30
0.0
 10
63.10301390547176
 20
22.33342321729157
 30
0.0
 10
63.11630799010172
 20
22.30449061506264
 30
0.0
 10
63.12694025956303
 20
22.27497786900977
 30
0.0
 10
63.13450402434869
 20
22.24477967774349
 30
0.0
 10
63.13892158976392
 20
22.21406722776655
 30
0.0
 10
63.14075017022164
 20
22.18320328897673
 30
0.0
 10
63.13982054170894
 20
22.15223657341947
 30
0.0
 10
63.13623186795256
 20
22.12136706206662
 30
0.0
 10
63.12987419667208
 20
22.09061037528894
 30
0.0
 10
63.12078917408534
 20
22.05992462542908
 30
0.0
 10
63.10865494822173
 20
22.02949971643817
 30
0.0
 10
63.09427983654702
 20
21.99887876671536
 30
0.0
 10
63.08275768159394
 20
21.97917296323538
 30
0.0
 10
63.07689169131325
 20
21.96914063402634
 30
0.0
  0
SPLINE
  5
BF
330
1F
100
AcDbEntity
  8
0
  6
Continuous
 62
     7
370
    25
100
AcDbSpline
210
0.0
220
0.0
230
1.0
 70
     8
 71
     3
 72
    23
 73
    19
 74
     0
 42
0.000000001
 43
0.00000001
 40
0.0
 40
0.0
 40
0.0
 40
0.0
 40
0.0631120667195007
 40
0.1246204889042282
 40
0.1854063864272504
 40
0.2452855145665087
 40
0.3045096995741357
 40
0.3641375552122477
 40
0.4246759440160569
 40
0.4858777714932492
 40
0.5476102484119828
 40
0.6086002211440633
 40
0.6704667414166822
 40
0.7330433104550824
 40
0.7964418486351543
 40
0.8616201805525383
 40
0.9293334730091428
 40
1.0
 40
1.0
 40
1.0
 40
1.0
 10
62.55315371054401
 20
22.50249399941096
 30
0.0
 10
62.56249389947271
 20
22.5078434038146
 30
0.0
 10
62.58093694802513
 20
22.51840628705989
 30
0.0
 10
62.60967893915343
 20
22.53166642430754
 30
0.0
 10
62.63882444093858
 20
22.54246972209705
 30
0.0
 10
62.66831942252114
 20
22.55098723978319
 30
0.0
 10
62.69828661910974
 20
22.55679410179674
 30
0.0
 10
62.72877153006301
 20
22.55957740237734
 30
0.0
 10
62.75970090171307
 20
22.56068479222183
 30
0.0
 10
62.79096624198892
 20
22.55879166280675
 30
0.0
 10
62.82205611662285
 20
22.5543964893916
 30
0.0
 10
62.8526780175757
 20
22.54699820149904
 30
0.0
 10
62.88282720410651
 20
22.53730823076713
 30
0.0
 10
62.91195643766356
 20
22.52384920673492
 30
0.0
 10
62.94035885669438
 20
22.50781330232104
 30
0.0
 10
62.96813087037087
 20
22.48908322764801
 30
0.0
 10
62.99530411888686
 20
22.46741345035534
 30
0.0
 10
63.01231520436001
 20
22.45105308597701
 30
0.0
 10
63.02100226823633
 20
22.44269832633404
 30
0.0
  0
SPLINE
  5
C0
330
1F
100
AcDbEntity
  8
0
  6
Continuous
 62
     7
370
    25
100
AcDbSpline
210
0.0
220
0.0
230
1.0
 70
     8
 71
     3
 72
    15
 73
    11
 74
     0
 42
0.000000001
 43
0.00000001
 40
0.0
 40
0.0
 40
0.0
 40
0.0
 40
0.1771214341944272
 40
0.338855584180858
 40
0.485818835850185
 40
0.6186783670831186
 40
0.7356853745542107
 40
0.8381870473681521
 40
0.9261641814985228
 40
0.9999999999999999
 40
0.9999999999999999
 40
0.9999999999999999
 40
0.9999999999999999
 10
62.29474024900556
 20
22.27593149941096
 30
0.0
 10
62.30909428491961
 20
22.29032513428183
 30
0.0
 10
62.3365553612548
 20
22.31786196840265
 30
0.0
 10
62.37701329867136
 20
22.35622838953011
 30
0.0
 10
62.41394421727722
 20
22.39092685074658
 30
0.0
 10
62.44769574639115
 20
22.42150351031828
 30
0.0
 10
62.47838053085675
 20
22.44786187399353
 30
0.0
 10
62.50610702933646
 20
22.46968468294949
 30
0.0
 10
62.53024692613796
 20
22.48809625499279
 30
0.0
 10
62.54597632885124
 20
22.49798275482191
 30
0.0
 10
62.55315371054401
 20
22.50249399941096
 30
0.0
  0
LINE
  5
C1
330
1F
100
AcDbEntity
  8
0
  6
Continuous
 62
     7
370
    25
100
AcDbLine
 10
62.0856056336
 20
22.066796884
 30
0.0
 11
62.294740249
 21
22.2759314994
 31
0.0
  0
LINE
  5
C2
330
1F
100
AcDbEntity
  8
0
  6
Continuous
 62
     7
370
    25
100
AcDbLine
 10
63.1354854413
 20
21.0169170763
 30
0.0
 11
62.0856056336
 21
22.066796884
 31
0.0
  0
LINE
  5
C3
330
1F
100
AcDbEntity
  8
0
  6
Continuous
 62
     7
370
    25
100
AcDbLine
 10
63.2403532298
 20
21.1217848648
 30
0.0
 11
63.1354854413
 21
21.0169170763
 31
0.0
  0
CIRCLE
  5
C4
330
1F
100
AcDbEntity
  8
0
  6
Continuous
 62
     7
370
    25
100
AcDbCircle
 10
62.8131722543
 20
22.6764807617
 30
0.0
 40
5.750000000000007
  0
SPLINE
  5
C5
330
1F
100
AcDbEntity
  8
0
  6
Continuous
 62
     7
370
    25
100
AcDbSpline
210
0.0
220
0.0
230
1.0
 70
     8
 71
     3
 72
    19
 73
    15
 74
     0
 42
0.000000001
 43
0.00000001
 40
0.0
 40
0.0
 40
0.0
 40
0.0
 40
0.1057289484176121
 40
0.2069129705617966
 40
0.305557993241363
 40
0.4022404034576855
 40
0.4942954987103589
 40
0.5780610980893164
 40
0.6557675958613727
 40
0.7279268856081794
 40
0.7976084712980799
 40
0.8651260054669643
 40
0.9319580036291375
 40
1.0
 40
1.0
 40
1.0
 40
1.0
 10
61.11973000372272
 20
22.57729392907003
 30
0.0
 10
61.13118519379879
 20
22.58940687835316
 30
0.0
 10
61.15360315446579
 20
22.61311208261318
 30
0.0
 10
61.18268343378828
 20
22.65162687249798
 30
0.0
 10
61.20688016762914
 20
22.69170528220279
 30
0.0
 10
61.22587935276617
 20
22.73290049868302
 30
0.0
 10
61.24012015309648
 20
22.77350673188178
 30
0.0
 10
61.24846931704518
 20
22.81269667421361
 30
0.0
 10
61.25114141111687
 20
22.84955853577829
 30
0.0
 10
61.24784271903023
 20
22.88418291761089
 30
0.0
 10
61.23915305084111
 20
22.91612598492066
 30
0.0
 10
61.22697564259389
 20
22.94598830014962
 30
0.0
 10
61.20991828753121
 20
22.97319320674571
 30
0.0
 10
61.19550893224353
 20
22.98886093743361
 30
0.0
 10
61.18823961910734
 20
22.99676508291619
 30
0.0
  0
LINE
  5
C6
330
1F
100
AcDbEntity
  8
0
  6
Continuous
 62
     7
370
    25
100
AcDbLine
 10
61.2158838499
 20
22.4811400829
 30
0.0
 11
61.1197300037
 21
22.5772939291
 31
0.0
  0
SPLINE
  5
C7
330
1F
100
AcDbEntity
  8
0
  6
Continuous
 62
     7
370
    25
100
AcDbSpline
210
0.0
220
0.0
230
1.0
 70
     8
 71
     3
 72
    23
 73
    19
 74
     0
 42
0.000000001
 43
0.00000001
 40
0.0
 40
0.0
 40
0.0
 40
0.0
 40
0.0703488477789896
 40
0.139628080233595
 40
0.2103430788637842
 40
0.2826861933598407
 40
0.3554925770820694
 40
0.4270637206804205
 40
0.4988235429721526
 40
0.5723889365327269
 40
0.6113453637448515
 40
0.6543900516773974
 40
0.7012892835300569
 40
0.7519446404334635
 40
0.8074317301970527
 40
0.8672605470112177
 40
0.931092779498862
 40
1.0
 40
1.0
 40
1.0
 40
1.0
 10
61.75284298449196
 20
22.55956556368541
 30
0.0
 10
61.74228086834091
 20
22.56919692506576
 30
0.0
 10
61.72131722717355
 20
22.58831320830325
 30
0.0
 10
61.68519316352413
 20
22.61147689301979
 30
0.0
 10
61.64559639399747
 20
22.62884038930978
 30
0.0
 10
61.60331227178872
 20
22.64073333932195
 30
0.0
 10
61.55966158061825
 20
22.64718040572292
 30
0.0
 10
61.51566085377753
 20
22.64705719623841
 30
0.0
 10
61.47189641015051
 20
22.64114811656384
 30
0.0
 10
61.43592820680916
 20
22.63039176659
 30
0.0
 10
61.40670469852166
 20
22.61840868219718
 30
0.0
 10
61.38331160418688
 20
22.60664230590966
 30
0.0
 10
61.35876417575089
 20
22.59208045885854
 30
0.0
 10
61.33268038620651
 20
22.57520152364675
 30
0.0
 10
61.30554924892763
 20
22.55522573394054
 30
0.0
 10
61.27673094689539
 20
22.53306698622017
 30
0.0
 10
61.24646873561256
 20
22.50832737784249
 30
0.0
 10
61.22633539578575
 20
22.49043059534514
 30
0.0
 10
61.21588384987657
 20
22.48114008291618
 30
0.0
  0
SPLINE
  5
C8
330
1F
100
AcDbEntity
  8
0
  6
Continuous
 62
     7
370
    25
100
AcDbSpline
210
0.0
220
0.0
230
1.0
 70
     8
 71
     3
 72
    23
 73
    19
 74
     0
 42
0.000000001
 43
0.00000001
 40
0.0
 40
0.0
 40
0.0
 40
0.0
 40
0.0730680158386374
 40
0.1430722448992375
 40
0.2104157717152759
 40
0.2758231607745295
 40
0.338739629807794
 40
0.4018415148770468
 40
0.464698535264879
 40
0.5278596385078609
 40
0.5904135880675629
 40
0.651199405364936
 40
0.7101059465004965
 40
0.7678237372418046
 40
0.8250128290906081
 40
0.8820655679442739
 40
0.9403393445630305
 40
1.0
 40
1.0
 40
1.0
 40
1.0
 10
61.72910500372272
 20
22.07789489060849
 30
0.0
 10
61.73820769379959
 20
22.08734533253954
 30
0.0
 10
61.75603139256808
 20
22.10584995356758
 30
0.0
 10
61.77905717945848
 20
22.13585481219416
 30
0.0
 10
61.799178887436
 20
22.16621302793937
 30
0.0
 10
61.81542135900623
 20
22.19742456311807
 30
0.0
 10
61.82794912284387
 20
22.22948282403586
 30
0.0
 10
61.83685395378554
 20
22.26223180235045
 30
0.0
 10
61.84284572039153
 20
22.29571611092335
 30
0.0
 10
61.84430733327086
 20
22.32959164385735
 30
0.0
 10
61.84326460327945
 20
22.36307782703312
 30
0.0
 10
61.83898288038105
 20
22.39554922304281
 30
0.0
 10
61.83217849341081
 20
22.42669622600674
 30
0.0
 10
61.82221755783688
 20
22.45632460638297
 30
0.0
 10
61.80919446437923
 20
22.48436441759081
 30
0.0
 10
61.79340714965974
 20
22.51103804440014
 30
0.0
 10
61.77484252147264
 20
22.53646911102895
 30
0.0
 10
61.76023342988156
 20
22.55180662438586
 30
0.0
 10
61.75284298449196
 20
22.55956556368541
 30
0.0
  0
SPLINE
  5
C9
330
1F
100
AcDbEntity
  8
0
  6
Continuous
 62
     7
370
    25
100
AcDbSpline
210
0.0
220
0.0
230
1.0
 70
     8
 71
     3
 72
    15
 73
    11
 74
     0
 42
0.000000001
 43
0.00000001
 40
0.0
 40
0.0
 40
0.0
 40
0.0
 40
0.1203457795138441
 40
0.2388232513984639
 40
0.3594485260350544
 40
0.4804570524015699
 40
0.602883493191465
 40
0.7310108502422924
 40
0.8625425629612502
 40
1.0
 40
1.0
 40
1.0
 40
1.0
 10
61.50584779218426
 20
21.97002229445465
 30
0.0
 10
61.5159881784145
 20
21.97093494577456
 30
0.0
 10
61.53611152648474
 20
21.9727460799622
 30
0.0
 10
61.56596848853966
 20
21.97883470561263
 30
0.0
 10
61.59498112228385
 20
21.98824005510526
 30
0.0
 10
61.62334369913833
 20
22.00030021731985
 30
0.0
 10
61.65106802998429
 20
22.01519145097533
 30
0.0
 10
61.67789381743308
 20
22.03326317173803
 30
0.0
 10
61.70431461373864
 20
22.05406572537144
 30
0.0
 10
61.72072106452604
 20
22.06983603100267
 30
0.0
 10
61.72910500372272
 20
22.07789489060849
 30
0.0
  0
SPLINE
  5
CA
330
1F
100
AcDbEntity
  8
0
  6
Continuous
 62
     7
370
    25
100
AcDbSpline
210
0.0
220
0.0
230
1.0
 70
     8
 71
     3
 72
    15
 73
    11
 74
     0
 42
0.000000001
 43
0.00000001
 40
0.0
 40
0.0
 40
0.0
 40
0.0
 40
0.1516443853000921
 40
0.2942091114866407
 40
0.4291745983467759
 40
0.556575911727435
 40
0.6762246047064512
 40
0.7899405813610038
 40
0.897088535276769
 40
1.0
 40
1.0
 40
1.0
 40
1.0
 10
61.28018673449196
 20
22.04003431368541
 30
0.0
 10
61.29075025074842
 20
22.03412420148062
 30
0.0
 10
61.31124479610098
 20
22.02265784315077
 30
0.0
 10
61.34202180727222
 20
22.00759211808212
 30
0.0
 10
61.371723642234
 20
21.9947986410496
 30
0.0
 10
61.40060213734947
 20
21.98494407955115
 30
0.0
 10
61.42838103546838
 20
21.97729732783642
 30
0.0
 10
61.45508257957513
 20
21.97209331846498
 30
0.0
 10
61.48085814228436
 20
21.96954070292111
 30
0.0
 10
61.49763066525382
 20
21.96986393694361
 30
0.0
 10
61.50584779218426
 20
21.97002229445465
 30
0.0
  0
LINE
  5
CB
330
1F
100
AcDbEntity
  8
0
  6
Continuous
 62
     7
370
    25
100
AcDbLine
 10
61.1774223114
 20
21.9372698906
 30
0.0
 11
61.2801867345
 21
22.0400343137
 31
0.0
  0
SPLINE
  5
CC
330
1F
100
AcDbEntity
  8
0
  6
Continuous
 62
     7
370
    25
100
AcDbSpline
210
0.0
220
0.0
230
1.0
 70
     8
 71
     3
 72
    23
 73
    19
 74
     0
 42
0.000000001
 43
0.00000001
 40
0.0
 40
0.0
 40
0.0
 40
0.0
 40
0.0651136382987997
 40
0.1282185933053529
 40
0.1894734259769019
 40
0.2489956462554719
 40
0.3072701941117207
 40
0.3652120214271439
 40
0.423058650276389
 40
0.4816341671326471
 40
0.5406263849922192
 40
0.6002014930275462
 40
0.6609241575761039
 40
0.7233279014169866
 40
0.7879045943012336
 40
0.8556533482834988
 40
0.9258587867477687
 40
1.0
 40
1.0
 40
1.0
 40
1.0
 10
61.82976606141504
 20
21.97422902522388
 30
0.0
 10
61.81851187172675
 20
21.96342899920232
 30
0.0
 10
61.79635067157998
 20
21.94216211594524
 30
0.0
 10
61.76078170232859
 20
21.91388168790348
 30
0.0
 10
61.72408105615153
 20
21.88946395021988
 30
0.0
 10
61.68638851388973
 20
21.86891547576077
 30
0.0
 10
61.6476983746882
 20
21.85218848197193
 30
0.0
 10
61.6078826214714
 20
21.83965959867747
 30
0.0
 10
61.56709554114059
 20
21.8304878519125
 30
0.0
 10
61.52532933676026
 20
21.82537420691092
 30
0.0
 10
61.48285105448159
 20
21.82449338757464
 30
0.0
 10
61.43998265261646
 20
21.82784285868925
 30
0.0
 10
61.39683080242746
 20
21.83543252223321
 30
0.0
 10
61.3534151438487
 20
21.84727389366034
 30
0.0
 10
61.30956336453009
 20
21.8633035674628
 30
0.0
 10
61.26561018936049
 20
21.88389346289416
 30
0.0
 10
61.22099193807718
 20
21.90826752802283
 30
0.0
 10
61.19220713702602
 20
21.92742828979652
 30
0.0
 10
61.17742231141504
 20
21.93726989060849
 30
0.0
  0
SPLINE
  5
CD
330
1F
100
AcDbEntity
  8
0
  6
Continuous
 62
     7
370
    25
100
AcDbSpline
210
0.0
220
0.0
230
1.0
 70
     8
 71
     3
 72
    19
 73
    15
 74
     0
 42
0.000000001
 43
0.00000001
 40
0.0
 40
0.0
 40
0.0
 40
0.0
 40
0.080576436103305
 40
0.160371490665394
 40
0.2414880191094218
 40
0.3250087558576584
 40
0.4089616532479635
 40
0.4906870084144028
 40
0.5725768746389615
 40
0.6557926854219235
 40
0.7398417121155405
 40
0.8240764552485729
 40
0.9104351150664252
 40
1.0
 40
1.0
 40
1.0
 40
1.0
 10
61.84749442679965
 20
22.67164489060849
 30
0.0
 10
61.86166618061308
 20
22.65628472601585
 30
0.0
 10
61.88987225914315
 20
22.62571335041631
 30
0.0
 10
61.92429600572439
 20
22.57314731301458
 30
0.0
 10
61.95177291118824
 20
22.51593599416591
 30
0.0
 10
61.97198070509517
 20
22.45462365128236
 30
0.0
 10
61.9847353700239
 20
22.39116920544203
 30
0.0
 10
61.98845816033934
 20
22.32692476234315
 30
0.0
 10
61.98286912087426
 20
22.26302877558265
 30
0.0
 10
61.96869886878609
 20
22.19988076972303
 30
0.0
 10
61.94613354429205
 20
22.13856288185463
 30
0.0
 10
61.91540027019331
 20
22.08002621652507
 30
0.0
 10
61.87677709608013
 20
22.02451066445438
 30
0.0
 10
61.84562565241635
 20
21.99119198378781
 30
0.0
 10
61.82976606141504
 20
21.97422902522388
 30
0.0
  0
SPLINE
  5
CE
330
1F
100
AcDbEntity
  8
0
  6
Continuous
 62
     7
370
    25
100
AcDbSpline
210
0.0
220
0.0
230
1.0
 70
     8
 71
     3
 72
    15
 73
    11
 74
     0
 42
0.000000001
 43
0.00000001
 40
0.0
 40
0.0
 40
0.0
 40
0.0
 40
0.1308828194382181
 40
0.258259665309488
 40
0.3832751894435328
 40
0.5061956902646068
 40
0.6278103920359801
 40
0.7505216511654043
 40
0.8741562318766931
 40
1.0
 40
1.0
 40
1.0
 40
1.0
 10
61.59208577295349
 20
22.79003431368541
 30
0.0
 10
61.60453531453553
 20
22.78852824199573
 30
0.0
 10
61.62910091035653
 20
22.78555644193687
 30
0.0
 10
61.6650436270052
 20
22.77773711585701
 30
0.0
 10
61.69929111995797
 20
22.76672143341317
 30
0.0
 10
61.73228067484175
 20
22.75374319465157
 30
0.0
 10
61.76335614989303
 20
22.73714801858981
 30
0.0
 10
61.79325183773651
 20
22.71840310327155
 30
0.0
 10
61.82123886855977
 20
22.69620824529843
 30
0.0
 10
61.83869105968164
 20
22.67988086971089
 30
0.0
 10
61.84749442679965
 20
22.67164489060849
 30
0.0
  0
SPLINE
  5
CF
330
1F
100
AcDbEntity
  8
0
  6
Continuous
 62
     7
370
    25
100
AcDbSpline
210
0.0
220
0.0
230
1.0
 70
     8
 71
     3
 72
    11
 73
     7
 74
     0
 42
0.000000001
 43
0.00000001
 40
0.0
 40
0.0
 40
0.0
 40
0.0
 40
0.2579472690479108
 40
0.5087322070443625
 40
0.754103268007024
 40
1.0
 40
1.0
 40
1.0
 40
1.0
 10
61.37814346526119
 20
22.75577950599311
 30
0.0
 10
61.39573477345835
 20
22.76251268211597
 30
0.0
 10
61.43042893818812
 20
22.7757920766296
 30
0.0
 10
61.48422747306113
 20
22.78815821145825
 30
0.0
 10
61.53833964033513
 20
22.79319962310003
 30
0.0
 10
61.57415761998243
 20
22.79109016921625
 30
0.0
 10
61.59208577295349
 20
22.79003431368541
 30
0.0
  0
SPLINE
  5
D0
330
1F
100
AcDbEntity
  8
0
  6
Continuous
 62
     7
370
    25
100
AcDbSpline
210
0.0
220
0.0
230
1.0
 70
     8
 71
     3
 72
    15
 73
    11
 74
     0
 42
0.000000001
 43
0.00000001
 40
0.0
 40
0.0
 40
0.0
 40
0.0
 40
0.12421961787181
 40
0.2437921031270657
 40
0.3610694411538696
 40
0.4785415562187783
 40
0.5994738985980935
 40
0.7254247600032049
 40
0.8584023739957897
 40
1.0
 40
1.0
 40
1.0
 40
1.0
 10
61.2982155806458
 20
23.10553912137772
 30
0.0
 10
61.30887921592821
 20
23.09410429897768
 30
0.0
 10
61.32980755331178
 20
23.07166243794516
 30
0.0
 10
61.3548628061964
 20
23.0335656803162
 30
0.0
 10
61.37406702120225
 20
22.99324170144934
 30
0.0
 10
61.38714572136083
 20
22.95030411880882
 30
0.0
 10
61.39385518303762
 20
22.90486674062873
 30
0.0
 10
61.39510615178954
 20
22.85702343168265
 30
0.0
 10
61.38979577689445
 20
22.8068030074691
 30
0.0
 10
61.38210801893473
 20
22.77313961586487
 30
0.0
 10
61.37814346526119
 20
22.75577950599311
 30
0.0
  0
SPLINE
  5
D1
330
1F
100
AcDbEntity
  8
0
  6
Continuous
 62
     7
370
    25
100
AcDbSpline
210
0.0
220
0.0
230
1.0
 70
     8
 71
     3
 72
    19
 73
    15
 74
     0
 42
0.000000001
 43
0.00000001
 40
0.0
 40
0.0
 40
0.0
 40
0.0
 40
0.0895929914958808
 40
0.1777045492777579
 40
0.2648796628961914
 40
0.3531465390832668
 40
0.4405958711776069
 40
0.5246598301314999
 40
0.6068103143079139
 40
0.6891287180192627
 40
0.7700431083273499
 40
0.8475352562635293
 40
0.9237274558445454
 40
1.0
 40
1.0
 40
1.0
 40
1.0
 10
60.7248982729535
 20
23.07489008291618
 30
0.0
 10
60.73883371529122
 20
23.08785013475621
 30
0.0
 10
60.76647417531233
 20
23.11355594201184
 30
0.0
 10
60.81272848573488
 20
23.1458931641568
 30
0.0
 10
60.86260766329953
 20
23.17149091544407
 30
0.0
 10
60.91489782467006
 20
23.19130779575108
 30
0.0
 10
60.96857670504783
 20
23.20447618344053
 30
0.0
 10
61.02220572727428
 20
23.21078104509972
 30
0.0
 10
61.07512670595037
 20
23.20922377752294
 30
0.0
 10
61.12658418730543
 20
23.20037996150548
 30
0.0
 10
61.17568730450968
 20
23.18567195046326
 30
0.0
 10
61.22089877976111
 20
23.16453961023285
 30
0.0
 10
61.26252167201523
 20
23.13858403249269
 30
0.0
 10
61.28631343190916
 20
23.11655796078671
 30
0.0
 10
61.2982155806458
 20
23.10553912137772
 30
0.0
  0
SPLINE
  5
D2
330
1F
100
AcDbEntity
  8
0
  6
Continuous
 62
     7
370
    25
100
AcDbSpline
210
0.0
220
0.0
230
1.0
 70
     8
 71
     3
 72
    23
 73
    19
 74
     0
 42
0.000000001
 43
0.00000001
 40
0.0
 40
0.0
 40
0.0
 40
0.0
 40
0.0731350659025822
 40
0.1433188428756373
 40
0.210650139990688
 40
0.2762700695936492
 40
0.3395547839766537
 40
0.4016838389936606
 40
0.462858893462666
 40
0.5234847455120769
 40
0.5835961311287838
 40
0.6426304656932164
 40
0.7011635571821346
 40
0.7595409545756663
 40
0.8177915440987422
 40
0.8770624362120503
 40
0.9375567908908979
 40
1.0
 40
1.0
 40
1.0
 40
1.0
 10
60.68703769603042
 20
22.49736604445465
 30
0.0
 10
60.67898178485409
 20
22.5104541162747
 30
0.0
 10
60.66319505035335
 20
22.53610210449449
 30
0.0
 10
60.64411338812134
 20
22.57605301986089
 30
0.0
 10
60.62692579019178
 20
22.61513985306474
 30
0.0
 10
60.61470436925679
 20
22.65454690220716
 30
0.0
 10
60.60488503348674
 20
22.69349602073382
 30
0.0
 10
60.59986205914574
 20
22.73240846361353
 30
0.0
 10
60.59703978224577
 20
22.77097246003344
 30
0.0
 10
60.59876913410952
 20
22.8092106086875
 30
0.0
 10
60.60356833165166
 20
22.84668185195165
 30
0.0
 10
60.61128740139639
 20
22.88324132634504
 30
0.0
 10
60.62254183468065
 20
22.918487746534
 30
0.0
 10
60.63663603788363
 20
22.95250527006169
 30
0.0
 10
60.65386957978668
 20
22.98524561820495
 30
0.0
 10
60.67448997794806
 20
23.01646955473117
 30
0.0
 10
60.69789268427125
 20
23.04681935548401
 30
0.0
 10
60.71580177607927
 20
23.06543480729348
 30
0.0
 10
60.7248982729535
 20
23.07489008291618
 30
0.0
  0
LINE
  5
D3
330
1F
100
AcDbEntity
  8
0
  6
Continuous
 62
     7
370
    25
100
AcDbLine
 10
60.7943093306
 20
22.6046376791
 30
0.0
 11
60.687037696
 21
22.4973660445
 31
0.0
  0
SPLINE
  5
D4
330
1F
100
AcDbEntity
  8
0
  6
Continuous
 62
     7
370
    25
100
AcDbSpline
210
0.0
220
0.0
230
1.0
 70
     8
 71
     3
 72
    19
 73
    15
 74
     0
 42
0.000000001
 43
0.00000001
 40
0.0
 40
0.0
 40
0.0
 40
0.0
 40
0.1167675801713198
 40
0.2280775627199397
 40
0.3372206510249982
 40
0.4461255525158016
 40
0.5021574110359225
 40
0.5618439075693563
 40
0.6241640260185536
 40
0.6909917051104404
 40
0.7609854225273329
 40
0.836248065124775
 40
0.9153845753823187
 40
0.9999999999999999
 40
0.9999999999999999
 40
0.9999999999999999
 40
0.9999999999999999
 10
60.82706173449196
 20
22.97272662137772
 30
0.0
 10
60.81655942327929
 20
22.96131869147059
 30
0.0
 10
60.79604566817026
 20
22.93903602666686
 30
0.0
 10
60.77224970350937
 20
22.90083036687853
 30
0.0
 10
60.75591710008229
 20
22.86014826378231
 30
0.0
 10
60.74806718645092
 20
22.82442281834019
 30
0.0
 10
60.74626454454457
 20
22.79466619911093
 30
0.0
 10
60.74640420363433
 20
22.77102928223458
 30
0.0
 10
60.74934116373386
 20
22.74612448548218
 30
0.0
 10
60.7542041283421
 20
22.7201656330832
 30
0.0
 10
60.76080333588903
 20
22.69281152890277
 30
0.0
 10
60.76989177513963
 20
22.66446121861265
 30
0.0
 10
60.78110678706163
 20
22.63480861943863
 30
0.0
 10
60.78981140131367
 20
22.61491651335653
 30
0.0
 10
60.7943093306458
 20
22.60463767907003
 30
0.0
  0
SPLINE
  5
D5
330
1F
100
AcDbEntity
  8
0
  6
Continuous
 62
     7
370
    25
100
AcDbSpline
210
0.0
220
0.0
230
1.0
 70
     8
 71
     3
 72
    23
 73
    19
 74
     0
 42
0.000000001
 43
0.00000001
 40
0.0
 40
0.0
 40
0.0
 40
0.0
 40
0.0591437275897559
 40
0.1167150890705871
 40
0.1741558975962605
 40
0.2309492319425771
 40
0.28873752626371
 40
0.3472383681560689
 40
0.4086788038810793
 40
0.4720661100984869
 40
0.5364760336796572
 40
0.6002438377181529
 40
0.6632439347766351
 40
0.7270901793882615
 40
0.7924599631338878
 40
0.8592686518663304
 40
0.9282156920095006
 40
1.0
 40
1.0
 40
1.0
 40
1.0
 10
61.18823961910734
 20
22.99676508291619
 30
0.0
 10
61.18242556621115
 20
23.00218279552431
 30
0.0
 10
61.17095202997504
 20
23.01287418809264
 30
0.0
 10
61.15216870889373
 20
23.02692329995505
 30
0.0
 10
61.13201026359885
 20
23.03827203397352
 30
0.0
 10
61.11072419063889
 20
23.04734893470928
 30
0.0
 10
61.0884970212863
 20
23.05432323445734
 30
0.0
 10
61.0650014292296
 20
23.05877343548184
 30
0.0
 10
61.04046332787176
 20
23.06120380371173
 30
0.0
 10
61.01500696374313
 20
23.06114370263611
 30
0.0
 10
60.9893482259777
 20
23.05878859010754
 30
0.0
 10
60.96409062154147
 20
23.0539748200162
 30
0.0
 10
60.93945282104617
 20
23.04680101151396
 30
0.0
 10
60.91571268477487
 20
23.03656635117636
 30
0.0
 10
60.89214335270999
 20
23.02476852488428
 30
0.0
 10
60.86951714047721
 20
23.00989022019653
 30
0.0
 10
60.84789122645763
 20
22.9922482145226
 30
0.0
 10
60.83409759572599
 20
22.97932069581127
 30
0.0
 10
60.82706173449196
 20
22.97272662137772
 30
0.0
  0
SPLINE
  5
D6
330
1F
100
AcDbEntity
  8
0
  6
Continuous
 62
     7
370
    25
100
AcDbSpline
210
0.0
220
0.0
230
1.0
 70
     8
 71
     3
 72
    31
 73
    27
 74
     0
 42
0.000000001
 43
0.00000001
 40
0.0
 40
0.0
 40
0.0
 40
0.0
 40
0.0340625437668023
 40
0.0673138855976699
 40
0.1002986917293197
 40
0.1328915753415363
 40
0.1654542126705892
 40
0.1984564401369067
 40
0.2315592824902879
 40
0.2655034986764517
 40
0.2998732210996858
 40
0.3348750234665335
 40
0.3704365550514275
 40
0.4070493254137256
 40
0.444649056291662
 40
0.4836382628524705
 40
0.524053508423317
 40
0.5661466743313504
 40
0.6102573304114862
 40
0.6569339262658019
 40
0.7066268298851165
 40
0.7589305312314925
 40
0.814297716023405
 40
0.8730747594856018
 40
0.9349497890039754
 40
1.0
 40
1.0
 40
1.0
 40
1.0
 10
61.52255036785018
 20
23.95638190188962
 30
0.0
 10
61.53112240460037
 20
23.96465661360961
 30
0.0
 10
61.54806233442745
 20
23.9810089741933
 30
0.0
 10
61.57578031265473
 20
24.00255091451256
 30
0.0
 10
61.60416952706647
 20
24.02228107875523
 30
0.0
 10
61.6341325870521
 20
24.03907811339302
 30
0.0
 10
61.66522915648523
 20
24.05365261877413
 30
0.0
 10
61.69763940935406
 20
24.0655534583928
 30
0.0
 10
61.73125826489832
 20
24.07528073173775
 30
0.0
 10
61.76600976095938
 20
24.08248756945438
 30
0.0
 10
61.80187647929427
 20
24.08692297307558
 30
0.0
 10
61.83855086525493
 20
24.08892738598411
 30
0.0
 10
61.87601178237622
 20
24.08712433211586
 30
0.0
 10
61.91419859264947
 20
24.08307566409428
 30
0.0
 10
61.95308310762476
 20
24.07559005735145
 30
0.0
 10
61.99284604664745
 20
24.06589022804394
 30
0.0
 10
62.03312311281771
 20
24.05231452603575
 30
0.0
 10
62.07445426991748
 20
24.03646048673368
 30
0.0
 10
62.11677147453582
 20
24.01721507869869
 30
0.0
 10
62.15983799340333
 20
23.99354120614825
 30
0.0
 10
62.203804153615
 20
23.96580354668101
 30
0.0
 10
62.24908423395947
 20
23.93453776799732
 30
0.0
 10
62.29506660953492
 20
23.8988522602806
 30
0.0
 10
62.34211943626818
 20
23.85919595676868
 30
0.0
 10
62.39026055267733
 20
23.81562765302338
 30
0.0
 10
62.42189986735765
 20
23.7845228724246
 30
0.0
 10
62.43811527169633
 20
23.76858142112039
 30
0.0
  0
SPLINE
  5
D7
330
1F
100
AcDbEntity
  8
0
  6
Continuous
 62
     7
370
    25
100
AcDbSpline
210
0.0
220
0.0
230
1.0
 70
     8
 71
     3
 72
    31
 73
    27
 74
     0
 42
0.000000001
 43
0.00000001
 40
0.0
 40
0.0
 40
0.0
 40
0.0
 40
0.0685392375563685
 40
0.1330574173017168
 40
0.193631077183116
 40
0.2505306821562904
 40
0.3036142074401768
 40
0.3534609049693049
 40
0.399580090816491
 40
0.4424160216489261
 40
0.4830723824124631
 40
0.5220229044503065
 40
0.5599473210514606
 40
0.5966633013156785
 40
0.6323728579706366
 40
0.6673061936474429
 40
0.7019513182513509
 40
0.735941787389277
 40
0.7694887228848919
 40
0.8027329281118958
 40
0.8353134843410184
 40
0.8678314089480395
 40
0.9002481012228697
 40
0.9330513656415885
 40
0.9661186419532682
 40
1.0
 40
1.0
 40
1.0
 40
1.0
 10
61.72146863708095
 20
23.05193478650501
 30
0.0
 10
61.70472588067943
 20
23.0688504020596
 30
0.0
 10
61.67222263137695
 20
23.10168922837293
 30
0.0
 10
61.62683358687422
 20
23.15131441619945
 30
0.0
 10
61.58585353731574
 20
23.19943589198337
 30
0.0
 10
61.54922090962864
 20
23.24598308139314
 30
0.0
 10
61.51647177677329
 20
23.29081216114681
 30
0.0
 10
61.48828203308539
 20
23.33424486218693
 30
0.0
 10
61.46427145084885
 20
23.37607230534492
 30
0.0
 10
61.44485152847133
 20
23.41672262434107
 30
0.0
 10
61.42929902502825
 20
23.45631508733099
 30
0.0
 10
61.41617591487543
 20
23.49497704301118
 30
0.0
 10
61.40590623086619
 20
23.53309002752629
 30
0.0
 10
61.39860586161717
 20
23.57074533121254
 30
0.0
 10
61.39446515139677
 20
23.60782293281152
 30
0.0
 10
61.3928005941635
 20
23.64438179522061
 30
0.0
 10
61.39439682135363
 20
23.68034961029271
 30
0.0
 10
61.39853755178824
 20
23.71562322890539
 30
0.0
 10
61.40555094347273
 20
23.74994470082066
 30
0.0
 10
61.41477701348391
 20
23.78321877278103
 30
0.0
 10
61.42648537827797
 20
23.81535161215287
 30
0.0
 10
61.44111319135778
 20
23.84592149799902
 30
0.0
 10
61.45752808681223
 20
23.87567138261527
 30
0.0
 10
61.47698673775864
 20
23.90374854376324
 30
0.0
 10
61.49822103687752
 20
23.93117038499534
 30
0.0
 10
61.5143751140982
 20
23.94791021196462
 30
0.0
 10
61.52255036785018
 20
23.95638190188962
 30
0.0
  0
SPLINE
  5
D8
330
1F
100
AcDbEntity
  8
0
  6
Continuous
 62
     7
370
    25
100
AcDbSpline
210
0.0
220
0.0
230
1.0
 70
     8
 71
     3
 72
    31
 73
    27
 74
     0
 42
0.000000001
 43
0.00000001
 40
0.0
 40
0.0
 40
0.0
 40
0.0
 40
0.0339161406116254
 40
0.0667911467684395
 40
0.0996280869823199
 40
0.1318265592299254
 40
0.1643778667025712
 40
0.1967210286892328
 40
0.2297213409237039
 40
0.2630197127526298
 40
0.2967583839686782
 40
0.3311505724363447
 40
0.3661197706371222
 40
0.4018997925665817
 40
0.438653465415743
 40
0.47654316710372
 40
0.5160815487196686
 40
0.557154884445724
 40
0.6004200138433164
 40
0.6470895029678522
 40
0.6968308887516991
 40
0.75003477146513
 40
0.8069927895101677
 40
0.8674089097323783
 40
0.9317987325696279
 40
0.9999999999999999
 40
0.9999999999999999
 40
0.9999999999999999
 40
0.9999999999999999
 10
62.62531479092711
 20
22.8536174788127
 30
0.0
 10
62.61682926643565
 20
22.84546004634416
 30
0.0
 10
62.60011870027171
 20
22.82939559268185
 30
0.0
 10
62.57296678582901
 20
22.80794292412842
 30
0.0
 10
62.54493905337391
 20
22.78870649470391
 30
0.0
 10
62.51540994140602
 20
22.77208261420795
 30
0.0
 10
62.48495160265204
 20
22.75763461645109
 30
0.0
 10
62.45306349998295
 20
22.74583096348418
 30
0.0
 10
62.4200802050012
 20
22.73662153353029
 30
0.0
 10
62.38606120230093
 20
22.72960570691058
 30
0.0
 10
62.35108543553851
 20
22.72545604377925
 30
0.0
 10
62.31532088278475
 20
22.7238937930225
 30
0.0
 10
62.27883633491028
 20
22.72543401578135
 30
0.0
 10
62.24180134593338
 20
22.73006279848839
 30
0.0
 10
62.20416714421407
 20
22.73731665733973
 30
0.0
 10
62.16580341469537
 20
22.74727725596628
 30
0.0
 10
62.12677638805631
 20
22.76026274852785
 30
0.0
 10
62.08684936125487
 20
22.77622563784831
 30
0.0
 10
62.04592651698424
 20
22.79605940634912
 30
0.0
 10
62.00363723636114
 20
22.81976336228322
 30
0.0
 10
61.96002561026401
 20
22.84794287925894
 30
0.0
 10
61.91486126731175
 20
22.88017016630231
 30
0.0
 10
61.86839831513316
 20
22.91684415962921
 30
0.0
 10
61.82063381387404
 20
22.95800962740145
 30
0.0
 10
61.77091245848403
 20
23.00286756348327
 30
0.0
 10
61.73826275875446
 20
23.03526858049131
 30
0.0
 10
61.72146863708095
 20
23.05193478650501
 30
0.0
  0
SPLINE
  5
D9
330
1F
100
AcDbEntity
  8
0
  6
Continuous
 62
     7
370
    25
100
AcDbSpline
210
0.0
220
0.0
230
1.0
 70
     8
 71
     3
 72
    31
 73
    27
 74
     0
 42
0.000000001
 43
0.00000001
 40
0.0
 40
0.0
 40
0.0
 40
0.0
 40
0.0650931380611512
 40
0.1266039765373226
 40
0.1850158110860341
 40
0.2401927525856705
 40
0.2926948785080097
 40
0.3417823620468381
 40
0.388238232793063
 40
0.4321173744957395
 40
0.4739710174663261
 40
0.5141406009624558
 40
0.5528774178269759
 40
0.5905019610163778
 40
0.6271388923883595
 40
0.6630104030816908
 40
0.6983217028166657
 40
0.7329986161773792
 40
0.7672460775099881
 40
0.8006463810336941
 40
0.8339394285304621
 40
0.8667836833964285
 40
0.8993980752684351
 40
0.9326416935233396
 40
0.9659149781349369
 40
1.0
 40
1.0
 40
1.0
 40
1.0
 10
62.43811527169633
 20
23.76858142112039
 30
0.0
 10
62.45405705192544
 20
23.75236647162459
 30
0.0
 10
62.48506328131005
 20
23.72082893715217
 30
0.0
 10
62.52844354455546
 20
23.67289703471297
 30
0.0
 10
62.56777999645576
 20
23.62604916274295
 30
0.0
 10
62.60352627037263
 20
23.5803284449923
 30
0.0
 10
62.63492719563213
 20
23.53543571862588
 30
0.0
 10
62.66250514501133
 20
23.49166841328699
 30
0.0
 10
62.68614962952848
 20
23.44904777681765
 30
0.0
 10
62.70538741835602
 20
23.40702477667217
 30
0.0
 10
62.72124633524875
 20
23.36599527505377
 30
0.0
 10
62.73481597893081
 20
23.32601822615064
 30
0.0
 10
62.7445615981385
 20
23.28646317736217
 30
0.0
 10
62.75200234027979
 20
23.24766835524053
 30
0.0
 10
62.75607298629952
 20
23.20938350480868
 30
0.0
 10
62.75785749789142
 20
23.171721087113
 30
0.0
 10
62.75585628717891
 20
23.13474761016769
 30
0.0
 10
62.75142066536654
 20
23.0985810054813
 30
0.0
 10
62.74421220272374
 20
23.06353086854425
 30
0.0
 10
62.73449122649127
 20
23.02960897154475
 30
0.0
 10
62.72257230098295
 20
22.99691010132499
 30
0.0
 10
62.70810206602876
 20
22.96555439284758
 30
0.0
 10
62.69111241935628
 20
22.93550446707277
 30
0.0
 10
62.67158693776016
 20
22.90687781429289
 30
0.0
 10
62.64992842185442
 20
22.87913846738736
 30
0.0
 10
62.6335849863362
 20
22.86219254695967
 30
0.0
 10
62.62531479092711
 20
22.8536174788127
 30
0.0
  0
SPLINE
  5
DA
330
1F
100
AcDbEntity
  8
0
  6
Continuous
 62
     7
370
    25
100
AcDbSpline
210
0.0
220
0.0
230
1.0
 70
    24
 71
     3
 72
    12
 73
     8
 74
     0
 42
0.000000001
 43
0.00000001
 40
0.0
 40
0.0
 40
0.0
 40
0.0
 40
0.5
 40
0.5
 40
0.75
 40
0.75
 40
1.0
 40
1.0
 40
1.0
 40
1.0
 10
64.32345362857153
 20
15.70148076174157
 30
0.0
 10
63.82286933311921
 20
15.70148076174157
 30
0.0
 10
63.32039391904398
 20
15.70148076174157
 30
0.0
 10
62.5635941573366
 20
15.70148076174157
 30
0.0
 10
62.31081565127436
 20
15.70148076174157
 30
0.0
 10
61.80424029890047
 20
15.70148076174157
 30
0.0
 10
61.55089723767832
 20
15.70148076174157
 30
0.0
 10
61.30289088009668
 20
15.70148076174157
 30
0.0
  0
SPLINE
  5
DB
330
1F
100
AcDbEntity
  8
0
  6
Continuous
 62
     7
370
    25
100
AcDbSpline
210
0.0
220
0.0
230
1.0
 70
    24
 71
     3
 72
    18
 73
    14
 74
     0
 42
0.000000001
 43
0.00000001
 40
0.0
 40
0.0
 40
0.0
 40
0.0
 40
0.2500000000000002
 40
0.2500000000000002
 40
0.3750000000000001
 40
0.3750000000000001
 40
0.5000000000000001
 40
0.5000000000000001
 40
0.6250000000000001
 40
0.6250000000000001
 40
0.75
 40
0.75
 40
1.0
 40
1.0
 40
1.0
 40
1.0
 10
61.30289088009668
 20
15.70148076174157
 30
0.0
 10
60.88699958799135
 20
16.1173720538469
 30
0.0
 10
60.45723137560192
 20
16.54714026623634
 30
0.0
 10
59.77231466964454
 20
17.23205697219372
 30
0.0
 10
59.53505369306467
 20
17.46931794877359
 30
0.0
 10
59.06148012736293
 20
17.94289151447532
 30
0.0
 10
58.82364365207614
 20
18.18072798976211
 30
0.0
 10
58.34571693910361
 20
18.65865470273464
 30
0.0
 10
58.10408049599524
 20
18.90029114584301
 30
0.0
 10
57.62560051498696
 20
19.3787711268513
 30
0.0
 10
57.39208810956496
 20
19.61228353227328
 30
0.0
 10
56.70496632254356
 20
20.2994053192947
 30
0.0
 10
56.26217907778468
 20
20.74219256405357
 30
0.0
 10
55.83817225433167
 20
21.16619938750659
 30
0.0
  0
SPLINE
  5
DC
330
1F
100
AcDbEntity
  8
0
  6
Continuous
 62
     7
370
    25
100
AcDbSpline
210
0.0
220
0.0
230
1.0
 70
    24
 71
     3
 72
    12
 73
     8
 74
     0
 42
0.000000001
 43
0.00000001
 40
0.0
 40
0.0
 40
0.0
 40
0.0
 40
0.5000000000000001
 40
0.5000000000000001
 40
0.7500000000000002
 40
0.7500000000000002
 40
1.0
 40
1.0
 40
1.0
 40
1.0
 10
55.83817225433526
 20
21.16619938750529
 30
0.0
 10
55.83817225433526
 20
21.66678368295444
 30
0.0
 10
55.83817225433526
 20
22.16925909702648
 30
0.0
 10
55.83817225433526
 20
22.92605885872903
 30
0.0
 10
55.83817225433526
 20
23.17883736478966
 30
0.0
 10
55.83817225433526
 20
23.6854127171603
 30
0.0
 10
55.83817225433526
 20
23.93875577838104
 30
0.0
 10
55.83817225433526
 20
24.18676213596131
 30
0.0
  0
SPLINE
  5
DD
330
1F
100
AcDbEntity
  8
0
  6
Continuous
 62
     7
370
    25
100
AcDbSpline
210
0.0
220
0.0
230
1.0
 70
    24
 71
     3
 72
    18
 73
    14
 74
     0
 42
0.000000001
 43
0.00000001
 40
0.0
 40
0.0
 40
0.0
 40
0.0
 40
0.2499999999999998
 40
0.2499999999999998
 40
0.3749999999999998
 40
0.3749999999999998
 40
0.4999999999999999
 40
0.4999999999999999
 40
0.6249999999999999
 40
0.6249999999999999
 40
0.7499999999999999
 40
0.7499999999999999
 40
1.0
 40
1.0
 40
1.0
 40
1.0
 10
55.83817225432902
 20
24.1867621359739
 30
0.0
 10
56.25406354643495
 20
24.60265342807983
 30
0.0
 10
56.68383175882499
 20
25.03242164046986
 30
0.0
 10
57.36874846478332
 20
25.7173383464282
 30
0.0
 10
57.60600944136355
 20
25.95459932300844
 30
0.0
 10
58.07958300706612
 20
26.428172888711
 30
0.0
 10
58.31741948235332
 20
26.6660093639982
 30
0.0
 10
58.79534619532669
 20
27.14393607697157
 30
0.0
 10
59.03698263843549
 20
27.38557252008037
 30
0.0
 10
59.51546261944465
 20
27.86405250108953
 30
0.0
 10
59.74897502486706
 20
28.09756490651194
 30
0.0
 10
60.43609681188967
 20
28.78468669353455
 30
0.0
 10
60.87888405664929
 20
29.22747393829417
 30
0.0
 10
61.30289088010299
 20
29.65148076174787
 30
0.0
  0
SPLINE
  5
DE
330
1F
100
AcDbEntity
  8
0
  6
Continuous
 62
     7
370
    25
100
AcDbSpline
210
0.0
220
0.0
230
1.0
 70
    24
 71
     3
 72
    12
 73
     8
 74
     0
 42
0.000000001
 43
0.00000001
 40
0.0
 40
0.0
 40
0.0
 40
0.0
 40
0.5
 40
0.5
 40
0.75
 40
0.75
 40
1.0
 40
1.0
 40
1.0
 40
1.0
 10
64.32345362856277
 20
29.65148076174157
 30
0.0
 10
63.82286933311244
 20
29.65148076174157
 30
0.0
 10
63.32039391903961
 20
29.65148076174157
 30
0.0
 10
62.56359415733555
 20
29.65148076174157
 30
0.0
 10
62.31081565127442
 20
29.65148076174157
 30
0.0
 10
61.80424029890278
 20
29.65148076174157
 30
0.0
 10
61.55089723768171
 20
29.65148076174157
 30
0.0
 10
61.30289088010111
 20
29.65148076174157
 30
0.0
  0
SPLINE
  5
DF
330
1F
100
AcDbEntity
  8
0
  6
Continuous
 62
     7
370
    25
100
AcDbSpline
210
0.0
220
0.0
230
1.0
 70
    24
 71
     3
 72
    18
 73
    14
 74
     0
 42
0.000000001
 43
0.00000001
 40
0.0
 40
0.0
 40
0.0
 40
0.0
 40
0.2499999999999999
 40
0.2499999999999999
 40
0.3749999999999999
 40
0.3749999999999999
 40
0.5
 40
0.5
 40
0.6250000000000001
 40
0.6250000000000001
 40
0.75
 40
0.75
 40
1.0
 40
1.0
 40
1.0
 40
1.0
 10
64.32345362857018
 20
29.65148076174523
 30
0.0
 10
64.73934492067596
 20
29.23558946963944
 30
0.0
 10
65.16911313306586
 20
28.80582125724953
 30
0.0
 10
65.854029839024
 20
28.12090455129139
 30
0.0
 10
66.09129081560415
 20
27.88364357471124
 30
0.0
 10
66.5648643813065
 20
27.41007000900889
 30
0.0
 10
66.80270085659359
 20
27.1722335337218
 30
0.0
 10
67.28062756956675
 20
26.69430682074864
 30
0.0
 10
67.52226401267544
 20
26.45267037763994
 30
0.0
 10
68.00074399368434
 20
25.97419039663106
 30
0.0
 10
68.23425639910663
 20
25.74067799120877
 30
0.0
 10
68.92137818612886
 20
25.05355620418652
 30
0.0
 10
69.36416543088828
 20
24.61076895942712
 30
0.0
 10
69.78817225434176
 20
24.18676213597363
 30
0.0
  0
SPLINE
  5
E0
330
1F
100
AcDbEntity
  8
0
  6
Continuous
 62
     7
370
    25
100
AcDbSpline
210
0.0
220
0.0
230
1.0
 70
    24
 71
     3
 72
    12
 73
     8
 74
     0
 42
0.000000001
 43
0.00000001
 40
0.0
 40
0.0
 40
0.0
 40
0.0
 40
0.5
 40
0.5
 40
0.75
 40
0.75
 40
1.0
 40
1.0
 40
1.0
 40
1.0
 10
69.78817225433525
 20
21.16619938751404
 30
0.0
 10
69.78817225433525
 20
21.66678368296436
 30
0.0
 10
69.78817225433525
 20
22.16925909703717
 30
0.0
 10
69.78817225433525
 20
22.92605885874119
 30
0.0
 10
69.78817225433525
 20
23.17883736480231
 30
0.0
 10
69.78817225433525
 20
23.68541271717393
 30
0.0
 10
69.78817225433525
 20
23.93875577839498
 30
0.0
 10
69.78817225433525
 20
24.18676213597557
 30
0.0
  0
SPLINE
  5
E1
330
1F
100
AcDbEntity
  8
0
  6
Continuous
 62
     7
370
    25
100
AcDbSpline
210
0.0
220
0.0
230
1.0
 70
    24
 71
     3
 72
    18
 73
    14
 74
     0
 42
0.000000001
 43
0.00000001
 40
0.0
 40
0.0
 40
0.0
 40
0.0
 40
0.2499999999999997
 40
0.2499999999999997
 40
0.3749999999999997
 40
0.3749999999999997
 40
0.4999999999999997
 40
0.4999999999999997
 40
0.6249999999999997
 40
0.6249999999999997
 40
0.7499999999999996
 40
0.7499999999999996
 40
1.0
 40
1.0
 40
1.0
 40
1.0
 10
64.32345362857023
 20
15.70148076173799
 30
0.0
 10
64.73934492067578
 20
16.11737205384352
 30
0.0
 10
65.16911313306541
 20
16.54714026623316
 30
0.0
 10
65.85402983902308
 20
17.23205697219083
 30
0.0
 10
66.09129081560307
 20
17.46931794877082
 30
0.0
 10
66.56486438130511
 20
17.94289151447287
 30
0.0
 10
66.80270085659207
 20
18.18072798975981
 30
0.0
 10
67.2806275695649
 20
18.65865470273265
 30
0.0
 10
67.52226401267342
 20
18.90029114584117
 30
0.0
 10
68.00074399368208
 20
19.37877112684983
 30
0.0
 10
68.23425639910425
 20
19.61228353227201
 30
0.0
 10
68.92137818612619
 20
20.29940531929393
 30
0.0
 10
69.36416543088538
 20
20.74219256405312
 30
0.0
 10
69.78817225433869
 20
21.16619938750643
 30
0.0
  0
SPLINE
  5
E2
330
1F
100
AcDbEntity
  8
0
  6
Continuous
 62
     7
370
    25
100
AcDbSpline
210
0.0
220
0.0
230
1.0
 70
     8
 71
     3
 72
    15
 73
    11
 74
     0
 42
0.000000001
 43
0.00000001
 40
0.0
 40
0.0
 40
0.0
 40
0.0
 40
0.1099847056450849
 40
0.2240098420297774
 40
0.3417046373339413
 40
0.4641704618794936
 40
0.5906562692884738
 40
0.7222624860498262
 40
0.8584596182455002
 40
1.0
 40
1.0
 40
1.0
 40
1.0
 10
62.57243017554248
 20
23.35902613265886
 30
0.0
 10
62.56604985023516
 20
23.37171525139503
 30
0.0
 10
62.55305481009928
 20
23.39755964009358
 30
0.0
 10
62.53076259454608
 20
23.43567421354343
 30
0.0
 10
62.50551845640326
 20
23.47381039503304
 30
0.0
 10
62.47852765377977
 20
23.51272974951759
 30
0.0
 10
62.44770872748309
 20
23.5510274009664
 30
0.0
 10
62.41519095591543
 20
23.59019981472246
 30
0.0
 10
62.3795907837007
 20
23.62929300662055
 30
0.0
 10
62.35446534952885
 20
23.654880489672
 30
0.0
 10
62.34166094477325
 20
23.66792036342809
 30
0.0
  0
SPLINE
  5
E3
330
1F
100
AcDbEntity
  8
0
  6
Continuous
 62
     7
370
    25
100
AcDbSpline
210
0.0
220
0.0
230
1.0
 70
     8
 71
     3
 72
    27
 73
    23
 74
     0
 42
0.000000001
 43
0.00000001
 40
0.0
 40
0.0
 40
0.0
 40
0.0
 40
0.0739414287635761
 40
0.1432995467909239
 40
0.2078367058012861
 40
0.2681542719989739
 40
0.3240444974500776
 40
0.3756833250396089
 40
0.4227992035769721
 40
0.4659844474241323
 40
0.5062690802671607
 40
0.5452440815941552
 40
0.582932628734493
 40
0.6191703782421355
 40
0.6542106995986451
 40
0.6889160634209303
 40
0.7228008900413521
 40
0.7560829642487452
 40
0.8208193220025547
 40
0.8819250721784662
 40
0.9410367321203931
 40
1.0
 40
1.0
 40
1.0
 40
1.0
 10
61.82303113708095
 20
23.14929055573578
 30
0.0
 10
61.83745281869988
 20
23.13496138148466
 30
0.0
 10
61.86540224400196
 20
23.10719123678487
 30
0.0
 10
61.90759877306326
 20
23.06865348965305
 30
0.0
 10
61.94751902156051
 20
23.03318624696187
 30
0.0
 10
61.98600243864581
 20
23.00174086615689
 30
0.0
 10
62.02253599534864
 20
22.97352017926327
 30
0.0
 10
62.05774483243444
 20
22.94966686747949
 30
0.0
 10
62.09076515913085
 20
22.92883057500031
 30
0.0
 10
62.12264131863837
 20
22.91223255444167
 30
0.0
 10
62.15342106257419
 20
22.89857286245901
 30
0.0
 10
62.18344844731212
 20
22.88702758941527
 30
0.0
 10
62.21317627215974
 20
22.87799424982284
 30
0.0
 10
62.24242303550635
 20
22.87142358464288
 30
0.0
 10
62.27120475088003
 20
22.86672953399855
 30
0.0
 10
62.29965789179601
 20
22.86463808042618
 30
0.0
 10
62.32769172893845
 20
22.86498516676457
 30
0.0
 10
62.36384485817194
 20
22.86812757003721
 30
0.0
 10
62.40688118902374
 20
22.87701366620247
 30
0.0
 10
62.45469911611858
 20
22.89478970239083
 30
0.0
 10
62.49771914448273
 20
22.91953581505299
 30
0.0
 10
62.52189560089741
 20
22.94130450511751
 30
0.0
 10
62.53396863708094
 20
22.95217517112039
 30
0.0
  0
SPLINE
  5
E4
330
1F
100
AcDbEntity
  8
0
  6
Continuous
 62
     7
370
    25
100
AcDbSpline
210
0.0
220
0.0
230
1.0
 70
     8
 71
     3
 72
    27
 73
    23
 74
     0
 42
0.000000001
 43
0.00000001
 40
0.0
 40
0.0
 40
0.0
 40
0.0
 40
0.059204909142324
 40
0.1186381156964756
 40
0.1794099962647922
 40
0.2434403905684774
 40
0.2767263209819801
 40
0.3102507208116299
 40
0.3445967272097261
 40
0.3795861309306516
 40
0.4161835169775525
 40
0.4535278654524
 40
0.4925073825928413
 40
0.5331297869118884
 40
0.5763200343895353
 40
0.6237516935997308
 40
0.6753965042887891
 40
0.731293205424897
 40
0.7916177602785751
 40
0.856436425028989
 40
0.9260500040603646
 40
0.9999999999999999
 40
0.9999999999999999
 40
0.9999999999999999
 40
0.9999999999999999
 10
61.62621623323479
 20
23.85992757496655
 30
0.0
 10
61.6152120163563
 20
23.84787818991856
 30
0.0
 10
61.59316114972898
 20
23.82373295672583
 30
0.0
 10
61.5686935979891
 20
23.78047027389183
 30
0.0
 10
61.55077900320325
 20
23.73295365356838
 30
0.0
 10
61.54182876970913
 20
23.69021005311984
 30
0.0
 10
61.53874581335182
 20
23.65435237615521
 30
0.0
 10
61.53834703871218
 20
23.62651397778187
 30
0.0
 10
61.54058801591433
 20
23.59829630678087
 30
0.0
 10
61.54479931380895
 20
23.56946284904172
 30
0.0
 10
61.55136576735138
 20
23.54021528679443
 30
0.0
 10
61.56051836028438
 20
23.51052399578813
 30
0.0
 10
61.57208111655439
 20
23.48051333503618
 30
0.0
 10
61.58557935059441
 20
23.44955828355918
 30
0.0
 10
61.60236813807485
 20
23.41758349516599
 30
0.0
 10
61.62300107196315
 20
23.38434006299164
 30
0.0
 10
61.64698118139006
 20
23.34910954631111
 30
0.0
 10
61.6751605615646
 20
23.31254572175424
 30
0.0
 10
61.70673913855304
 20
23.27407784482456
 30
0.0
 10
61.74197536512433
 20
23.2337618203291
 30
0.0
 10
61.7809603873889
 20
23.19177987222879
 30
0.0
 10
61.80872797541669
 20
23.1637360212255
 30
0.0
 10
61.82303113708095
 20
23.14929055573578
 30
0.0
  0
SPLINE
  5
E5
330
1F
100
AcDbEntity
  8
0
  6
Continuous
 62
     7
370
    25
100
AcDbSpline
210
0.0
220
0.0
230
1.0
 70
     8
 71
     3
 72
    27
 73
    23
 74
     0
 42
0.000000001
 43
0.00000001
 40
0.0
 40
0.0
 40
0.0
 40
0.0
 40
0.0665682887066777
 40
0.1298384398761199
 40
0.1903854166577237
 40
0.2477638774268024
 40
0.3026463387477553
 40
0.3547594337319389
 40
0.4043168527786022
 40
0.4513184057942146
 40
0.4962182809861095
 40
0.5384964490913653
 40
0.5791109571601266
 40
0.6178689498676121
 40
0.6548770745485871
 40
0.6907509929392046
 40
0.7250465884647678
 40
0.758739154699732
 40
0.8228526037433925
 40
0.8832333648382241
 40
0.9417466416330508
 40
1.0
 40
1.0
 40
1.0
 40
1.0
 10
62.34166094477325
 20
23.66792036342809
 30
0.0
 10
62.32861800342837
 20
23.68072232449977
 30
0.0
 10
62.30317833555472
 20
23.70569197123692
 30
0.0
 10
62.26456930410751
 20
23.7409398900354
 30
0.0
 10
62.22681156106017
 20
23.77332972727364
 30
0.0
 10
62.18982633216011
 20
23.80307216816149
 30
0.0
 10
62.15310252497643
 20
23.82931696954137
 30
0.0
 10
62.11742679266954
 20
23.85331133993939
 30
0.0
 10
62.08219142691355
 20
23.87394918049944
 30
0.0
 10
62.04788092116837
 20
23.8921741652993
 30
0.0
 10
62.0143235674304
 20
23.90741878313401
 30
0.0
 10
61.98163437873831
 20
23.92020746540213
 30
0.0
 10
61.9498122411705
 20
23.93040569315266
 30
0.0
 10
61.91884483761666
 20
23.93836310005849
 30
0.0
 10
61.88860009201775
 20
23.94357415662265
 30
0.0
 10
61.85923714243966
 20
23.94591715831578
 30
0.0
 10
61.8306897341138
 20
23.94599570791206
 30
0.0
 10
61.79452682443021
 20
23.94280015702634
 30
0.0
 10
61.75182770854883
 20
23.93385869156632
 30
0.0
 10
61.70462413954434
 20
23.9162851362863
 30
0.0
 10
61.66181626768864
 20
23.89239828886123
 30
0.0
 10
61.63806528843759
 20
23.87073507241184
 30
0.0
 10
61.62621623323479
 20
23.85992757496655
 30
0.0
  0
SPLINE
  5
E6
330
1F
100
AcDbEntity
  8
0
  6
Continuous
 62
     7
370
    25
100
AcDbSpline
210
0.0
220
0.0
230
1.0
 70
     8
 71
     3
 72
    19
 73
    15
 74
     0
 42
0.000000001
 43
0.00000001
 40
0.0
 40
0.0
 40
0.0
 40
0.0
 40
0.1116234689182526
 40
0.2221443256546964
 40
0.3354380430278008
 40
0.4548148709752029
 40
0.5168870261290481
 40
0.5794061580887492
 40
0.6435314246458348
 40
0.7096032329016746
 40
0.7780881323723869
 40
0.8493556809199186
 40
0.9228466968340718
 40
1.0
 40
1.0
 40
1.0
 40
1.0
 10
62.53396863708094
 20
22.95217517112039
 30
0.0
 10
62.54497686890706
 20
22.96422251415025
 30
0.0
 10
62.5668845936836
 20
22.98819819703515
 30
0.0
 10
62.5911487479916
 20
23.03108519988748
 30
0.0
 10
62.6091187547587
 20
23.07792489406958
 30
0.0
 10
62.61806672150098
 20
23.12018778837995
 30
0.0
 10
62.62111606995747
 20
23.15564458373169
 30
0.0
 10
62.62162637665003
 20
23.18319979189457
 30
0.0
 10
62.61893813493777
 20
23.2112086730567
 30
0.0
 10
62.61452433028683
 20
23.23985402160865
 30
0.0
 10
62.60753516558895
 20
23.26907664163036
 30
0.0
 10
62.59811013542985
 20
23.29871631618213
 30
0.0
 10
62.58680068769723
 20
23.32906594785996
 30
0.0
 10
62.57729735751741
 20
23.34887884842514
 30
0.0
 10
62.57243017554248
 20
23.35902613265886
 30
0.0
  0
LINE
  5
E7
330
1F
100
AcDbEntity
  8
0
  6
Continuous
 62
     7
370
    25
100
AcDbLine
 10
62.9155311889
 20
23.9208028228
 30
0.0
 11
63.2244254196
 21
24.2296970536
 31
0.0
  0
LINE
  5
E8
330
1F
100
AcDbEntity
  8
0
  6
Continuous
 62
     7
370
    25
100
AcDbLine
 10
62.7869254196
 20
24.6671970536
 30
0.0
 11
62.9155311889
 21
23.9208028228
 31
0.0
  0
LINE
  5
E9
330
1F
100
AcDbEntity
  8
0
  6
Continuous
 62
     7
370
    25
100
AcDbLine
 10
63.2244254196
 20
24.2296970536
 30
0.0
 11
62.7869254196
 21
24.6671970536
 31
0.0
  0
CIRCLE
  5
EA
330
1F
100
AcDbEntity
  8
0
  6
Continuous
 62
     7
370
    25
100
AcDbCircle
 10
62.8131722543
 20
22.6764807617
 30
0.0
 40
8.492181818181818
  0
ARC
  5
EB
330
1F
100
AcDbEntity
  8
0
  6
Continuous
 62
     7
370
    25
100
AcDbCircle
 10
62.8131722543
 20
22.6764807617
 30
0.0
 40
6.999999999999998
100
AcDbArc
 50
103.9972808661
 51
166.0027191339
  0
ARC
  5
EC
330
1F
100
AcDbEntity
  8
0
  6
Continuous
 62
     7
370
    25
100
AcDbCircle
 10
62.8131722543
 20
22.6764807617
 30
0.0
 40
7.000000000000005
100
AcDbArc
 50
193.9972808661
 51
256.0027191339
  0
ARC
  5
ED
330
1F
100
AcDbEntity
  8
0
  6
Continuous
 62
     7
370
    25
100
AcDbCircle
 10
62.8131722543
 20
22.6764807617
 30
0.0
 40
7.000000000000003
100
AcDbArc
 50
283.9972808661
 51
346.0027191339
  0
ARC
  5
EE
330
1F
100
AcDbEntity
  8
0
  6
Continuous
 62
     7
370
    25
100
AcDbCircle
 10
62.8131722543
 20
22.6764807617
 30
0.0
 40
7.000000000000003
100
AcDbArc
 50
13.9972808661
 51
76.0027191339
  0
INSERT
  5
FA
330
1F
100
AcDbEntity
  8
0
  6
Continuous
 62
     7
370
    18
100
AcDbBlockReference
  2
SW_CENTERMARKSYMBOL_0
 10
62.8131722543
 20
22.6764807617
 30
0.0
  0
ARC
  5
FB
330
1F
100
AcDbEntity
  8
0
  6
Continuous
 62
     7
370
    18
100
AcDbCircle
 10
62.8131722543
 20
22.6764807617
 30
0.0
 40
7.474999999999989
100
AcDbArc
 50
75.0
 51
345.0
  0
ENDSEC
  0
SECTION
  2
OBJECTS
  0
DICTIONARY
  5
C
330
0
100
AcDbDictionary
281
     1
  3
ACAD_GROUP
350
D
  3
ACAD_LAYOUT
350
1A
  3
ACAD_MLINESTYLE
350
17
  3
ACAD_PLOTSETTINGS
350
19
  3
ACAD_PLOTSTYLENAME
350
E
  3
ACAD_SCALELIST
350
47
  0
DICTIONARY
  5
D
102
{ACAD_REACTORS
330
C
102
}
330
C
100
AcDbDictionary
281
     1
  0
DICTIONARY
  5
1A
102
{ACAD_REACTORS
330
C
102
}
330
C
100
AcDbDictionary
281
     1
  3
Layout1
350
1E
  3
Layout2
350
26
  3
Model
350
22
  0
DICTIONARY
  5
17
102
{ACAD_REACTORS
330
C
102
}
330
C
100
AcDbDictionary
281
     1
  3
Standard
350
18
  0
DICTIONARY
  5
19
102
{ACAD_REACTORS
330
C
102
}
330
C
100
AcDbDictionary
281
     1
  0
ACDBDICTIONARYWDFLT
  5
E
102
{ACAD_REACTORS
330
C
102
}
330
C
100
AcDbDictionary
281
     1
  3
Normal
350
F
100
AcDbDictionaryWithDefault
340
F
  0
DICTIONARY
  5
47
102
{ACAD_REACTORS
330
C
102
}
330
C
100
AcDbDictionary
281
     1
  3
A0
350
48
  3
A1
350
49
  3
A2
350
4A
  3
A3
350
4B
  3
A4
350
4C
  3
A5
350
4D
  3
A6
350
4E
  3
A7
350
4F
  3
A8
350
50
  3
A9
350
51
  3
B0
350
52
  3
B1
350
53
  3
B2
350
54
  3
B3
350
55
  3
B4
350
56
  3
B5
350
57
  3
B6
350
58
  3
B7
350
59
  3
B8
350
5A
  3
B9
350
5B
  3
C0
350
5C
  3
C1
350
5D
  3
C2
350
5E
  3
C3
350
5F
  3
C4
350
60
  3
C5
350
61
  3
C6
350
62
  3
C7
350
63
  3
C8
350
64
  3
C9
350
65
  3
D0
350
66
  3
D1
350
67
  3
D2
350
68
  0
LAYOUT
  5
1E
102
{ACAD_REACTORS
330
1A
102
}
330
1A
100
AcDbPlotSettings
  1

  2
none_device
  4

  6

 40
0.0
 41
0.0
 42
0.0
 43
0.0
 44
0.0
 45
0.0
 46
0.0
 47
0.0
 48
0.0
 49
0.0
140
0.0
141
0.0
142
1.0
143
1.0
 70
   688
 72
     1
 73
     0
 74
     5
  7

 75
    16
147
1.0
148
0.0
149
0.0
100
AcDbLayout
  1
Layout1
 70
     1
 71
     1
 10
0.0
 20
0.0
 11
420.0
 21
297.0
 12
0.0
 22
0.0
 32
0.0
 14
1.0000000000E+20
 24
1.0000000000E+20
 34
1.0000000000E+20
 15
-1.0000000000E+20
 25
-1.0000000000E+20
 35
-1.0000000000E+20
146
0.0
 13
0.0
 23
0.0
 33
0.0
 16
1.0
 26
0.0
 36
0.0
 17
0.0
 27
1.0
 37
0.0
 76
     0
330
1B
  0
LAYOUT
  5
26
102
{ACAD_REACTORS
330
1A
102
}
330
1A
100
AcDbPlotSettings
  1

  2
none_device
  4

  6

 40
0.0
 41
0.0
 42
0.0
 43
0.0
 44
0.0
 45
0.0
 46
0.0
 47
0.0
 48
0.0
 49
0.0
140
0.0
141
0.0
142
1.0
143
1.0
 70
   688
 72
     1
 73
     0
 74
     5
  7

 75
    16
147
1.0
148
0.0
149
0.0
100
AcDbLayout
  1
Layout2
 70
     1
 71
     2
 10
0.0
 20
0.0
 11
0.0
 21
0.0
 12
0.0
 22
0.0
 32
0.0
 14
0.0
 24
0.0
 34
0.0
 15
0.0
 25
0.0
 35
0.0
146
0.0
 13
0.0
 23
0.0
 33
0.0
 16
1.0
 26
0.0
 36
0.0
 17
0.0
 27
1.0
 37
0.0
 76
     0
330
23
  0
LAYOUT
  5
22
102
{ACAD_REACTORS
330
1A
102
}
330
1A
100
AcDbPlotSettings
  1

  2
none_device
  4
Letter_(8.50_x_11.00_Inches)
  6

 40
6.35
 41
6.35
 42
6.35000508
 43
6.35000508
 44
215.9
 45
279.4
 46
0.0
 47
0.0
 48
0.0
 49
0.0
140
0.0
141
0.0
142
1.0
143
1.0
 70
  1712
 72
     1
 73
     0
 74
     0
  7

 75
     0
147
1.0
148
0.0
149
0.0
100
AcDbLayout
  1
Model
 70
     1
 71
     0
 10
0.0
 20
0.0
 11
215.9
 21
139.7
 12
0.0
 22
0.0
 32
0.0
 14
0.0
 24
0.0
 34
0.0
 15
215.9
 25
139.7
 35
0.0
146
0.0
 13
0.0
 23
0.0
 33
0.0
 16
1.0
 26
0.0
 36
0.0
 17
0.0
 27
1.0
 37
0.0
 76
     0
330
1F
331
29
  0
MLINESTYLE
  5
18
102
{ACAD_REACTORS
330
17
102
}
330
17
100
AcDbMlineStyle
  2
Standard
 70
     0
  3

 62
   256
 51
90.0
 52
90.0
 71
     2
 49
0.5
 62
   256
  6
BYLAYER
 49
-0.5
 62
   256
  6
BYLAYER
  0
ACDBPLACEHOLDER
  5
F
102
{ACAD_REACTORS
330
E
102
}
330
E
  0
SCALE
  5
48
102
{ACAD_REACTORS
330
47
102
}
330
47
100
AcDbScale
 70
     0
300
1:1
140
1.0
141
1.0
290
     1
  0
SCALE
  5
49
102
{ACAD_REACTORS
330
47
102
}
330
47
100
AcDbScale
 70
     0
300
1:2
140
1.0
141
2.0
290
     0
  0
SCALE
  5
4A
102
{ACAD_REACTORS
330
47
102
}
330
47
100
AcDbScale
 70
     0
300
1:4
140
1.0
141
4.0
290
     0
  0
SCALE
  5
4B
102
{ACAD_REACTORS
330
47
102
}
330
47
100
AcDbScale
 70
     0
300
1:5
140
1.0
141
5.0
290
     0
  0
SCALE
  5
4C
102
{ACAD_REACTORS
330
47
102
}
330
47
100
AcDbScale
 70
     0
300
1:8
140
1.0
141
8.0
290
     0
  0
SCALE
  5
4D
102
{ACAD_REACTORS
330
47
102
}
330
47
100
AcDbScale
 70
     0
300
1:10
140
1.0
141
10.0
290
     0
  0
SCALE
  5
4E
102
{ACAD_REACTORS
330
47
102
}
330
47
100
AcDbScale
 70
     0
300
1:16
140
1.0
141
16.0
290
     0
  0
SCALE
  5
4F
102
{ACAD_REACTORS
330
47
102
}
330
47
100
AcDbScale
 70
     0
300
1:20
140
1.0
141
20.0
290
     0
  0
SCALE
  5
50
102
{ACAD_REACTORS
330
47
102
}
330
47
100
AcDbScale
 70
     0
300
1:30
140
1.0
141
30.0
290
     0
  0
SCALE
  5
51
102
{ACAD_REACTORS
330
47
102
}
330
47
100
AcDbScale
 70
     0
300
1:40
140
1.0
141
40.0
290
     0
  0
SCALE
  5
52
102
{ACAD_REACTORS
330
47
102
}
330
47
100
AcDbScale
 70
     0
300
1:50
140
1.0
141
50.0
290
     0
  0
SCALE
  5
53
102
{ACAD_REACTORS
330
47
102
}
330
47
100
AcDbScale
 70
     0
300
1:100
140
1.0
141
100.0
290
     0
  0
SCALE
  5
54
102
{ACAD_REACTORS
330
47
102
}
330
47
100
AcDbScale
 70
     0
300
2:1
140
2.0
141
1.0
290
     0
  0
SCALE
  5
55
102
{ACAD_REACTORS
330
47
102
}
330
47
100
AcDbScale
 70
     0
300
4:1
140
4.0
141
1.0
290
     0
  0
SCALE
  5
56
102
{ACAD_REACTORS
330
47
102
}
330
47
100
AcDbScale
 70
     0
300
8:1
140
8.0
141
1.0
290
     0
  0
SCALE
  5
57
102
{ACAD_REACTORS
330
47
102
}
330
47
100
AcDbScale
 70
     0
300
10:1
140
10.0
141
1.0
290
     0
  0
SCALE
  5
58
102
{ACAD_REACTORS
330
47
102
}
330
47
100
AcDbScale
 70
     0
300
100:1
140
100.0
141
1.0
290
     0
  0
SCALE
  5
59
102
{ACAD_REACTORS
330
47
102
}
330
47
100
AcDbScale
 70
     0
300
1/128" = 1'-0"
140
0.0078125
141
12.0
290
     0
  0
SCALE
  5
5A
102
{ACAD_REACTORS
330
47
102
}
330
47
100
AcDbScale
 70
     0
300
1/64" = 1'-0"
140
0.015625
141
12.0
290
     0
  0
SCALE
  5
5B
102
{ACAD_REACTORS
330
47
102
}
330
47
100
AcDbScale
 70
     0
300
1/32" = 1'-0"
140
0.03125
141
12.0
290
     0
  0
SCALE
  5
5C
102
{ACAD_REACTORS
330
47
102
}
330
47
100
AcDbScale
 70
     0
300
1/16" = 1'-0"
140
0.0625
141
12.0
290
     0
  0
SCALE
  5
5D
102
{ACAD_REACTORS
330
47
102
}
330
47
100
AcDbScale
 70
     0
300
3/32" = 1'-0"
140
0.09375
141
12.0
290
     0
  0
SCALE
  5
5E
102
{ACAD_REACTORS
330
47
102
}
330
47
100
AcDbScale
 70
     0
300
1/8" = 1'-0"
140
0.125
141
12.0
290
     0
  0
SCALE
  5
5F
102
{ACAD_REACTORS
330
47
102
}
330
47
100
AcDbScale
 70
     0
300
3/16" = 1'-0"
140
0.1875
141
12.0
290
     0
  0
SCALE
  5
60
102
{ACAD_REACTORS
330
47
102
}
330
47
100
AcDbScale
 70
     0
300
1/4" = 1'-0"
140
0.25
141
12.0
290
     0
  0
SCALE
  5
61
102
{ACAD_REACTORS
330
47
102
}
330
47
100
AcDbScale
 70
     0
300
3/8" = 1'-0"
140
0.375
141
12.0
290
     0
  0
SCALE
  5
62
102
{ACAD_REACTORS
330
47
102
}
330
47
100
AcDbScale
 70
     0
300
1/2" = 1'-0"
140
0.5
141
12.0
290
     0
  0
SCALE
  5
63
102
{ACAD_REACTORS
330
47
102
}
330
47
100
AcDbScale
 70
     0
300
3/4" = 1'-0"
140
0.75
141
12.0
290
     0
  0
SCALE
  5
64
102
{ACAD_REACTORS
330
47
102
}
330
47
100
AcDbScale
 70
     0
300
1" = 1'-0"
140
1.0
141
12.0
290
     0
  0
SCALE
  5
65
102
{ACAD_REACTORS
330
47
102
}
330
47
100
AcDbScale
 70
     0
300
1-1/2" = 1'-0"
140
1.5
141
12.0
290
     0
  0
SCALE
  5
66
102
{ACAD_REACTORS
330
47
102
}
330
47
100
AcDbScale
 70
     0
300
3" = 1'-0"
140
3.0
141
12.0
290
     0
  0
SCALE
  5
67
102
{ACAD_REACTORS
330
47
102
}
330
47
100
AcDbScale
 70
     0
300
6" = 1'-0"
140
6.0
141
12.0
290
     0
  0
SCALE
  5
68
102
{ACAD_REACTORS
330
47
102
}
330
47
100
AcDbScale
 70
     0
300
1'-0" = 1'-0"
140
12.0
141
12.0
290
     0
  0
ENDSEC
  0
EOF
