  0
SECTION
  2
HEADER
  9
$ACADVER
  1
AC1015
  9
$ACADMAINTVER
 70
     6
  9
$DWGCODEPAGE
  3
DOS932
  9
$INSBASE
 10
0.0
 20
0.0
 30
0.0
  9
$EXTMIN
 10
0.0
 20
0.0
 30
0.0
  9
$EXTMAX
 10
86.36
 20
55.88
 30
0.0
  9
$LIMMIN
 10
0.0
 20
0.0
  9
$LIMMAX
 10
86.36
 20
55.88
  9
$ORTHOMODE
 70
     0
  9
$REGENMODE
 70
     1
  9
$FILLMODE
 70
     1
  9
$QTEXTMODE
 70
     0
  9
$MIRRTEXT
 70
     1
  9
$LTSCALE
 40
0.2
  9
$ATTMODE
 70
     1
  9
$TEXTSIZE
 40
0.7
  9
$TRACEWID
 40
1.0
  9
$TEXTSTYLE
  7
Standard
  9
$CLAYER
  8
0
  9
$CELTYPE
  6
ByLayer
  9
$CECOLOR
 62
   256
  9
$CELTSCALE
 40
1.0
  9
$DISPSILH
 70
     0
  9
$DIMSCALE
 40
1.0
  9
$DIMASZ
 40
0.6604
  9
$DIMEXO
 40
0.2
  9
$DIMDLI
 40
3.75
  9
$DIMRND
 40
0.0
  9
$DIMDLE
 40
0.0
  9
$DIMEXE
 40
0.2
  9
$DIMTP
 40
0.0
  9
$DIMTM
 40
0.0
  9
$DIMTXT
 40
0.7
  9
$DIMCEN
 40
2.5
  9
$DIMTSZ
 40
0.0
  9
$DIMTOL
 70
     0
  9
$DIMLIM
 70
     0
  9
$DIMTIH
 70
     1
  9
$DIMTOH
 70
     1
  9
$DIMSE1
 70
     0
  9
$DIMSE2
 70
     0
  9
$DIMTAD
 70
     1
  9
$DIMZIN
 70
     1
  9
$DIMBLK
  1

  9
$DIMASO
 70
     1
  9
$DIMSHO
 70
     1
  9
$DIMPOST
  1

  9
$DIMAPOST
  1

  9
$DIMALT
 70
     0
  9
$DIMALTD
 70
     3
  9
$DIMALTF
 40
0.0393700787
  9
$DIMLFAC
 40
1.0
  9
$DIMTOFL
 70
     1
  9
$DIMTVP
 40
0.0
  9
$DIMTIX
 70
     0
  9
$DIMSOXD
 70
     0
  9
$DIMSAH
 70
     0
  9
$DIMBLK1
  1

  9
$DIMBLK2
  1

  9
$DIMSTYLE
  2
ISO-25
  9
$DIMCLRD
 70
     0
  9
$DIMCLRE
 70
     0
  9
$DIMCLRT
 70
     0
  9
$DIMTFAC
 40
1.0
  9
$DIMGAP
 40
0.3048
  9
$DIMJUST
 70
     0
  9
$DIMSD1
 70
     0
  9
$DIMSD2
 70
     0
  9
$DIMTOLJ
 70
     0
  9
$DIMTZIN
 70
     1
  9
$DIMALTZ
 70
     0
  9
$DIMALTTZ
 70
     0
  9
$DIMUPT
 70
     0
  9
$DIMDEC
 70
     2
  9
$DIMTDEC
 70
     2
  9
$DIMALTU
 70
     2
  9
$DIMALTTD
 70
     3
  9
$DIMTXSTY
  7
Standard
  9
$DIMAUNIT
 70
     0
  9
$DIMADEC
 70
     2
  9
$DIMALTRND
 40
0.0
  9
$DIMAZIN
 70
     0
  9
$DIMDSEP
 70
    44
  9
$DIMATFIT
 70
     3
  9
$DIMFRAC
 70
     0
  9
$DIMLDRBLK
  1

  9
$DIMLUNIT
 70
     2
  9
$DIMLWD
 70
    -2
  9
$DIMLWE
 70
    -2
  9
$DIMTMOVE
 70
     0
  9
$LUNITS
 70
     2
  9
$LUPREC
 70
     2
  9
$SKETCHINC
 40
1.0
  9
$FILLETRAD
 40
10.0
  9
$AUNITS
 70
     0
  9
$AUPREC
 70
     2
  9
$MENU
  1
.
  9
$ELEVATION
 40
0.0
  9
$PELEVATION
 40
0.0
  9
$THICKNESS
 40
0.0
  9
$LIMCHECK
 70
     0
  9
$CHAMFERA
 40
0.0
  9
$CHAMFERB
 40
0.0
  9
$CHAMFERC
 40
0.0
  9
$CHAMFERD
 40
0.0
  9
$SKPOLY
 70
     0
  9
$TDCREATE
 40
2460090.427924317
  9
$TDUCREATE
 40
2460090.052924317
  9
$TDUPDATE
 40
2460090.427924502
  9
$TDUUPDATE
 40
2460090.052924502
  9
$TDINDWG
 40
0.0000000116
  9
$TDUSRTIMER
 40
0.0000000116
  9
$USRTIMER
 70
     1
  9
$ANGBASE
 50
0.0
  9
$ANGDIR
 70
     0
  9
$PDMODE
 70
     0
  9
$PDSIZE
 40
-1.0
  9
$PLINEWID
 40
0.0
  9
$SPLFRAME
 70
     0
  9
$SPLINETYPE
 70
     6
  9
$SPLINESEGS
 70
     8
  9
$HANDSEED
  5
F6
  9
$SURFTAB1
 70
     6
  9
$SURFTAB2
 70
     6
  9
$SURFTYPE
 70
     6
  9
$SURFU
 70
     6
  9
$SURFV
 70
     6
  9
$UCSBASE
  2

  9
$UCSNAME
  2

  9
$UCSORG
 10
0.0
 20
0.0
 30
0.0
  9
$UCSXDIR
 10
1.0
 20
0.0
 30
0.0
  9
$UCSYDIR
 10
0.0
 20
1.0
 30
0.0
  9
$UCSORTHOREF
  2

  9
$UCSORTHOVIEW
 70
     0
  9
$UCSORGTOP
 10
0.0
 20
0.0
 30
0.0
  9
$UCSORGBOTTOM
 10
0.0
 20
0.0
 30
0.0
  9
$UCSORGLEFT
 10
0.0
 20
0.0
 30
0.0
  9
$UCSORGRIGHT
 10
0.0
 20
0.0
 30
0.0
  9
$UCSORGFRONT
 10
0.0
 20
0.0
 30
0.0
  9
$UCSORGBACK
 10
0.0
 20
0.0
 30
0.0
  9
$PUCSBASE
  2

  9
$PUCSNAME
  2

  9
$PUCSORG
 10
0.0
 20
0.0
 30
0.0
  9
$PUCSXDIR
 10
1.0
 20
0.0
 30
0.0
  9
$PUCSYDIR
 10
0.0
 20
1.0
 30
0.0
  9
$PUCSORTHOREF
  2

  9
$PUCSORTHOVIEW
 70
     0
  9
$PUCSORGTOP
 10
0.0
 20
0.0
 30
0.0
  9
$PUCSORGBOTTOM
 10
0.0
 20
0.0
 30
0.0
  9
$PUCSORGLEFT
 10
0.0
 20
0.0
 30
0.0
  9
$PUCSORGRIGHT
 10
0.0
 20
0.0
 30
0.0
  9
$PUCSORGFRONT
 10
0.0
 20
0.0
 30
0.0
  9
$PUCSORGBACK
 10
0.0
 20
0.0
 30
0.0
  9
$USERI1
 70
     0
  9
$USERI2
 70
     0
  9
$USERI3
 70
     0
  9
$USERI4
 70
     0
  9
$USERI5
 70
     0
  9
$USERR1
 40
0.0
  9
$USERR2
 40
0.0
  9
$USERR3
 40
0.0
  9
$USERR4
 40
0.0
  9
$USERR5
 40
0.0
  9
$WORLDVIEW
 70
     1
  9
$SHADEDGE
 70
     3
  9
$SHADEDIF
 70
    70
  9
$TILEMODE
 70
     1
  9
$MAXACTVP
 70
    64
  9
$PINSBASE
 10
0.0
 20
0.0
 30
0.0
  9
$PLIMCHECK
 70
     0
  9
$PEXTMIN
 10
1.0000000000E+20
 20
1.0000000000E+20
 30
1.0000000000E+20
  9
$PEXTMAX
 10
-1.0000000000E+20
 20
-1.0000000000E+20
 30
-1.0000000000E+20
  9
$PLIMMIN
 10
0.0
 20
0.0
  9
$PLIMMAX
 10
420.0
 20
297.0
  9
$UNITMODE
 70
     0
  9
$VISRETAIN
 70
     1
  9
$PLINEGEN
 70
     0
  9
$PSLTSCALE
 70
     1
  9
$TREEDEPTH
 70
  3020
  9
$CMLSTYLE
  2
Standard
  9
$CMLJUST
 70
     0
  9
$CMLSCALE
 40
20.0
  9
$PROXYGRAPHICS
 70
     1
  9
$MEASUREMENT
 70
     1
  9
$CELWEIGHT
370
    -1
  9
$ENDCAPS
280
     0
  9
$JOINSTYLE
280
     0
  9
$LWDISPLAY
290
     1
  9
$INSUNITS
 70
     4
  9
$HYPERLINKBASE
  1

  9
$STYLESHEET
  1

  9
$XEDIT
290
     1
  9
$CEPSNTYPE
380
     0
  9
$PSTYLEMODE
290
     1
  9
$FINGERPRINTGUID
  2
{FE1E7C18-A303-4BBA-8119-58B916B8F930}
  9
$VERSIONGUID
  2
{FAEB1C32-E019-11D5-929B-00C0DF256EC4}
  9
$EXTNAMES
290
     1
  9
$PSVPSCALE
 40
0.0
  9
$OLESTARTUP
290
     0
  0
ENDSEC
  0
SECTION
  2
CLASSES
  0
CLASS
  1
ACDBDICTIONARYWDFLT
  2
AcDbDictionaryWithDefault
  3
ObjectDBX Classes
 90
        0
280
     0
281
     0
  0
CLASS
  1
VISUALSTYLE
  2
AcDbVisualStyle
  3
ObjectDBX Classes
 90
     4095
280
     0
281
     0
  0
CLASS
  1
MATERIAL
  2
AcDbMaterial
  3
ObjectDBX Classes
 90
     1153
280
     0
281
     0
  0
CLASS
  1
SCALE
  2
AcDbScale
  3
ObjectDBX Classes
 90
     1153
280
     0
281
     0
  0
CLASS
  1
TABLESTYLE
  2
AcDbTableStyle
  3
ObjectDBX Classes
 90
     4095
280
     0
281
     0
  0
CLASS
  1
MLEADERSTYLE
  2
AcDbMLeaderStyle
  3
ACDB_MLEADERSTYLE_CLASS
 90
     4095
280
     0
281
     0
  0
CLASS
  1
SUN
  2
AcDbSun
  3
SCENEOE
 90
     1153
280
     0
281
     0
  0
CLASS
  1
ACDBPLACEHOLDER
  2
AcDbPlaceHolder
  3
ObjectDBX Classes
 90
        0
280
     0
281
     0
  0
CLASS
  1
LAYOUT
  2
AcDbLayout
  3
ObjectDBX Classes
 90
        0
280
     0
281
     0
  0
ENDSEC
  0
SECTION
  2
TABLES
  0
TABLE
  2
VPORT
  5
8
330
0
100
AcDbSymbolTable
 70
     1
  0
VPORT
  5
29
330
8
100
AcDbSymbolTableRecord
100
AcDbViewportTableRecord
  2
*Active
 70
     0
 10
0.0
 20
0.0
 11
1.0
 21
1.0
 12
43.18
 22
27.94
 13
0.0
 23
0.0
 14
10.0
 24
10.0
 15
10.0
 25
10.0
 16
0.0
 26
0.0
 36
1.0
 17
0.0
 27
0.0
 37
0.0
 40
55.88
 41
1.5454545455
 42
50.0
 43
0.0
 44
0.0
 50
0.0
 51
0.0
 71
     0
 72
  2000
 73
     1
 74
     3
 75
     0
 76
     0
 77
     0
 78
     0
281
     0
 65
     1
110
0.0
120
0.0
130
0.0
111
1.0
121
0.0
131
0.0
112
0.0
122
1.0
132
0.0
 79
     0
146
0.0
  0
ENDTAB
  0
TABLE
  2
LTYPE
  5
5
330
0
100
AcDbSymbolTable
 70
     6
  0
LTYPE
  5
14
330
5
100
AcDbSymbolTableRecord
100
AcDbLinetypeTableRecord
  2
ByBlock
 70
     0
  3

 72
    65
 73
     0
 40
0.0
  0
LTYPE
  5
15
330
5
100
AcDbSymbolTableRecord
100
AcDbLinetypeTableRecord
  2
ByLayer
 70
     0
  3

 72
    65
 73
     0
 40
0.0
  0
LTYPE
  5
16
330
5
100
AcDbSymbolTableRecord
100
AcDbLinetypeTableRecord
  2
Continuous
 70
     0
  3
Solid line
 72
    65
 73
     0
 40
0.0
  0
LTYPE
  5
6E
330
5
100
AcDbSymbolTableRecord
100
AcDbLinetypeTableRecord
  2
HIDDEN
 70
     0
  3
Hidden __ __ __ __ __ __ __ __ __ __ __ __ __ __
 72
    65
 73
     2
 40
1.905
 49
1.27
 74
     0
 49
-0.635
 74
     0
  0
LTYPE
  5
6F
330
5
100
AcDbSymbolTableRecord
100
AcDbLinetypeTableRecord
  2
PHANTOM
 70
     0
  3
Phantom ______  __  __  ______  __  __  ______
 72
    65
 73
     6
 40
12.7
 49
6.35
 74
     0
 49
-1.27
 74
     0
 49
1.27
 74
     0
 49
-1.27
 74
     0
 49
1.27
 74
     0
 49
-1.27
 74
     0
  0
LTYPE
  5
70
330
5
100
AcDbSymbolTableRecord
100
AcDbLinetypeTableRecord
  2
CENTER
 70
     0
  3
Center ____ _ ____ _ ____ _ ____ _ ____ _ ____
 72
    65
 73
     4
 40
10.16
 49
6.35
 74
     0
 49
-1.27
 74
     0
 49
1.27
 74
     0
 49
-1.27
 74
     0
  0
LTYPE
  5
71
330
5
100
AcDbSymbolTableRecord
100
AcDbLinetypeTableRecord
  2
CENTERX2
 70
     0
  3
Center (2x) ________  __  ________  __  _____
 72
    65
 73
     4
 40
20.32
 49
12.7
 74
     0
 49
-2.54
 74
     0
 49
2.54
 74
     0
 49
-2.54
 74
     0
  0
LTYPE
  5
72
330
5
100
AcDbSymbolTableRecord
100
AcDbLinetypeTableRecord
  2
DOT2
 70
     0
  3
Dot (.5x) ........................................
 72
    65
 73
     2
 40
0.635
 49
0.0
 74
     0
 49
-0.635
 74
     0
  0
ENDTAB
  0
TABLE
  2
LAYER
  5
2
330
0
100
AcDbSymbolTable
 70
     1
  0
LAYER
  5
10
330
2
100
AcDbSymbolTableRecord
100
AcDbLayerTableRecord
  2
0
 70
     0
 62
     7
  6
Continuous
370
    -3
390
F
  0
ENDTAB
  0
TABLE
  2
STYLE
  5
3
330
0
100
AcDbSymbolTable
 70
     2
  0
STYLE
  5
11
330
3
100
AcDbSymbolTableRecord
100
AcDbTextStyleTableRecord
  2
Standard
 70
     0
 40
0.0
 41
1.0
 50
0.0
 71
     0
 42
0.7
  3
txt
  4
bigfont
  0
STYLE
  5
73
330
3
100
AcDbSymbolTableRecord
100
AcDbTextStyleTableRecord
  2
SLDTEXTSTYLE0
 70
     0
 40
0.0
 41
0.75
 50
0.0
 71
     0
 42
0.7
  3
TXT
  4
bigfont
  0
ENDTAB
  0
TABLE
  2
VIEW
  5
6
330
0
100
AcDbSymbolTable
 70
     0
  0
ENDTAB
  0
TABLE
  2
UCS
  5
7
330
0
100
AcDbSymbolTable
 70
     0
  0
ENDTAB
  0
TABLE
  2
APPID
  5
9
330
0
100
AcDbSymbolTable
 70
     1
  0
APPID
  5
12
330
9
100
AcDbSymbolTableRecord
100
AcDbRegAppTableRecord
  2
ACAD
 70
     0
  0
ENDTAB
  0
TABLE
  2
DIMSTYLE
  5
A
330
0
100
AcDbSymbolTable
 70
     1
100
AcDbDimStyleTable
  0
DIMSTYLE
105
27
330
A
100
AcDbSymbolTableRecord
100
AcDbDimStyleTableRecord
  2
ISO-25
 70
     0
 41
2.5
 42
0.625
 43
3.75
 44
1.25
 73
     0
 74
     0
 77
     1
 78
     8
140
2.5
141
2.5
143
0.0393700787
147
0.625
171
     3
172
     1
178
     0
271
     2
272
     2
274
     3
278
    44
283
     0
284
     8
340
11
  0
ENDTAB
  0
TABLE
  2
BLOCK_RECORD
  5
1
330
0
100
AcDbSymbolTable
 70
     2
  0
BLOCK_RECORD
  5
1F
330
1
100
AcDbSymbolTableRecord
100
AcDbBlockTableRecord
  2
*Model_Space
340
22
  0
BLOCK_RECORD
  5
1B
330
1
100
AcDbSymbolTableRecord
100
AcDbBlockTableRecord
  2
*Paper_Space
340
1E
  0
BLOCK_RECORD
  5
23
330
1
100
AcDbSymbolTableRecord
100
AcDbBlockTableRecord
  2
*Paper_Space0
340
26
  0
BLOCK_RECORD
  5
E9
330
1
100
AcDbSymbolTableRecord
100
AcDbBlockTableRecord
  2
SW_CENTERMARKSYMBOL_0
340
0
102
{BLKREFS
331
F4
102
}
  0
ENDTAB
  0
ENDSEC
  0
SECTION
  2
BLOCKS
  0
BLOCK
  5
20
330
1F
100
AcDbEntity
  8
0
100
AcDbBlockBegin
  2
*Model_Space
 70
     0
 10
0.0
 20
0.0
 30
0.0
  3
*Model_Space
  1

  0
ENDBLK
  5
21
330
1F
100
AcDbEntity
  8
0
100
AcDbBlockEnd
  0
BLOCK
  5
1C
330
1B
100
AcDbEntity
 67
     1
  8
0
100
AcDbBlockBegin
  2
*Paper_Space
 70
     0
 10
0.0
 20
0.0
 30
0.0
  3
*Paper_Space
  1

  0
ENDBLK
  5
1D
330
1B
100
AcDbEntity
 67
     1
  8
0
100
AcDbBlockEnd
  0
BLOCK
  5
24
330
23
100
AcDbEntity
  8
0
100
AcDbBlockBegin
  2
*Paper_Space0
 70
     0
 10
0.0
 20
0.0
 30
0.0
  3
*Paper_Space0
  1

  0
ENDBLK
  5
25
330
23
100
AcDbEntity
  8
0
100
AcDbBlockEnd
  0
BLOCK
  5
EA
330
E9
100
AcDbEntity
  8
0
100
AcDbBlockBegin
  2
SW_CENTERMARKSYMBOL_0
 70
     0
 10
0.0
 20
0.0
 30
0.0
  3
SW_CENTERMARKSYMBOL_0
  1

  0
LINE
  5
EC
330
E9
100
AcDbEntity
  8
0
  6
Continuous
 62
     0
370
    18
100
AcDbLine
 10
0.0
 20
0.0
 30
0.0
 11
0.0
 21
2.5
 31
0.0
  0
LINE
  5
ED
330
E9
100
AcDbEntity
  8
0
  6
Continuous
 62
     0
370
    18
100
AcDbLine
 10
0.0
 20
0.0
 30
0.0
 11
-2.5
 21
0.0
 31
0.0
  0
LINE
  5
EE
330
E9
100
AcDbEntity
  8
0
  6
Continuous
 62
     0
370
    18
100
AcDbLine
 10
0.0
 20
0.0
 30
0.0
 11
0.0
 21
-2.5
 31
0.0
  0
LINE
  5
EF
330
E9
100
AcDbEntity
  8
0
  6
Continuous
 62
     0
370
    18
100
AcDbLine
 10
0.0
 20
0.0
 30
0.0
 11
2.5
 21
0.0
 31
0.0
  0
LINE
  5
F0
330
E9
100
AcDbEntity
  8
0
  6
Continuous
 62
     0
370
    18
100
AcDbLine
 10
0.0
 20
5.0
 30
0.0
 11
0.0
 21
9.197030303
 31
0.0
  0
LINE
  5
F1
330
E9
100
AcDbEntity
  8
0
  6
Continuous
 62
     0
370
    18
100
AcDbLine
 10
-5.0
 20
0.0
 30
0.0
 11
-9.197030303
 21
0.0
 31
0.0
  0
LINE
  5
F2
330
E9
100
AcDbEntity
  8
0
  6
Continuous
 62
     0
370
    18
100
AcDbLine
 10
0.0
 20
-5.0
 30
0.0
 11
0.0
 21
-9.197030303
 31
0.0
  0
LINE
  5
F3
330
E9
100
AcDbEntity
  8
0
  6
Continuous
 62
     0
370
    18
100
AcDbLine
 10
5.0
 20
0.0
 30
0.0
 11
9.197030303
 21
0.0
 31
0.0
  0
ENDBLK
  5
EB
330
E9
100
AcDbEntity
  8
0
100
AcDbBlockEnd
  0
ENDSEC
  0
SECTION
  2
ENTITIES
  0
MTEXT
  5
74
330
1F
100
AcDbEntity
  8
0
  6
Continuous
 62
     7
370
     0
100
AcDbMText
 10
21.8965031214
 20
23.953768961
 30
0.0
 40
1.4816666667
 41
0.0
 71
     1
 72
     1
  1
NP-7002
  7
SLDTEXTSTYLE0
 73
     1
 44
1.0
  0
LINE
  5
75
330
1F
100
AcDbEntity
  8
0
  6
Continuous
 62
     7
370
    25
100
AcDbLine
 10
16.203193512
 20
18.3943616325
 30
0.0
 11
8.0312200812
 21
18.1389874628
 31
0.0
  0
LINE
  5
76
330
1F
100
AcDbEntity
  8
0
  6
Continuous
 62
     7
370
    25
100
AcDbLine
 10
8.0312200812
 20
5.2556751962
 30
0.0
 11
16.203193512
 21
5.0003010264
 31
0.0
  0
LINE
  5
77
330
1F
100
AcDbEntity
  8
0
  6
Continuous
 62
     7
370
    25
100
AcDbLine
 10
16.203193512
 20
5.0003010264
 30
0.0
 11
17.400223815
 21
6.1973313295
 31
0.0
  0
LINE
  5
78
330
1F
100
AcDbEntity
  8
0
  6
Continuous
 62
     7
370
    25
100
AcDbLine
 10
17.400223815
 20
17.1973313295
 30
0.0
 11
16.203193512
 21
18.3943616325
 31
0.0
  0
LINE
  5
79
330
1F
100
AcDbEntity
  8
0
  6
Continuous
 62
     7
370
    25
100
AcDbLine
 10
8.0312200812
 20
18.1389874628
 30
0.0
 11
6.400223815
 21
17.1973313295
 31
0.0
  0
LINE
  5
7A
330
1F
100
AcDbEntity
  8
0
  6
Continuous
 62
     7
370
    25
100
AcDbLine
 10
6.400223815
 20
6.1973313295
 30
0.0
 11
8.0312200812
 21
5.2556751962
 31
0.0
  0
LINE
  5
7B
330
1F
100
AcDbEntity
  8
0
  6
Continuous
 62
     7
370
    25
100
AcDbLine
 10
23.9237480138
 20
6.2208555282
 30
0.0
 11
25.400223815
 21
7.6973313295
 31
0.0
  0
LINE
  5
7C
330
1F
100
AcDbEntity
  8
0
  6
Continuous
 62
     7
370
    25
100
AcDbLine
 10
25.400223815
 20
15.6973313295
 30
0.0
 11
23.9236546926
 21
17.1739004519
 31
0.0
  0
LINE
  5
7D
330
1F
100
AcDbEntity
  8
0
  6
Continuous
 62
     7
370
    25
100
AcDbLine
 10
25.401473815
 20
12.0819231547
 30
0.0
 11
25.400223815
 21
12.0819231547
 31
0.0
  0
LINE
  5
7E
330
1F
100
AcDbEntity
  8
0
  6
Continuous
 62
     7
370
    25
100
AcDbLine
 10
25.401473815
 20
11.667715528
 30
0.0
 11
25.400223815
 21
11.667715528
 31
0.0
  0
LINE
  5
7F
330
1F
100
AcDbEntity
  8
0
  6
Continuous
 62
     7
370
    25
100
AcDbLine
 10
25.400223815
 20
10.9906900067
 30
0.0
 11
25.401473815
 21
10.9906900067
 31
0.0
  0
LINE
  5
80
330
1F
100
AcDbEntity
  8
0
  6
Continuous
 62
     7
370
    25
100
AcDbLine
 10
25.401473815
 20
13.0242505233
 30
0.0
 11
25.400223815
 21
13.0242505233
 31
0.0
  0
LINE
  5
81
330
1F
100
AcDbEntity
  8
0
  6
Continuous
 62
     7
370
    25
100
AcDbLine
 10
25.400223815
 20
11.9432767055
 30
0.0
 11
25.401473815
 21
11.9432767055
 31
0.0
  0
LINE
  5
82
330
1F
100
AcDbEntity
  8
0
  6
Continuous
 62
     7
370
    25
100
AcDbLine
 10
25.401473815
 20
11.266050369
 30
0.0
 11
25.400223815
 21
11.266050369
 31
0.0
  0
LINE
  5
83
330
1F
100
AcDbEntity
  8
0
  6
Continuous
 62
     7
370
    25
100
AcDbLine
 10
16.203193512
 20
18.3943616325
 30
0.0
 11
16.203193512
 21
5.0003010264
 31
0.0
  0
LINE
  5
84
330
1F
100
AcDbEntity
  8
0
  6
Continuous
 62
     7
370
    25
100
AcDbLine
 10
8.0312200812
 20
5.2556751962
 30
0.0
 11
8.0312200812
 21
18.1389874628
 31
0.0
  0
LINE
  5
85
330
1F
100
AcDbEntity
  8
0
  6
Continuous
 62
     7
370
    25
100
AcDbLine
 10
17.400223815
 20
17.1153798223
 30
0.0
 11
17.400223815
 21
12.6432438673
 31
0.0
  0
LINE
  5
86
330
1F
100
AcDbEntity
  8
0
  6
Continuous
 62
     7
370
    25
100
AcDbLine
 10
17.400223815
 20
12.2211395005
 30
0.0
 11
17.400223815
 21
11.1735231585
 31
0.0
  0
LINE
  5
87
330
1F
100
AcDbEntity
  8
0
  6
Continuous
 62
     7
370
    25
100
AcDbLine
 10
17.400223815
 20
10.7514187916
 30
0.0
 11
17.400223815
 21
6.2792828366
 31
0.0
  0
LINE
  5
88
330
1F
100
AcDbEntity
  8
0
  6
Continuous
 62
     7
370
    25
100
AcDbLine
 10
17.400223815
 20
6.2223313295
 30
0.0
 11
17.400223815
 21
6.1973313295
 31
0.0
  0
LINE
  5
89
330
1F
100
AcDbEntity
  8
0
  6
Continuous
 62
     7
370
    25
100
AcDbLine
 10
17.400223815
 20
17.1973313295
 30
0.0
 11
17.400223815
 21
17.1723313295
 31
0.0
  0
LINE
  5
8A
330
1F
100
AcDbEntity
  8
0
  6
Continuous
 62
     7
370
    25
100
AcDbLine
 10
6.400223815
 20
6.1973313295
 30
0.0
 11
6.400223815
 21
17.1973313295
 31
0.0
  0
LINE
  5
8B
330
1F
100
AcDbEntity
  8
0
  6
Continuous
 62
     7
370
    25
100
AcDbLine
 10
17.400223815
 20
10.7514187916
 30
0.0
 11
17.400223815
 21
10.8083702988
 31
0.0
  0
LINE
  5
8C
330
1F
100
AcDbEntity
  8
0
  6
Continuous
 62
     7
370
    25
100
AcDbLine
 10
23.8535241915
 20
10.8083702988
 30
0.0
 11
17.400223815
 21
10.8083702988
 31
0.0
  0
SPLINE
  5
8D
330
1F
100
AcDbEntity
  8
0
  6
Continuous
 62
     7
370
    25
100
AcDbSpline
210
0.0
220
0.0
230
1.0
 70
     8
 71
     3
 72
    20
 73
    16
 74
     0
 42
0.000000001
 43
0.00000001
 40
0.0
 40
0.0
 40
0.0
 40
0.0
 40
0.2500000000000002
 40
0.2500000000000002
 40
0.3750000000000003
 40
0.3750000000000003
 40
0.5000000000000004
 40
0.5000000000000004
 40
0.6250000000000004
 40
0.6250000000000004
 40
0.7500000000000003
 40
0.7500000000000003
 40
0.8750000000000002
 40
0.8750000000000002
 40
1.0
 40
1.0
 40
1.0
 40
1.0
 10
23.85352419146257
 20
6.222331329479766
 30
0.0
 10
24.14002959750276
 20
6.568852464268109
 30
0.0
 10
24.39575425921601
 20
6.92654508020096
 30
0.0
 10
24.68262158835964
 20
7.498187180449464
 30
0.0
 10
24.76220497275923
 20
7.697218374259611
 30
0.0
 10
24.87025513753789
 20
8.098170507695054
 30
0.0
 10
24.8990003578126
 20
8.299638453729752
 30
0.0
 10
24.90137026538214
 20
8.70473705208115
 30
0.0
 10
24.87434805856115
 20
8.910362206373668
 30
0.0
 10
24.76927355282334
 20
9.313541570797975
 30
0.0
 10
24.69246700217581
 20
9.509805516955305
 30
0.0
 10
24.50243596547985
 20
9.894341735453274
 30
0.0
 10
24.3888597091871
 20
10.08316479099305
 30
0.0
 10
24.13693303534592
 20
10.45242863423502
 30
0.0
 10
23.99926065274745
 20
10.63210568780315
 30
0.0
 10
23.85352419145883
 20
10.80837029880536
 30
0.0
  0
LINE
  5
8E
330
1F
100
AcDbEntity
  8
0
  6
Continuous
 62
     7
370
    25
100
AcDbLine
 10
17.400223815
 20
6.2223313295
 30
0.0
 11
23.8535241915
 21
6.2223313295
 31
0.0
  0
LINE
  5
8F
330
1F
100
AcDbEntity
  8
0
  6
Continuous
 62
     7
370
    25
100
AcDbLine
 10
17.400223815
 20
6.2223313295
 30
0.0
 11
17.400223815
 21
6.2792828366
 31
0.0
  0
SPLINE
  5
90
330
1F
100
AcDbEntity
  8
0
  6
Continuous
 62
     7
370
    25
100
AcDbSpline
210
0.0
220
0.0
230
1.0
 70
    24
 71
     3
 72
    10
 73
     6
 74
     0
 42
0.000000001
 43
0.00000001
 40
0.0
 40
0.0
 40
0.0
 40
0.0
 40
0.3315850602337747
 40
0.7449124224048057
 40
1.0
 40
1.0
 40
1.0
 40
1.0
 10
23.85352419146257
 20
6.222331329479766
 30
0.0
 10
23.8675670432549
 20
6.222331329479766
 30
0.0
 10
23.89911458866822
 20
6.222331329479768
 30
0.0
 10
23.92296387212588
 20
6.222331329479762
 30
0.0
 10
23.92246326103572
 20
6.222331329479765
 30
0.0
 10
23.92227221253768
 20
6.222331329479766
 30
0.0
  0
SPLINE
  5
91
330
1F
100
AcDbEntity
  8
0
  6
Continuous
 62
     7
370
    25
100
AcDbSpline
210
0.0
220
0.0
230
1.0
 70
     8
 71
     3
 72
    10
 73
     6
 74
     0
 42
0.000000001
 43
0.00000001
 40
0.0
 40
0.0
 40
0.0
 40
0.0
 40
0.5
 40
0.5
 40
1.0
 40
1.0
 40
1.0
 40
1.0
 10
23.85352419146325
 20
10.80837029880506
 30
0.0
 10
23.90056596786473
 20
11.10188890586922
 30
0.0
 10
23.92502453522041
 20
11.39695282321717
 30
0.0
 10
23.9254206554924
 20
11.99040082478754
 30
0.0
 10
23.90079637891151
 20
12.29133609629096
 30
0.0
 10
23.85352419146541
 20
12.58629236014112
 30
0.0
  0
SPLINE
  5
92
330
1F
100
AcDbEntity
  8
0
  6
Continuous
 62
     7
370
    25
100
AcDbSpline
210
0.0
220
0.0
230
1.0
 70
     8
 71
     3
 72
    20
 73
    16
 74
     0
 42
0.000000001
 43
0.00000001
 40
0.0
 40
0.0
 40
0.0
 40
0.0
 40
0.25
 40
0.25
 40
0.375
 40
0.375
 40
0.5
 40
0.5
 40
0.625
 40
0.625
 40
0.75
 40
0.75
 40
0.875
 40
0.875
 40
1.0
 40
1.0
 40
1.0
 40
1.0
 10
23.85352419145763
 20
12.58629236015272
 30
0.0
 10
24.1400295974983
 20
12.93281349494105
 30
0.0
 10
24.39575425921213
 20
13.29050611087386
 30
0.0
 10
24.68262158835694
 20
13.86214821112218
 30
0.0
 10
24.762204972757
 20
14.06117940493223
 30
0.0
 10
24.87025513753674
 20
14.46213153836778
 30
0.0
 10
24.89900035781201
 20
14.66359948440253
 30
0.0
 10
24.90137026538265
 20
15.06869808275404
 30
0.0
 10
24.87434805856223
 20
15.27432323704658
 30
0.0
 10
24.7692735528253
 20
15.67750260147124
 30
0.0
 10
24.69246700217816
 20
15.87376654762873
 30
0.0
 10
24.5024359654828
 20
16.25830276612699
 30
0.0
 10
24.38885970919031
 20
16.44712582166688
 30
0.0
 10
24.13693303534945
 20
16.81638966490916
 30
0.0
 10
23.9992606527511
 20
16.99606671847743
 30
0.0
 10
23.85352419146257
 20
17.17233132947977
 30
0.0
  0
SPLINE
  5
93
330
1F
100
AcDbEntity
  8
0
  6
Continuous
 62
     7
370
    25
100
AcDbSpline
210
0.0
220
0.0
230
1.0
 70
    24
 71
     3
 72
    10
 73
     6
 74
     0
 42
0.000000001
 43
0.00000001
 40
0.0
 40
0.0
 40
0.0
 40
0.0
 40
0.2475741602834069
 40
0.6684136123241385
 40
1.0
 40
1.0
 40
1.0
 40
1.0
 10
23.92208557008878
 20
17.17233132947976
 30
0.0
 10
23.92239855346869
 20
17.17233132947976
 30
0.0
 10
23.92324356229886
 20
17.17233132947976
 30
0.0
 10
23.89939863695969
 20
17.17233132947977
 30
0.0
 10
23.86755663619395
 20
17.17233132947976
 30
0.0
 10
23.85352419146257
 20
17.17233132947976
 30
0.0
  0
LINE
  5
94
330
1F
100
AcDbEntity
  8
0
  6
Continuous
 62
     7
370
    25
100
AcDbLine
 10
25.400223815
 20
15.6973313295
 30
0.0
 11
25.400223815
 21
7.6973313295
 31
0.0
  0
LINE
  5
95
330
1F
100
AcDbEntity
  8
0
  6
Continuous
 62
     7
370
    25
100
AcDbLine
 10
17.400223815
 20
17.1153798223
 30
0.0
 11
17.400223815
 21
17.1723313295
 31
0.0
  0
LINE
  5
96
330
1F
100
AcDbEntity
  8
0
  6
Continuous
 62
     7
370
    25
100
AcDbLine
 10
23.8535241915
 20
17.1723313295
 30
0.0
 11
17.400223815
 21
17.1723313295
 31
0.0
  0
LINE
  5
97
330
1F
100
AcDbEntity
  8
0
  6
Continuous
 62
     7
370
    25
100
AcDbLine
 10
17.400223815
 20
12.5862923602
 30
0.0
 11
23.8535241915
 21
12.5862923601
 31
0.0
  0
LINE
  5
98
330
1F
100
AcDbEntity
  8
0
  6
Continuous
 62
     7
370
    25
100
AcDbLine
 10
17.400223815
 20
12.5862923602
 30
0.0
 11
17.400223815
 21
12.6432438673
 31
0.0
  0
LINE
  5
99
330
1F
100
AcDbEntity
  8
0
  6
Continuous
 62
     7
370
    25
100
AcDbLine
 10
17.400223815
 20
10.8083702988
 30
0.0
 11
17.400223815
 21
11.1735231585
 31
0.0
  0
LINE
  5
9A
330
1F
100
AcDbEntity
  8
0
  6
Continuous
 62
     7
370
    25
100
AcDbLine
 10
17.400223815
 20
12.5862923602
 30
0.0
 11
17.400223815
 21
12.2211395005
 31
0.0
  0
LINE
  5
9B
330
1F
100
AcDbEntity
  8
0
  6
Continuous
 62
     7
370
    18
100
AcDbLine
 10
16.203193512
 20
5.7337631406
 30
0.0
 11
6.6881295252
 21
6.0311088902
 31
0.0
  0
LINE
  5
9C
330
1F
100
AcDbEntity
  8
0
  6
Continuous
 62
     7
370
    18
100
AcDbLine
 10
16.203193512
 20
17.6608995183
 30
0.0
 11
6.6881295252
 21
17.3635537687
 31
0.0
  0
LINE
  5
9D
330
1F
100
AcDbEntity
  8
0
  6
CENTERX2
 62
     7
370
    18
100
AcDbLine
 10
26.5090256647
 20
11.6973313295
 30
0.0
 11
5.4891015029
 21
11.6973313295
 31
0.0
  0
SPLINE
  5
9E
330
1F
100
AcDbEntity
  8
0
  6
Continuous
 62
     7
370
    25
100
AcDbSpline
210
0.0
220
0.0
230
1.0
 70
     8
 71
     3
 72
    23
 73
    19
 74
     0
 42
0.000000001
 43
0.00000001
 40
0.0
 40
0.0
 40
0.0
 40
0.0
 40
0.0714340508655357
 40
0.1375891490131985
 40
0.1988671272749592
 40
0.2554435599219264
 40
0.3076933861665009
 40
0.3550325418254516
 40
0.3974487289008686
 40
0.4361373033546204
 40
0.5081119058244427
 40
0.5772270526050617
 40
0.6463348841943414
 40
0.7166178483288135
 40
0.7873525362986342
 40
0.8567329452643679
 40
0.9275818981340933
 40
1.0
 40
1.0
 40
1.0
 40
1.0
 10
39.28730275541093
 20
10.74625289454606
 30
0.0
 10
39.29599295236204
 20
10.75499501235654
 30
0.0
 10
39.31273114358561
 20
10.77183320836449
 30
0.0
 10
39.33569477287646
 20
10.79732859228779
 30
0.0
 10
39.3570669352262
 20
10.82082130838632
 30
0.0
 10
39.37523181314864
 20
10.84388416408262
 30
0.0
 10
39.39164414108892
 20
10.86526604397447
 30
0.0
 10
39.40506515709395
 20
10.88577789349071
 30
0.0
 10
39.41649079470149
 20
10.90478578846032
 30
0.0
 10
39.42794862911497
 20
10.9286144489218
 30
0.0
 10
39.4382976212067
 20
10.95797444926318
 30
0.0
 10
39.44513606770934
 20
10.99374131530335
 30
0.0
 10
39.44599126367625
 20
11.02986280716374
 30
0.0
 10
39.44114172700989
 20
11.06594002775698
 30
0.0
 10
39.43085198615373
 20
11.10087167108863
 30
0.0
 10
39.4160763168586
 20
11.1342648596309
 30
0.0
 10
39.39578332383365
 20
11.1650761569227
 30
0.0
 10
39.3790129534107
 20
11.18327018613992
 30
0.0
 10
39.37053592848785
 20
11.19246683685375
 30
0.0
  0
LINE
  5
9F
330
1F
100
AcDbEntity
  8
0
  6
Continuous
 62
     7
370
    25
100
AcDbLine
 10
39.1073147746
 20
10.5710726061
 30
0.0
 11
39.2873027554
 21
10.7462528945
 31
0.0
  0
LINE
  5
A0
330
1F
100
AcDbEntity
  8
0
  6
Continuous
 62
     7
370
    25
100
AcDbLine
 10
38.7506441016
 20
10.9277432792
 30
0.0
 11
39.1073147746
 21
10.5710726061
 31
0.0
  0
LINE
  5
A1
330
1F
100
AcDbEntity
  8
0
  6
Continuous
 62
     7
370
    25
100
AcDbLine
 10
38.9360407362
 20
11.1131399138
 30
0.0
 11
38.7506441016
 21
10.9277432792
 31
0.0
  0
SPLINE
  5
A2
330
1F
100
AcDbEntity
  8
0
  6
Continuous
 62
     7
370
    25
100
AcDbSpline
210
0.0
220
0.0
230
1.0
 70
     8
 71
     3
 72
    23
 73
    19
 74
     0
 42
0.000000001
 43
0.00000001
 40
0.0
 40
0.0
 40
0.0
 40
0.0
 40
0.0726813284379039
 40
0.1434600890843439
 40
0.214160978375421
 40
0.2866317423066645
 40
0.3582937434852108
 40
0.4274496270517901
 40
0.4958614884323621
 40
0.5652405595167557
 40
0.6025654069960295
 40
0.6444912751488164
 40
0.6912842453022057
 40
0.7427916792484175
 40
0.7995856524042377
 40
0.8612748596826222
 40
0.928333039685004
 40
1.0
 40
1.0
 40
1.0
 40
1.0
 10
39.37053592848785
 20
11.19246683685375
 30
0.0
 10
39.36156152590216
 20
11.20078294360127
 30
0.0
 10
39.34384764226669
 20
11.21719746766783
 30
0.0
 10
39.31321041017158
 20
11.23640974471287
 30
0.0
 10
39.28045436621569
 20
11.25149037299832
 30
0.0
 10
39.24551011374233
 20
11.26105837749077
 30
0.0
 10
39.20997946553349
 20
11.26634955820577
 30
0.0
 10
39.17464448468478
 20
11.26621550998584
 30
0.0
 10
39.14031195242043
 20
11.25994058520938
 30
0.0
 10
39.11226929806674
 20
11.25052515125948
 30
0.0
 10
39.09004642666797
 20
11.23908611880997
 30
0.0
 10
39.0715875557062
 20
11.22867990455212
 30
0.0
 10
39.05217467031517
 20
11.21528579852799
 30
0.0
 10
39.03140263565244
 20
11.19955062672855
 30
0.0
 10
39.00921782074791
 20
11.18155387450652
 30
0.0
 10
38.98570093809536
 20
11.16107848892832
 30
0.0
 10
38.96124861934396
 20
11.13791991363413
 30
0.0
 10
38.94462742910682
 20
11.12158085457756
 30
0.0
 10
38.93604073618015
 20
11.11313991377683
 30
0.0
  0
SPLINE
  5
A3
330
1F
100
AcDbEntity
  8
0
  6
Continuous
 62
     7
370
    25
100
AcDbSpline
210
0.0
220
0.0
230
1.0
 70
    24
 71
     3
 72
    10
 73
     6
 74
     0
 42
0.000000001
 43
0.00000001
 40
0.0
 40
0.0
 40
0.0
 40
0.0
 40
0.5
 40
0.5
 40
1.0
 40
1.0
 40
1.0
 40
1.0
 10
39.9835839208481
 20
6.222331329479766
 30
0.0
 10
39.69006531378102
 20
6.222331329479766
 30
0.0
 10
39.39500139643012
 20
6.222331329479765
 30
0.0
 10
38.8015533948538
 20
6.222331329479768
 30
0.0
 10
38.50061812334732
 20
6.222331329479766
 30
0.0
 10
38.20566185949446
 20
6.222331329479766
 30
0.0
  0
SPLINE
  5
A4
330
1F
100
AcDbEntity
  8
0
  6
Continuous
 62
     7
370
    25
100
AcDbSpline
210
0.0
220
0.0
230
1.0
 70
    24
 71
     3
 72
    20
 73
    16
 74
     0
 42
0.000000001
 43
0.00000001
 40
0.0
 40
0.0
 40
0.0
 40
0.0
 40
0.2500000000000002
 40
0.2500000000000002
 40
0.3750000000000003
 40
0.3750000000000003
 40
0.5000000000000004
 40
0.5000000000000004
 40
0.6250000000000004
 40
0.6250000000000004
 40
0.7500000000000003
 40
0.7500000000000003
 40
0.8750000000000002
 40
0.8750000000000002
 40
1.0
 40
1.0
 40
1.0
 40
1.0
 10
38.20566185949447
 20
6.222331329479766
 30
0.0
 10
37.85914072470612
 20
6.568852464268109
 30
0.0
 10
37.50144810877327
 20
6.92654508020096
 30
0.0
 10
36.92980600852477
 20
7.498187180449464
 30
0.0
 10
36.73077481471461
 20
7.697218374259611
 30
0.0
 10
36.32982268127918
 20
8.098170507695054
 30
0.0
 10
36.12835473524448
 20
8.299638453729752
 30
0.0
 10
35.72325613689308
 20
8.70473705208115
 30
0.0
 10
35.51763098260056
 20
8.910362206373668
 30
0.0
 10
35.11445161817625
 20
9.313541570797975
 30
0.0
 10
34.91818767201892
 20
9.509805516955305
 30
0.0
 10
34.53365145352095
 20
9.894341735453274
 30
0.0
 10
34.34482839798118
 20
10.08316479099305
 30
0.0
 10
33.97556455473921
 20
10.45242863423502
 30
0.0
 10
33.79588750117108
 20
10.63210568780315
 30
0.0
 10
33.61962289016886
 20
10.80837029880536
 30
0.0
  0
SPLINE
  5
A5
330
1F
100
AcDbEntity
  8
0
  6
Continuous
 62
     7
370
    25
100
AcDbSpline
210
0.0
220
0.0
230
1.0
 70
    24
 71
     3
 72
    10
 73
     6
 74
     0
 42
0.000000001
 43
0.00000001
 40
0.0
 40
0.0
 40
0.0
 40
0.0
 40
0.5
 40
0.5
 40
1.0
 40
1.0
 40
1.0
 40
1.0
 10
33.6196228901734
 20
10.80837029880506
 30
0.0
 10
33.6196228901734
 20
11.10188890586922
 30
0.0
 10
33.61962289017339
 20
11.39695282321717
 30
0.0
 10
33.6196228901734
 20
11.99040082478754
 30
0.0
 10
33.6196228901734
 20
12.29133609629096
 30
0.0
 10
33.6196228901734
 20
12.58629236014112
 30
0.0
  0
SPLINE
  5
A6
330
1F
100
AcDbEntity
  8
0
  6
Continuous
 62
     7
370
    25
100
AcDbSpline
210
0.0
220
0.0
230
1.0
 70
    24
 71
     3
 72
    20
 73
    16
 74
     0
 42
0.000000001
 43
0.00000001
 40
0.0
 40
0.0
 40
0.0
 40
0.0
 40
0.25
 40
0.25
 40
0.375
 40
0.375
 40
0.5
 40
0.5
 40
0.625
 40
0.625
 40
0.75
 40
0.75
 40
0.875
 40
0.875
 40
1.0
 40
1.0
 40
1.0
 40
1.0
 10
33.61962289016741
 20
12.58629236015272
 30
0.0
 10
33.96614402495575
 20
12.93281349494105
 30
0.0
 10
34.32383664088856
 20
13.29050611087386
 30
0.0
 10
34.89547874113688
 20
13.86214821112218
 30
0.0
 10
35.09450993494693
 20
14.06117940493223
 30
0.0
 10
35.49546206838248
 20
14.46213153836778
 30
0.0
 10
35.69693001441723
 20
14.66359948440253
 30
0.0
 10
36.10202861276874
 20
15.06869808275404
 30
0.0
 10
36.30765376706128
 20
15.27432323704658
 30
0.0
 10
36.71083313148594
 20
15.67750260147124
 30
0.0
 10
36.90709707764343
 20
15.87376654762873
 30
0.0
 10
37.29163329614169
 20
16.25830276612699
 30
0.0
 10
37.48045635168158
 20
16.44712582166688
 30
0.0
 10
37.84972019492386
 20
16.81638966490916
 30
0.0
 10
38.02939724849213
 20
16.99606671847743
 30
0.0
 10
38.20566185949447
 20
17.17233132947977
 30
0.0
  0
SPLINE
  5
A7
330
1F
100
AcDbEntity
  8
0
  6
Continuous
 62
     7
370
    25
100
AcDbSpline
210
0.0
220
0.0
230
1.0
 70
    24
 71
     3
 72
    10
 73
     6
 74
     0
 42
0.000000001
 43
0.00000001
 40
0.0
 40
0.0
 40
0.0
 40
0.0
 40
0.5
 40
0.5
 40
1.0
 40
1.0
 40
1.0
 40
1.0
 10
39.98358392083831
 20
17.17233132947976
 30
0.0
 10
39.69006531377283
 20
17.17233132947976
 30
0.0
 10
39.39500139642355
 20
17.17233132947977
 30
0.0
 10
38.80155339485048
 20
17.17233132947976
 30
0.0
 10
38.50061812334568
 20
17.17233132947976
 30
0.0
 10
38.20566185949446
 20
17.17233132947976
 30
0.0
  0
SPLINE
  5
A8
330
1F
100
AcDbEntity
  8
0
  6
Continuous
 62
     7
370
    25
100
AcDbSpline
210
0.0
220
0.0
230
1.0
 70
    24
 71
     3
 72
    20
 73
    16
 74
     0
 42
0.000000001
 43
0.00000001
 40
0.0
 40
0.0
 40
0.0
 40
0.0
 40
0.2499999999999997
 40
0.2499999999999997
 40
0.3749999999999997
 40
0.3749999999999997
 40
0.4999999999999997
 40
0.4999999999999997
 40
0.6249999999999996
 40
0.6249999999999996
 40
0.7499999999999998
 40
0.7499999999999998
 40
0.8749999999999999
 40
0.8749999999999999
 40
1.0
 40
1.0
 40
1.0
 40
1.0
 10
39.98358392084756
 20
17.17233132948452
 30
0.0
 10
40.33010505563583
 20
16.82581019469626
 30
0.0
 10
40.68779767156855
 20
16.46811757876353
 30
0.0
 10
41.25943977181677
 20
15.89647547851531
 30
0.0
 10
41.45847096562679
 20
15.69744428470529
 30
0.0
 10
41.85942309906223
 20
15.29649215126985
 30
0.0
 10
42.06089104509692
 20
15.09502420523516
 30
0.0
 10
42.46598964344832
 20
14.68992560688377
 30
0.0
 10
42.6716147977408
 20
14.48430045259128
 30
0.0
 10
43.07479416216533
 20
14.08112108816676
 30
0.0
 10
43.27105810832276
 20
13.88485714200933
 30
0.0
 10
43.6555943268209
 20
13.50032092351119
 30
0.0
 10
43.84441738236072
 20
13.31149786797136
 30
0.0
 10
44.21368122560289
 20
12.94223402472919
 30
0.0
 10
44.39335827917111
 20
12.76255697116098
 30
0.0
 10
44.56962289017339
 20
12.5862923601587
 30
0.0
  0
SPLINE
  5
A9
330
1F
100
AcDbEntity
  8
0
  6
Continuous
 62
     7
370
    25
100
AcDbSpline
210
0.0
220
0.0
230
1.0
 70
    24
 71
     3
 72
    10
 73
     6
 74
     0
 42
0.000000001
 43
0.00000001
 40
0.0
 40
0.0
 40
0.0
 40
0.0
 40
0.5
 40
0.5
 40
1.0
 40
1.0
 40
1.0
 40
1.0
 10
44.56962289017339
 20
10.80837029881484
 30
0.0
 10
44.56962289017339
 20
11.10188890588032
 30
0.0
 10
44.56962289017339
 20
11.39695282322961
 30
0.0
 10
44.56962289017339
 20
11.99040082480268
 30
0.0
 10
44.56962289017339
 20
12.29133609630748
 30
0.0
 10
44.56962289017339
 20
12.5862923601587
 30
0.0
  0
SPLINE
  5
AA
330
1F
100
AcDbEntity
  8
0
  6
Continuous
 62
     7
370
    25
100
AcDbSpline
210
0.0
220
0.0
230
1.0
 70
    24
 71
     3
 72
    20
 73
    16
 74
     0
 42
0.000000001
 43
0.00000001
 40
0.0
 40
0.0
 40
0.0
 40
0.0
 40
0.2499999999999998
 40
0.2499999999999998
 40
0.3749999999999998
 40
0.3749999999999998
 40
0.4999999999999997
 40
0.4999999999999997
 40
0.6249999999999996
 40
0.6249999999999996
 40
0.7499999999999997
 40
0.7499999999999997
 40
0.8749999999999999
 40
0.8749999999999999
 40
1.0
 40
1.0
 40
1.0
 40
1.0
 10
39.98358392084779
 20
6.222331329475241
 30
0.0
 10
40.33010505563641
 20
6.568852464263856
 30
0.0
 10
40.68779767156952
 20
6.926545080196964
 30
0.0
 10
41.2594397718184
 20
7.498187180445848
 30
0.0
 10
41.45847096562867
 20
7.697218374256115
 30
0.0
 10
41.85942309906452
 20
8.098170507691968
 30
0.0
 10
42.06089104509943
 20
8.299638453726873
 30
0.0
 10
42.46598964345124
 20
8.704737052078688
 30
0.0
 10
42.67161479774397
 20
8.910362206371412
 30
0.0
 10
43.07479416216878
 20
9.313541570796225
 30
0.0
 10
43.27105810832635
 20
9.509805516953792
 30
0.0
 10
43.65559432682476
 20
9.894341735452212
 30
0.0
 10
43.84441738236475
 20
10.0831647909922
 30
0.0
 10
44.21368122560715
 20
10.45242863423459
 30
0.0
 10
44.39335827917547
 20
10.63210568780292
 30
0.0
 10
44.56962289017788
 20
10.80837029880532
 30
0.0
  0
CIRCLE
  5
AB
330
1F
100
AcDbEntity
  8
0
  6
Continuous
 62
     7
370
    25
100
AcDbCircle
 10
39.0946228902
 20
11.6973313295
 30
0.0
 40
4.000000000000007
  0
LINE
  5
AC
330
1F
100
AcDbEntity
  8
0
  6
Continuous
 62
     7
370
    25
100
AcDbLine
 10
40.0051513131
 20
12.8315059422
 30
0.0
 11
39.7611609285
 21
13.0754963268
 31
0.0
  0
LINE
  5
AD
330
1F
100
AcDbEntity
  8
0
  6
Continuous
 62
     7
370
    25
100
AcDbLine
 10
40.1100191016
 20
12.9363737307
 30
0.0
 11
40.0051513131
 21
12.8315059422
 31
0.0
  0
LINE
  5
AE
330
1F
100
AcDbEntity
  8
0
  6
Continuous
 62
     7
370
    25
100
AcDbLine
 10
39.8660287169
 20
13.1803641153
 30
0.0
 11
40.1100191016
 21
12.9363737307
 31
0.0
  0
LINE
  5
AF
330
1F
100
AcDbEntity
  8
0
  6
Continuous
 62
     7
370
    25
100
AcDbLine
 10
39.9931320823
 20
13.3074674807
 30
0.0
 11
39.8660287169
 21
13.1803641153
 31
0.0
  0
LINE
  5
B0
330
1F
100
AcDbEntity
  8
0
  6
Continuous
 62
     7
370
    25
100
AcDbLine
 10
39.8924710246
 20
13.4081285384
 30
0.0
 11
39.9931320823
 21
13.3074674807
 31
0.0
  0
LINE
  5
B1
330
1F
100
AcDbEntity
  8
0
  6
Continuous
 62
     7
370
    25
100
AcDbLine
 10
39.7653676593
 20
13.281025173
 30
0.0
 11
39.8924710246
 21
13.4081285384
 31
0.0
  0
LINE
  5
B2
330
1F
100
AcDbEntity
  8
0
  6
Continuous
 62
     7
370
    25
100
AcDbLine
 10
39.0336969862
 20
14.0126958461
 30
0.0
 11
39.7653676593
 21
13.281025173
 31
0.0
  0
LINE
  5
B3
330
1F
100
AcDbEntity
  8
0
  6
Continuous
 62
     7
370
    25
100
AcDbLine
 10
39.0123628516
 20
13.9913617115
 30
0.0
 11
39.0336969862
 21
14.0126958461
 31
0.0
  0
LINE
  5
B4
330
1F
100
AcDbEntity
  8
0
  6
Continuous
 62
     7
370
    25
100
AcDbLine
 10
39.2596585246
 20
12.573993923
 30
0.0
 11
39.0123628516
 21
13.9913617115
 31
0.0
  0
LINE
  5
B5
330
1F
100
AcDbEntity
  8
0
  6
Continuous
 62
     7
370
    25
100
AcDbLine
 10
39.7611609285
 20
13.0754963268
 30
0.0
 11
39.2596585246
 21
12.573993923
 31
0.0
  0
LINE
  5
B6
330
1F
100
AcDbEntity
  8
0
  6
Continuous
 62
     7
370
    25
100
AcDbLine
 10
40.84560667
 20
10.9908728622
 30
0.0
 11
40.7386355162
 21
10.8839017083
 31
0.0
  0
LINE
  5
B7
330
1F
100
AcDbEntity
  8
0
  6
Continuous
 62
     7
370
    25
100
AcDbLine
 10
39.8978903239
 20
11.9385892083
 30
0.0
 11
40.84560667
 21
10.9908728622
 31
0.0
  0
LINE
  5
B8
330
1F
100
AcDbEntity
  8
0
  6
Continuous
 62
     7
370
    25
100
AcDbLine
 10
40.1319648431
 20
12.1726637276
 30
0.0
 11
39.8978903239
 21
11.9385892083
 31
0.0
  0
LINE
  5
B9
330
1F
100
AcDbEntity
  8
0
  6
Continuous
 62
     7
370
    25
100
AcDbLine
 10
40.0298013816
 20
12.2748271891
 30
0.0
 11
40.1319648431
 21
12.1726637276
 31
0.0
  0
LINE
  5
BA
330
1F
100
AcDbEntity
  8
0
  6
Continuous
 62
     7
370
    25
100
AcDbLine
 10
39.4537797469
 20
11.6988055545
 30
0.0
 11
40.0298013816
 21
12.2748271891
 31
0.0
  0
LINE
  5
BB
330
1F
100
AcDbEntity
  8
0
  6
Continuous
 62
     7
370
    25
100
AcDbLine
 10
39.5559432085
 20
11.596642093
 30
0.0
 11
39.4537797469
 21
11.6988055545
 31
0.0
  0
LINE
  5
BC
330
1F
100
AcDbEntity
  8
0
  6
Continuous
 62
     7
370
    25
100
AcDbLine
 10
39.79091917
 20
11.8316180545
 30
0.0
 11
39.5559432085
 21
11.596642093
 31
0.0
  0
LINE
  5
BD
330
1F
100
AcDbEntity
  8
0
  6
Continuous
 62
     7
370
    25
100
AcDbLine
 10
40.7386355162
 20
10.8839017083
 30
0.0
 11
39.79091917
 21
11.8316180545
 31
0.0
  0
LINE
  5
BE
330
1F
100
AcDbEntity
  8
0
  6
Continuous
 62
     7
370
    25
100
AcDbLine
 10
39.2100791977
 20
10.468308183
 30
0.0
 11
39.6983604477
 21
9.980026933
 31
0.0
  0
LINE
  5
BF
330
1F
100
AcDbEntity
  8
0
  6
Continuous
 62
     7
370
    25
100
AcDbLine
 10
39.2848989093
 20
10.5431278945
 30
0.0
 11
39.2100791977
 21
10.468308183
 31
0.0
  0
SPLINE
  5
C0
330
1F
100
AcDbEntity
  8
0
  6
Continuous
 62
     7
370
    25
100
AcDbSpline
210
0.0
220
0.0
230
1.0
 70
     8
 71
     3
 72
    15
 73
    11
 74
     0
 42
0.000000001
 43
0.00000001
 40
0.0
 40
0.0
 40
0.0
 40
0.0
 40
0.0753901858551262
 40
0.1649443888154755
 40
0.2680434861778919
 40
0.3855477860922091
 40
0.517966154166672
 40
0.6643098712270733
 40
0.8251607063646663
 40
1.0
 40
1.0
 40
1.0
 40
1.0
 10
39.53489890925708
 20
10.82738270223837
 30
0.0
 10
39.52965394887312
 20
10.81942671201665
 30
0.0
 10
39.5181786251943
 20
10.80201999084123
 30
0.0
 10
39.49804796996077
 20
10.77474430125413
 30
0.0
 10
39.4730855017994
 20
10.74451204109683
 30
0.0
 10
39.4443575266819
 20
10.7103671759322
 30
0.0
 10
39.41056430550828
 20
10.67339094048342
 30
0.0
 10
39.37272472419704
 20
10.63270638135801
 30
0.0
 10
39.33031968380774
 20
10.58895747310999
 30
0.0
 10
39.30045400910097
 20
10.55882299612498
 30
0.0
 10
39.28489890925707
 20
10.54312789454606
 30
0.0
  0
SPLINE
  5
C1
330
1F
100
AcDbEntity
  8
0
  6
Continuous
 62
     7
370
    25
100
AcDbSpline
210
0.0
220
0.0
230
1.0
 70
     8
 71
     3
 72
    23
 73
    19
 74
     0
 42
0.000000001
 43
0.00000001
 40
0.0
 40
0.0
 40
0.0
 40
0.0
 40
0.0695844114809412
 40
0.1366237229743221
 40
0.2019334138781217
 40
0.2643611311562475
 40
0.3254530953890702
 40
0.3856538430923491
 40
0.4452848548136245
 40
0.50492709013969
 40
0.5646141987799761
 40
0.6236473059504292
 40
0.6836364314990075
 40
0.7438816365130284
 40
0.8048337486793982
 40
0.8682164437659133
 40
0.9329082916196967
 40
1.0
 40
1.0
 40
1.0
 40
1.0
 10
39.47900948618015
 20
11.30094039454606
 30
0.0
 10
39.48735123215986
 20
11.29224174621446
 30
0.0
 10
39.50372961874957
 20
11.27516260888162
 30
0.0
 10
39.52573898781517
 20
11.24794568010577
 30
0.0
 10
39.54499806165791
 20
11.22021497455009
 30
0.0
 10
39.56102112341558
 20
11.1916652855036
 30
0.0
 10
39.57431520804555
 20
11.16273268327466
 30
0.0
 10
39.58494747750686
 20
11.13321993722179
 30
0.0
 10
39.59251124229252
 20
11.10302174595551
 30
0.0
 10
39.59692880770774
 20
11.07230929597857
 30
0.0
 10
39.59875738816546
 20
11.04144535718876
 30
0.0
 10
39.59782775965277
 20
11.0104786416315
 30
0.0
 10
39.59423908589639
 20
10.97960913027865
 30
0.0
 10
39.58788141461591
 20
10.94885244350096
 30
0.0
 10
39.57879639202917
 20
10.9181666936411
 30
0.0
 10
39.56666216616555
 20
10.88774178465019
 30
0.0
 10
39.55228705449084
 20
10.85712083492739
 30
0.0
 10
39.54076489953777
 20
10.83741503144741
 30
0.0
 10
39.53489890925708
 20
10.82738270223837
 30
0.0
  0
SPLINE
  5
C2
330
1F
100
AcDbEntity
  8
0
  6
Continuous
 62
     7
370
    25
100
AcDbSpline
210
0.0
220
0.0
230
1.0
 70
     8
 71
     3
 72
    23
 73
    19
 74
     0
 42
0.000000001
 43
0.00000001
 40
0.0
 40
0.0
 40
0.0
 40
0.0
 40
0.0631120667195007
 40
0.1246204889042282
 40
0.1854063864272504
 40
0.2452855145665087
 40
0.3045096995741357
 40
0.3641375552122477
 40
0.4246759440160569
 40
0.4858777714932492
 40
0.5476102484119828
 40
0.6086002211440633
 40
0.6704667414166822
 40
0.7330433104550825
 40
0.7964418486351543
 40
0.8616201805525383
 40
0.9293334730091429
 40
1.0
 40
1.0
 40
1.0
 40
1.0
 10
39.01116092848785
 20
11.36073606762299
 30
0.0
 10
39.02050111741654
 20
11.36608547202662
 30
0.0
 10
39.03894416596896
 20
11.37664835527191
 30
0.0
 10
39.06768615709726
 20
11.38990849251956
 30
0.0
 10
39.09683165888242
 20
11.40071179030908
 30
0.0
 10
39.12632664046497
 20
11.40922930799522
 30
0.0
 10
39.15629383705357
 20
11.41503617000877
 30
0.0
 10
39.18677874800684
 20
11.41781947058936
 30
0.0
 10
39.21770811965689
 20
11.41892686043386
 30
0.0
 10
39.24897345993274
 20
11.41703373101878
 30
0.0
 10
39.28006333456669
 20
11.41263855760362
 30
0.0
 10
39.31068523551953
 20
11.40524026971107
 30
0.0
 10
39.34083442205034
 20
11.39555029897915
 30
0.0
 10
39.36996365560739
 20
11.38209127494694
 30
0.0
 10
39.39836607463822
 20
11.36605537053307
 30
0.0
 10
39.4261380883147
 20
11.34732529586003
 30
0.0
 10
39.45331133683069
 20
11.32565551856736
 30
0.0
 10
39.47032242230384
 20
11.30929515418903
 30
0.0
 10
39.47900948618015
 20
11.30094039454606
 30
0.0
  0
SPLINE
  5
C3
330
1F
100
AcDbEntity
  8
0
  6
Continuous
 62
     7
370
    25
100
AcDbSpline
210
0.0
220
0.0
230
1.0
 70
     8
 71
     3
 72
    15
 73
    11
 74
     0
 42
0.000000001
 43
0.00000001
 40
0.0
 40
0.0
 40
0.0
 40
0.0
 40
0.1771214341944272
 40
0.338855584180858
 40
0.485818835850185
 40
0.6186783670831186
 40
0.7356853745542107
 40
0.8381870473681521
 40
0.9261641814985228
 40
0.9999999999999999
 40
0.9999999999999999
 40
0.9999999999999999
 40
0.9999999999999999
 10
38.75274746694938
 20
11.13417356762298
 30
0.0
 10
38.76710150286344
 20
11.14856720249385
 30
0.0
 10
38.79456257919863
 20
11.17610403661468
 30
0.0
 10
38.83502051661519
 20
11.21447045774214
 30
0.0
 10
38.87195143522105
 20
11.2491689189586
 30
0.0
 10
38.90570296433498
 20
11.27974557853031
 30
0.0
 10
38.93638774880058
 20
11.30610394220556
 30
0.0
 10
38.96411424728029
 20
11.32792675116151
 30
0.0
 10
38.98825414408179
 20
11.34633832320481
 30
0.0
 10
39.00398354679507
 20
11.35622482303394
 30
0.0
 10
39.01116092848785
 20
11.36073606762299
 30
0.0
  0
LINE
  5
C4
330
1F
100
AcDbEntity
  8
0
  6
Continuous
 62
     7
370
    25
100
AcDbLine
 10
38.5436128516
 20
10.9250389522
 30
0.0
 11
38.7527474669
 21
11.1341735676
 31
0.0
  0
LINE
  5
C5
330
1F
100
AcDbEntity
  8
0
  6
Continuous
 62
     7
370
    25
100
AcDbLine
 10
39.5934926593
 20
9.8751591445
 30
0.0
 11
38.5436128516
 21
10.9250389522
 31
0.0
  0
LINE
  5
C6
330
1F
100
AcDbEntity
  8
0
  6
Continuous
 62
     7
370
    25
100
AcDbLine
 10
39.6983604477
 20
9.980026933
 30
0.0
 11
39.5934926593
 21
9.8751591445
 31
0.0
  0
SPLINE
  5
C7
330
1F
100
AcDbEntity
  8
0
  6
Continuous
 62
     7
370
    25
100
AcDbSpline
210
0.0
220
0.0
230
1.0
 70
     8
 71
     3
 72
    19
 73
    15
 74
     0
 42
0.000000001
 43
0.00000001
 40
0.0
 40
0.0
 40
0.0
 40
0.0
 40
0.1057289484176121
 40
0.2069129705617966
 40
0.305557993241363
 40
0.4022404034576855
 40
0.4942954987103589
 40
0.5780610980893164
 40
0.6557675958613727
 40
0.7279268856081794
 40
0.7976084712980799
 40
0.8651260054669643
 40
0.9319580036291375
 40
1.0
 40
1.0
 40
1.0
 40
1.0
 10
37.40118063956086
 20
11.59814449680823
 30
0.0
 10
37.41263582963693
 20
11.61025744609136
 30
0.0
 10
37.43505379030393
 20
11.63396265035138
 30
0.0
 10
37.46413406962642
 20
11.67247744023618
 30
0.0
 10
37.48833080346728
 20
11.71255584994099
 30
0.0
 10
37.50732998860432
 20
11.75375106642122
 30
0.0
 10
37.52157078893461
 20
11.79435729961998
 30
0.0
 10
37.52991995288332
 20
11.83354724195181
 30
0.0
 10
37.53259204695501
 20
11.87040910351648
 30
0.0
 10
37.52929335486836
 20
11.90503348534909
 30
0.0
 10
37.52060368667925
 20
11.93697655265886
 30
0.0
 10
37.50842627843203
 20
11.96683886788781
 30
0.0
 10
37.49136892336935
 20
11.99404377448391
 30
0.0
 10
37.47695956808167
 20
12.00971150517181
 30
0.0
 10
37.46969025494548
 20
12.01761565065438
 30
0.0
  0
LINE
  5
C8
330
1F
100
AcDbEntity
  8
0
  6
Continuous
 62
     7
370
    25
100
AcDbLine
 10
37.4973344857
 20
11.5019906507
 30
0.0
 11
37.4011806396
 21
11.5981444968
 31
0.0
  0
SPLINE
  5
C9
330
1F
100
AcDbEntity
  8
0
  6
Continuous
 62
     7
370
    25
100
AcDbSpline
210
0.0
220
0.0
230
1.0
 70
     8
 71
     3
 72
    23
 73
    19
 74
     0
 42
0.000000001
 43
0.00000001
 40
0.0
 40
0.0
 40
0.0
 40
0.0
 40
0.0703488477789896
 40
0.139628080233595
 40
0.2103430788637842
 40
0.2826861933598407
 40
0.3554925770820694
 40
0.4270637206804205
 40
0.4988235429721526
 40
0.5723889365327269
 40
0.6113453637448515
 40
0.6543900516773974
 40
0.7012892835300569
 40
0.7519446404334635
 40
0.8074317301970527
 40
0.8672605470112177
 40
0.931092779498862
 40
1.0
 40
1.0
 40
1.0
 40
1.0
 10
38.0342936203301
 20
11.58041613142361
 30
0.0
 10
38.02373150417904
 20
11.59004749280396
 30
0.0
 10
38.00276786301169
 20
11.60916377604145
 30
0.0
 10
37.96664379936227
 20
11.63232746075798
 30
0.0
 10
37.9270470298356
 20
11.64969095704797
 30
0.0
 10
37.88476290762686
 20
11.66158390706014
 30
0.0
 10
37.84111221645639
 20
11.66803097346111
 30
0.0
 10
37.79711148961567
 20
11.66790776397661
 30
0.0
 10
37.75334704598865
 20
11.66199868430204
 30
0.0
 10
37.7173788426473
 20
11.6512423343282
 30
0.0
 10
37.6881553343598
 20
11.63925924993537
 30
0.0
 10
37.66476224002502
 20
11.62749287364785
 30
0.0
 10
37.64021481158903
 20
11.61293102659673
 30
0.0
 10
37.61413102204465
 20
11.59605209138495
 30
0.0
 10
37.58699988476577
 20
11.57607630167874
 30
0.0
 10
37.55818158273353
 20
11.55391755395837
 30
0.0
 10
37.5279193714507
 20
11.52917794558068
 30
0.0
 10
37.50778603162388
 20
11.51128116308334
 30
0.0
 10
37.4973344857147
 20
11.50199065065438
 30
0.0
  0
SPLINE
  5
CA
330
1F
100
AcDbEntity
  8
0
  6
Continuous
 62
     7
370
    25
100
AcDbSpline
210
0.0
220
0.0
230
1.0
 70
     8
 71
     3
 72
    23
 73
    19
 74
     0
 42
0.000000001
 43
0.00000001
 40
0.0
 40
0.0
 40
0.0
 40
0.0
 40
0.0730680158386374
 40
0.1430722448992375
 40
0.2104157717152759
 40
0.2758231607745295
 40
0.338739629807794
 40
0.4018415148770468
 40
0.464698535264879
 40
0.5278596385078609
 40
0.5904135880675629
 40
0.651199405364936
 40
0.7101059465004965
 40
0.7678237372418046
 40
0.8250128290906081
 40
0.8820655679442739
 40
0.9403393445630305
 40
1.0
 40
1.0
 40
1.0
 40
1.0
 10
38.01055563956086
 20
11.09874545834669
 30
0.0
 10
38.01965832963773
 20
11.10819590027774
 30
0.0
 10
38.03748202840622
 20
11.12670052130578
 30
0.0
 10
38.06050781529661
 20
11.15670537993236
 30
0.0
 10
38.08062952327414
 20
11.18706359567757
 30
0.0
 10
38.09687199484437
 20
11.21827513085627
 30
0.0
 10
38.109399758682
 20
11.25033339177406
 30
0.0
 10
38.11830458962368
 20
11.28308237008865
 30
0.0
 10
38.12429635622967
 20
11.31656667866155
 30
0.0
 10
38.125757969109
 20
11.35044221159555
 30
0.0
 10
38.12471523911759
 20
11.38392839477132
 30
0.0
 10
38.12043351621919
 20
11.41639979078101
 30
0.0
 10
38.11362912924894
 20
11.44754679374494
 30
0.0
 10
38.10366819367502
 20
11.47717517412117
 30
0.0
 10
38.09064510021737
 20
11.50521498532901
 30
0.0
 10
38.07485778549788
 20
11.53188861213834
 30
0.0
 10
38.05629315731077
 20
11.55731967876715
 30
0.0
 10
38.0416840657197
 20
11.57265719212406
 30
0.0
 10
38.0342936203301
 20
11.58041613142361
 30
0.0
  0
SPLINE
  5
CB
330
1F
100
AcDbEntity
  8
0
  6
Continuous
 62
     7
370
    25
100
AcDbSpline
210
0.0
220
0.0
230
1.0
 70
     8
 71
     3
 72
    15
 73
    11
 74
     0
 42
0.000000001
 43
0.00000001
 40
0.0
 40
0.0
 40
0.0
 40
0.0
 40
0.1203457795138441
 40
0.2388232513984639
 40
0.3594485260350544
 40
0.4804570524015699
 40
0.602883493191465
 40
0.7310108502422924
 40
0.8625425629612502
 40
1.0
 40
1.0
 40
1.0
 40
1.0
 10
37.7872984280224
 20
10.99087286219284
 30
0.0
 10
37.79743881425264
 20
10.99178551351276
 30
0.0
 10
37.81756216232287
 20
10.99359664770039
 30
0.0
 10
37.84741912437779
 20
10.99968527335083
 30
0.0
 10
37.87643175812199
 20
11.00909062284346
 30
0.0
 10
37.90479433497647
 20
11.02115078505805
 30
0.0
 10
37.93251866582244
 20
11.03604201871353
 30
0.0
 10
37.95934445327121
 20
11.05411373947622
 30
0.0
 10
37.98576524957678
 20
11.07491629310964
 30
0.0
 10
38.00217170036417
 20
11.09068659874087
 30
0.0
 10
38.01055563956086
 20
11.09874545834669
 30
0.0
  0
SPLINE
  5
CC
330
1F
100
AcDbEntity
  8
0
  6
Continuous
 62
     7
370
    25
100
AcDbSpline
210
0.0
220
0.0
230
1.0
 70
     8
 71
     3
 72
    15
 73
    11
 74
     0
 42
0.000000001
 43
0.00000001
 40
0.0
 40
0.0
 40
0.0
 40
0.0
 40
0.1516443853000921
 40
0.2942091114866407
 40
0.4291745983467759
 40
0.556575911727435
 40
0.6762246047064512
 40
0.7899405813610038
 40
0.897088535276769
 40
1.0
 40
1.0
 40
1.0
 40
1.0
 10
37.56163737033009
 20
11.06088488142361
 30
0.0
 10
37.57220088658656
 20
11.05497476921882
 30
0.0
 10
37.59269543193911
 20
11.04350841088897
 30
0.0
 10
37.62347244311036
 20
11.02844268582032
 30
0.0
 10
37.65317427807214
 20
11.01564920878779
 30
0.0
 10
37.6820527731876
 20
11.00579464728935
 30
0.0
 10
37.70983167130652
 20
10.99814789557462
 30
0.0
 10
37.73653321541327
 20
10.99294388620318
 30
0.0
 10
37.7623087781225
 20
10.99039127065931
 30
0.0
 10
37.77908130109196
 20
10.99071450468181
 30
0.0
 10
37.7872984280224
 20
10.99087286219284
 30
0.0
  0
LINE
  5
CD
330
1F
100
AcDbEntity
  8
0
  6
Continuous
 62
     7
370
    25
100
AcDbLine
 10
37.4588729473
 20
10.9581204583
 30
0.0
 11
37.5616373703
 21
11.0608848814
 31
0.0
  0
SPLINE
  5
CE
330
1F
100
AcDbEntity
  8
0
  6
Continuous
 62
     7
370
    25
100
AcDbSpline
210
0.0
220
0.0
230
1.0
 70
     8
 71
     3
 72
    23
 73
    19
 74
     0
 42
0.000000001
 43
0.00000001
 40
0.0
 40
0.0
 40
0.0
 40
0.0
 40
0.0651136382987997
 40
0.1282185933053529
 40
0.1894734259769019
 40
0.2489956462554719
 40
0.3072701941117207
 40
0.3652120214271439
 40
0.423058650276389
 40
0.4816341671326471
 40
0.5406263849922192
 40
0.6002014930275462
 40
0.6609241575761039
 40
0.7233279014169866
 40
0.7879045943012336
 40
0.8556533482834988
 40
0.9258587867477687
 40
1.0
 40
1.0
 40
1.0
 40
1.0
 10
38.11121669725317
 20
10.99507959296207
 30
0.0
 10
38.09996250756488
 20
10.98427956694052
 30
0.0
 10
38.07780130741812
 20
10.96301268368344
 30
0.0
 10
38.04223233816673
 20
10.93473225564168
 30
0.0
 10
38.00553169198967
 20
10.91031451795808
 30
0.0
 10
37.96783914972787
 20
10.88976604349897
 30
0.0
 10
37.92914901052634
 20
10.87303904971012
 30
0.0
 10
37.88933325730954
 20
10.86051016641567
 30
0.0
 10
37.84854617697872
 20
10.8513384196507
 30
0.0
 10
37.8067799725984
 20
10.84622477464912
 30
0.0
 10
37.76430169031973
 20
10.84534395531284
 30
0.0
 10
37.7214332884546
 20
10.84869342642745
 30
0.0
 10
37.6782814382656
 20
10.8562830899714
 30
0.0
 10
37.63486577968684
 20
10.86812446139854
 30
0.0
 10
37.59101400036823
 20
10.884154135201
 30
0.0
 10
37.54706082519863
 20
10.90474403063236
 30
0.0
 10
37.50244257391532
 20
10.92911809576102
 30
0.0
 10
37.47365777286415
 20
10.94827885753472
 30
0.0
 10
37.45887294725317
 20
10.95812045834669
 30
0.0
  0
SPLINE
  5
CF
330
1F
100
AcDbEntity
  8
0
  6
Continuous
 62
     7
370
    25
100
AcDbSpline
210
0.0
220
0.0
230
1.0
 70
     8
 71
     3
 72
    19
 73
    15
 74
     0
 42
0.000000001
 43
0.00000001
 40
0.0
 40
0.0
 40
0.0
 40
0.0
 40
0.080576436103305
 40
0.160371490665394
 40
0.2414880191094218
 40
0.3250087558576584
 40
0.4089616532479635
 40
0.4906870084144028
 40
0.5725768746389615
 40
0.6557926854219235
 40
0.7398417121155405
 40
0.8240764552485729
 40
0.9104351150664252
 40
1.0
 40
1.0
 40
1.0
 40
1.0
 10
38.12894506263779
 20
11.69249545834669
 30
0.0
 10
38.14311681645122
 20
11.67713529375405
 30
0.0
 10
38.17132289498129
 20
11.6465639181545
 30
0.0
 10
38.20574664156252
 20
11.59399788075278
 30
0.0
 10
38.23322354702638
 20
11.5367865619041
 30
0.0
 10
38.25343134093331
 20
11.47547421902056
 30
0.0
 10
38.26618600586204
 20
11.41201977318023
 30
0.0
 10
38.26990879617748
 20
11.34777533008135
 30
0.0
 10
38.2643197567124
 20
11.28387934332085
 30
0.0
 10
38.25014950462423
 20
11.22073133746122
 30
0.0
 10
38.2275841801302
 20
11.15941344959282
 30
0.0
 10
38.19685090603145
 20
11.10087678426327
 30
0.0
 10
38.15822773191827
 20
11.04536123219258
 30
0.0
 10
38.12707628825449
 20
11.01204255152601
 30
0.0
 10
38.11121669725317
 20
10.99507959296207
 30
0.0
  0
SPLINE
  5
D0
330
1F
100
AcDbEntity
  8
0
  6
Continuous
 62
     7
370
    25
100
AcDbSpline
210
0.0
220
0.0
230
1.0
 70
     8
 71
     3
 72
    15
 73
    11
 74
     0
 42
0.000000001
 43
0.00000001
 40
0.0
 40
0.0
 40
0.0
 40
0.0
 40
0.1308828194382181
 40
0.258259665309488
 40
0.3832751894435328
 40
0.5061956902646068
 40
0.6278103920359801
 40
0.7505216511654043
 40
0.8741562318766931
 40
1.0
 40
1.0
 40
1.0
 40
1.0
 10
37.87353640879163
 20
11.81088488142361
 30
0.0
 10
37.88598595037367
 20
11.80937880973393
 30
0.0
 10
37.91055154619467
 20
11.80640700967507
 30
0.0
 10
37.94649426284334
 20
11.79858768359521
 30
0.0
 10
37.98074175579611
 20
11.78757200115137
 30
0.0
 10
38.01373131067989
 20
11.77459376238977
 30
0.0
 10
38.04480678573117
 20
11.75799858632801
 30
0.0
 10
38.07470247357465
 20
11.73925367100975
 30
0.0
 10
38.10268950439792
 20
11.71705881303663
 30
0.0
 10
38.12014169551978
 20
11.70073143744908
 30
0.0
 10
38.12894506263779
 20
11.69249545834669
 30
0.0
  0
SPLINE
  5
D1
330
1F
100
AcDbEntity
  8
0
  6
Continuous
 62
     7
370
    25
100
AcDbSpline
210
0.0
220
0.0
230
1.0
 70
     8
 71
     3
 72
    11
 73
     7
 74
     0
 42
0.000000001
 43
0.00000001
 40
0.0
 40
0.0
 40
0.0
 40
0.0
 40
0.2579472690479108
 40
0.5087322070443625
 40
0.754103268007024
 40
1.0
 40
1.0
 40
1.0
 40
1.0
 10
37.65959410109932
 20
11.77663007373131
 30
0.0
 10
37.67718540929649
 20
11.78336324985417
 30
0.0
 10
37.71187957402626
 20
11.79664264436779
 30
0.0
 10
37.76567810889927
 20
11.80900877919644
 30
0.0
 10
37.81979027617327
 20
11.81405019083823
 30
0.0
 10
37.85560825582057
 20
11.81194073695445
 30
0.0
 10
37.87353640879163
 20
11.81088488142361
 30
0.0
  0
SPLINE
  5
D2
330
1F
100
AcDbEntity
  8
0
  6
Continuous
 62
     7
370
    25
100
AcDbSpline
210
0.0
220
0.0
230
1.0
 70
     8
 71
     3
 72
    15
 73
    11
 74
     0
 42
0.000000001
 43
0.00000001
 40
0.0
 40
0.0
 40
0.0
 40
0.0
 40
0.12421961787181
 40
0.2437921031270657
 40
0.3610694411538696
 40
0.4785415562187783
 40
0.5994738985980935
 40
0.7254247600032049
 40
0.8584023739957897
 40
1.0
 40
1.0
 40
1.0
 40
1.0
 10
37.57966621648394
 20
12.12638968911592
 30
0.0
 10
37.59032985176635
 20
12.11495486671588
 30
0.0
 10
37.61125818914991
 20
12.09251300568336
 30
0.0
 10
37.63631344203454
 20
12.0544162480544
 30
0.0
 10
37.65551765704039
 20
12.01409226918754
 30
0.0
 10
37.66859635719897
 20
11.97115468654701
 30
0.0
 10
37.67530581887576
 20
11.92571730836693
 30
0.0
 10
37.67655678762768
 20
11.87787399942085
 30
0.0
 10
37.67124641273259
 20
11.8276535752073
 30
0.0
 10
37.66355865477286
 20
11.79399018360307
 30
0.0
 10
37.65959410109932
 20
11.77663007373131
 30
0.0
  0
SPLINE
  5
D3
330
1F
100
AcDbEntity
  8
0
  6
Continuous
 62
     7
370
    25
100
AcDbSpline
210
0.0
220
0.0
230
1.0
 70
     8
 71
     3
 72
    19
 73
    15
 74
     0
 42
0.000000001
 43
0.00000001
 40
0.0
 40
0.0
 40
0.0
 40
0.0
 40
0.0895929914958808
 40
0.1777045492777579
 40
0.2648796628961914
 40
0.3531465390832668
 40
0.4405958711776069
 40
0.5246598301314999
 40
0.6068103143079139
 40
0.6891287180192627
 40
0.7700431083273499
 40
0.8475352562635293
 40
0.9237274558445454
 40
1.0
 40
1.0
 40
1.0
 40
1.0
 10
37.00634890879163
 20
12.09574065065438
 30
0.0
 10
37.02028435112936
 20
12.10870070249441
 30
0.0
 10
37.04792481115046
 20
12.13440650975004
 30
0.0
 10
37.09417912157302
 20
12.166743731895
 30
0.0
 10
37.14405829913767
 20
12.19234148318227
 30
0.0
 10
37.1963484605082
 20
12.21215836348927
 30
0.0
 10
37.25002734088596
 20
12.22532675117873
 30
0.0
 10
37.30365636311242
 20
12.23163161283792
 30
0.0
 10
37.35657734178852
 20
12.23007434526114
 30
0.0
 10
37.40803482314357
 20
12.22123052924368
 30
0.0
 10
37.45713794034782
 20
12.20652251820145
 30
0.0
 10
37.50234941559924
 20
12.18539017797104
 30
0.0
 10
37.54397230785337
 20
12.15943460023088
 30
0.0
 10
37.5677640677473
 20
12.13740852852491
 30
0.0
 10
37.57966621648394
 20
12.12638968911592
 30
0.0
  0
SPLINE
  5
D4
330
1F
100
AcDbEntity
  8
0
  6
Continuous
 62
     7
370
    25
100
AcDbSpline
210
0.0
220
0.0
230
1.0
 70
     8
 71
     3
 72
    23
 73
    19
 74
     0
 42
0.000000001
 43
0.00000001
 40
0.0
 40
0.0
 40
0.0
 40
0.0
 40
0.0731350659025822
 40
0.1433188428756373
 40
0.210650139990688
 40
0.2762700695936492
 40
0.3395547839766537
 40
0.4016838389936606
 40
0.462858893462666
 40
0.5234847455120769
 40
0.5835961311287838
 40
0.6426304656932164
 40
0.7011635571821346
 40
0.7595409545756663
 40
0.8177915440987422
 40
0.8770624362120503
 40
0.9375567908908979
 40
1.0
 40
1.0
 40
1.0
 40
1.0
 10
36.96848833186856
 20
11.51821661219284
 30
0.0
 10
36.96043242069224
 20
11.5313046840129
 30
0.0
 10
36.94464568619149
 20
11.55695267223269
 30
0.0
 10
36.92556402395948
 20
11.59690358759909
 30
0.0
 10
36.90837642602992
 20
11.63599042080294
 30
0.0
 10
36.89615500509493
 20
11.67539746994535
 30
0.0
 10
36.88633566932488
 20
11.71434658847202
 30
0.0
 10
36.88131269498388
 20
11.75325903135173
 30
0.0
 10
36.87849041808391
 20
11.79182302777164
 30
0.0
 10
36.88021976994766
 20
11.83006117642569
 30
0.0
 10
36.8850189674898
 20
11.86753241968985
 30
0.0
 10
36.89273803723453
 20
11.90409189408324
 30
0.0
 10
36.90399247051879
 20
11.9393383142722
 30
0.0
 10
36.91808667372177
 20
11.97335583779989
 30
0.0
 10
36.93532021562481
 20
12.00609618594314
 30
0.0
 10
36.95594061378619
 20
12.03732012246937
 30
0.0
 10
36.97934332010939
 20
12.06766992322221
 30
0.0
 10
36.9972524119174
 20
12.08628537503168
 30
0.0
 10
37.00634890879163
 20
12.09574065065438
 30
0.0
  0
LINE
  5
D5
330
1F
100
AcDbEntity
  8
0
  6
Continuous
 62
     7
370
    25
100
AcDbLine
 10
37.0757599665
 20
11.6254882468
 30
0.0
 11
36.9684883319
 21
11.5182166122
 31
0.0
  0
SPLINE
  5
D6
330
1F
100
AcDbEntity
  8
0
  6
Continuous
 62
     7
370
    25
100
AcDbSpline
210
0.0
220
0.0
230
1.0
 70
     8
 71
     3
 72
    19
 73
    15
 74
     0
 42
0.000000001
 43
0.00000001
 40
0.0
 40
0.0
 40
0.0
 40
0.0
 40
0.1167675801713198
 40
0.2280775627199397
 40
0.3372206510249982
 40
0.4461255525158016
 40
0.5021574110359225
 40
0.5618439075693563
 40
0.6241640260185536
 40
0.6909917051104404
 40
0.7609854225273329
 40
0.836248065124775
 40
0.9153845753823187
 40
0.9999999999999999
 40
0.9999999999999999
 40
0.9999999999999999
 40
0.9999999999999999
 10
37.1085123703301
 20
11.99357718911592
 30
0.0
 10
37.09801005911743
 20
11.98216925920878
 30
0.0
 10
37.07749630400839
 20
11.95988659440506
 30
0.0
 10
37.05370033934751
 20
11.92168093461673
 30
0.0
 10
37.03736773592043
 20
11.88099883152051
 30
0.0
 10
37.02951782228906
 20
11.84527338607838
 30
0.0
 10
37.02771518038271
 20
11.81551676684912
 30
0.0
 10
37.02785483947248
 20
11.79187984997277
 30
0.0
 10
37.03079179957199
 20
11.76697505322038
 30
0.0
 10
37.03565476418024
 20
11.74101620082139
 30
0.0
 10
37.04225397172717
 20
11.71366209664097
 30
0.0
 10
37.05134241097777
 20
11.68531178635085
 30
0.0
 10
37.06255742289977
 20
11.65565918717683
 30
0.0
 10
37.0712620371518
 20
11.63576708109473
 30
0.0
 10
37.07575996648394
 20
11.62548824680823
 30
0.0
  0
SPLINE
  5
D7
330
1F
100
AcDbEntity
  8
0
  6
Continuous
 62
     7
370
    25
100
AcDbSpline
210
0.0
220
0.0
230
1.0
 70
     8
 71
     3
 72
    23
 73
    19
 74
     0
 42
0.000000001
 43
0.00000001
 40
0.0
 40
0.0
 40
0.0
 40
0.0
 40
0.0591437275897559
 40
0.1167150890705871
 40
0.1741558975962605
 40
0.2309492319425771
 40
0.28873752626371
 40
0.3472383681560689
 40
0.4086788038810793
 40
0.4720661100984869
 40
0.5364760336796572
 40
0.6002438377181529
 40
0.6632439347766351
 40
0.7270901793882615
 40
0.7924599631338878
 40
0.8592686518663304
 40
0.9282156920095006
 40
1.0
 40
1.0
 40
1.0
 40
1.0
 10
37.46969025494548
 20
12.01761565065438
 30
0.0
 10
37.46387620204929
 20
12.02303336326251
 30
0.0
 10
37.45240266581318
 20
12.03372475583084
 30
0.0
 10
37.43361934473188
 20
12.04777386769325
 30
0.0
 10
37.41346089943699
 20
12.05912260171172
 30
0.0
 10
37.39217482647703
 20
12.06819950244747
 30
0.0
 10
37.36994765712443
 20
12.07517380219554
 30
0.0
 10
37.34645206506774
 20
12.07962400322003
 30
0.0
 10
37.3219139637099
 20
12.08205437144992
 30
0.0
 10
37.29645759958127
 20
12.08199427037431
 30
0.0
 10
37.27079886181584
 20
12.07963915784574
 30
0.0
 10
37.24554125737961
 20
12.0748253877544
 30
0.0
 10
37.2209034568843
 20
12.06765157925216
 30
0.0
 10
37.19716332061302
 20
12.05741691891456
 30
0.0
 10
37.17359398854813
 20
12.04561909262248
 30
0.0
 10
37.15096777631534
 20
12.03074078793473
 30
0.0
 10
37.12934186229577
 20
12.0130987822608
 30
0.0
 10
37.11554823156413
 20
12.00017126354947
 30
0.0
 10
37.1085123703301
 20
11.99357718911592
 30
0.0
  0
SPLINE
  5
D8
330
1F
100
AcDbEntity
  8
0
  6
Continuous
 62
     7
370
    25
100
AcDbSpline
210
0.0
220
0.0
230
1.0
 70
     8
 71
     3
 72
    31
 73
    27
 74
     0
 42
0.000000001
 43
0.00000001
 40
0.0
 40
0.0
 40
0.0
 40
0.0
 40
0.0340625437668023
 40
0.0673138855976699
 40
0.1002986917293195
 40
0.1328915753415363
 40
0.1654542126705893
 40
0.1984564401369067
 40
0.231559282490288
 40
0.2655034986764517
 40
0.2998732210996857
 40
0.3348750234665335
 40
0.3704365550514274
 40
0.4070493254137256
 40
0.4446490562916619
 40
0.4836382628524704
 40
0.5240535084233169
 40
0.5661466743313502
 40
0.6102573304114862
 40
0.6569339262658018
 40
0.7066268298851165
 40
0.7589305312314925
 40
0.814297716023405
 40
0.8730747594856018
 40
0.9349497890039754
 40
1.0
 40
1.0
 40
1.0
 40
1.0
 10
37.92641657829805
 20
13.03477325289619
 30
0.0
 10
37.93498861504824
 20
13.04304796461617
 30
0.0
 10
37.95192854487532
 20
13.05940032519987
 30
0.0
 10
37.9796465231026
 20
13.08094226551912
 30
0.0
 10
38.00803573751435
 20
13.1006724297618
 30
0.0
 10
38.03799879749997
 20
13.11746946439959
 30
0.0
 10
38.0690953669331
 20
13.13204396978069
 30
0.0
 10
38.10150561980193
 20
13.14394480939937
 30
0.0
 10
38.1351244753462
 20
13.15367208274431
 30
0.0
 10
38.16987597140726
 20
13.16087892046094
 30
0.0
 10
38.20574268974215
 20
13.16531432408214
 30
0.0
 10
38.2424170757028
 20
13.16731873699068
 30
0.0
 10
38.2798779928241
 20
13.16551568312242
 30
0.0
 10
38.31806480309734
 20
13.16146701510085
 30
0.0
 10
38.35694931807264
 20
13.15398140835801
 30
0.0
 10
38.39671225709532
 20
13.14428157905051
 30
0.0
 10
38.43698932326557
 20
13.13070587704232
 30
0.0
 10
38.47832048036535
 20
13.11485183774025
 30
0.0
 10
38.52063768498368
 20
13.09560642970526
 30
0.0
 10
38.5637042038512
 20
13.07193255715482
 30
0.0
 10
38.60767036406288
 20
13.04419489768758
 30
0.0
 10
38.65295044440734
 20
13.01292911900389
 30
0.0
 10
38.69893281998279
 20
12.97724361128716
 30
0.0
 10
38.74598564671604
 20
12.93758730777524
 30
0.0
 10
38.7941267631252
 20
12.89401900402994
 30
0.0
 10
38.82576607780553
 20
12.86291422343117
 30
0.0
 10
38.8419814821442
 20
12.84697277212696
 30
0.0
  0
SPLINE
  5
D9
330
1F
100
AcDbEntity
  8
0
  6
Continuous
 62
     7
370
    25
100
AcDbSpline
210
0.0
220
0.0
230
1.0
 70
     8
 71
     3
 72
    31
 73
    27
 74
     0
 42
0.000000001
 43
0.00000001
 40
0.0
 40
0.0
 40
0.0
 40
0.0
 40
0.0685392375563686
 40
0.1330574173017167
 40
0.193631077183116
 40
0.2505306821562903
 40
0.3036142074401768
 40
0.3534609049693048
 40
0.3995800908164908
 40
0.4424160216489259
 40
0.483072382412463
 40
0.5220229044503063
 40
0.5599473210514605
 40
0.5966633013156782
 40
0.6323728579706365
 40
0.6673061936474427
 40
0.7019513182513507
 40
0.7359417873892768
 40
0.7694887228848918
 40
0.8027329281118957
 40
0.8353134843410183
 40
0.8678314089480395
 40
0.9002481012228696
 40
0.9330513656415884
 40
0.9661186419532682
 40
1.0
 40
1.0
 40
1.0
 40
1.0
 10
38.12533484752881
 20
12.13032613751157
 30
0.0
 10
38.10859209112731
 20
12.14724175306616
 30
0.0
 10
38.07608884182482
 20
12.1800805793795
 30
0.0
 10
38.03069979732209
 20
12.22970576720602
 30
0.0
 10
37.98971974776361
 20
12.27782724298993
 30
0.0
 10
37.9530871200765
 20
12.32437443239971
 30
0.0
 10
37.92033798722117
 20
12.36920351215337
 30
0.0
 10
37.89214824353326
 20
12.41263621319349
 30
0.0
 10
37.86813766129672
 20
12.45446365635149
 30
0.0
 10
37.8487177389192
 20
12.49511397534764
 30
0.0
 10
37.83316523547612
 20
12.53470643833755
 30
0.0
 10
37.8200421253233
 20
12.57336839401774
 30
0.0
 10
37.80977244131407
 20
12.61148137853286
 30
0.0
 10
37.80247207206504
 20
12.6491366822191
 30
0.0
 10
37.79833136184464
 20
12.68621428381808
 30
0.0
 10
37.79666680461137
 20
12.72277314622718
 30
0.0
 10
37.7982630318015
 20
12.75874096129927
 30
0.0
 10
37.80240376223611
 20
12.79401457991195
 30
0.0
 10
37.80941715392061
 20
12.82833605182723
 30
0.0
 10
37.81864322393178
 20
12.86161012378759
 30
0.0
 10
37.83035158872583
 20
12.89374296315943
 30
0.0
 10
37.84497940180565
 20
12.92431284900558
 30
0.0
 10
37.86139429726011
 20
12.95406273362183
 30
0.0
 10
37.88085294820652
 20
12.9821398947698
 30
0.0
 10
37.90208724732539
 20
13.0095617360019
 30
0.0
 10
37.91824132454607
 20
13.02630156297119
 30
0.0
 10
37.92641657829805
 20
13.03477325289619
 30
0.0
  0
SPLINE
  5
DA
330
1F
100
AcDbEntity
  8
0
  6
Continuous
 62
     7
370
    25
100
AcDbSpline
210
0.0
220
0.0
230
1.0
 70
     8
 71
     3
 72
    31
 73
    27
 74
     0
 42
0.000000001
 43
0.00000001
 40
0.0
 40
0.0
 40
0.0
 40
0.0
 40
0.0339161406116254
 40
0.0667911467684396
 40
0.09962808698232
 40
0.1318265592299254
 40
0.1643778667025713
 40
0.1967210286892329
 40
0.229721340923704
 40
0.2630197127526299
 40
0.2967583839686784
 40
0.3311505724363448
 40
0.3661197706371224
 40
0.4018997925665818
 40
0.4386534654157431
 40
0.4765431671037201
 40
0.5160815487196687
 40
0.5571548844457243
 40
0.6004200138433166
 40
0.6470895029678524
 40
0.6968308887516993
 40
0.7500347714651303
 40
0.8069927895101678
 40
0.8674089097323786
 40
0.9317987325696281
 40
1.0
 40
1.0
 40
1.0
 40
1.0
 10
39.02918100137497
 20
11.93200882981927
 30
0.0
 10
39.02069547688352
 20
11.92385139735073
 30
0.0
 10
39.00398491071958
 20
11.90778694368841
 30
0.0
 10
38.97683299627688
 20
11.88633427513499
 30
0.0
 10
38.94880526382178
 20
11.86709784571047
 30
0.0
 10
38.91927615185389
 20
11.85047396521452
 30
0.0
 10
38.88881781309991
 20
11.83602596745765
 30
0.0
 10
38.85692971043081
 20
11.82422231449075
 30
0.0
 10
38.82394641544906
 20
11.81501288453686
 30
0.0
 10
38.7899274127488
 20
11.80799705791714
 30
0.0
 10
38.75495164598639
 20
11.80384739478582
 30
0.0
 10
38.71918709323261
 20
11.80228514402907
 30
0.0
 10
38.68270254535815
 20
11.80382536678792
 30
0.0
 10
38.64566755638126
 20
11.80845414949496
 30
0.0
 10
38.60803335466194
 20
11.81570800834629
 30
0.0
 10
38.56966962514324
 20
11.82566860697284
 30
0.0
 10
38.53064259850418
 20
11.83865409953442
 30
0.0
 10
38.49071557170275
 20
11.85461698885487
 30
0.0
 10
38.44979272743211
 20
11.87445075735568
 30
0.0
 10
38.40750344680901
 20
11.89815471328978
 30
0.0
 10
38.36389182071188
 20
11.9263342302655
 30
0.0
 10
38.31872747775962
 20
11.95856151730887
 30
0.0
 10
38.27226452558103
 20
11.99523551063578
 30
0.0
 10
38.22450002432191
 20
12.03640097840801
 30
0.0
 10
38.1747786689319
 20
12.08125891448983
 30
0.0
 10
38.14212896920233
 20
12.11365993149787
 30
0.0
 10
38.12533484752881
 20
12.13032613751157
 30
0.0
  0
SPLINE
  5
DB
330
1F
100
AcDbEntity
  8
0
  6
Continuous
 62
     7
370
    25
100
AcDbSpline
210
0.0
220
0.0
230
1.0
 70
     8
 71
     3
 72
    31
 73
    27
 74
     0
 42
0.000000001
 43
0.00000001
 40
0.0
 40
0.0
 40
0.0
 40
0.0
 40
0.0650931380611512
 40
0.1266039765373226
 40
0.1850158110860341
 40
0.2401927525856705
 40
0.2926948785080097
 40
0.3417823620468381
 40
0.388238232793063
 40
0.4321173744957395
 40
0.4739710174663261
 40
0.5141406009624558
 40
0.5528774178269759
 40
0.5905019610163778
 40
0.6271388923883595
 40
0.6630104030816908
 40
0.6983217028166657
 40
0.7329986161773792
 40
0.7672460775099881
 40
0.8006463810336941
 40
0.8339394285304621
 40
0.8667836833964285
 40
0.8993980752684351
 40
0.9326416935233396
 40
0.9659149781349369
 40
1.0
 40
1.0
 40
1.0
 40
1.0
 10
38.8419814821442
 20
12.84697277212696
 30
0.0
 10
38.8579232623733
 20
12.83075782263115
 30
0.0
 10
38.88892949175792
 20
12.79922028815874
 30
0.0
 10
38.93230975500333
 20
12.75128838571954
 30
0.0
 10
38.97164620690362
 20
12.70444051374951
 30
0.0
 10
39.00739248082051
 20
12.65871979599887
 30
0.0
 10
39.03879340608
 20
12.61382706963244
 30
0.0
 10
39.0663713554592
 20
12.57005976429355
 30
0.0
 10
39.09001583997635
 20
12.52743912782421
 30
0.0
 10
39.10925362880389
 20
12.48541612767873
 30
0.0
 10
39.12511254569663
 20
12.44438662606034
 30
0.0
 10
39.13868218937868
 20
12.4044095771572
 30
0.0
 10
39.14842780858638
 20
12.36485452836873
 30
0.0
 10
39.15586855072766
 20
12.3260597062471
 30
0.0
 10
39.1599391967474
 20
12.28777485581524
 30
0.0
 10
39.16172370833929
 20
12.25011243811956
 30
0.0
 10
39.15972249762679
 20
12.21313896117426
 30
0.0
 10
39.15528687581442
 20
12.17697235648786
 30
0.0
 10
39.1480784131716
 20
12.14192221955082
 30
0.0
 10
39.13835743693914
 20
12.10800032255132
 30
0.0
 10
39.12643851143082
 20
12.07530145233155
 30
0.0
 10
39.11196827647664
 20
12.04394574385415
 30
0.0
 10
39.09497862980415
 20
12.01389581807934
 30
0.0
 10
39.07545314820804
 20
11.98526916529945
 30
0.0
 10
39.05379463230229
 20
11.95752981839393
 30
0.0
 10
39.03745119678408
 20
11.94058389796623
 30
0.0
 10
39.02918100137497
 20
11.93200882981927
 30
0.0
  0
SPLINE
  5
DC
330
1F
100
AcDbEntity
  8
0
  6
Continuous
 62
     7
370
    25
100
AcDbSpline
210
0.0
220
0.0
230
1.0
 70
     8
 71
     3
 72
    15
 73
    11
 74
     0
 42
0.000000001
 43
0.00000001
 40
0.0
 40
0.0
 40
0.0
 40
0.0
 40
0.1099847056450849
 40
0.2240098420297774
 40
0.3417046373339413
 40
0.4641704618794936
 40
0.5906562692884738
 40
0.7222624860498262
 40
0.8584596182455002
 40
1.0
 40
1.0
 40
1.0
 40
1.0
 10
38.97629638599035
 20
12.43741748366542
 30
0.0
 10
38.96991606068303
 20
12.45010660240159
 30
0.0
 10
38.95692102054715
 20
12.47595099110014
 30
0.0
 10
38.93462880499396
 20
12.51406556454999
 30
0.0
 10
38.90938466685112
 20
12.55220174603961
 30
0.0
 10
38.88239386422764
 20
12.59112110052415
 30
0.0
 10
38.85157493793096
 20
12.62941875197297
 30
0.0
 10
38.8190571663633
 20
12.66859116572902
 30
0.0
 10
38.78345699414857
 20
12.70768435762712
 30
0.0
 10
38.75833155997672
 20
12.73327184067857
 30
0.0
 10
38.74552715522112
 20
12.74631171443465
 30
0.0
  0
SPLINE
  5
DD
330
1F
100
AcDbEntity
  8
0
  6
Continuous
 62
     7
370
    25
100
AcDbSpline
210
0.0
220
0.0
230
1.0
 70
     8
 71
     3
 72
    19
 73
    15
 74
     0
 42
0.000000001
 43
0.00000001
 40
0.0
 40
0.0
 40
0.0
 40
0.0
 40
0.1116234689182526
 40
0.2221443256546964
 40
0.3354380430278008
 40
0.4548148709752029
 40
0.5168870261290481
 40
0.5794061580887492
 40
0.6435314246458348
 40
0.7096032329016746
 40
0.7780881323723869
 40
0.8493556809199186
 40
0.9228466968340718
 40
1.0
 40
1.0
 40
1.0
 40
1.0
 10
38.93783484752882
 20
12.03056652212696
 30
0.0
 10
38.94884307935494
 20
12.04261386515681
 30
0.0
 10
38.97075080413148
 20
12.06658954804171
 30
0.0
 10
38.99501495843947
 20
12.10947655089404
 30
0.0
 10
39.01298496520658
 20
12.15631624507614
 30
0.0
 10
39.02193293194885
 20
12.19857913938652
 30
0.0
 10
39.02498228040535
 20
12.23403593473825
 30
0.0
 10
39.0254925870979
 20
12.26159114290113
 30
0.0
 10
39.02280434538564
 20
12.28960002406327
 30
0.0
 10
39.01839054073471
 20
12.31824537261521
 30
0.0
 10
39.01140137603682
 20
12.34746799263693
 30
0.0
 10
39.00197634587772
 20
12.3771076671887
 30
0.0
 10
38.99066689814511
 20
12.40745729886653
 30
0.0
 10
38.98116356796527
 20
12.4272701994317
 30
0.0
 10
38.97629638599035
 20
12.43741748366542
 30
0.0
  0
SPLINE
  5
DE
330
1F
100
AcDbEntity
  8
0
  6
Continuous
 62
     7
370
    25
100
AcDbSpline
210
0.0
220
0.0
230
1.0
 70
     8
 71
     3
 72
    27
 73
    23
 74
     0
 42
0.000000001
 43
0.00000001
 40
0.0
 40
0.0
 40
0.0
 40
0.0
 40
0.0739414287635761
 40
0.1432995467909238
 40
0.2078367058012861
 40
0.268154271998974
 40
0.3240444974500776
 40
0.375683325039609
 40
0.4227992035769721
 40
0.4659844474241323
 40
0.5062690802671607
 40
0.5452440815941552
 40
0.5829326287344929
 40
0.6191703782421354
 40
0.6542106995986449
 40
0.6889160634209301
 40
0.722800890041352
 40
0.7560829642487451
 40
0.8208193220025545
 40
0.881925072178466
 40
0.941036732120393
 40
1.0
 40
1.0
 40
1.0
 40
1.0
 10
38.22689734752881
 20
12.22768190674234
 30
0.0
 10
38.24131902914775
 20
12.21335273249123
 30
0.0
 10
38.26926845444983
 20
12.18558258779144
 30
0.0
 10
38.31146498351113
 20
12.14704484065961
 30
0.0
 10
38.35138523200838
 20
12.11157759796844
 30
0.0
 10
38.38986864909368
 20
12.08013221716346
 30
0.0
 10
38.42640220579651
 20
12.05191153026983
 30
0.0
 10
38.46161104288231
 20
12.02805821848606
 30
0.0
 10
38.49463136957872
 20
12.00722192600688
 30
0.0
 10
38.52650752908623
 20
11.99062390544823
 30
0.0
 10
38.55728727302206
 20
11.97696421346557
 30
0.0
 10
38.58731465775998
 20
11.96541894042183
 30
0.0
 10
38.61704248260761
 20
11.9563856008294
 30
0.0
 10
38.64628924595422
 20
11.94981493564944
 30
0.0
 10
38.6750709613279
 20
11.94512088500511
 30
0.0
 10
38.70352410224388
 20
11.94302943143275
 30
0.0
 10
38.73155793938633
 20
11.94337651777113
 30
0.0
 10
38.76771106861981
 20
11.94651892104377
 30
0.0
 10
38.81074739947162
 20
11.95540501720903
 30
0.0
 10
38.85856532656646
 20
11.9731810533974
 30
0.0
 10
38.9015853549306
 20
11.99792716605956
 30
0.0
 10
38.92576181134528
 20
12.01969585612408
 30
0.0
 10
38.93783484752882
 20
12.03056652212696
 30
0.0
  0
SPLINE
  5
DF
330
1F
100
AcDbEntity
  8
0
  6
Continuous
 62
     7
370
    25
100
AcDbSpline
210
0.0
220
0.0
230
1.0
 70
     8
 71
     3
 72
    27
 73
    23
 74
     0
 42
0.000000001
 43
0.00000001
 40
0.0
 40
0.0
 40
0.0
 40
0.0
 40
0.059204909142324
 40
0.1186381156964757
 40
0.1794099962647923
 40
0.2434403905684775
 40
0.2767263209819802
 40
0.31025072081163
 40
0.3445967272097262
 40
0.3795861309306518
 40
0.4161835169775525
 40
0.4535278654524002
 40
0.4925073825928414
 40
0.5331297869118885
 40
0.5763200343895354
 40
0.6237516935997309
 40
0.6753965042887892
 40
0.7312932054248967
 40
0.791617760278575
 40
0.8564364250289891
 40
0.9260500040603646
 40
1.0
 40
1.0
 40
1.0
 40
1.0
 10
38.03008244368266
 20
12.93831892597311
 30
0.0
 10
38.01907822680416
 20
12.92626954092512
 30
0.0
 10
37.99702736017685
 20
12.9021243077324
 30
0.0
 10
37.97255980843698
 20
12.85886162489839
 30
0.0
 10
37.95464521365112
 20
12.81134500457495
 30
0.0
 10
37.94569498015701
 20
12.7686014041264
 30
0.0
 10
37.9426120237997
 20
12.73274372716178
 30
0.0
 10
37.94221324916005
 20
12.70490532878844
 30
0.0
 10
37.9444542263622
 20
12.67668765778743
 30
0.0
 10
37.94866552425682
 20
12.64785420004828
 30
0.0
 10
37.95523197779926
 20
12.61860663780099
 30
0.0
 10
37.96438457073225
 20
12.5889153467947
 30
0.0
 10
37.97594732700226
 20
12.55890468604274
 30
0.0
 10
37.98944556104228
 20
12.52794963456575
 30
0.0
 10
38.00623434852272
 20
12.49597484617255
 30
0.0
 10
38.02686728241101
 20
12.4627314139982
 30
0.0
 10
38.05084739183793
 20
12.42750089731767
 30
0.0
 10
38.07902677201248
 20
12.3909370727608
 30
0.0
 10
38.11060534900091
 20
12.35246919583112
 30
0.0
 10
38.14584157557219
 20
12.31215317133567
 30
0.0
 10
38.18482659783677
 20
12.27017122323536
 30
0.0
 10
38.21259418586456
 20
12.24212737223207
 30
0.0
 10
38.22689734752881
 20
12.22768190674234
 30
0.0
  0
SPLINE
  5
E0
330
1F
100
AcDbEntity
  8
0
  6
Continuous
 62
     7
370
    25
100
AcDbSpline
210
0.0
220
0.0
230
1.0
 70
     8
 71
     3
 72
    27
 73
    23
 74
     0
 42
0.000000001
 43
0.00000001
 40
0.0
 40
0.0
 40
0.0
 40
0.0
 40
0.0665682887066777
 40
0.1298384398761199
 40
0.1903854166577238
 40
0.2477638774268024
 40
0.3026463387477553
 40
0.354759433731939
 40
0.4043168527786023
 40
0.4513184057942145
 40
0.4962182809861096
 40
0.5384964490913654
 40
0.5791109571601268
 40
0.6178689498676123
 40
0.6548770745485871
 40
0.6907509929392047
 40
0.7250465884647679
 40
0.758739154699732
 40
0.8228526037433926
 40
0.8832333648382241
 40
0.9417466416330511
 40
1.0
 40
1.0
 40
1.0
 40
1.0
 10
38.74552715522112
 20
12.74631171443465
 30
0.0
 10
38.73248421387624
 20
12.75911367550634
 30
0.0
 10
38.70704454600259
 20
12.78408332224349
 30
0.0
 10
38.66843551455538
 20
12.81933124104196
 30
0.0
 10
38.63067777150804
 20
12.8517210782802
 30
0.0
 10
38.59369254260798
 20
12.88146351916805
 30
0.0
 10
38.5569687354243
 20
12.90770832054794
 30
0.0
 10
38.52129300311741
 20
12.93170269094595
 30
0.0
 10
38.48605763736142
 20
12.952340531506
 30
0.0
 10
38.45174713161624
 20
12.97056551630586
 30
0.0
 10
38.41818977787827
 20
12.98581013414058
 30
0.0
 10
38.38550058918617
 20
12.9985988164087
 30
0.0
 10
38.35367845161837
 20
13.00879704415923
 30
0.0
 10
38.32271104806453
 20
13.01675445106506
 30
0.0
 10
38.29246630246562
 20
13.02196550762921
 30
0.0
 10
38.26310335288753
 20
13.02430850932235
 30
0.0
 10
38.23455594456167
 20
13.02438705891863
 30
0.0
 10
38.19839303487808
 20
13.0211915080329
 30
0.0
 10
38.1556939189967
 20
13.01225004257288
 30
0.0
 10
38.10849034999222
 20
12.99467648729286
 30
0.0
 10
38.06568247813651
 20
12.97078963986779
 30
0.0
 10
38.04193149888546
 20
12.94912642341841
 30
0.0
 10
38.03008244368266
 20
12.93831892597311
 30
0.0
  0
LINE
  5
E1
330
1F
100
AcDbEntity
  8
0
  6
Continuous
 62
     7
370
    25
100
AcDbLine
 10
39.35160564
 20
12.8672631538
 30
0.0
 11
39.6604998708
 21
13.1761573845
 31
0.0
  0
LINE
  5
E2
330
1F
100
AcDbEntity
  8
0
  6
Continuous
 62
     7
370
    25
100
AcDbLine
 10
39.2229998708
 20
13.6136573845
 30
0.0
 11
39.35160564
 21
12.8672631538
 31
0.0
  0
LINE
  5
E3
330
1F
100
AcDbEntity
  8
0
  6
Continuous
 62
     7
370
    25
100
AcDbLine
 10
39.6604998708
 20
13.1761573845
 30
0.0
 11
39.2229998708
 21
13.6136573845
 31
0.0
  0
CIRCLE
  5
E4
330
1F
100
AcDbEntity
  8
0
  6
Continuous
 62
     7
370
    25
100
AcDbCircle
 10
39.0946228902
 20
11.6973313295
 30
0.0
 40
6.697030303030306
  0
ARC
  5
E5
330
1F
100
AcDbEntity
  8
0
  6
Continuous
 62
     7
370
    25
100
AcDbCircle
 10
39.0946228902
 20
11.6973313295
 30
0.0
 40
5.499999999999996
100
AcDbArc
 50
99.9031987724
 51
170.0968012276
  0
ARC
  5
E6
330
1F
100
AcDbEntity
  8
0
  6
Continuous
 62
     7
370
    25
100
AcDbCircle
 10
39.0946228902
 20
11.6973313295
 30
0.0
 40
5.499999999999999
100
AcDbArc
 50
189.9031987724
 51
260.0968012276
  0
ARC
  5
E7
330
1F
100
AcDbEntity
  8
0
  6
Continuous
 62
     7
370
    25
100
AcDbCircle
 10
39.0946228902
 20
11.6973313295
 30
0.0
 40
5.500000000000001
100
AcDbArc
 50
279.9031987724
 51
350.0968012276
  0
ARC
  5
E8
330
1F
100
AcDbEntity
  8
0
  6
Continuous
 62
     7
370
    25
100
AcDbCircle
 10
39.0946228902
 20
11.6973313295
 30
0.0
 40
5.500000000000001
100
AcDbArc
 50
9.9031987724
 51
80.0968012276
  0
INSERT
  5
F4
330
1F
100
AcDbEntity
  8
0
  6
Continuous
 62
     7
370
    18
100
AcDbBlockReference
  2
SW_CENTERMARKSYMBOL_0
 10
39.0946228902
 20
11.6973313295
 30
0.0
  0
ARC
  5
F5
330
1F
100
AcDbEntity
  8
0
  6
Continuous
 62
     7
370
    18
100
AcDbCircle
 10
39.0946228902
 20
11.6973313295
 30
0.0
 40
5.722499999999997
100
AcDbArc
 50
75.0
 51
345.0
  0
ENDSEC
  0
SECTION
  2
OBJECTS
  0
DICTIONARY
  5
C
330
0
100
AcDbDictionary
281
     1
  3
ACAD_GROUP
350
D
  3
ACAD_LAYOUT
350
1A
  3
ACAD_MLINESTYLE
350
17
  3
ACAD_PLOTSETTINGS
350
19
  3
ACAD_PLOTSTYLENAME
350
E
  3
ACAD_SCALELIST
350
47
  0
DICTIONARY
  5
D
102
{ACAD_REACTORS
330
C
102
}
330
C
100
AcDbDictionary
281
     1
  0
DICTIONARY
  5
1A
102
{ACAD_REACTORS
330
C
102
}
330
C
100
AcDbDictionary
281
     1
  3
Layout1
350
1E
  3
Layout2
350
26
  3
Model
350
22
  0
DICTIONARY
  5
17
102
{ACAD_REACTORS
330
C
102
}
330
C
100
AcDbDictionary
281
     1
  3
Standard
350
18
  0
DICTIONARY
  5
19
102
{ACAD_REACTORS
330
C
102
}
330
C
100
AcDbDictionary
281
     1
  0
ACDBDICTIONARYWDFLT
  5
E
102
{ACAD_REACTORS
330
C
102
}
330
C
100
AcDbDictionary
281
     1
  3
Normal
350
F
100
AcDbDictionaryWithDefault
340
F
  0
DICTIONARY
  5
47
102
{ACAD_REACTORS
330
C
102
}
330
C
100
AcDbDictionary
281
     1
  3
A0
350
48
  3
A1
350
49
  3
A2
350
4A
  3
A3
350
4B
  3
A4
350
4C
  3
A5
350
4D
  3
A6
350
4E
  3
A7
350
4F
  3
A8
350
50
  3
A9
350
51
  3
B0
350
52
  3
B1
350
53
  3
B2
350
54
  3
B3
350
55
  3
B4
350
56
  3
B5
350
57
  3
B6
350
58
  3
B7
350
59
  3
B8
350
5A
  3
B9
350
5B
  3
C0
350
5C
  3
C1
350
5D
  3
C2
350
5E
  3
C3
350
5F
  3
C4
350
60
  3
C5
350
61
  3
C6
350
62
  3
C7
350
63
  3
C8
350
64
  3
C9
350
65
  3
D0
350
66
  3
D1
350
67
  3
D2
350
68
  0
LAYOUT
  5
1E
102
{ACAD_REACTORS
330
1A
102
}
330
1A
100
AcDbPlotSettings
  1

  2
none_device
  4

  6

 40
0.0
 41
0.0
 42
0.0
 43
0.0
 44
0.0
 45
0.0
 46
0.0
 47
0.0
 48
0.0
 49
0.0
140
0.0
141
0.0
142
1.0
143
1.0
 70
   688
 72
     1
 73
     0
 74
     5
  7

 75
    16
147
1.0
148
0.0
149
0.0
100
AcDbLayout
  1
Layout1
 70
     1
 71
     1
 10
0.0
 20
0.0
 11
420.0
 21
297.0
 12
0.0
 22
0.0
 32
0.0
 14
1.0000000000E+20
 24
1.0000000000E+20
 34
1.0000000000E+20
 15
-1.0000000000E+20
 25
-1.0000000000E+20
 35
-1.0000000000E+20
146
0.0
 13
0.0
 23
0.0
 33
0.0
 16
1.0
 26
0.0
 36
0.0
 17
0.0
 27
1.0
 37
0.0
 76
     0
330
1B
  0
LAYOUT
  5
26
102
{ACAD_REACTORS
330
1A
102
}
330
1A
100
AcDbPlotSettings
  1

  2
none_device
  4

  6

 40
0.0
 41
0.0
 42
0.0
 43
0.0
 44
0.0
 45
0.0
 46
0.0
 47
0.0
 48
0.0
 49
0.0
140
0.0
141
0.0
142
1.0
143
1.0
 70
   688
 72
     1
 73
     0
 74
     5
  7

 75
    16
147
1.0
148
0.0
149
0.0
100
AcDbLayout
  1
Layout2
 70
     1
 71
     2
 10
0.0
 20
0.0
 11
0.0
 21
0.0
 12
0.0
 22
0.0
 32
0.0
 14
0.0
 24
0.0
 34
0.0
 15
0.0
 25
0.0
 35
0.0
146
0.0
 13
0.0
 23
0.0
 33
0.0
 16
1.0
 26
0.0
 36
0.0
 17
0.0
 27
1.0
 37
0.0
 76
     0
330
23
  0
LAYOUT
  5
22
102
{ACAD_REACTORS
330
1A
102
}
330
1A
100
AcDbPlotSettings
  1

  2
none_device
  4
Letter_(8.50_x_11.00_Inches)
  6

 40
6.35
 41
6.35
 42
6.35000508
 43
6.35000508
 44
215.9
 45
279.4
 46
0.0
 47
0.0
 48
0.0
 49
0.0
140
0.0
141
0.0
142
1.0
143
1.0
 70
  1712
 72
     1
 73
     0
 74
     0
  7

 75
     0
147
1.0
148
0.0
149
0.0
100
AcDbLayout
  1
Model
 70
     1
 71
     0
 10
0.0
 20
0.0
 11
86.36
 21
55.88
 12
0.0
 22
0.0
 32
0.0
 14
0.0
 24
0.0
 34
0.0
 15
86.36
 25
55.88
 35
0.0
146
0.0
 13
0.0
 23
0.0
 33
0.0
 16
1.0
 26
0.0
 36
0.0
 17
0.0
 27
1.0
 37
0.0
 76
     0
330
1F
331
29
  0
MLINESTYLE
  5
18
102
{ACAD_REACTORS
330
17
102
}
330
17
100
AcDbMlineStyle
  2
Standard
 70
     0
  3

 62
   256
 51
90.0
 52
90.0
 71
     2
 49
0.5
 62
   256
  6
BYLAYER
 49
-0.5
 62
   256
  6
BYLAYER
  0
ACDBPLACEHOLDER
  5
F
102
{ACAD_REACTORS
330
E
102
}
330
E
  0
SCALE
  5
48
102
{ACAD_REACTORS
330
47
102
}
330
47
100
AcDbScale
 70
     0
300
1:1
140
1.0
141
1.0
290
     1
  0
SCALE
  5
49
102
{ACAD_REACTORS
330
47
102
}
330
47
100
AcDbScale
 70
     0
300
1:2
140
1.0
141
2.0
290
     0
  0
SCALE
  5
4A
102
{ACAD_REACTORS
330
47
102
}
330
47
100
AcDbScale
 70
     0
300
1:4
140
1.0
141
4.0
290
     0
  0
SCALE
  5
4B
102
{ACAD_REACTORS
330
47
102
}
330
47
100
AcDbScale
 70
     0
300
1:5
140
1.0
141
5.0
290
     0
  0
SCALE
  5
4C
102
{ACAD_REACTORS
330
47
102
}
330
47
100
AcDbScale
 70
     0
300
1:8
140
1.0
141
8.0
290
     0
  0
SCALE
  5
4D
102
{ACAD_REACTORS
330
47
102
}
330
47
100
AcDbScale
 70
     0
300
1:10
140
1.0
141
10.0
290
     0
  0
SCALE
  5
4E
102
{ACAD_REACTORS
330
47
102
}
330
47
100
AcDbScale
 70
     0
300
1:16
140
1.0
141
16.0
290
     0
  0
SCALE
  5
4F
102
{ACAD_REACTORS
330
47
102
}
330
47
100
AcDbScale
 70
     0
300
1:20
140
1.0
141
20.0
290
     0
  0
SCALE
  5
50
102
{ACAD_REACTORS
330
47
102
}
330
47
100
AcDbScale
 70
     0
300
1:30
140
1.0
141
30.0
290
     0
  0
SCALE
  5
51
102
{ACAD_REACTORS
330
47
102
}
330
47
100
AcDbScale
 70
     0
300
1:40
140
1.0
141
40.0
290
     0
  0
SCALE
  5
52
102
{ACAD_REACTORS
330
47
102
}
330
47
100
AcDbScale
 70
     0
300
1:50
140
1.0
141
50.0
290
     0
  0
SCALE
  5
53
102
{ACAD_REACTORS
330
47
102
}
330
47
100
AcDbScale
 70
     0
300
1:100
140
1.0
141
100.0
290
     0
  0
SCALE
  5
54
102
{ACAD_REACTORS
330
47
102
}
330
47
100
AcDbScale
 70
     0
300
2:1
140
2.0
141
1.0
290
     0
  0
SCALE
  5
55
102
{ACAD_REACTORS
330
47
102
}
330
47
100
AcDbScale
 70
     0
300
4:1
140
4.0
141
1.0
290
     0
  0
SCALE
  5
56
102
{ACAD_REACTORS
330
47
102
}
330
47
100
AcDbScale
 70
     0
300
8:1
140
8.0
141
1.0
290
     0
  0
SCALE
  5
57
102
{ACAD_REACTORS
330
47
102
}
330
47
100
AcDbScale
 70
     0
300
10:1
140
10.0
141
1.0
290
     0
  0
SCALE
  5
58
102
{ACAD_REACTORS
330
47
102
}
330
47
100
AcDbScale
 70
     0
300
100:1
140
100.0
141
1.0
290
     0
  0
SCALE
  5
59
102
{ACAD_REACTORS
330
47
102
}
330
47
100
AcDbScale
 70
     0
300
1/128" = 1'-0"
140
0.0078125
141
12.0
290
     0
  0
SCALE
  5
5A
102
{ACAD_REACTORS
330
47
102
}
330
47
100
AcDbScale
 70
     0
300
1/64" = 1'-0"
140
0.015625
141
12.0
290
     0
  0
SCALE
  5
5B
102
{ACAD_REACTORS
330
47
102
}
330
47
100
AcDbScale
 70
     0
300
1/32" = 1'-0"
140
0.03125
141
12.0
290
     0
  0
SCALE
  5
5C
102
{ACAD_REACTORS
330
47
102
}
330
47
100
AcDbScale
 70
     0
300
1/16" = 1'-0"
140
0.0625
141
12.0
290
     0
  0
SCALE
  5
5D
102
{ACAD_REACTORS
330
47
102
}
330
47
100
AcDbScale
 70
     0
300
3/32" = 1'-0"
140
0.09375
141
12.0
290
     0
  0
SCALE
  5
5E
102
{ACAD_REACTORS
330
47
102
}
330
47
100
AcDbScale
 70
     0
300
1/8" = 1'-0"
140
0.125
141
12.0
290
     0
  0
SCALE
  5
5F
102
{ACAD_REACTORS
330
47
102
}
330
47
100
AcDbScale
 70
     0
300
3/16" = 1'-0"
140
0.1875
141
12.0
290
     0
  0
SCALE
  5
60
102
{ACAD_REACTORS
330
47
102
}
330
47
100
AcDbScale
 70
     0
300
1/4" = 1'-0"
140
0.25
141
12.0
290
     0
  0
SCALE
  5
61
102
{ACAD_REACTORS
330
47
102
}
330
47
100
AcDbScale
 70
     0
300
3/8" = 1'-0"
140
0.375
141
12.0
290
     0
  0
SCALE
  5
62
102
{ACAD_REACTORS
330
47
102
}
330
47
100
AcDbScale
 70
     0
300
1/2" = 1'-0"
140
0.5
141
12.0
290
     0
  0
SCALE
  5
63
102
{ACAD_REACTORS
330
47
102
}
330
47
100
AcDbScale
 70
     0
300
3/4" = 1'-0"
140
0.75
141
12.0
290
     0
  0
SCALE
  5
64
102
{ACAD_REACTORS
330
47
102
}
330
47
100
AcDbScale
 70
     0
300
1" = 1'-0"
140
1.0
141
12.0
290
     0
  0
SCALE
  5
65
102
{ACAD_REACTORS
330
47
102
}
330
47
100
AcDbScale
 70
     0
300
1-1/2" = 1'-0"
140
1.5
141
12.0
290
     0
  0
SCALE
  5
66
102
{ACAD_REACTORS
330
47
102
}
330
47
100
AcDbScale
 70
     0
300
3" = 1'-0"
140
3.0
141
12.0
290
     0
  0
SCALE
  5
67
102
{ACAD_REACTORS
330
47
102
}
330
47
100
AcDbScale
 70
     0
300
6" = 1'-0"
140
6.0
141
12.0
290
     0
  0
SCALE
  5
68
102
{ACAD_REACTORS
330
47
102
}
330
47
100
AcDbScale
 70
     0
300
1'-0" = 1'-0"
140
12.0
141
12.0
290
     0
  0
ENDSEC
  0
EOF
