  0
SECTION
  2
HEADER
  9
$ACADVER
  1
AC1015
  9
$ACADMAINTVER
 70
     6
  9
$DWGCODEPAGE
  3
DOS932
  9
$INSBASE
 10
0.0
 20
0.0
 30
0.0
  9
$EXTMIN
 10
0.0
 20
0.0
 30
0.0
  9
$EXTMAX
 10
86.36
 20
55.88
 30
0.0
  9
$LIMMIN
 10
0.0
 20
0.0
  9
$LIMMAX
 10
86.36
 20
55.88
  9
$ORTHOMODE
 70
     0
  9
$REGENMODE
 70
     1
  9
$FILLMODE
 70
     1
  9
$QTEXTMODE
 70
     0
  9
$MIRRTEXT
 70
     1
  9
$LTSCALE
 40
0.2
  9
$ATTMODE
 70
     1
  9
$TEXTSIZE
 40
0.7
  9
$TRACEWID
 40
1.0
  9
$TEXTSTYLE
  7
Standard
  9
$CLAYER
  8
0
  9
$CELTYPE
  6
ByLayer
  9
$CECOLOR
 62
   256
  9
$CELTSCALE
 40
1.0
  9
$DISPSILH
 70
     0
  9
$DIMSCALE
 40
1.0
  9
$DIMASZ
 40
0.6604
  9
$DIMEXO
 40
0.2
  9
$DIMDLI
 40
3.75
  9
$DIMRND
 40
0.0
  9
$DIMDLE
 40
0.0
  9
$DIMEXE
 40
0.2
  9
$DIMTP
 40
0.0
  9
$DIMTM
 40
0.0
  9
$DIMTXT
 40
0.7
  9
$DIMCEN
 40
2.5
  9
$DIMTSZ
 40
0.0
  9
$DIMTOL
 70
     0
  9
$DIMLIM
 70
     0
  9
$DIMTIH
 70
     1
  9
$DIMTOH
 70
     1
  9
$DIMSE1
 70
     0
  9
$DIMSE2
 70
     0
  9
$DIMTAD
 70
     1
  9
$DIMZIN
 70
     1
  9
$DIMBLK
  1

  9
$DIMASO
 70
     1
  9
$DIMSHO
 70
     1
  9
$DIMPOST
  1

  9
$DIMAPOST
  1

  9
$DIMALT
 70
     0
  9
$DIMALTD
 70
     3
  9
$DIMALTF
 40
0.0393700787
  9
$DIMLFAC
 40
1.0
  9
$DIMTOFL
 70
     1
  9
$DIMTVP
 40
0.0
  9
$DIMTIX
 70
     0
  9
$DIMSOXD
 70
     0
  9
$DIMSAH
 70
     0
  9
$DIMBLK1
  1

  9
$DIMBLK2
  1

  9
$DIMSTYLE
  2
ISO-25
  9
$DIMCLRD
 70
     0
  9
$DIMCLRE
 70
     0
  9
$DIMCLRT
 70
     0
  9
$DIMTFAC
 40
1.0
  9
$DIMGAP
 40
0.3048
  9
$DIMJUST
 70
     0
  9
$DIMSD1
 70
     0
  9
$DIMSD2
 70
     0
  9
$DIMTOLJ
 70
     0
  9
$DIMTZIN
 70
     1
  9
$DIMALTZ
 70
     0
  9
$DIMALTTZ
 70
     0
  9
$DIMUPT
 70
     0
  9
$DIMDEC
 70
     2
  9
$DIMTDEC
 70
     2
  9
$DIMALTU
 70
     2
  9
$DIMALTTD
 70
     3
  9
$DIMTXSTY
  7
Standard
  9
$DIMAUNIT
 70
     0
  9
$DIMADEC
 70
     2
  9
$DIMALTRND
 40
0.0
  9
$DIMAZIN
 70
     0
  9
$DIMDSEP
 70
    44
  9
$DIMATFIT
 70
     3
  9
$DIMFRAC
 70
     0
  9
$DIMLDRBLK
  1

  9
$DIMLUNIT
 70
     2
  9
$DIMLWD
 70
    -2
  9
$DIMLWE
 70
    -2
  9
$DIMTMOVE
 70
     0
  9
$LUNITS
 70
     2
  9
$LUPREC
 70
     2
  9
$SKETCHINC
 40
1.0
  9
$FILLETRAD
 40
10.0
  9
$AUNITS
 70
     0
  9
$AUPREC
 70
     2
  9
$MENU
  1
.
  9
$ELEVATION
 40
0.0
  9
$PELEVATION
 40
0.0
  9
$THICKNESS
 40
0.0
  9
$LIMCHECK
 70
     0
  9
$CHAMFERA
 40
0.0
  9
$CHAMFERB
 40
0.0
  9
$CHAMFERC
 40
0.0
  9
$CHAMFERD
 40
0.0
  9
$SKPOLY
 70
     0
  9
$TDCREATE
 40
2460090.425388912
  9
$TDUCREATE
 40
2460090.050388912
  9
$TDUPDATE
 40
2460090.425389456
  9
$TDUUPDATE
 40
2460090.050389456
  9
$TDINDWG
 40
0.0000000116
  9
$TDUSRTIMER
 40
0.0000000116
  9
$USRTIMER
 70
     1
  9
$ANGBASE
 50
0.0
  9
$ANGDIR
 70
     0
  9
$PDMODE
 70
     0
  9
$PDSIZE
 40
-1.0
  9
$PLINEWID
 40
0.0
  9
$SPLFRAME
 70
     0
  9
$SPLINETYPE
 70
     6
  9
$SPLINESEGS
 70
     8
  9
$HANDSEED
  5
F7
  9
$SURFTAB1
 70
     6
  9
$SURFTAB2
 70
     6
  9
$SURFTYPE
 70
     6
  9
$SURFU
 70
     6
  9
$SURFV
 70
     6
  9
$UCSBASE
  2

  9
$UCSNAME
  2

  9
$UCSORG
 10
0.0
 20
0.0
 30
0.0
  9
$UCSXDIR
 10
1.0
 20
0.0
 30
0.0
  9
$UCSYDIR
 10
0.0
 20
1.0
 30
0.0
  9
$UCSORTHOREF
  2

  9
$UCSORTHOVIEW
 70
     0
  9
$UCSORGTOP
 10
0.0
 20
0.0
 30
0.0
  9
$UCSORGBOTTOM
 10
0.0
 20
0.0
 30
0.0
  9
$UCSORGLEFT
 10
0.0
 20
0.0
 30
0.0
  9
$UCSORGRIGHT
 10
0.0
 20
0.0
 30
0.0
  9
$UCSORGFRONT
 10
0.0
 20
0.0
 30
0.0
  9
$UCSORGBACK
 10
0.0
 20
0.0
 30
0.0
  9
$PUCSBASE
  2

  9
$PUCSNAME
  2

  9
$PUCSORG
 10
0.0
 20
0.0
 30
0.0
  9
$PUCSXDIR
 10
1.0
 20
0.0
 30
0.0
  9
$PUCSYDIR
 10
0.0
 20
1.0
 30
0.0
  9
$PUCSORTHOREF
  2

  9
$PUCSORTHOVIEW
 70
     0
  9
$PUCSORGTOP
 10
0.0
 20
0.0
 30
0.0
  9
$PUCSORGBOTTOM
 10
0.0
 20
0.0
 30
0.0
  9
$PUCSORGLEFT
 10
0.0
 20
0.0
 30
0.0
  9
$PUCSORGRIGHT
 10
0.0
 20
0.0
 30
0.0
  9
$PUCSORGFRONT
 10
0.0
 20
0.0
 30
0.0
  9
$PUCSORGBACK
 10
0.0
 20
0.0
 30
0.0
  9
$USERI1
 70
     0
  9
$USERI2
 70
     0
  9
$USERI3
 70
     0
  9
$USERI4
 70
     0
  9
$USERI5
 70
     0
  9
$USERR1
 40
0.0
  9
$USERR2
 40
0.0
  9
$USERR3
 40
0.0
  9
$USERR4
 40
0.0
  9
$USERR5
 40
0.0
  9
$WORLDVIEW
 70
     1
  9
$SHADEDGE
 70
     3
  9
$SHADEDIF
 70
    70
  9
$TILEMODE
 70
     1
  9
$MAXACTVP
 70
    64
  9
$PINSBASE
 10
0.0
 20
0.0
 30
0.0
  9
$PLIMCHECK
 70
     0
  9
$PEXTMIN
 10
1.0000000000E+20
 20
1.0000000000E+20
 30
1.0000000000E+20
  9
$PEXTMAX
 10
-1.0000000000E+20
 20
-1.0000000000E+20
 30
-1.0000000000E+20
  9
$PLIMMIN
 10
0.0
 20
0.0
  9
$PLIMMAX
 10
420.0
 20
297.0
  9
$UNITMODE
 70
     0
  9
$VISRETAIN
 70
     1
  9
$PLINEGEN
 70
     0
  9
$PSLTSCALE
 70
     1
  9
$TREEDEPTH
 70
  3020
  9
$CMLSTYLE
  2
Standard
  9
$CMLJUST
 70
     0
  9
$CMLSCALE
 40
20.0
  9
$PROXYGRAPHICS
 70
     1
  9
$MEASUREMENT
 70
     1
  9
$CELWEIGHT
370
    -1
  9
$ENDCAPS
280
     0
  9
$JOINSTYLE
280
     0
  9
$LWDISPLAY
290
     1
  9
$INSUNITS
 70
     4
  9
$HYPERLINKBASE
  1

  9
$STYLESHEET
  1

  9
$XEDIT
290
     1
  9
$CEPSNTYPE
380
     0
  9
$PSTYLEMODE
290
     1
  9
$FINGERPRINTGUID
  2
{D7F1A7D8-6C92-41D9-A8BD-B24169A82CDD}
  9
$VERSIONGUID
  2
{FAEB1C32-E019-11D5-929B-00C0DF256EC4}
  9
$EXTNAMES
290
     1
  9
$PSVPSCALE
 40
0.0
  9
$OLESTARTUP
290
     0
  0
ENDSEC
  0
SECTION
  2
CLASSES
  0
CLASS
  1
ACDBDICTIONARYWDFLT
  2
AcDbDictionaryWithDefault
  3
ObjectDBX Classes
 90
        0
280
     0
281
     0
  0
CLASS
  1
VISUALSTYLE
  2
AcDbVisualStyle
  3
ObjectDBX Classes
 90
     4095
280
     0
281
     0
  0
CLASS
  1
MATERIAL
  2
AcDbMaterial
  3
ObjectDBX Classes
 90
     1153
280
     0
281
     0
  0
CLASS
  1
SCALE
  2
AcDbScale
  3
ObjectDBX Classes
 90
     1153
280
     0
281
     0
  0
CLASS
  1
TABLESTYLE
  2
AcDbTableStyle
  3
ObjectDBX Classes
 90
     4095
280
     0
281
     0
  0
CLASS
  1
MLEADERSTYLE
  2
AcDbMLeaderStyle
  3
ACDB_MLEADERSTYLE_CLASS
 90
     4095
280
     0
281
     0
  0
CLASS
  1
SUN
  2
AcDbSun
  3
SCENEOE
 90
     1153
280
     0
281
     0
  0
CLASS
  1
ACDBPLACEHOLDER
  2
AcDbPlaceHolder
  3
ObjectDBX Classes
 90
        0
280
     0
281
     0
  0
CLASS
  1
LAYOUT
  2
AcDbLayout
  3
ObjectDBX Classes
 90
        0
280
     0
281
     0
  0
ENDSEC
  0
SECTION
  2
TABLES
  0
TABLE
  2
VPORT
  5
8
330
0
100
AcDbSymbolTable
 70
     1
  0
VPORT
  5
29
330
8
100
AcDbSymbolTableRecord
100
AcDbViewportTableRecord
  2
*Active
 70
     0
 10
0.0
 20
0.0
 11
1.0
 21
1.0
 12
43.18
 22
27.94
 13
0.0
 23
0.0
 14
10.0
 24
10.0
 15
10.0
 25
10.0
 16
0.0
 26
0.0
 36
1.0
 17
0.0
 27
0.0
 37
0.0
 40
55.88
 41
1.5454545455
 42
50.0
 43
0.0
 44
0.0
 50
0.0
 51
0.0
 71
     0
 72
  2000
 73
     1
 74
     3
 75
     0
 76
     0
 77
     0
 78
     0
281
     0
 65
     1
110
0.0
120
0.0
130
0.0
111
1.0
121
0.0
131
0.0
112
0.0
122
1.0
132
0.0
 79
     0
146
0.0
  0
ENDTAB
  0
TABLE
  2
LTYPE
  5
5
330
0
100
AcDbSymbolTable
 70
     6
  0
LTYPE
  5
14
330
5
100
AcDbSymbolTableRecord
100
AcDbLinetypeTableRecord
  2
ByBlock
 70
     0
  3

 72
    65
 73
     0
 40
0.0
  0
LTYPE
  5
15
330
5
100
AcDbSymbolTableRecord
100
AcDbLinetypeTableRecord
  2
ByLayer
 70
     0
  3

 72
    65
 73
     0
 40
0.0
  0
LTYPE
  5
16
330
5
100
AcDbSymbolTableRecord
100
AcDbLinetypeTableRecord
  2
Continuous
 70
     0
  3
Solid line
 72
    65
 73
     0
 40
0.0
  0
LTYPE
  5
6E
330
5
100
AcDbSymbolTableRecord
100
AcDbLinetypeTableRecord
  2
HIDDEN
 70
     0
  3
Hidden __ __ __ __ __ __ __ __ __ __ __ __ __ __
 72
    65
 73
     2
 40
1.905
 49
1.27
 74
     0
 49
-0.635
 74
     0
  0
LTYPE
  5
6F
330
5
100
AcDbSymbolTableRecord
100
AcDbLinetypeTableRecord
  2
PHANTOM
 70
     0
  3
Phantom ______  __  __  ______  __  __  ______
 72
    65
 73
     6
 40
12.7
 49
6.35
 74
     0
 49
-1.27
 74
     0
 49
1.27
 74
     0
 49
-1.27
 74
     0
 49
1.27
 74
     0
 49
-1.27
 74
     0
  0
LTYPE
  5
70
330
5
100
AcDbSymbolTableRecord
100
AcDbLinetypeTableRecord
  2
CENTER
 70
     0
  3
Center ____ _ ____ _ ____ _ ____ _ ____ _ ____
 72
    65
 73
     4
 40
10.16
 49
6.35
 74
     0
 49
-1.27
 74
     0
 49
1.27
 74
     0
 49
-1.27
 74
     0
  0
LTYPE
  5
71
330
5
100
AcDbSymbolTableRecord
100
AcDbLinetypeTableRecord
  2
CENTERX2
 70
     0
  3
Center (2x) ________  __  ________  __  _____
 72
    65
 73
     4
 40
20.32
 49
12.7
 74
     0
 49
-2.54
 74
     0
 49
2.54
 74
     0
 49
-2.54
 74
     0
  0
LTYPE
  5
72
330
5
100
AcDbSymbolTableRecord
100
AcDbLinetypeTableRecord
  2
DOT2
 70
     0
  3
Dot (.5x) ........................................
 72
    65
 73
     2
 40
0.635
 49
0.0
 74
     0
 49
-0.635
 74
     0
  0
ENDTAB
  0
TABLE
  2
LAYER
  5
2
330
0
100
AcDbSymbolTable
 70
     1
  0
LAYER
  5
10
330
2
100
AcDbSymbolTableRecord
100
AcDbLayerTableRecord
  2
0
 70
     0
 62
     7
  6
Continuous
370
    -3
390
F
  0
ENDTAB
  0
TABLE
  2
STYLE
  5
3
330
0
100
AcDbSymbolTable
 70
     2
  0
STYLE
  5
11
330
3
100
AcDbSymbolTableRecord
100
AcDbTextStyleTableRecord
  2
Standard
 70
     0
 40
0.0
 41
1.0
 50
0.0
 71
     0
 42
0.7
  3
txt
  4
bigfont
  0
STYLE
  5
73
330
3
100
AcDbSymbolTableRecord
100
AcDbTextStyleTableRecord
  2
SLDTEXTSTYLE0
 70
     0
 40
0.0
 41
0.75
 50
0.0
 71
     0
 42
0.7
  3
TXT
  4
bigfont
  0
ENDTAB
  0
TABLE
  2
VIEW
  5
6
330
0
100
AcDbSymbolTable
 70
     0
  0
ENDTAB
  0
TABLE
  2
UCS
  5
7
330
0
100
AcDbSymbolTable
 70
     0
  0
ENDTAB
  0
TABLE
  2
APPID
  5
9
330
0
100
AcDbSymbolTable
 70
     1
  0
APPID
  5
12
330
9
100
AcDbSymbolTableRecord
100
AcDbRegAppTableRecord
  2
ACAD
 70
     0
  0
ENDTAB
  0
TABLE
  2
DIMSTYLE
  5
A
330
0
100
AcDbSymbolTable
 70
     1
100
AcDbDimStyleTable
  0
DIMSTYLE
105
27
330
A
100
AcDbSymbolTableRecord
100
AcDbDimStyleTableRecord
  2
ISO-25
 70
     0
 41
2.5
 42
0.625
 43
3.75
 44
1.25
 73
     0
 74
     0
 77
     1
 78
     8
140
2.5
141
2.5
143
0.0393700787
147
0.625
171
     3
172
     1
178
     0
271
     2
272
     2
274
     3
278
    44
283
     0
284
     8
340
11
  0
ENDTAB
  0
TABLE
  2
BLOCK_RECORD
  5
1
330
0
100
AcDbSymbolTable
 70
     2
  0
BLOCK_RECORD
  5
1F
330
1
100
AcDbSymbolTableRecord
100
AcDbBlockTableRecord
  2
*Model_Space
340
22
  0
BLOCK_RECORD
  5
1B
330
1
100
AcDbSymbolTableRecord
100
AcDbBlockTableRecord
  2
*Paper_Space
340
1E
  0
BLOCK_RECORD
  5
23
330
1
100
AcDbSymbolTableRecord
100
AcDbBlockTableRecord
  2
*Paper_Space0
340
26
  0
BLOCK_RECORD
  5
EA
330
1
100
AcDbSymbolTableRecord
100
AcDbBlockTableRecord
  2
SW_CENTERMARKSYMBOL_0
340
0
102
{BLKREFS
331
F5
102
}
  0
ENDTAB
  0
ENDSEC
  0
SECTION
  2
BLOCKS
  0
BLOCK
  5
20
330
1F
100
AcDbEntity
  8
0
100
AcDbBlockBegin
  2
*Model_Space
 70
     0
 10
0.0
 20
0.0
 30
0.0
  3
*Model_Space
  1

  0
ENDBLK
  5
21
330
1F
100
AcDbEntity
  8
0
100
AcDbBlockEnd
  0
BLOCK
  5
1C
330
1B
100
AcDbEntity
 67
     1
  8
0
100
AcDbBlockBegin
  2
*Paper_Space
 70
     0
 10
0.0
 20
0.0
 30
0.0
  3
*Paper_Space
  1

  0
ENDBLK
  5
1D
330
1B
100
AcDbEntity
 67
     1
  8
0
100
AcDbBlockEnd
  0
BLOCK
  5
24
330
23
100
AcDbEntity
  8
0
100
AcDbBlockBegin
  2
*Paper_Space0
 70
     0
 10
0.0
 20
0.0
 30
0.0
  3
*Paper_Space0
  1

  0
ENDBLK
  5
25
330
23
100
AcDbEntity
  8
0
100
AcDbBlockEnd
  0
BLOCK
  5
EB
330
EA
100
AcDbEntity
  8
0
100
AcDbBlockBegin
  2
SW_CENTERMARKSYMBOL_0
 70
     0
 10
0.0
 20
0.0
 30
0.0
  3
SW_CENTERMARKSYMBOL_0
  1

  0
LINE
  5
ED
330
EA
100
AcDbEntity
  8
0
  6
Continuous
 62
     0
370
    18
100
AcDbLine
 10
0.0
 20
0.0
 30
0.0
 11
0.0
 21
2.5
 31
0.0
  0
LINE
  5
EE
330
EA
100
AcDbEntity
  8
0
  6
Continuous
 62
     0
370
    18
100
AcDbLine
 10
0.0
 20
0.0
 30
0.0
 11
-2.5
 21
0.0
 31
0.0
  0
LINE
  5
EF
330
EA
100
AcDbEntity
  8
0
  6
Continuous
 62
     0
370
    18
100
AcDbLine
 10
0.0
 20
0.0
 30
0.0
 11
0.0
 21
-2.5
 31
0.0
  0
LINE
  5
F0
330
EA
100
AcDbEntity
  8
0
  6
Continuous
 62
     0
370
    18
100
AcDbLine
 10
0.0
 20
0.0
 30
0.0
 11
2.5
 21
0.0
 31
0.0
  0
LINE
  5
F1
330
EA
100
AcDbEntity
  8
0
  6
Continuous
 62
     0
370
    18
100
AcDbLine
 10
0.0
 20
5.0
 30
0.0
 11
0.0
 21
7.5053939394
 31
0.0
  0
LINE
  5
F2
330
EA
100
AcDbEntity
  8
0
  6
Continuous
 62
     0
370
    18
100
AcDbLine
 10
-5.0
 20
0.0
 30
0.0
 11
-7.5053939394
 21
0.0
 31
0.0
  0
LINE
  5
F3
330
EA
100
AcDbEntity
  8
0
  6
Continuous
 62
     0
370
    18
100
AcDbLine
 10
0.0
 20
-5.0
 30
0.0
 11
0.0
 21
-7.5053939394
 31
0.0
  0
LINE
  5
F4
330
EA
100
AcDbEntity
  8
0
  6
Continuous
 62
     0
370
    18
100
AcDbLine
 10
5.0
 20
0.0
 30
0.0
 11
7.5053939394
 21
0.0
 31
0.0
  0
ENDBLK
  5
EC
330
EA
100
AcDbEntity
  8
0
100
AcDbBlockEnd
  0
ENDSEC
  0
SECTION
  2
ENTITIES
  0
MTEXT
  5
74
330
1F
100
AcDbEntity
  8
0
  6
Continuous
 62
     7
370
     0
100
AcDbMText
 10
21.4352508671
 20
21.6475076893
 30
0.0
 40
1.4816666667
 41
0.0
 71
     1
 72
     1
  1
NP-7001
  7
SLDTEXTSTYLE0
 73
     1
 44
1.0
  0
LINE
  5
75
330
1F
100
AcDbEntity
  8
0
  6
Continuous
 62
     7
370
    25
100
AcDbLine
 10
16.6971503381
 20
6.0988987774
 30
0.0
 11
17.2025442775
 21
6.6042927168
 31
0.0
  0
LINE
  5
76
330
1F
100
AcDbEntity
  8
0
  6
Continuous
 62
     7
370
    25
100
AcDbLine
 10
17.2025442775
 20
15.6042927168
 30
0.0
 11
16.6971503381
 21
16.1096866562
 31
0.0
  0
LINE
  5
77
330
1F
100
AcDbEntity
  8
0
  6
Continuous
 62
     7
370
    25
100
AcDbLine
 10
16.6971503381
 20
16.1096866562
 30
0.0
 11
10.0152837245
 21
15.9008783245
 31
0.0
  0
LINE
  5
78
330
1F
100
AcDbEntity
  8
0
  6
Continuous
 62
     7
370
    25
100
AcDbLine
 10
10.0152837245
 20
6.307707109
 30
0.0
 11
16.6971503381
 21
6.0988987774
 31
0.0
  0
LINE
  5
79
330
1F
100
AcDbEntity
  8
0
  6
Continuous
 62
     7
370
    25
100
AcDbLine
 10
21.7274743077
 20
6.629222747
 30
0.0
 11
23.2025442775
 21
8.1042927168
 31
0.0
  0
LINE
  5
7A
330
1F
100
AcDbEntity
  8
0
  6
Continuous
 62
     7
370
    25
100
AcDbLine
 10
23.2025442775
 20
14.1042927168
 30
0.0
 11
21.7274743077
 21
15.5793626865
 31
0.0
  0
LINE
  5
7B
330
1F
100
AcDbEntity
  8
0
  6
Continuous
 62
     7
370
    25
100
AcDbLine
 10
10.0152837245
 20
15.9008783245
 30
0.0
 11
8.2025442775
 21
14.8542927168
 31
0.0
  0
LINE
  5
7C
330
1F
100
AcDbEntity
  8
0
  6
Continuous
 62
     7
370
    25
100
AcDbLine
 10
8.2025442775
 20
7.3542927168
 30
0.0
 11
10.0152837245
 21
6.307707109
 31
0.0
  0
LINE
  5
7D
330
1F
100
AcDbEntity
  8
0
  6
Continuous
 62
     7
370
    25
100
AcDbLine
 10
23.2037942775
 20
11.4888845419
 30
0.0
 11
23.2025442775
 21
11.4888845419
 31
0.0
  0
LINE
  5
7E
330
1F
100
AcDbEntity
  8
0
  6
Continuous
 62
     7
370
    25
100
AcDbLine
 10
23.2037942775
 20
11.0746769152
 30
0.0
 11
23.2025442775
 21
11.0746769152
 31
0.0
  0
LINE
  5
7F
330
1F
100
AcDbEntity
  8
0
  6
Continuous
 62
     7
370
    25
100
AcDbLine
 10
23.2025442775
 20
10.397651394
 30
0.0
 11
23.2037942775
 21
10.397651394
 31
0.0
  0
LINE
  5
80
330
1F
100
AcDbEntity
  8
0
  6
Continuous
 62
     7
370
    25
100
AcDbLine
 10
23.2037942775
 20
12.3736711273
 30
0.0
 11
23.2025442775
 21
12.3736711273
 31
0.0
  0
LINE
  5
81
330
1F
100
AcDbEntity
  8
0
  6
Continuous
 62
     7
370
    25
100
AcDbLine
 10
23.2025442775
 20
11.2926973095
 30
0.0
 11
23.2037942775
 21
11.2926973095
 31
0.0
  0
LINE
  5
82
330
1F
100
AcDbEntity
  8
0
  6
Continuous
 62
     7
370
    25
100
AcDbLine
 10
23.2037942775
 20
10.8356202559
 30
0.0
 11
23.2025442775
 21
10.8356202559
 31
0.0
  0
LINE
  5
83
330
1F
100
AcDbEntity
  8
0
  6
Continuous
 62
     7
370
    25
100
AcDbLine
 10
16.6971503381
 20
16.1096866562
 30
0.0
 11
16.6971503381
 21
6.0988987774
 31
0.0
  0
LINE
  5
84
330
1F
100
AcDbEntity
  8
0
  6
Continuous
 62
     7
370
    25
100
AcDbLine
 10
17.2025442775
 20
15.5791664509
 30
0.0
 11
17.2025442775
 21
11.5791664509
 31
0.0
  0
LINE
  5
85
330
1F
100
AcDbEntity
  8
0
  6
Continuous
 62
     7
370
    25
100
AcDbLine
 10
17.2025442775
 20
11.5790401851
 30
0.0
 11
17.2025442775
 21
11.5779750998
 31
0.0
  0
LINE
  5
86
330
1F
100
AcDbEntity
  8
0
  6
Continuous
 62
     7
370
    25
100
AcDbLine
 10
17.2025442775
 20
11.5779750998
 30
0.0
 11
17.2025442775
 21
10.6306103337
 31
0.0
  0
LINE
  5
87
330
1F
100
AcDbEntity
  8
0
  6
Continuous
 62
     7
370
    25
100
AcDbLine
 10
17.2025442775
 20
10.6306103337
 30
0.0
 11
17.2025442775
 21
10.6295452485
 31
0.0
  0
LINE
  5
88
330
1F
100
AcDbEntity
  8
0
  6
Continuous
 62
     7
370
    25
100
AcDbLine
 10
17.2025442775
 20
10.6294189826
 30
0.0
 11
17.2025442775
 21
6.6294189826
 31
0.0
  0
LINE
  5
89
330
1F
100
AcDbEntity
  8
0
  6
Continuous
 62
     7
370
    25
100
AcDbLine
 10
17.2025442775
 20
6.6292927168
 30
0.0
 11
17.2025442775
 21
6.6042927168
 31
0.0
  0
LINE
  5
8A
330
1F
100
AcDbEntity
  8
0
  6
Continuous
 62
     7
370
    25
100
AcDbLine
 10
17.2025442775
 20
15.6042927168
 30
0.0
 11
17.2025442775
 21
15.5792927168
 31
0.0
  0
LINE
  5
8B
330
1F
100
AcDbEntity
  8
0
  6
Continuous
 62
     7
370
    25
100
AcDbLine
 10
10.0152837245
 20
6.307707109
 30
0.0
 11
10.0152837245
 21
15.9008783245
 31
0.0
  0
SPLINE
  5
8C
330
1F
100
AcDbEntity
  8
0
  6
Continuous
 62
     7
370
    25
100
AcDbSpline
210
0.0
220
0.0
230
1.0
 70
    24
 71
     3
 72
     9
 73
     5
 74
     0
 42
0.000000001
 43
0.00000001
 40
0.0
 40
0.0
 40
0.0
 40
0.0
 40
0.994427697820072
 40
1.0
 40
1.0
 40
1.0
 40
1.0
 10
21.70243203900472
 20
6.629292716763015
 30
0.0
 10
21.71908030301666
 20
6.629292716764031
 30
0.0
 10
21.73582185602091
 20
6.629292716765052
 30
0.0
 10
21.72745098299282
 20
6.629292716762992
 30
0.0
 10
21.7274043379588
 20
6.62929271676298
 30
0.0
  0
SPLINE
  5
8D
330
1F
100
AcDbEntity
  8
0
  6
Continuous
 62
     7
370
    25
100
AcDbSpline
210
0.0
220
0.0
230
1.0
 70
     8
 71
     3
 72
    20
 73
    16
 74
     0
 42
0.000000001
 43
0.00000001
 40
0.0
 40
0.0
 40
0.0
 40
0.0
 40
0.2499999999999997
 40
0.2499999999999997
 40
0.3749999999999997
 40
0.3749999999999997
 40
0.4999999999999998
 40
0.4999999999999998
 40
0.6249999999999998
 40
0.6249999999999998
 40
0.7499999999999999
 40
0.7499999999999999
 40
0.8749999999999999
 40
0.8749999999999999
 40
1.0
 40
1.0
 40
1.0
 40
1.0
 10
21.70243203899945
 20
10.62954524846311
 30
0.0
 10
21.96950539391726
 20
10.32909919824368
 30
0.0
 10
22.21132360865493
 20
10.01948693803026
 30
0.0
 10
22.48731902587068
 20
9.52358969438619
 30
0.0
 10
22.56493468823318
 20
9.351114829236119
 30
0.0
 10
22.67237361073208
 20
8.997923529845703
 30
0.0
 10
22.70124765629607
 20
8.820352813738994
 30
0.0
 10
22.70375474071029
 20
8.463043430267847
 30
0.0
 10
22.67652016969567
 20
8.281176058253436
 30
0.0
 10
22.57288519484382
 20
7.927947202632043
 30
0.0
 10
22.4976522041587
 20
7.756470998782969
 30
0.0
 10
22.31367326179613
 20
7.420872569228684
 30
0.0
 10
22.20454529635148
 20
7.256317867277523
 30
0.0
 10
21.9668837984988
 20
6.937136915999684
 30
0.0
 10
21.8379998124362
 20
6.781800637581769
 30
0.0
 10
21.70243203900472
 20
6.629292716763009
 30
0.0
  0
SPLINE
  5
8E
330
1F
100
AcDbEntity
  8
0
  6
Continuous
 62
     7
370
    25
100
AcDbSpline
210
0.0
220
0.0
230
1.0
 70
     8
 71
     3
 72
     8
 73
     4
 74
     0
 42
0.000000001
 43
0.00000001
 40
0.0
 40
0.0
 40
0.0
 40
0.0
 40
1.0
 40
1.0
 40
1.0
 40
1.0
 10
21.70243203900532
 20
10.62954524846283
 30
0.0
 10
21.73565767196221
 20
10.94448969257952
 30
0.0
 10
21.73598715379529
 20
11.26097259586155
 30
0.0
 10
21.70243203900292
 20
11.57904018508591
 30
0.0
  0
SPLINE
  5
8F
330
1F
100
AcDbEntity
  8
0
  6
Continuous
 62
     7
370
    25
100
AcDbSpline
210
0.0
220
0.0
230
1.0
 70
     8
 71
     3
 72
    20
 73
    16
 74
     0
 42
0.000000001
 43
0.00000001
 40
0.0
 40
0.0
 40
0.0
 40
0.0
 40
0.2500000000000002
 40
0.2500000000000002
 40
0.3750000000000001
 40
0.3750000000000001
 40
0.5
 40
0.5
 40
0.625
 40
0.625
 40
0.7499999999999999
 40
0.7499999999999999
 40
0.8749999999999999
 40
0.8749999999999999
 40
1.0
 40
1.0
 40
1.0
 40
1.0
 10
21.7024320390096
 20
15.57929271675752
 30
0.0
 10
21.96950539392545
 20
15.27884666653925
 30
0.0
 10
22.21132360866115
 20
14.969234406327
 30
0.0
 10
22.48731902587415
 20
14.47333716268473
 30
0.0
 10
22.56493468823579
 20
14.30086229753521
 30
0.0
 10
22.67237361073308
 20
13.94767099814641
 30
0.0
 10
22.70124765629645
 20
13.77010028204052
 30
0.0
 10
22.70375474070996
 20
13.41279089857102
 30
0.0
 10
22.67652016969524
 20
13.23092352655747
 30
0.0
 10
22.5728851948437
 20
12.87769467093778
 30
0.0
 10
22.49765220415898
 20
12.70621846708951
 30
0.0
 10
22.31367326179747
 20
12.37062003753676
 30
0.0
 10
22.20454529635348
 20
12.20606533558633
 30
0.0
 10
21.96688379850224
 20
11.88688438430986
 30
0.0
 10
21.83799981244041
 20
11.7315481058926
 30
0.0
 10
21.70243203900974
 20
11.57904018507449
 30
0.0
  0
LINE
  5
90
330
1F
100
AcDbEntity
  8
0
  6
Continuous
 62
     7
370
    25
100
AcDbLine
 10
21.727404338
 20
15.5792927168
 30
0.0
 11
21.702432039
 21
15.5792927168
 31
0.0
  0
LINE
  5
91
330
1F
100
AcDbEntity
  8
0
  6
Continuous
 62
     7
370
    25
100
AcDbLine
 10
23.2025442775
 20
14.1042927168
 30
0.0
 11
23.2025442775
 21
8.1042927168
 31
0.0
  0
LINE
  5
92
330
1F
100
AcDbEntity
  8
0
  6
Continuous
 62
     7
370
    25
100
AcDbLine
 10
17.2025442775
 20
10.6295452485
 30
0.0
 11
21.702432039
 21
10.6295452485
 31
0.0
  0
LINE
  5
93
330
1F
100
AcDbEntity
  8
0
  6
Continuous
 62
     7
370
    25
100
AcDbLine
 10
21.702432039
 20
6.6292927168
 30
0.0
 11
17.2025442775
 21
6.6292927168
 31
0.0
  0
LINE
  5
94
330
1F
100
AcDbEntity
  8
0
  6
Continuous
 62
     7
370
    25
100
AcDbLine
 10
17.2025442775
 20
15.5792927168
 30
0.0
 11
21.702432039
 21
15.5792927168
 31
0.0
  0
LINE
  5
95
330
1F
100
AcDbEntity
  8
0
  6
Continuous
 62
     7
370
    25
100
AcDbLine
 10
21.702432039
 20
11.5790401851
 30
0.0
 11
17.2025442775
 21
11.5790401851
 31
0.0
  0
LINE
  5
96
330
1F
100
AcDbEntity
  8
0
  6
Continuous
 62
     7
370
    25
100
AcDbLine
 10
8.2025442775
 20
7.3542927168
 30
0.0
 11
8.2025442775
 21
14.8542927168
 31
0.0
  0
LINE
  5
97
330
1F
100
AcDbEntity
  8
0
  6
Continuous
 62
     7
370
    18
100
AcDbLine
 10
9.1010200718
 20
15.3730279585
 30
0.0
 11
16.6970603381
 21
15.6104042168
 31
0.0
  0
LINE
  5
98
330
1F
100
AcDbEntity
  8
0
  6
Continuous
 62
     7
370
    18
100
AcDbLine
 10
9.1010200718
 20
6.835557475
 30
0.0
 11
16.6970603381
 21
6.5981812167
 31
0.0
  0
LINE
  5
99
330
1F
100
AcDbEntity
  8
0
  6
Continuous
 62
     7
370
    18
100
AcDbLine
 10
16.6970603381
 20
6.0989015899
 30
0.0
 11
16.6970603381
 21
16.1096838437
 31
0.0
  0
LINE
  5
9A
330
1F
100
AcDbEntity
  8
0
  6
CENTERX2
 62
     7
370
    18
100
AcDbLine
 10
7.4658968786
 20
11.1042927168
 30
0.0
 11
24.0709780347
 21
11.1042927168
 31
0.0
  0
SPLINE
  5
9B
330
1F
100
AcDbEntity
  8
0
  6
Continuous
 62
     7
370
    25
100
AcDbSpline
210
0.0
220
0.0
230
1.0
 70
     8
 71
     3
 72
    23
 73
    19
 74
     0
 42
0.000000001
 43
0.00000001
 40
0.0
 40
0.0
 40
0.0
 40
0.0
 40
0.0714340508655356
 40
0.1375891490131985
 40
0.1988671272749591
 40
0.2554435599219263
 40
0.3076933861665007
 40
0.3550325418254515
 40
0.3974487289008684
 40
0.4361373033546202
 40
0.5081119058244425
 40
0.5772270526050617
 40
0.6463348841943414
 40
0.7166178483288135
 40
0.7873525362986343
 40
0.8567329452643678
 40
0.9275818981340932
 40
1.0
 40
1.0
 40
1.0
 40
1.0
 10
34.36643727157114
 20
10.31582278135548
 30
0.0
 10
34.37512746852227
 20
10.32456489916596
 30
0.0
 10
34.39186565974583
 20
10.34140309517392
 30
0.0
 10
34.41482928903667
 20
10.36689847909721
 30
0.0
 10
34.43620145138642
 20
10.39039119519574
 30
0.0
 10
34.45436632930885
 20
10.41345405089204
 30
0.0
 10
34.47077865724914
 20
10.4348359307839
 30
0.0
 10
34.48419967325417
 20
10.45534778030013
 30
0.0
 10
34.4956253108617
 20
10.47435567526974
 30
0.0
 10
34.5070831452752
 20
10.49818433573123
 30
0.0
 10
34.51743213736692
 20
10.5275443360726
 30
0.0
 10
34.52427058386956
 20
10.56331120211277
 30
0.0
 10
34.52512577983647
 20
10.59943269397316
 30
0.0
 10
34.5202762431701
 20
10.6355099145664
 30
0.0
 10
34.50998650231396
 20
10.67044155789805
 30
0.0
 10
34.49521083301882
 20
10.70383474644033
 30
0.0
 10
34.47491783999387
 20
10.73464604373212
 30
0.0
 10
34.45814746957092
 20
10.75284007294934
 30
0.0
 10
34.44967044464807
 20
10.76203672366318
 30
0.0
  0
LINE
  5
9C
330
1F
100
AcDbEntity
  8
0
  6
Continuous
 62
     7
370
    25
100
AcDbLine
 10
34.1864492908
 20
10.1406424929
 30
0.0
 11
34.3664372716
 21
10.3158227814
 31
0.0
  0
LINE
  5
9D
330
1F
100
AcDbEntity
  8
0
  6
Continuous
 62
     7
370
    25
100
AcDbLine
 10
33.8297786177
 20
10.497313166
 30
0.0
 11
34.1864492908
 21
10.1406424929
 31
0.0
  0
LINE
  5
9E
330
1F
100
AcDbEntity
  8
0
  6
Continuous
 62
     7
370
    25
100
AcDbLine
 10
34.0151752523
 20
10.6827098006
 30
0.0
 11
33.8297786177
 21
10.497313166
 31
0.0
  0
SPLINE
  5
9F
330
1F
100
AcDbEntity
  8
0
  6
Continuous
 62
     7
370
    25
100
AcDbSpline
210
0.0
220
0.0
230
1.0
 70
     8
 71
     3
 72
    23
 73
    19
 74
     0
 42
0.000000001
 43
0.00000001
 40
0.0
 40
0.0
 40
0.0
 40
0.0
 40
0.0726813284379039
 40
0.1434600890843438
 40
0.2141609783754209
 40
0.2866317423066645
 40
0.3582937434852108
 40
0.42744962705179
 40
0.4958614884323621
 40
0.5652405595167557
 40
0.6025654069960295
 40
0.6444912751488164
 40
0.6912842453022057
 40
0.7427916792484175
 40
0.7995856524042377
 40
0.8612748596826222
 40
0.928333039685004
 40
1.0
 40
1.0
 40
1.0
 40
1.0
 10
34.44967044464807
 20
10.76203672366318
 30
0.0
 10
34.44069604206238
 20
10.77035283041069
 30
0.0
 10
34.4229821584269
 20
10.78676735447725
 30
0.0
 10
34.3923449263318
 20
10.80597963152229
 30
0.0
 10
34.3595888823759
 20
10.82106025980774
 30
0.0
 10
34.32464462990254
 20
10.8306282643002
 30
0.0
 10
34.2891139816937
 20
10.83591944501519
 30
0.0
 10
34.253779000845
 20
10.83578539679526
 30
0.0
 10
34.21944646858066
 20
10.82951047201881
 30
0.0
 10
34.19140381422695
 20
10.8200950380689
 30
0.0
 10
34.1691809428282
 20
10.80865600561939
 30
0.0
 10
34.15072207186642
 20
10.79824979136154
 30
0.0
 10
34.13130918647538
 20
10.78485568533741
 30
0.0
 10
34.11053715181266
 20
10.76912051353797
 30
0.0
 10
34.08835233690814
 20
10.75112376131594
 30
0.0
 10
34.06483545425557
 20
10.73064837573774
 30
0.0
 10
34.04038313550417
 20
10.70748980044355
 30
0.0
 10
34.02376194526703
 20
10.69115074138698
 30
0.0
 10
34.01517525234038
 20
10.68270980058625
 30
0.0
  0
SPLINE
  5
A0
330
1F
100
AcDbEntity
  8
0
  6
Continuous
 62
     7
370
    25
100
AcDbSpline
210
0.0
220
0.0
230
1.0
 70
    24
 71
     3
 72
     8
 73
     4
 74
     0
 42
0.000000001
 43
0.00000001
 40
0.0
 40
0.0
 40
0.0
 40
0.0
 40
1.0
 40
1.0
 40
1.0
 40
1.0
 10
34.8250614567395
 20
6.629292716763015
 30
0.0
 10
34.51011701262845
 20
6.629292716763015
 30
0.0
 10
34.1936341093521
 20
6.629292716763015
 30
0.0
 10
33.87556652013349
 20
6.629292716763015
 30
0.0
  0
SPLINE
  5
A1
330
1F
100
AcDbEntity
  8
0
  6
Continuous
 62
     7
370
    25
100
AcDbSpline
210
0.0
220
0.0
230
1.0
 70
    24
 71
     3
 72
    20
 73
    16
 74
     0
 42
0.000000001
 43
0.00000001
 40
0.0
 40
0.0
 40
0.0
 40
0.0
 40
0.2499999999999997
 40
0.2499999999999997
 40
0.3749999999999997
 40
0.3749999999999997
 40
0.4999999999999998
 40
0.4999999999999998
 40
0.6249999999999998
 40
0.6249999999999998
 40
0.7499999999999999
 40
0.7499999999999999
 40
0.8749999999999999
 40
0.8749999999999999
 40
1.0
 40
1.0
 40
1.0
 40
1.0
 10
29.87531398843338
 20
10.62954524846311
 30
0.0
 10
30.17576003865281
 20
10.32909919824368
 30
0.0
 10
30.48537229886622
 20
10.01948693803026
 30
0.0
 10
30.98126954251029
 20
9.52358969438619
 30
0.0
 10
31.15374440766037
 20
9.351114829236119
 30
0.0
 10
31.50693570705078
 20
8.997923529845703
 30
0.0
 10
31.68450642315749
 20
8.820352813738994
 30
0.0
 10
32.04181580662863
 20
8.463043430267847
 30
0.0
 10
32.22368317864305
 20
8.281176058253436
 30
0.0
 10
32.57691203426445
 20
7.927947202632043
 30
0.0
 10
32.74838823811352
 20
7.756470998782969
 30
0.0
 10
33.08398666766779
 20
7.420872569228684
 30
0.0
 10
33.24854136961896
 20
7.256317867277523
 30
0.0
 10
33.56772232089681
 20
6.937136915999684
 30
0.0
 10
33.72305859931471
 20
6.781800637581769
 30
0.0
 10
33.87556652013348
 20
6.629292716763009
 30
0.0
  0
SPLINE
  5
A2
330
1F
100
AcDbEntity
  8
0
  6
Continuous
 62
     7
370
    25
100
AcDbSpline
210
0.0
220
0.0
230
1.0
 70
    24
 71
     3
 72
     8
 73
     4
 74
     0
 42
0.000000001
 43
0.00000001
 40
0.0
 40
0.0
 40
0.0
 40
0.0
 40
1.0
 40
1.0
 40
1.0
 40
1.0
 10
29.8753139884393
 20
10.62954524846283
 30
0.0
 10
29.8753139884393
 20
10.94448969257952
 30
0.0
 10
29.8753139884393
 20
11.26097259586155
 30
0.0
 10
29.8753139884393
 20
11.57904018508591
 30
0.0
  0
SPLINE
  5
A3
330
1F
100
AcDbEntity
  8
0
  6
Continuous
 62
     7
370
    25
100
AcDbSpline
210
0.0
220
0.0
230
1.0
 70
    24
 71
     3
 72
    20
 73
    16
 74
     0
 42
0.000000001
 43
0.00000001
 40
0.0
 40
0.0
 40
0.0
 40
0.0
 40
0.2500000000000002
 40
0.2500000000000002
 40
0.3750000000000001
 40
0.3750000000000001
 40
0.5
 40
0.5
 40
0.625
 40
0.625
 40
0.7499999999999999
 40
0.7499999999999999
 40
0.8749999999999999
 40
0.8749999999999999
 40
1.0
 40
1.0
 40
1.0
 40
1.0
 10
33.87556652012798
 20
15.57929271675752
 30
0.0
 10
33.57512046990971
 20
15.27884666653925
 30
0.0
 10
33.26550820969745
 20
14.969234406327
 30
0.0
 10
32.76961096605519
 20
14.47333716268473
 30
0.0
 10
32.59713610090566
 20
14.30086229753521
 30
0.0
 10
32.24394480151687
 20
13.94767099814641
 30
0.0
 10
32.06637408541098
 20
13.77010028204052
 30
0.0
 10
31.70906470194148
 20
13.41279089857102
 30
0.0
 10
31.52719732992793
 20
13.23092352655747
 30
0.0
 10
31.17396847430823
 20
12.87769467093778
 30
0.0
 10
31.00249227045996
 20
12.70621846708951
 30
0.0
 10
30.66689384090722
 20
12.37062003753676
 30
0.0
 10
30.50233913895678
 20
12.20606533558633
 30
0.0
 10
30.18315818768031
 20
11.88688438430986
 30
0.0
 10
30.02782190926306
 20
11.7315481058926
 30
0.0
 10
29.87531398844495
 20
11.57904018507449
 30
0.0
  0
SPLINE
  5
A4
330
1F
100
AcDbEntity
  8
0
  6
Continuous
 62
     7
370
    25
100
AcDbSpline
210
0.0
220
0.0
230
1.0
 70
    24
 71
     3
 72
     8
 73
     4
 74
     0
 42
0.000000001
 43
0.00000001
 40
0.0
 40
0.0
 40
0.0
 40
0.0
 40
1.0
 40
1.0
 40
1.0
 40
1.0
 10
34.82506145672689
 20
15.57929271676302
 30
0.0
 10
34.5101170126181
 20
15.57929271676302
 30
0.0
 10
34.19363410934403
 20
15.57929271676302
 30
0.0
 10
33.87556652012773
 20
15.57929271676302
 30
0.0
  0
SPLINE
  5
A5
330
1F
100
AcDbEntity
  8
0
  6
Continuous
 62
     7
370
    25
100
AcDbSpline
210
0.0
220
0.0
230
1.0
 70
    24
 71
     3
 72
    20
 73
    16
 74
     0
 42
0.000000001
 43
0.00000001
 40
0.0
 40
0.0
 40
0.0
 40
0.0
 40
0.2500000000000001
 40
0.2500000000000001
 40
0.3750000000000001
 40
0.3750000000000001
 40
0.5000000000000001
 40
0.5000000000000001
 40
0.6250000000000001
 40
0.6250000000000001
 40
0.7500000000000002
 40
0.7500000000000002
 40
0.8750000000000002
 40
0.8750000000000002
 40
1.0
 40
1.0
 40
1.0
 40
1.0
 10
38.82531398843401
 20
11.57904018507413
 30
0.0
 10
38.52486793821477
 20
11.87948623529338
 30
0.0
 10
38.21525567800149
 20
12.18909849550666
 30
0.0
 10
37.71935843435742
 20
12.68499573915073
 30
0.0
 10
37.54688356920716
 20
12.85747060430099
 30
0.0
 10
37.19369226981718
 20
13.21066190369097
 30
0.0
 10
37.01612155371069
 20
13.38823261979745
 30
0.0
 10
36.65881217023998
 20
13.74554200326816
 30
0.0
 10
36.47694479822581
 20
13.92740937528234
 30
0.0
 10
36.12371594260529
 20
14.28063823090286
 30
0.0
 10
35.95223973875662
 20
14.45211443475153
 30
0.0
 10
35.61664130920306
 20
14.78771286430509
 30
0.0
 10
35.45208660725227
 20
14.95226756625588
 30
0.0
 10
35.13290565597515
 20
15.271448517533
 30
0.0
 10
34.97756937755756
 20
15.42678479595059
 30
0.0
 10
34.8250614567391
 20
15.57929271676905
 30
0.0
  0
SPLINE
  5
A6
330
1F
100
AcDbEntity
  8
0
  6
Continuous
 62
     7
370
    25
100
AcDbSpline
210
0.0
220
0.0
230
1.0
 70
    24
 71
     3
 72
     8
 73
     4
 74
     0
 42
0.000000001
 43
0.00000001
 40
0.0
 40
0.0
 40
0.0
 40
0.0
 40
1.0
 40
1.0
 40
1.0
 40
1.0
 10
38.82531398843931
 20
10.62954524847541
 30
0.0
 10
38.82531398843931
 20
10.94448969258414
 30
0.0
 10
38.82531398843931
 20
11.26097259585814
 30
0.0
 10
38.82531398843931
 20
11.57904018507438
 30
0.0
  0
SPLINE
  5
A7
330
1F
100
AcDbEntity
  8
0
  6
Continuous
 62
     7
370
    25
100
AcDbSpline
210
0.0
220
0.0
230
1.0
 70
    24
 71
     3
 72
    20
 73
    16
 74
     0
 42
0.000000001
 43
0.00000001
 40
0.0
 40
0.0
 40
0.0
 40
0.0
 40
0.2500000000000001
 40
0.2500000000000001
 40
0.3750000000000001
 40
0.3750000000000001
 40
0.5000000000000001
 40
0.5000000000000001
 40
0.6250000000000001
 40
0.6250000000000001
 40
0.75
 40
0.75
 40
0.875
 40
0.875
 40
1.0
 40
1.0
 40
1.0
 40
1.0
 10
34.82506145673923
 20
6.629292716757104
 30
0.0
 10
35.12550750695915
 20
6.929738766977033
 30
0.0
 10
35.43511976717308
 20
7.239351027190965
 30
0.0
 10
35.93101701081808
 20
7.735248270835962
 30
0.0
 10
36.10349187596853
 20
7.907723135986407
 30
0.0
 10
36.45668317535954
 20
8.26091443537742
 30
0.0
 10
36.63425389146656
 20
8.438485151484434
 30
0.0
 10
36.99156327493831
 20
8.795794534956197
 30
0.0
 10
37.17343064695305
 20
8.977661906970926
 30
0.0
 10
37.52665950257485
 20
9.330890762592729
 30
0.0
 10
37.69813570642413
 20
9.502366966442006
 30
0.0
 10
38.03373413597881
 20
9.837965395996692
 30
0.0
 10
38.19828883793016
 20
10.00252009794803
 30
0.0
 10
38.51746978920831
 20
10.3217010492262
 30
0.0
 10
38.6728060676264
 20
10.47703732764428
 30
0.0
 10
38.82531398844534
 20
10.62954524846321
 30
0.0
  0
CIRCLE
  5
A8
330
1F
100
AcDbEntity
  8
0
  6
Continuous
 62
     7
370
    25
100
AcDbCircle
 10
34.3503139884
 20
11.1042927168
 30
0.0
 40
3.0
  0
LINE
  5
A9
330
1F
100
AcDbEntity
  8
0
  6
Continuous
 62
     7
370
    25
100
AcDbLine
 10
35.1062185961
 20
12.3128575663
 30
0.0
 11
34.8622282114
 21
12.5568479509
 31
0.0
  0
LINE
  5
AA
330
1F
100
AcDbEntity
  8
0
  6
Continuous
 62
     7
370
    25
100
AcDbLine
 10
35.2110863845
 20
12.4177253547
 30
0.0
 11
35.1062185961
 21
12.3128575663
 31
0.0
  0
LINE
  5
AB
330
1F
100
AcDbEntity
  8
0
  6
Continuous
 62
     7
370
    25
100
AcDbLine
 10
34.9670959999
 20
12.6617157393
 30
0.0
 11
35.2110863845
 21
12.4177253547
 31
0.0
  0
LINE
  5
AC
330
1F
100
AcDbEntity
  8
0
  6
Continuous
 62
     7
370
    25
100
AcDbLine
 10
35.0941993653
 20
12.7888191047
 30
0.0
 11
34.9670959999
 21
12.6617157393
 31
0.0
  0
LINE
  5
AD
330
1F
100
AcDbEntity
  8
0
  6
Continuous
 62
     7
370
    25
100
AcDbLine
 10
34.9935383076
 20
12.8894801624
 30
0.0
 11
35.0941993653
 21
12.7888191047
 31
0.0
  0
LINE
  5
AE
330
1F
100
AcDbEntity
  8
0
  6
Continuous
 62
     7
370
    25
100
AcDbLine
 10
34.8664349422
 20
12.762376797
 30
0.0
 11
34.9935383076
 21
12.8894801624
 31
0.0
  0
LINE
  5
AF
330
1F
100
AcDbEntity
  8
0
  6
Continuous
 62
     7
370
    25
100
AcDbLine
 10
34.1347642691
 20
13.4940474701
 30
0.0
 11
34.8664349422
 21
12.762376797
 31
0.0
  0
LINE
  5
B0
330
1F
100
AcDbEntity
  8
0
  6
Continuous
 62
     7
370
    25
100
AcDbLine
 10
34.1134301345
 20
13.4727133355
 30
0.0
 11
34.1347642691
 21
13.4940474701
 31
0.0
  0
LINE
  5
B1
330
1F
100
AcDbEntity
  8
0
  6
Continuous
 62
     7
370
    25
100
AcDbLine
 10
34.3607258076
 20
12.055345547
 30
0.0
 11
34.1134301345
 21
13.4727133355
 31
0.0
  0
LINE
  5
B2
330
1F
100
AcDbEntity
  8
0
  6
Continuous
 62
     7
370
    25
100
AcDbLine
 10
34.8622282114
 20
12.5568479509
 30
0.0
 11
34.3607258076
 21
12.055345547
 31
0.0
  0
LINE
  5
B3
330
1F
100
AcDbEntity
  8
0
  6
Continuous
 62
     7
370
    25
100
AcDbLine
 10
35.7957278774
 20
10.5901797376
 30
0.0
 11
35.6887567235
 21
10.4832085838
 31
0.0
  0
LINE
  5
B4
330
1F
100
AcDbEntity
  8
0
  6
Continuous
 62
     7
370
    25
100
AcDbLine
 10
34.8480115312
 20
11.5378960838
 30
0.0
 11
35.7957278774
 21
10.5901797376
 31
0.0
  0
LINE
  5
B5
330
1F
100
AcDbEntity
  8
0
  6
Continuous
 62
     7
370
    25
100
AcDbLine
 10
35.0820860505
 20
11.771970603
 30
0.0
 11
34.8480115312
 21
11.5378960838
 31
0.0
  0
LINE
  5
B6
330
1F
100
AcDbEntity
  8
0
  6
Continuous
 62
     7
370
    25
100
AcDbLine
 10
34.9799225889
 20
11.8741340645
 30
0.0
 11
35.0820860505
 21
11.771970603
 31
0.0
  0
LINE
  5
B7
330
1F
100
AcDbEntity
  8
0
  6
Continuous
 62
     7
370
    25
100
AcDbLine
 10
34.4039009543
 20
11.2981124299
 30
0.0
 11
34.9799225889
 21
11.8741340645
 31
0.0
  0
LINE
  5
B8
330
1F
100
AcDbEntity
  8
0
  6
Continuous
 62
     7
370
    25
100
AcDbLine
 10
34.5060644158
 20
11.1959489684
 30
0.0
 11
34.4039009543
 21
11.2981124299
 31
0.0
  0
LINE
  5
B9
330
1F
100
AcDbEntity
  8
0
  6
Continuous
 62
     7
370
    25
100
AcDbLine
 10
34.7410403774
 20
11.4309249299
 30
0.0
 11
34.5060644158
 21
11.1959489684
 31
0.0
  0
LINE
  5
BA
330
1F
100
AcDbEntity
  8
0
  6
Continuous
 62
     7
370
    25
100
AcDbLine
 10
35.6887567235
 20
10.4832085838
 30
0.0
 11
34.7410403774
 21
11.4309249299
 31
0.0
  0
LINE
  5
BB
330
1F
100
AcDbEntity
  8
0
  6
Continuous
 62
     7
370
    25
100
AcDbLine
 10
34.2892137139
 20
10.0378780698
 30
0.0
 11
34.7774949639
 21
9.5495968198
 31
0.0
  0
LINE
  5
BC
330
1F
100
AcDbEntity
  8
0
  6
Continuous
 62
     7
370
    25
100
AcDbLine
 10
34.3640334254
 20
10.1126977814
 30
0.0
 11
34.2892137139
 21
10.0378780698
 31
0.0
  0
SPLINE
  5
BD
330
1F
100
AcDbEntity
  8
0
  6
Continuous
 62
     7
370
    25
100
AcDbSpline
210
0.0
220
0.0
230
1.0
 70
     8
 71
     3
 72
    15
 73
    11
 74
     0
 42
0.000000001
 43
0.00000001
 40
0.0
 40
0.0
 40
0.0
 40
0.0
 40
0.0753901858551262
 40
0.1649443888154755
 40
0.2680434861778919
 40
0.3855477860922087
 40
0.5179661541666718
 40
0.6643098712270732
 40
0.8251607063646664
 40
1.0
 40
1.0
 40
1.0
 40
1.0
 10
34.6140334254173
 20
10.39695258904779
 30
0.0
 10
34.60878846503334
 20
10.38899659882607
 30
0.0
 10
34.59731314135452
 20
10.37158987765065
 30
0.0
 10
34.57718248612099
 20
10.34431418806355
 30
0.0
 10
34.55222001795962
 20
10.31408192790625
 30
0.0
 10
34.52349204284212
 20
10.27993706274162
 30
0.0
 10
34.4896988216685
 20
10.24296082729284
 30
0.0
 10
34.45185924035727
 20
10.20227626816744
 30
0.0
 10
34.40945419996797
 20
10.15852735991941
 30
0.0
 10
34.3795885252612
 20
10.1283928829344
 30
0.0
 10
34.3640334254173
 20
10.11269778135548
 30
0.0
  0
SPLINE
  5
BE
330
1F
100
AcDbEntity
  8
0
  6
Continuous
 62
     7
370
    25
100
AcDbSpline
210
0.0
220
0.0
230
1.0
 70
     8
 71
     3
 72
    23
 73
    19
 74
     0
 42
0.000000001
 43
0.00000001
 40
0.0
 40
0.0
 40
0.0
 40
0.0
 40
0.0695844114809412
 40
0.1366237229743221
 40
0.2019334138781217
 40
0.2643611311562475
 40
0.3254530953890702
 40
0.3856538430923491
 40
0.4452848548136245
 40
0.50492709013969
 40
0.5646141987799761
 40
0.6236473059504292
 40
0.6836364314990075
 40
0.7438816365130284
 40
0.8048337486793982
 40
0.8682164437659133
 40
0.9329082916196967
 40
1.0
 40
1.0
 40
1.0
 40
1.0
 10
34.55814400234038
 20
10.87051028135548
 30
0.0
 10
34.56648574832008
 20
10.86181163302388
 30
0.0
 10
34.58286413490979
 20
10.84473249569104
 30
0.0
 10
34.60487350397538
 20
10.8175155669152
 30
0.0
 10
34.62413257781813
 20
10.78978486135951
 30
0.0
 10
34.6401556395758
 20
10.76123517231302
 30
0.0
 10
34.65344972420577
 20
10.73230257008408
 30
0.0
 10
34.66408199366708
 20
10.70278982403121
 30
0.0
 10
34.67164575845274
 20
10.67259163276493
 30
0.0
 10
34.67606332386796
 20
10.641879182788
 30
0.0
 10
34.67789190432568
 20
10.61101524399818
 30
0.0
 10
34.67696227581299
 20
10.58004852844092
 30
0.0
 10
34.67337360205661
 20
10.54917901708807
 30
0.0
 10
34.66701593077613
 20
10.51842233031038
 30
0.0
 10
34.65793090818939
 20
10.48773658045052
 30
0.0
 10
34.64579668232577
 20
10.45731167145961
 30
0.0
 10
34.63142157065106
 20
10.42669072173681
 30
0.0
 10
34.61989941569799
 20
10.40698491825683
 30
0.0
 10
34.6140334254173
 20
10.39695258904779
 30
0.0
  0
SPLINE
  5
BF
330
1F
100
AcDbEntity
  8
0
  6
Continuous
 62
     7
370
    25
100
AcDbSpline
210
0.0
220
0.0
230
1.0
 70
     8
 71
     3
 72
    23
 73
    19
 74
     0
 42
0.000000001
 43
0.00000001
 40
0.0
 40
0.0
 40
0.0
 40
0.0
 40
0.0631120667195007
 40
0.1246204889042282
 40
0.1854063864272504
 40
0.2452855145665087
 40
0.3045096995741357
 40
0.3641375552122477
 40
0.4246759440160569
 40
0.4858777714932492
 40
0.5476102484119828
 40
0.6086002211440633
 40
0.6704667414166822
 40
0.7330433104550824
 40
0.7964418486351543
 40
0.8616201805525383
 40
0.9293334730091428
 40
1.0
 40
1.0
 40
1.0
 40
1.0
 10
34.09029544464806
 20
10.93030595443241
 30
0.0
 10
34.09963563357676
 20
10.93565535883604
 30
0.0
 10
34.11807868212918
 20
10.94621824208134
 30
0.0
 10
34.14682067325748
 20
10.95947837932899
 30
0.0
 10
34.17596617504264
 20
10.9702816771185
 30
0.0
 10
34.20546115662519
 20
10.97879919480464
 30
0.0
 10
34.23542835321379
 20
10.98460605681819
 30
0.0
 10
34.26591326416705
 20
10.98738935739879
 30
0.0
 10
34.29684263581711
 20
10.98849674724328
 30
0.0
 10
34.32810797609297
 20
10.9866036178282
 30
0.0
 10
34.35919785072691
 20
10.98220844441305
 30
0.0
 10
34.38981975167975
 20
10.97481015652049
 30
0.0
 10
34.41996893821055
 20
10.96512018578858
 30
0.0
 10
34.44909817176761
 20
10.95166116175636
 30
0.0
 10
34.47750059079844
 20
10.93562525734249
 30
0.0
 10
34.50527260447492
 20
10.91689518266945
 30
0.0
 10
34.53244585299092
 20
10.89522540537678
 30
0.0
 10
34.54945693846406
 20
10.87886504099846
 30
0.0
 10
34.55814400234038
 20
10.87051028135548
 30
0.0
  0
SPLINE
  5
C0
330
1F
100
AcDbEntity
  8
0
  6
Continuous
 62
     7
370
    25
100
AcDbSpline
210
0.0
220
0.0
230
1.0
 70
     8
 71
     3
 72
    15
 73
    11
 74
     0
 42
0.000000001
 43
0.00000001
 40
0.0
 40
0.0
 40
0.0
 40
0.0
 40
0.1771214341944272
 40
0.338855584180858
 40
0.485818835850185
 40
0.6186783670831186
 40
0.7356853745542107
 40
0.8381870473681521
 40
0.9261641814985228
 40
0.9999999999999999
 40
0.9999999999999999
 40
0.9999999999999999
 40
0.9999999999999999
 10
33.83188198310961
 20
10.70374345443241
 30
0.0
 10
33.84623601902366
 20
10.71813708930328
 30
0.0
 10
33.87369709535884
 20
10.7456739234241
 30
0.0
 10
33.91415503277541
 20
10.78404034455156
 30
0.0
 10
33.95108595138127
 20
10.81873880576802
 30
0.0
 10
33.98483748049519
 20
10.84931546533973
 30
0.0
 10
34.0155222649608
 20
10.87567382901498
 30
0.0
 10
34.0432487634405
 20
10.89749663797094
 30
0.0
 10
34.067388660242
 20
10.91590821001423
 30
0.0
 10
34.08311806295529
 20
10.92579470984336
 30
0.0
 10
34.09029544464806
 20
10.93030595443241
 30
0.0
  0
LINE
  5
C1
330
1F
100
AcDbEntity
  8
0
  6
Continuous
 62
     7
370
    25
100
AcDbLine
 10
33.6227473677
 20
10.494608839
 30
0.0
 11
33.8318819831
 21
10.7037434544
 31
0.0
  0
LINE
  5
C2
330
1F
100
AcDbEntity
  8
0
  6
Continuous
 62
     7
370
    25
100
AcDbLine
 10
34.6726271754
 20
9.4447290314
 30
0.0
 11
33.6227473677
 21
10.494608839
 31
0.0
  0
LINE
  5
C3
330
1F
100
AcDbEntity
  8
0
  6
Continuous
 62
     7
370
    25
100
AcDbLine
 10
34.7774949639
 20
9.5495968198
 30
0.0
 11
34.6726271754
 21
9.4447290314
 31
0.0
  0
SPLINE
  5
C4
330
1F
100
AcDbEntity
  8
0
  6
Continuous
 62
     7
370
    25
100
AcDbSpline
210
0.0
220
0.0
230
1.0
 70
     8
 71
     3
 72
    19
 73
    15
 74
     0
 42
0.000000001
 43
0.00000001
 40
0.0
 40
0.0
 40
0.0
 40
0.0
 40
0.1057289484176121
 40
0.2069129705617966
 40
0.305557993241363
 40
0.4022404034576855
 40
0.4942954987103589
 40
0.5780610980893164
 40
0.6557675958613727
 40
0.7279268856081794
 40
0.7976084712980799
 40
0.8651260054669643
 40
0.9319580036291375
 40
1.0
 40
1.0
 40
1.0
 40
1.0
 10
32.65687173782677
 20
11.00510588409148
 30
0.0
 10
32.66832692790284
 20
11.01721883337461
 30
0.0
 10
32.69074488856983
 20
11.04092403763463
 30
0.0
 10
32.71982516789232
 20
11.07943882751942
 30
0.0
 10
32.74402190173319
 20
11.11951723722424
 30
0.0
 10
32.76302108687022
 20
11.16071245370447
 30
0.0
 10
32.77726188720052
 20
11.20131868690322
 30
0.0
 10
32.78561105114922
 20
11.24050862923506
 30
0.0
 10
32.78828314522092
 20
11.27737049079973
 30
0.0
 10
32.78498445313428
 20
11.31199487263234
 30
0.0
 10
32.77629478494516
 20
11.3439379399421
 30
0.0
 10
32.76411737669794
 20
11.37380025517106
 30
0.0
 10
32.74706002163526
 20
11.40100516176716
 30
0.0
 10
32.73265066634758
 20
11.41667289245506
 30
0.0
 10
32.72538135321138
 20
11.42457703793763
 30
0.0
  0
LINE
  5
C5
330
1F
100
AcDbEntity
  8
0
  6
Continuous
 62
     7
370
    25
100
AcDbLine
 10
32.753025584
 20
10.9089520379
 30
0.0
 11
32.6568717378
 21
11.0051058841
 31
0.0
  0
SPLINE
  5
C6
330
1F
100
AcDbEntity
  8
0
  6
Continuous
 62
     7
370
    25
100
AcDbSpline
210
0.0
220
0.0
230
1.0
 70
     8
 71
     3
 72
    23
 73
    19
 74
     0
 42
0.000000001
 43
0.00000001
 40
0.0
 40
0.0
 40
0.0
 40
0.0
 40
0.0703488477789896
 40
0.139628080233595
 40
0.2103430788637842
 40
0.2826861933598407
 40
0.3554925770820694
 40
0.4270637206804205
 40
0.4988235429721526
 40
0.5723889365327269
 40
0.6113453637448515
 40
0.6543900516773974
 40
0.7012892835300569
 40
0.7519446404334635
 40
0.8074317301970527
 40
0.8672605470112177
 40
0.931092779498862
 40
1.0
 40
1.0
 40
1.0
 40
1.0
 10
33.289984718596
 20
10.98737751870686
 30
0.0
 10
33.27942260244495
 20
10.99700888008721
 30
0.0
 10
33.2584589612776
 20
11.0161251633247
 30
0.0
 10
33.22233489762817
 20
11.03928884804123
 30
0.0
 10
33.18273812810151
 20
11.05665234433122
 30
0.0
 10
33.14045400589276
 20
11.06854529434339
 30
0.0
 10
33.0968033147223
 20
11.07499236074436
 30
0.0
 10
33.05280258788157
 20
11.07486915125986
 30
0.0
 10
33.00903814425457
 20
11.06896007158529
 30
0.0
 10
32.97306994091321
 20
11.05820372161145
 30
0.0
 10
32.9438464326257
 20
11.04622063721862
 30
0.0
 10
32.92045333829093
 20
11.0344542609311
 30
0.0
 10
32.89590590985494
 20
11.01989241387998
 30
0.0
 10
32.86982212031057
 20
11.0030134786682
 30
0.0
 10
32.84269098303167
 20
10.98303768896199
 30
0.0
 10
32.81387268099944
 20
10.96087894124162
 30
0.0
 10
32.78361046971661
 20
10.93613933286393
 30
0.0
 10
32.76347712988979
 20
10.91824255036659
 30
0.0
 10
32.75302558398062
 20
10.90895203793763
 30
0.0
  0
SPLINE
  5
C7
330
1F
100
AcDbEntity
  8
0
  6
Continuous
 62
     7
370
    25
100
AcDbSpline
210
0.0
220
0.0
230
1.0
 70
     8
 71
     3
 72
    23
 73
    19
 74
     0
 42
0.000000001
 43
0.00000001
 40
0.0
 40
0.0
 40
0.0
 40
0.0
 40
0.0730680158386374
 40
0.1430722448992375
 40
0.2104157717152759
 40
0.2758231607745295
 40
0.338739629807794
 40
0.4018415148770468
 40
0.464698535264879
 40
0.5278596385078609
 40
0.5904135880675629
 40
0.651199405364936
 40
0.7101059465004965
 40
0.7678237372418046
 40
0.8250128290906081
 40
0.8820655679442739
 40
0.9403393445630305
 40
1.0
 40
1.0
 40
1.0
 40
1.0
 10
33.26624673782677
 20
10.50570684562994
 30
0.0
 10
33.27534942790364
 20
10.51515728756099
 30
0.0
 10
33.29317312667213
 20
10.53366190858903
 30
0.0
 10
33.31619891356252
 20
10.56366676721561
 30
0.0
 10
33.33632062154005
 20
10.59402498296082
 30
0.0
 10
33.35256309311028
 20
10.62523651813951
 30
0.0
 10
33.36509085694792
 20
10.65729477905731
 30
0.0
 10
33.37399568788958
 20
10.6900437573719
 30
0.0
 10
33.37998745449558
 20
10.7235280659448
 30
0.0
 10
33.38144906737492
 20
10.7574035988788
 30
0.0
 10
33.3804063373835
 20
10.79088978205457
 30
0.0
 10
33.3761246144851
 20
10.82336117806426
 30
0.0
 10
33.36932022751486
 20
10.85450818102819
 30
0.0
 10
33.35935929194093
 20
10.88413656140442
 30
0.0
 10
33.34633619848329
 20
10.91217637261226
 30
0.0
 10
33.33054888376379
 20
10.93884999942159
 30
0.0
 10
33.31198425557668
 20
10.96428106605039
 30
0.0
 10
33.29737516398561
 20
10.97961857940731
 30
0.0
 10
33.289984718596
 20
10.98737751870686
 30
0.0
  0
SPLINE
  5
C8
330
1F
100
AcDbEntity
  8
0
  6
Continuous
 62
     7
370
    25
100
AcDbSpline
210
0.0
220
0.0
230
1.0
 70
     8
 71
     3
 72
    15
 73
    11
 74
     0
 42
0.000000001
 43
0.00000001
 40
0.0
 40
0.0
 40
0.0
 40
0.0
 40
0.1203457795138441
 40
0.2388232513984639
 40
0.3594485260350544
 40
0.4804570524015699
 40
0.602883493191465
 40
0.7310108502422924
 40
0.8625425629612502
 40
1.0
 40
1.0
 40
1.0
 40
1.0
 10
33.04298952628832
 20
10.39783424947609
 30
0.0
 10
33.05312991251855
 20
10.39874690079601
 30
0.0
 10
33.07325326058878
 20
10.40055803498364
 30
0.0
 10
33.10311022264371
 20
10.40664666063408
 30
0.0
 10
33.13212285638789
 20
10.41605201012671
 30
0.0
 10
33.16048543324238
 20
10.4281121723413
 30
0.0
 10
33.18820976408834
 20
10.44300340599677
 30
0.0
 10
33.21503555153713
 20
10.46107512675947
 30
0.0
 10
33.24145634784269
 20
10.48187768039289
 30
0.0
 10
33.25786279863009
 20
10.49764798602412
 30
0.0
 10
33.26624673782677
 20
10.50570684562994
 30
0.0
  0
SPLINE
  5
C9
330
1F
100
AcDbEntity
  8
0
  6
Continuous
 62
     7
370
    25
100
AcDbSpline
210
0.0
220
0.0
230
1.0
 70
     8
 71
     3
 72
    15
 73
    11
 74
     0
 42
0.000000001
 43
0.00000001
 40
0.0
 40
0.0
 40
0.0
 40
0.0
 40
0.1516443853000921
 40
0.2942091114866407
 40
0.4291745983467759
 40
0.556575911727435
 40
0.6762246047064512
 40
0.7899405813610038
 40
0.897088535276769
 40
1.0
 40
1.0
 40
1.0
 40
1.0
 10
32.817328468596
 20
10.46784626870686
 30
0.0
 10
32.82789198485248
 20
10.46193615650206
 30
0.0
 10
32.84838653020503
 20
10.45046979817222
 30
0.0
 10
32.87916354137627
 20
10.43540407310357
 30
0.0
 10
32.90886537633805
 20
10.42261059607104
 30
0.0
 10
32.93774387145351
 20
10.4127560345726
 30
0.0
 10
32.96552276957242
 20
10.40510928285787
 30
0.0
 10
32.99222431367917
 20
10.39990527348643
 30
0.0
 10
33.01799987638842
 20
10.39735265794256
 30
0.0
 10
33.03477239935787
 20
10.39767589196506
 30
0.0
 10
33.04298952628832
 20
10.39783424947609
 30
0.0
  0
LINE
  5
CA
330
1F
100
AcDbEntity
  8
0
  6
Continuous
 62
     7
370
    25
100
AcDbLine
 10
32.7145640455
 20
10.3650818456
 30
0.0
 11
32.8173284686
 21
10.4678462687
 31
0.0
  0
SPLINE
  5
CB
330
1F
100
AcDbEntity
  8
0
  6
Continuous
 62
     7
370
    25
100
AcDbSpline
210
0.0
220
0.0
230
1.0
 70
     8
 71
     3
 72
    23
 73
    19
 74
     0
 42
0.000000001
 43
0.00000001
 40
0.0
 40
0.0
 40
0.0
 40
0.0
 40
0.0651136382987997
 40
0.1282185933053529
 40
0.1894734259769019
 40
0.2489956462554719
 40
0.3072701941117207
 40
0.3652120214271439
 40
0.423058650276389
 40
0.4816341671326471
 40
0.5406263849922192
 40
0.6002014930275462
 40
0.6609241575761039
 40
0.7233279014169866
 40
0.7879045943012336
 40
0.8556533482834988
 40
0.9258587867477687
 40
1.0
 40
1.0
 40
1.0
 40
1.0
 10
33.36690779551908
 20
10.40204098024532
 30
0.0
 10
33.3556536058308
 20
10.39124095422377
 30
0.0
 10
33.33349240568403
 20
10.36997407096669
 30
0.0
 10
33.29792343643264
 20
10.34169364292493
 30
0.0
 10
33.26122279025557
 20
10.31727590524133
 30
0.0
 10
33.22353024799378
 20
10.29672743078222
 30
0.0
 10
33.18484010879225
 20
10.28000043699337
 30
0.0
 10
33.14502435557544
 20
10.26747155369892
 30
0.0
 10
33.10423727524463
 20
10.25829980693395
 30
0.0
 10
33.06247107086431
 20
10.25318616193237
 30
0.0
 10
33.01999278858563
 20
10.25230534259609
 30
0.0
 10
32.97712438672051
 20
10.2556548137107
 30
0.0
 10
32.93397253653151
 20
10.26324447725465
 30
0.0
 10
32.89055687795275
 20
10.27508584868179
 30
0.0
 10
32.84670509863413
 20
10.29111552248425
 30
0.0
 10
32.80275192346453
 20
10.31170541791561
 30
0.0
 10
32.75813367218122
 20
10.33607948304427
 30
0.0
 10
32.72934887113006
 20
10.35524024481797
 30
0.0
 10
32.71456404551908
 20
10.36508184562994
 30
0.0
  0
SPLINE
  5
CC
330
1F
100
AcDbEntity
  8
0
  6
Continuous
 62
     7
370
    25
100
AcDbSpline
210
0.0
220
0.0
230
1.0
 70
     8
 71
     3
 72
    19
 73
    15
 74
     0
 42
0.000000001
 43
0.00000001
 40
0.0
 40
0.0
 40
0.0
 40
0.0
 40
0.080576436103305
 40
0.160371490665394
 40
0.2414880191094218
 40
0.3250087558576584
 40
0.4089616532479635
 40
0.4906870084144028
 40
0.5725768746389615
 40
0.6557926854219235
 40
0.7398417121155405
 40
0.8240764552485729
 40
0.9104351150664252
 40
1.0
 40
1.0
 40
1.0
 40
1.0
 10
33.3846361609037
 20
11.09945684562994
 30
0.0
 10
33.39880791471712
 20
11.0840966810373
 30
0.0
 10
33.4270139932472
 20
11.05352530543775
 30
0.0
 10
33.46143773982843
 20
11.00095926803603
 30
0.0
 10
33.48891464529229
 20
10.94374794918735
 30
0.0
 10
33.50912243919922
 20
10.88243560630381
 30
0.0
 10
33.52187710412795
 20
10.81898116046348
 30
0.0
 10
33.52559989444339
 20
10.7547367173646
 30
0.0
 10
33.52001085497831
 20
10.6908407306041
 30
0.0
 10
33.50584060289014
 20
10.62769272474447
 30
0.0
 10
33.48327527839611
 20
10.56637483687607
 30
0.0
 10
33.45254200429736
 20
10.50783817154652
 30
0.0
 10
33.41391883018417
 20
10.45232261947582
 30
0.0
 10
33.3827673865204
 20
10.41900393880926
 30
0.0
 10
33.36690779551908
 20
10.40204098024532
 30
0.0
  0
SPLINE
  5
CD
330
1F
100
AcDbEntity
  8
0
  6
Continuous
 62
     7
370
    25
100
AcDbSpline
210
0.0
220
0.0
230
1.0
 70
     8
 71
     3
 72
    15
 73
    11
 74
     0
 42
0.000000001
 43
0.00000001
 40
0.0
 40
0.0
 40
0.0
 40
0.0
 40
0.1308828194382181
 40
0.258259665309488
 40
0.3832751894435328
 40
0.5061956902646068
 40
0.6278103920359801
 40
0.7505216511654043
 40
0.8741562318766931
 40
1.0
 40
1.0
 40
1.0
 40
1.0
 10
33.12922750705754
 20
11.21784626870686
 30
0.0
 10
33.14167704863958
 20
11.21634019701718
 30
0.0
 10
33.16624264446058
 20
11.21336839695832
 30
0.0
 10
33.20218536110925
 20
11.20554907087846
 30
0.0
 10
33.23643285406202
 20
11.19453338843462
 30
0.0
 10
33.2694224089458
 20
11.18155514967302
 30
0.0
 10
33.30049788399707
 20
11.16495997361126
 30
0.0
 10
33.33039357184056
 20
11.146215058293
 30
0.0
 10
33.35838060266382
 20
11.12402020031988
 30
0.0
 10
33.37583279378569
 20
11.10769282473233
 30
0.0
 10
33.3846361609037
 20
11.09945684562994
 30
0.0
  0
SPLINE
  5
CE
330
1F
100
AcDbEntity
  8
0
  6
Continuous
 62
     7
370
    25
100
AcDbSpline
210
0.0
220
0.0
230
1.0
 70
     8
 71
     3
 72
    11
 73
     7
 74
     0
 42
0.000000001
 43
0.00000001
 40
0.0
 40
0.0
 40
0.0
 40
0.0
 40
0.2579472690479108
 40
0.5087322070443625
 40
0.754103268007024
 40
1.0
 40
1.0
 40
1.0
 40
1.0
 10
32.91528519936524
 20
11.18359146101456
 30
0.0
 10
32.9328765075624
 20
11.19032463713741
 30
0.0
 10
32.96757067229217
 20
11.20360403165104
 30
0.0
 10
33.02136920716517
 20
11.21597016647969
 30
0.0
 10
33.07548137443918
 20
11.22101157812148
 30
0.0
 10
33.11129935408648
 20
11.2189021242377
 30
0.0
 10
33.12922750705754
 20
11.21784626870686
 30
0.0
  0
SPLINE
  5
CF
330
1F
100
AcDbEntity
  8
0
  6
Continuous
 62
     7
370
    25
100
AcDbSpline
210
0.0
220
0.0
230
1.0
 70
     8
 71
     3
 72
    15
 73
    11
 74
     0
 42
0.000000001
 43
0.00000001
 40
0.0
 40
0.0
 40
0.0
 40
0.0
 40
0.12421961787181
 40
0.2437921031270657
 40
0.3610694411538696
 40
0.4785415562187783
 40
0.5994738985980935
 40
0.7254247600032049
 40
0.8584023739957897
 40
1.0
 40
1.0
 40
1.0
 40
1.0
 10
32.83535731474985
 20
11.53335107639917
 30
0.0
 10
32.84602095003226
 20
11.52191625399912
 30
0.0
 10
32.86694928741583
 20
11.4994743929666
 30
0.0
 10
32.89200454030045
 20
11.46137763533765
 30
0.0
 10
32.9112087553063
 20
11.42105365647079
 30
0.0
 10
32.92428745546488
 20
11.37811607383026
 30
0.0
 10
32.93099691714168
 20
11.33267869565018
 30
0.0
 10
32.93224788589359
 20
11.2848353867041
 30
0.0
 10
32.92693751099851
 20
11.23461496249055
 30
0.0
 10
32.91924975303878
 20
11.20095157088632
 30
0.0
 10
32.91528519936524
 20
11.18359146101456
 30
0.0
  0
SPLINE
  5
D0
330
1F
100
AcDbEntity
  8
0
  6
Continuous
 62
     7
370
    25
100
AcDbSpline
210
0.0
220
0.0
230
1.0
 70
     8
 71
     3
 72
    19
 73
    15
 74
     0
 42
0.000000001
 43
0.00000001
 40
0.0
 40
0.0
 40
0.0
 40
0.0
 40
0.0895929914958808
 40
0.1777045492777579
 40
0.2648796628961914
 40
0.3531465390832668
 40
0.4405958711776069
 40
0.5246598301314999
 40
0.6068103143079139
 40
0.6891287180192627
 40
0.7700431083273499
 40
0.8475352562635293
 40
0.9237274558445454
 40
1.0
 40
1.0
 40
1.0
 40
1.0
 10
32.26204000705754
 20
11.50270203793763
 30
0.0
 10
32.27597544939528
 20
11.51566208977766
 30
0.0
 10
32.30361590941637
 20
11.54136789703328
 30
0.0
 10
32.34987021983893
 20
11.57370511917825
 30
0.0
 10
32.39974939740357
 20
11.59930287046552
 30
0.0
 10
32.45203955877412
 20
11.61911975077252
 30
0.0
 10
32.50571843915188
 20
11.63228813846198
 30
0.0
 10
32.55934746137833
 20
11.63859300012117
 30
0.0
 10
32.61226844005443
 20
11.63703573254439
 30
0.0
 10
32.66372592140948
 20
11.62819191652693
 30
0.0
 10
32.71282903861373
 20
11.6134839054847
 30
0.0
 10
32.75804051386515
 20
11.59235156525429
 30
0.0
 10
32.79966340611928
 20
11.56639598751413
 30
0.0
 10
32.8234551660132
 20
11.54436991580816
 30
0.0
 10
32.83535731474985
 20
11.53335107639917
 30
0.0
  0
SPLINE
  5
D1
330
1F
100
AcDbEntity
  8
0
  6
Continuous
 62
     7
370
    25
100
AcDbSpline
210
0.0
220
0.0
230
1.0
 70
     8
 71
     3
 72
    23
 73
    19
 74
     0
 42
0.000000001
 43
0.00000001
 40
0.0
 40
0.0
 40
0.0
 40
0.0
 40
0.0731350659025822
 40
0.1433188428756373
 40
0.210650139990688
 40
0.2762700695936492
 40
0.3395547839766537
 40
0.4016838389936606
 40
0.462858893462666
 40
0.5234847455120769
 40
0.5835961311287838
 40
0.6426304656932164
 40
0.7011635571821346
 40
0.7595409545756663
 40
0.8177915440987422
 40
0.8770624362120503
 40
0.9375567908908979
 40
1.0
 40
1.0
 40
1.0
 40
1.0
 10
32.22417943013446
 20
10.92517799947609
 30
0.0
 10
32.21612351895815
 20
10.93826607129615
 30
0.0
 10
32.2003367844574
 20
10.96391405951594
 30
0.0
 10
32.18125512222539
 20
11.00386497488233
 30
0.0
 10
32.16406752429582
 20
11.04295180808618
 30
0.0
 10
32.15184610336084
 20
11.0823588572286
 30
0.0
 10
32.14202676759079
 20
11.12130797575527
 30
0.0
 10
32.13700379324979
 20
11.16022041863498
 30
0.0
 10
32.13418151634983
 20
11.19878441505489
 30
0.0
 10
32.13591086821357
 20
11.23702256370894
 30
0.0
 10
32.14071006575571
 20
11.2744938069731
 30
0.0
 10
32.14842913550044
 20
11.31105328136649
 30
0.0
 10
32.1596835687847
 20
11.34629970155545
 30
0.0
 10
32.17377777198768
 20
11.38031722508314
 30
0.0
 10
32.19101131389073
 20
11.41305757322639
 30
0.0
 10
32.2116317120521
 20
11.44428150975262
 30
0.0
 10
32.2350344183753
 20
11.47463131050546
 30
0.0
 10
32.25294351018332
 20
11.49324676231493
 30
0.0
 10
32.26204000705754
 20
11.50270203793763
 30
0.0
  0
LINE
  5
D2
330
1F
100
AcDbEntity
  8
0
  6
Continuous
 62
     7
370
    25
100
AcDbLine
 10
32.3314510647
 20
11.0324496341
 30
0.0
 11
32.2241794301
 21
10.9251779995
 31
0.0
  0
SPLINE
  5
D3
330
1F
100
AcDbEntity
  8
0
  6
Continuous
 62
     7
370
    25
100
AcDbSpline
210
0.0
220
0.0
230
1.0
 70
     8
 71
     3
 72
    19
 73
    15
 74
     0
 42
0.000000001
 43
0.00000001
 40
0.0
 40
0.0
 40
0.0
 40
0.0
 40
0.1167675801713198
 40
0.2280775627199397
 40
0.3372206510249982
 40
0.4461255525158016
 40
0.5021574110359225
 40
0.5618439075693563
 40
0.6241640260185536
 40
0.6909917051104404
 40
0.7609854225273329
 40
0.836248065124775
 40
0.9153845753823187
 40
0.9999999999999999
 40
0.9999999999999999
 40
0.9999999999999999
 40
0.9999999999999999
 10
32.364203468596
 20
11.40053857639917
 30
0.0
 10
32.35370115738335
 20
11.38913064649203
 30
0.0
 10
32.33318740227431
 20
11.36684798168831
 30
0.0
 10
32.30939143761341
 20
11.32864232189998
 30
0.0
 10
32.29305883418635
 20
11.28796021880376
 30
0.0
 10
32.28520892055497
 20
11.25223477336163
 30
0.0
 10
32.28340627864862
 20
11.22247815413237
 30
0.0
 10
32.28354593773838
 20
11.19884123725602
 30
0.0
 10
32.28648289783791
 20
11.17393644050363
 30
0.0
 10
32.29134586244615
 20
11.14797758810464
 30
0.0
 10
32.29794506999307
 20
11.12062348392421
 30
0.0
 10
32.30703350924368
 20
11.0922731736341
 30
0.0
 10
32.31824852116569
 20
11.06262057446008
 30
0.0
 10
32.32695313541771
 20
11.04272846837798
 30
0.0
 10
32.33145106474985
 20
11.03244963409148
 30
0.0
  0
SPLINE
  5
D4
330
1F
100
AcDbEntity
  8
0
  6
Continuous
 62
     7
370
    25
100
AcDbSpline
210
0.0
220
0.0
230
1.0
 70
     8
 71
     3
 72
    23
 73
    19
 74
     0
 42
0.000000001
 43
0.00000001
 40
0.0
 40
0.0
 40
0.0
 40
0.0
 40
0.0591437275897559
 40
0.1167150890705871
 40
0.1741558975962605
 40
0.2309492319425771
 40
0.28873752626371
 40
0.3472383681560689
 40
0.4086788038810793
 40
0.4720661100984869
 40
0.5364760336796572
 40
0.6002438377181529
 40
0.6632439347766351
 40
0.7270901793882615
 40
0.7924599631338878
 40
0.8592686518663304
 40
0.9282156920095006
 40
1.0
 40
1.0
 40
1.0
 40
1.0
 10
32.72538135321138
 20
11.42457703793763
 30
0.0
 10
32.7195673003152
 20
11.42999475054576
 30
0.0
 10
32.70809376407909
 20
11.44068614311409
 30
0.0
 10
32.68931044299779
 20
11.4547352549765
 30
0.0
 10
32.6691519977029
 20
11.46608398899497
 30
0.0
 10
32.64786592474294
 20
11.47516088973072
 30
0.0
 10
32.62563875539035
 20
11.48213518947879
 30
0.0
 10
32.60214316333365
 20
11.48658539050328
 30
0.0
 10
32.57760506197581
 20
11.48901575873317
 30
0.0
 10
32.55214869784718
 20
11.48895565765756
 30
0.0
 10
32.52648996008175
 20
11.48660054512899
 30
0.0
 10
32.50123235564552
 20
11.48178677503765
 30
0.0
 10
32.47659455515021
 20
11.4746129665354
 30
0.0
 10
32.45285441887892
 20
11.46437830619781
 30
0.0
 10
32.42928508681405
 20
11.45258047990573
 30
0.0
 10
32.40665887458125
 20
11.43770217521798
 30
0.0
 10
32.38503296056168
 20
11.42006016954405
 30
0.0
 10
32.37123932983004
 20
11.40713265083272
 30
0.0
 10
32.364203468596
 20
11.40053857639917
 30
0.0
  0
SPLINE
  5
D5
330
1F
100
AcDbEntity
  8
0
  6
Continuous
 62
     7
370
    25
100
AcDbSpline
210
0.0
220
0.0
230
1.0
 70
     8
 71
     3
 72
    31
 73
    27
 74
     0
 42
0.000000001
 43
0.00000001
 40
0.0
 40
0.0
 40
0.0
 40
0.0
 40
0.0340625437668023
 40
0.0673138855976699
 40
0.1002986917293197
 40
0.1328915753415363
 40
0.1654542126705892
 40
0.1984564401369067
 40
0.2315592824902879
 40
0.2655034986764517
 40
0.2998732210996858
 40
0.3348750234665335
 40
0.3704365550514275
 40
0.4070493254137256
 40
0.444649056291662
 40
0.4836382628524705
 40
0.524053508423317
 40
0.5661466743313504
 40
0.6102573304114862
 40
0.6569339262658019
 40
0.7066268298851165
 40
0.7589305312314925
 40
0.814297716023405
 40
0.8730747594856018
 40
0.9349497890039754
 40
1.0
 40
1.0
 40
1.0
 40
1.0
 10
33.05969210195423
 20
12.38419385691107
 30
0.0
 10
33.06826413870441
 20
12.39246856863105
 30
0.0
 10
33.0852040685315
 20
12.40882092921475
 30
0.0
 10
33.11292204675878
 20
12.43036286953401
 30
0.0
 10
33.14131126117052
 20
12.45009303377668
 30
0.0
 10
33.17127432115615
 20
12.46689006841447
 30
0.0
 10
33.20237089058928
 20
12.48146457379558
 30
0.0
 10
33.23478114345811
 20
12.49336541341425
 30
0.0
 10
33.26839999900238
 20
12.5030926867592
 30
0.0
 10
33.30315149506343
 20
12.51029952447582
 30
0.0
 10
33.33901821339832
 20
12.51473492809703
 30
0.0
 10
33.37569259935898
 20
12.51673934100556
 30
0.0
 10
33.41315351648028
 20
12.5149362871373
 30
0.0
 10
33.45134032675352
 20
12.51088761911573
 30
0.0
 10
33.49022484172882
 20
12.50340201237289
 30
0.0
 10
33.5299877807515
 20
12.49370218306539
 30
0.0
 10
33.57026484692175
 20
12.4801264810572
 30
0.0
 10
33.61159600402153
 20
12.46427244175513
 30
0.0
 10
33.65391320863986
 20
12.44502703372014
 30
0.0
 10
33.69697972750738
 20
12.4213531611697
 30
0.0
 10
33.74094588771905
 20
12.39361550170246
 30
0.0
 10
33.78622596806352
 20
12.36234972301877
 30
0.0
 10
33.83220834363897
 20
12.32666421530205
 30
0.0
 10
33.87926117037222
 20
12.28700791179013
 30
0.0
 10
33.92740228678137
 20
12.24343960804482
 30
0.0
 10
33.95904160146171
 20
12.21233482744605
 30
0.0
 10
33.97525700580038
 20
12.19639337614184
 30
0.0
  0
SPLINE
  5
D6
330
1F
100
AcDbEntity
  8
0
  6
Continuous
 62
     7
370
    25
100
AcDbSpline
210
0.0
220
0.0
230
1.0
 70
     8
 71
     3
 72
    31
 73
    27
 74
     0
 42
0.000000001
 43
0.00000001
 40
0.0
 40
0.0
 40
0.0
 40
0.0
 40
0.0685392375563685
 40
0.1330574173017168
 40
0.193631077183116
 40
0.2505306821562904
 40
0.3036142074401768
 40
0.3534609049693049
 40
0.399580090816491
 40
0.4424160216489261
 40
0.4830723824124631
 40
0.5220229044503065
 40
0.5599473210514606
 40
0.5966633013156785
 40
0.6323728579706366
 40
0.6673061936474429
 40
0.7019513182513509
 40
0.735941787389277
 40
0.7694887228848919
 40
0.8027329281118958
 40
0.8353134843410184
 40
0.8678314089480395
 40
0.9002481012228697
 40
0.9330513656415885
 40
0.9661186419532682
 40
1.0
 40
1.0
 40
1.0
 40
1.0
 10
33.25861037118499
 20
11.47974674152646
 30
0.0
 10
33.24186761478348
 20
11.49666235708104
 30
0.0
 10
33.209364365481
 20
11.52950118339438
 30
0.0
 10
33.16397532097827
 20
11.5791263712209
 30
0.0
 10
33.12299527141979
 20
11.62724784700481
 30
0.0
 10
33.08636264373268
 20
11.67379503641459
 30
0.0
 10
33.05361351087734
 20
11.71862411616826
 30
0.0
 10
33.02542376718944
 20
11.76205681720837
 30
0.0
 10
33.0014131849529
 20
11.80388426036637
 30
0.0
 10
32.98199326257537
 20
11.84453457936252
 30
0.0
 10
32.9664407591323
 20
11.88412704235243
 30
0.0
 10
32.95331764897947
 20
11.92278899803262
 30
0.0
 10
32.94304796497024
 20
11.96090198254774
 30
0.0
 10
32.93574759572122
 20
11.99855728623398
 30
0.0
 10
32.93160688550081
 20
12.03563488783296
 30
0.0
 10
32.92994232826755
 20
12.07219375024206
 30
0.0
 10
32.93153855545767
 20
12.10816156531415
 30
0.0
 10
32.93567928589229
 20
12.14343518392684
 30
0.0
 10
32.94269267757678
 20
12.17775665584211
 30
0.0
 10
32.95191874758796
 20
12.21103072780247
 30
0.0
 10
32.96362711238201
 20
12.24316356717431
 30
0.0
 10
32.97825492546183
 20
12.27373345302047
 30
0.0
 10
32.99466982091629
 20
12.30348333763671
 30
0.0
 10
33.0141284718627
 20
12.33156049878468
 30
0.0
 10
33.03536277098157
 20
12.35898234001678
 30
0.0
 10
33.05151684820225
 20
12.37572216698607
 30
0.0
 10
33.05969210195423
 20
12.38419385691107
 30
0.0
  0
SPLINE
  5
D7
330
1F
100
AcDbEntity
  8
0
  6
Continuous
 62
     7
370
    25
100
AcDbSpline
210
0.0
220
0.0
230
1.0
 70
     8
 71
     3
 72
    31
 73
    27
 74
     0
 42
0.000000001
 43
0.00000001
 40
0.0
 40
0.0
 40
0.0
 40
0.0
 40
0.0339161406116254
 40
0.0667911467684395
 40
0.0996280869823199
 40
0.1318265592299254
 40
0.1643778667025712
 40
0.1967210286892328
 40
0.2297213409237039
 40
0.2630197127526298
 40
0.2967583839686782
 40
0.3311505724363447
 40
0.3661197706371222
 40
0.4018997925665817
 40
0.438653465415743
 40
0.47654316710372
 40
0.5160815487196686
 40
0.557154884445724
 40
0.6004200138433164
 40
0.6470895029678522
 40
0.6968308887516991
 40
0.75003477146513
 40
0.8069927895101677
 40
0.8674089097323783
 40
0.9317987325696279
 40
0.9999999999999999
 40
0.9999999999999999
 40
0.9999999999999999
 40
0.9999999999999999
 10
34.16245652503115
 20
11.28142943383415
 30
0.0
 10
34.1539710005397
 20
11.27327200136561
 30
0.0
 10
34.13726043437576
 20
11.2572075477033
 30
0.0
 10
34.11010851993305
 20
11.23575487914987
 30
0.0
 10
34.08208078747796
 20
11.21651844972535
 30
0.0
 10
34.05255167551006
 20
11.1998945692294
 30
0.0
 10
34.02209333675609
 20
11.18544657147253
 30
0.0
 10
33.99020523408699
 20
11.17364291850563
 30
0.0
 10
33.95722193910525
 20
11.16443348855174
 30
0.0
 10
33.92320293640498
 20
11.15741766193202
 30
0.0
 10
33.88822716964256
 20
11.1532679988007
 30
0.0
 10
33.85246261688879
 20
11.15170574804395
 30
0.0
 10
33.81597806901434
 20
11.1532459708028
 30
0.0
 10
33.77894308003743
 20
11.15787475350984
 30
0.0
 10
33.74130887831812
 20
11.16512861236117
 30
0.0
 10
33.70294514879942
 20
11.17508921098773
 30
0.0
 10
33.66391812216035
 20
11.1880747035493
 30
0.0
 10
33.62399109535892
 20
11.20403759286975
 30
0.0
 10
33.58306825108829
 20
11.22387136137057
 30
0.0
 10
33.54077897046519
 20
11.24757531730466
 30
0.0
 10
33.49716734436806
 20
11.27575483428039
 30
0.0
 10
33.4520030014158
 20
11.30798212132375
 30
0.0
 10
33.40554004923721
 20
11.34465611465066
 30
0.0
 10
33.35777554797809
 20
11.38582158242289
 30
0.0
 10
33.30805419258808
 20
11.43067951850471
 30
0.0
 10
33.27540449285851
 20
11.46308053551276
 30
0.0
 10
33.25861037118499
 20
11.47974674152646
 30
0.0
  0
SPLINE
  5
D8
330
1F
100
AcDbEntity
  8
0
  6
Continuous
 62
     7
370
    25
100
AcDbSpline
210
0.0
220
0.0
230
1.0
 70
     8
 71
     3
 72
    31
 73
    27
 74
     0
 42
0.000000001
 43
0.00000001
 40
0.0
 40
0.0
 40
0.0
 40
0.0
 40
0.0650931380611512
 40
0.1266039765373226
 40
0.1850158110860341
 40
0.2401927525856705
 40
0.2926948785080097
 40
0.3417823620468381
 40
0.388238232793063
 40
0.4321173744957395
 40
0.4739710174663261
 40
0.5141406009624558
 40
0.5528774178269759
 40
0.5905019610163778
 40
0.6271388923883595
 40
0.6630104030816908
 40
0.6983217028166657
 40
0.7329986161773792
 40
0.7672460775099881
 40
0.8006463810336941
 40
0.8339394285304621
 40
0.8667836833964285
 40
0.8993980752684351
 40
0.9326416935233396
 40
0.9659149781349369
 40
1.0
 40
1.0
 40
1.0
 40
1.0
 10
33.97525700580038
 20
12.19639337614184
 30
0.0
 10
33.99119878602949
 20
12.18017842664603
 30
0.0
 10
34.0222050154141
 20
12.14864089217362
 30
0.0
 10
34.06558527865951
 20
12.10070898973442
 30
0.0
 10
34.1049217305598
 20
12.0538611177644
 30
0.0
 10
34.14066800447669
 20
12.00814040001375
 30
0.0
 10
34.17206892973618
 20
11.96324767364733
 30
0.0
 10
34.19964687911538
 20
11.91948036830844
 30
0.0
 10
34.22329136363253
 20
11.87685973183909
 30
0.0
 10
34.24252915246007
 20
11.83483673169361
 30
0.0
 10
34.2583880693528
 20
11.79380723007522
 30
0.0
 10
34.27195771303486
 20
11.75383018117208
 30
0.0
 10
34.28170333224255
 20
11.71427513238362
 30
0.0
 10
34.28914407438383
 20
11.67548031026198
 30
0.0
 10
34.29321472040358
 20
11.63719545983012
 30
0.0
 10
34.29499923199547
 20
11.59953304213444
 30
0.0
 10
34.29299802128297
 20
11.56255956518914
 30
0.0
 10
34.28856239947059
 20
11.52639296050274
 30
0.0
 10
34.28135393682778
 20
11.4913428235657
 30
0.0
 10
34.27163296059532
 20
11.4574209265662
 30
0.0
 10
34.25971403508699
 20
11.42472205634643
 30
0.0
 10
34.24524380013282
 20
11.39336634786903
 30
0.0
 10
34.22825415346033
 20
11.36331642209422
 30
0.0
 10
34.20872867186421
 20
11.33468976931434
 30
0.0
 10
34.18707015595847
 20
11.30695042240881
 30
0.0
 10
34.17072672044025
 20
11.29000450198111
 30
0.0
 10
34.16245652503115
 20
11.28142943383415
 30
0.0
  0
SPLINE
  5
D9
330
1F
100
AcDbEntity
  8
0
  6
Continuous
 62
     7
370
    25
100
AcDbSpline
210
0.0
220
0.0
230
1.0
 70
     8
 71
     3
 72
    15
 73
    11
 74
     0
 42
0.000000001
 43
0.00000001
 40
0.0
 40
0.0
 40
0.0
 40
0.0
 40
0.1099847056450849
 40
0.2240098420297774
 40
0.3417046373339413
 40
0.4641704618794936
 40
0.5906562692884738
 40
0.7222624860498262
 40
0.8584596182455002
 40
1.0
 40
1.0
 40
1.0
 40
1.0
 10
34.10957190964653
 20
11.7868380876803
 30
0.0
 10
34.10319158433921
 20
11.79952720641648
 30
0.0
 10
34.09019654420333
 20
11.82537159511502
 30
0.0
 10
34.06790432865014
 20
11.86348616856488
 30
0.0
 10
34.04266019050731
 20
11.90162235005449
 30
0.0
 10
34.01566938788382
 20
11.94054170453904
 30
0.0
 10
33.98485046158714
 20
11.97883935598785
 30
0.0
 10
33.95233269001948
 20
12.0180117697439
 30
0.0
 10
33.91673251780475
 20
12.057104961642
 30
0.0
 10
33.8916070836329
 20
12.08269244469345
 30
0.0
 10
33.8788026788773
 20
12.09573231844953
 30
0.0
  0
SPLINE
  5
DA
330
1F
100
AcDbEntity
  8
0
  6
Continuous
 62
     7
370
    25
100
AcDbSpline
210
0.0
220
0.0
230
1.0
 70
     8
 71
     3
 72
    19
 73
    15
 74
     0
 42
0.000000001
 43
0.00000001
 40
0.0
 40
0.0
 40
0.0
 40
0.0
 40
0.1116234689182526
 40
0.2221443256546964
 40
0.3354380430278008
 40
0.4548148709752029
 40
0.5168870261290481
 40
0.5794061580887492
 40
0.6435314246458348
 40
0.7096032329016746
 40
0.7780881323723869
 40
0.8493556809199186
 40
0.9228466968340718
 40
1.0
 40
1.0
 40
1.0
 40
1.0
 10
34.07111037118499
 20
11.37998712614184
 30
0.0
 10
34.08211860301111
 20
11.39203446917169
 30
0.0
 10
34.10402632778766
 20
11.4160101520566
 30
0.0
 10
34.12829048209565
 20
11.45889715490893
 30
0.0
 10
34.14626048886276
 20
11.50573684909102
 30
0.0
 10
34.15520845560503
 20
11.5479997434014
 30
0.0
 10
34.15825780406152
 20
11.58345653875314
 30
0.0
 10
34.15876811075407
 20
11.61101174691601
 30
0.0
 10
34.15607986904182
 20
11.63902062807815
 30
0.0
 10
34.15166606439088
 20
11.6676659766301
 30
0.0
 10
34.144676899693
 20
11.69688859665181
 30
0.0
 10
34.1352518695339
 20
11.72652827120358
 30
0.0
 10
34.12394242180128
 20
11.75687790288141
 30
0.0
 10
34.11443909162145
 20
11.77669080344658
 30
0.0
 10
34.10957190964653
 20
11.7868380876803
 30
0.0
  0
SPLINE
  5
DB
330
1F
100
AcDbEntity
  8
0
  6
Continuous
 62
     7
370
    25
100
AcDbSpline
210
0.0
220
0.0
230
1.0
 70
     8
 71
     3
 72
    27
 73
    23
 74
     0
 42
0.000000001
 43
0.00000001
 40
0.0
 40
0.0
 40
0.0
 40
0.0
 40
0.0739414287635761
 40
0.1432995467909239
 40
0.2078367058012861
 40
0.2681542719989739
 40
0.3240444974500776
 40
0.3756833250396089
 40
0.4227992035769721
 40
0.4659844474241323
 40
0.5062690802671607
 40
0.5452440815941552
 40
0.582932628734493
 40
0.6191703782421355
 40
0.6542106995986451
 40
0.6889160634209303
 40
0.7228008900413521
 40
0.7560829642487452
 40
0.8208193220025547
 40
0.8819250721784662
 40
0.9410367321203931
 40
1.0
 40
1.0
 40
1.0
 40
1.0
 10
33.36017287118499
 20
11.57710251075722
 30
0.0
 10
33.37459455280393
 20
11.56277333650611
 30
0.0
 10
33.40254397810601
 20
11.53500319180632
 30
0.0
 10
33.44474050716731
 20
11.4964654446745
 30
0.0
 10
33.48466075566456
 20
11.46099820198332
 30
0.0
 10
33.52314417274986
 20
11.42955282117834
 30
0.0
 10
33.55967772945269
 20
11.40133213428471
 30
0.0
 10
33.59488656653849
 20
11.37747882250094
 30
0.0
 10
33.6279068932349
 20
11.35664253002176
 30
0.0
 10
33.65978305274241
 20
11.34004450946311
 30
0.0
 10
33.69056279667824
 20
11.32638481748046
 30
0.0
 10
33.72059018141616
 20
11.31483954443672
 30
0.0
 10
33.75031800626378
 20
11.30580620484429
 30
0.0
 10
33.7795647696104
 20
11.29923553966433
 30
0.0
 10
33.80834648498408
 20
11.29454148902
 30
0.0
 10
33.83679962590006
 20
11.29245003544763
 30
0.0
 10
33.8648334630425
 20
11.29279712178601
 30
0.0
 10
33.90098659227599
 20
11.29593952505865
 30
0.0
 10
33.9440229231278
 20
11.30482562122391
 30
0.0
 10
33.99184085022263
 20
11.32260165741228
 30
0.0
 10
34.03486087858678
 20
11.34734777007444
 30
0.0
 10
34.05903733500145
 20
11.36911646013896
 30
0.0
 10
34.07111037118499
 20
11.37998712614184
 30
0.0
  0
SPLINE
  5
DC
330
1F
100
AcDbEntity
  8
0
  6
Continuous
 62
     7
370
    25
100
AcDbSpline
210
0.0
220
0.0
230
1.0
 70
     8
 71
     3
 72
    27
 73
    23
 74
     0
 42
0.000000001
 43
0.00000001
 40
0.0
 40
0.0
 40
0.0
 40
0.0
 40
0.059204909142324
 40
0.1186381156964756
 40
0.1794099962647922
 40
0.2434403905684774
 40
0.2767263209819801
 40
0.3102507208116299
 40
0.3445967272097261
 40
0.3795861309306516
 40
0.4161835169775525
 40
0.4535278654524
 40
0.4925073825928413
 40
0.5331297869118884
 40
0.5763200343895353
 40
0.6237516935997308
 40
0.6753965042887891
 40
0.731293205424897
 40
0.7916177602785751
 40
0.856436425028989
 40
0.9260500040603646
 40
0.9999999999999999
 40
0.9999999999999999
 40
0.9999999999999999
 40
0.9999999999999999
 10
33.16335796733884
 20
12.287739529988
 30
0.0
 10
33.15235375046034
 20
12.27569014494
 30
0.0
 10
33.13030288383303
 20
12.25154491174728
 30
0.0
 10
33.10583533209315
 20
12.20828222891327
 30
0.0
 10
33.0879207373073
 20
12.16076560858983
 30
0.0
 10
33.07897050381319
 20
12.11802200814128
 30
0.0
 10
33.07588754745587
 20
12.08216433117666
 30
0.0
 10
33.07548877281622
 20
12.05432593280332
 30
0.0
 10
33.07772975001838
 20
12.02610826180231
 30
0.0
 10
33.081941047913
 20
11.99727480406316
 30
0.0
 10
33.08850750145544
 20
11.96802724181588
 30
0.0
 10
33.09766009438843
 20
11.93833595080958
 30
0.0
 10
33.10922285065844
 20
11.90832529005763
 30
0.0
 10
33.12272108469846
 20
11.87737023858063
 30
0.0
 10
33.13950987217891
 20
11.84539545018743
 30
0.0
 10
33.16014280606719
 20
11.81215201801308
 30
0.0
 10
33.18412291549411
 20
11.77692150133255
 30
0.0
 10
33.21230229566865
 20
11.74035767677569
 30
0.0
 10
33.24388087265709
 20
11.70188979984601
 30
0.0
 10
33.27911709922837
 20
11.66157377535055
 30
0.0
 10
33.31810212149296
 20
11.61959182725024
 30
0.0
 10
33.34586970952074
 20
11.59154797624695
 30
0.0
 10
33.36017287118499
 20
11.57710251075722
 30
0.0
  0
SPLINE
  5
DD
330
1F
100
AcDbEntity
  8
0
  6
Continuous
 62
     7
370
    25
100
AcDbSpline
210
0.0
220
0.0
230
1.0
 70
     8
 71
     3
 72
    27
 73
    23
 74
     0
 42
0.000000001
 43
0.00000001
 40
0.0
 40
0.0
 40
0.0
 40
0.0
 40
0.0665682887066777
 40
0.1298384398761199
 40
0.1903854166577237
 40
0.2477638774268024
 40
0.3026463387477553
 40
0.3547594337319389
 40
0.4043168527786022
 40
0.4513184057942146
 40
0.4962182809861095
 40
0.5384964490913653
 40
0.5791109571601266
 40
0.6178689498676121
 40
0.6548770745485871
 40
0.6907509929392046
 40
0.7250465884647678
 40
0.758739154699732
 40
0.8228526037433925
 40
0.8832333648382241
 40
0.9417466416330508
 40
1.0
 40
1.0
 40
1.0
 40
1.0
 10
33.8788026788773
 20
12.09573231844953
 30
0.0
 10
33.86575973753242
 20
12.10853427952122
 30
0.0
 10
33.84032006965877
 20
12.13350392625837
 30
0.0
 10
33.80171103821156
 20
12.16875184505684
 30
0.0
 10
33.76395329516421
 20
12.20114168229509
 30
0.0
 10
33.72696806626416
 20
12.23088412318294
 30
0.0
 10
33.69024425908048
 20
12.25712892456282
 30
0.0
 10
33.65456852677359
 20
12.28112329496083
 30
0.0
 10
33.61933316101759
 20
12.30176113552088
 30
0.0
 10
33.58502265527242
 20
12.31998612032074
 30
0.0
 10
33.55146530153445
 20
12.33523073815546
 30
0.0
 10
33.51877611284235
 20
12.34801942042358
 30
0.0
 10
33.48695397527455
 20
12.35821764817411
 30
0.0
 10
33.45598657172071
 20
12.36617505507994
 30
0.0
 10
33.42574182612179
 20
12.37138611164409
 30
0.0
 10
33.39637887654371
 20
12.37372911333723
 30
0.0
 10
33.36783146821784
 20
12.37380766293351
 30
0.0
 10
33.33166855853426
 20
12.37061211204778
 30
0.0
 10
33.28896944265288
 20
12.36167064658777
 30
0.0
 10
33.24176587364839
 20
12.34409709130775
 30
0.0
 10
33.19895800179268
 20
12.32021024388268
 30
0.0
 10
33.17520702254164
 20
12.29854702743329
 30
0.0
 10
33.16335796733884
 20
12.287739529988
 30
0.0
  0
LINE
  5
DE
330
1F
100
AcDbEntity
  8
0
  6
Continuous
 62
     7
370
    25
100
AcDbLine
 10
34.452672923
 20
12.3486147778
 30
0.0
 11
34.7615671538
 21
12.6575090086
 31
0.0
  0
LINE
  5
DF
330
1F
100
AcDbEntity
  8
0
  6
Continuous
 62
     7
370
    25
100
AcDbLine
 10
34.3240671538
 20
13.0950090086
 30
0.0
 11
34.452672923
 21
12.3486147778
 31
0.0
  0
LINE
  5
E0
330
1F
100
AcDbEntity
  8
0
  6
Continuous
 62
     7
370
    25
100
AcDbLine
 10
34.7615671538
 20
12.6575090086
 30
0.0
 11
34.3240671538
 21
13.0950090086
 31
0.0
  0
CIRCLE
  5
E1
330
1F
100
AcDbEntity
  8
0
  6
Continuous
 62
     7
370
    25
100
AcDbCircle
 10
34.3503139884
 20
11.1042927168
 30
0.0
 40
5.005393939393942
  0
ARC
  5
E2
330
1F
100
AcDbEntity
  8
0
  6
Continuous
 62
     7
370
    25
100
AcDbCircle
 10
34.3503139884
 20
11.1042927168
 30
0.0
 40
4.500000000000003
100
AcDbArc
 50
96.057558731
 51
173.942441269
  0
ARC
  5
E3
330
1F
100
AcDbEntity
  8
0
  6
Continuous
 62
     7
370
    25
100
AcDbCircle
 10
34.3503139884
 20
11.1042927168
 30
0.0
 40
4.500000000000001
100
AcDbArc
 50
173.9576949792
 51
186.0423050208
  0
ARC
  5
E4
330
1F
100
AcDbEntity
  8
0
  6
Continuous
 62
     7
370
    25
100
AcDbCircle
 10
34.3503139884
 20
11.1042927168
 30
0.0
 40
4.500000000000003
100
AcDbArc
 50
186.057558731
 51
263.942441269
  0
ARC
  5
E5
330
1F
100
AcDbEntity
  8
0
  6
Continuous
 62
     7
370
    25
100
AcDbCircle
 10
34.3503139884
 20
11.1042927168
 30
0.0
 40
4.5
100
AcDbArc
 50
263.9576949792
 51
276.0423050208
  0
ARC
  5
E6
330
1F
100
AcDbEntity
  8
0
  6
Continuous
 62
     7
370
    25
100
AcDbCircle
 10
34.3503139884
 20
11.1042927168
 30
0.0
 40
4.499999999999999
100
AcDbArc
 50
276.057558731
 51
353.942441269
  0
ARC
  5
E7
330
1F
100
AcDbEntity
  8
0
  6
Continuous
 62
     7
370
    25
100
AcDbCircle
 10
34.3503139884
 20
11.1042927168
 30
0.0
 40
4.500000000000001
100
AcDbArc
 50
353.9576949792
 51
6.0423050208
  0
ARC
  5
E8
330
1F
100
AcDbEntity
  8
0
  6
Continuous
 62
     7
370
    25
100
AcDbCircle
 10
34.3503139884
 20
11.1042927168
 30
0.0
 40
4.500000000000002
100
AcDbArc
 50
6.057558731
 51
83.942441269
  0
ARC
  5
E9
330
1F
100
AcDbEntity
  8
0
  6
Continuous
 62
     7
370
    25
100
AcDbCircle
 10
34.3503139884
 20
11.1042927168
 30
0.0
 40
4.500000000000002
100
AcDbArc
 50
83.9576949792
 51
96.0423050208
  0
INSERT
  5
F5
330
1F
100
AcDbEntity
  8
0
  6
Continuous
 62
     7
370
    18
100
AcDbBlockReference
  2
SW_CENTERMARKSYMBOL_0
 10
34.3503139884
 20
11.1042927168
 30
0.0
  0
ARC
  5
F6
330
1F
100
AcDbEntity
  8
0
  6
Continuous
 62
     7
370
    18
100
AcDbCircle
 10
34.3503139884
 20
11.1042927168
 30
0.0
 40
4.283000000000002
100
AcDbArc
 50
75.0
 51
345.0
  0
ENDSEC
  0
SECTION
  2
OBJECTS
  0
DICTIONARY
  5
C
330
0
100
AcDbDictionary
281
     1
  3
ACAD_GROUP
350
D
  3
ACAD_LAYOUT
350
1A
  3
ACAD_MLINESTYLE
350
17
  3
ACAD_PLOTSETTINGS
350
19
  3
ACAD_PLOTSTYLENAME
350
E
  3
ACAD_SCALELIST
350
47
  0
DICTIONARY
  5
D
102
{ACAD_REACTORS
330
C
102
}
330
C
100
AcDbDictionary
281
     1
  0
DICTIONARY
  5
1A
102
{ACAD_REACTORS
330
C
102
}
330
C
100
AcDbDictionary
281
     1
  3
Layout1
350
1E
  3
Layout2
350
26
  3
Model
350
22
  0
DICTIONARY
  5
17
102
{ACAD_REACTORS
330
C
102
}
330
C
100
AcDbDictionary
281
     1
  3
Standard
350
18
  0
DICTIONARY
  5
19
102
{ACAD_REACTORS
330
C
102
}
330
C
100
AcDbDictionary
281
     1
  0
ACDBDICTIONARYWDFLT
  5
E
102
{ACAD_REACTORS
330
C
102
}
330
C
100
AcDbDictionary
281
     1
  3
Normal
350
F
100
AcDbDictionaryWithDefault
340
F
  0
DICTIONARY
  5
47
102
{ACAD_REACTORS
330
C
102
}
330
C
100
AcDbDictionary
281
     1
  3
A0
350
48
  3
A1
350
49
  3
A2
350
4A
  3
A3
350
4B
  3
A4
350
4C
  3
A5
350
4D
  3
A6
350
4E
  3
A7
350
4F
  3
A8
350
50
  3
A9
350
51
  3
B0
350
52
  3
B1
350
53
  3
B2
350
54
  3
B3
350
55
  3
B4
350
56
  3
B5
350
57
  3
B6
350
58
  3
B7
350
59
  3
B8
350
5A
  3
B9
350
5B
  3
C0
350
5C
  3
C1
350
5D
  3
C2
350
5E
  3
C3
350
5F
  3
C4
350
60
  3
C5
350
61
  3
C6
350
62
  3
C7
350
63
  3
C8
350
64
  3
C9
350
65
  3
D0
350
66
  3
D1
350
67
  3
D2
350
68
  0
LAYOUT
  5
1E
102
{ACAD_REACTORS
330
1A
102
}
330
1A
100
AcDbPlotSettings
  1

  2
none_device
  4

  6

 40
0.0
 41
0.0
 42
0.0
 43
0.0
 44
0.0
 45
0.0
 46
0.0
 47
0.0
 48
0.0
 49
0.0
140
0.0
141
0.0
142
1.0
143
1.0
 70
   688
 72
     1
 73
     0
 74
     5
  7

 75
    16
147
1.0
148
0.0
149
0.0
100
AcDbLayout
  1
Layout1
 70
     1
 71
     1
 10
0.0
 20
0.0
 11
420.0
 21
297.0
 12
0.0
 22
0.0
 32
0.0
 14
1.0000000000E+20
 24
1.0000000000E+20
 34
1.0000000000E+20
 15
-1.0000000000E+20
 25
-1.0000000000E+20
 35
-1.0000000000E+20
146
0.0
 13
0.0
 23
0.0
 33
0.0
 16
1.0
 26
0.0
 36
0.0
 17
0.0
 27
1.0
 37
0.0
 76
     0
330
1B
  0
LAYOUT
  5
26
102
{ACAD_REACTORS
330
1A
102
}
330
1A
100
AcDbPlotSettings
  1

  2
none_device
  4

  6

 40
0.0
 41
0.0
 42
0.0
 43
0.0
 44
0.0
 45
0.0
 46
0.0
 47
0.0
 48
0.0
 49
0.0
140
0.0
141
0.0
142
1.0
143
1.0
 70
   688
 72
     1
 73
     0
 74
     5
  7

 75
    16
147
1.0
148
0.0
149
0.0
100
AcDbLayout
  1
Layout2
 70
     1
 71
     2
 10
0.0
 20
0.0
 11
0.0
 21
0.0
 12
0.0
 22
0.0
 32
0.0
 14
0.0
 24
0.0
 34
0.0
 15
0.0
 25
0.0
 35
0.0
146
0.0
 13
0.0
 23
0.0
 33
0.0
 16
1.0
 26
0.0
 36
0.0
 17
0.0
 27
1.0
 37
0.0
 76
     0
330
23
  0
LAYOUT
  5
22
102
{ACAD_REACTORS
330
1A
102
}
330
1A
100
AcDbPlotSettings
  1

  2
none_device
  4
Letter_(8.50_x_11.00_Inches)
  6

 40
6.35
 41
6.35
 42
6.35000508
 43
6.35000508
 44
215.9
 45
279.4
 46
0.0
 47
0.0
 48
0.0
 49
0.0
140
0.0
141
0.0
142
1.0
143
1.0
 70
  1712
 72
     1
 73
     0
 74
     0
  7

 75
     0
147
1.0
148
0.0
149
0.0
100
AcDbLayout
  1
Model
 70
     1
 71
     0
 10
0.0
 20
0.0
 11
86.36
 21
55.88
 12
0.0
 22
0.0
 32
0.0
 14
0.0
 24
0.0
 34
0.0
 15
86.36
 25
55.88
 35
0.0
146
0.0
 13
0.0
 23
0.0
 33
0.0
 16
1.0
 26
0.0
 36
0.0
 17
0.0
 27
1.0
 37
0.0
 76
     0
330
1F
331
29
  0
MLINESTYLE
  5
18
102
{ACAD_REACTORS
330
17
102
}
330
17
100
AcDbMlineStyle
  2
Standard
 70
     0
  3

 62
   256
 51
90.0
 52
90.0
 71
     2
 49
0.5
 62
   256
  6
BYLAYER
 49
-0.5
 62
   256
  6
BYLAYER
  0
ACDBPLACEHOLDER
  5
F
102
{ACAD_REACTORS
330
E
102
}
330
E
  0
SCALE
  5
48
102
{ACAD_REACTORS
330
47
102
}
330
47
100
AcDbScale
 70
     0
300
1:1
140
1.0
141
1.0
290
     1
  0
SCALE
  5
49
102
{ACAD_REACTORS
330
47
102
}
330
47
100
AcDbScale
 70
     0
300
1:2
140
1.0
141
2.0
290
     0
  0
SCALE
  5
4A
102
{ACAD_REACTORS
330
47
102
}
330
47
100
AcDbScale
 70
     0
300
1:4
140
1.0
141
4.0
290
     0
  0
SCALE
  5
4B
102
{ACAD_REACTORS
330
47
102
}
330
47
100
AcDbScale
 70
     0
300
1:5
140
1.0
141
5.0
290
     0
  0
SCALE
  5
4C
102
{ACAD_REACTORS
330
47
102
}
330
47
100
AcDbScale
 70
     0
300
1:8
140
1.0
141
8.0
290
     0
  0
SCALE
  5
4D
102
{ACAD_REACTORS
330
47
102
}
330
47
100
AcDbScale
 70
     0
300
1:10
140
1.0
141
10.0
290
     0
  0
SCALE
  5
4E
102
{ACAD_REACTORS
330
47
102
}
330
47
100
AcDbScale
 70
     0
300
1:16
140
1.0
141
16.0
290
     0
  0
SCALE
  5
4F
102
{ACAD_REACTORS
330
47
102
}
330
47
100
AcDbScale
 70
     0
300
1:20
140
1.0
141
20.0
290
     0
  0
SCALE
  5
50
102
{ACAD_REACTORS
330
47
102
}
330
47
100
AcDbScale
 70
     0
300
1:30
140
1.0
141
30.0
290
     0
  0
SCALE
  5
51
102
{ACAD_REACTORS
330
47
102
}
330
47
100
AcDbScale
 70
     0
300
1:40
140
1.0
141
40.0
290
     0
  0
SCALE
  5
52
102
{ACAD_REACTORS
330
47
102
}
330
47
100
AcDbScale
 70
     0
300
1:50
140
1.0
141
50.0
290
     0
  0
SCALE
  5
53
102
{ACAD_REACTORS
330
47
102
}
330
47
100
AcDbScale
 70
     0
300
1:100
140
1.0
141
100.0
290
     0
  0
SCALE
  5
54
102
{ACAD_REACTORS
330
47
102
}
330
47
100
AcDbScale
 70
     0
300
2:1
140
2.0
141
1.0
290
     0
  0
SCALE
  5
55
102
{ACAD_REACTORS
330
47
102
}
330
47
100
AcDbScale
 70
     0
300
4:1
140
4.0
141
1.0
290
     0
  0
SCALE
  5
56
102
{ACAD_REACTORS
330
47
102
}
330
47
100
AcDbScale
 70
     0
300
8:1
140
8.0
141
1.0
290
     0
  0
SCALE
  5
57
102
{ACAD_REACTORS
330
47
102
}
330
47
100
AcDbScale
 70
     0
300
10:1
140
10.0
141
1.0
290
     0
  0
SCALE
  5
58
102
{ACAD_REACTORS
330
47
102
}
330
47
100
AcDbScale
 70
     0
300
100:1
140
100.0
141
1.0
290
     0
  0
SCALE
  5
59
102
{ACAD_REACTORS
330
47
102
}
330
47
100
AcDbScale
 70
     0
300
1/128" = 1'-0"
140
0.0078125
141
12.0
290
     0
  0
SCALE
  5
5A
102
{ACAD_REACTORS
330
47
102
}
330
47
100
AcDbScale
 70
     0
300
1/64" = 1'-0"
140
0.015625
141
12.0
290
     0
  0
SCALE
  5
5B
102
{ACAD_REACTORS
330
47
102
}
330
47
100
AcDbScale
 70
     0
300
1/32" = 1'-0"
140
0.03125
141
12.0
290
     0
  0
SCALE
  5
5C
102
{ACAD_REACTORS
330
47
102
}
330
47
100
AcDbScale
 70
     0
300
1/16" = 1'-0"
140
0.0625
141
12.0
290
     0
  0
SCALE
  5
5D
102
{ACAD_REACTORS
330
47
102
}
330
47
100
AcDbScale
 70
     0
300
3/32" = 1'-0"
140
0.09375
141
12.0
290
     0
  0
SCALE
  5
5E
102
{ACAD_REACTORS
330
47
102
}
330
47
100
AcDbScale
 70
     0
300
1/8" = 1'-0"
140
0.125
141
12.0
290
     0
  0
SCALE
  5
5F
102
{ACAD_REACTORS
330
47
102
}
330
47
100
AcDbScale
 70
     0
300
3/16" = 1'-0"
140
0.1875
141
12.0
290
     0
  0
SCALE
  5
60
102
{ACAD_REACTORS
330
47
102
}
330
47
100
AcDbScale
 70
     0
300
1/4" = 1'-0"
140
0.25
141
12.0
290
     0
  0
SCALE
  5
61
102
{ACAD_REACTORS
330
47
102
}
330
47
100
AcDbScale
 70
     0
300
3/8" = 1'-0"
140
0.375
141
12.0
290
     0
  0
SCALE
  5
62
102
{ACAD_REACTORS
330
47
102
}
330
47
100
AcDbScale
 70
     0
300
1/2" = 1'-0"
140
0.5
141
12.0
290
     0
  0
SCALE
  5
63
102
{ACAD_REACTORS
330
47
102
}
330
47
100
AcDbScale
 70
     0
300
3/4" = 1'-0"
140
0.75
141
12.0
290
     0
  0
SCALE
  5
64
102
{ACAD_REACTORS
330
47
102
}
330
47
100
AcDbScale
 70
     0
300
1" = 1'-0"
140
1.0
141
12.0
290
     0
  0
SCALE
  5
65
102
{ACAD_REACTORS
330
47
102
}
330
47
100
AcDbScale
 70
     0
300
1-1/2" = 1'-0"
140
1.5
141
12.0
290
     0
  0
SCALE
  5
66
102
{ACAD_REACTORS
330
47
102
}
330
47
100
AcDbScale
 70
     0
300
3" = 1'-0"
140
3.0
141
12.0
290
     0
  0
SCALE
  5
67
102
{ACAD_REACTORS
330
47
102
}
330
47
100
AcDbScale
 70
     0
300
6" = 1'-0"
140
6.0
141
12.0
290
     0
  0
SCALE
  5
68
102
{ACAD_REACTORS
330
47
102
}
330
47
100
AcDbScale
 70
     0
300
1'-0" = 1'-0"
140
12.0
141
12.0
290
     0
  0
ENDSEC
  0
EOF
