  0
SECTION
  2
HEADER
  9
$ACADVER
  1
AC1015
  9
$ACADMAINTVER
 70
     6
  9
$DWGCODEPAGE
  3
DOS932
  9
$INSBASE
 10
0.0
 20
0.0
 30
0.0
  9
$EXTMIN
 10
0.0
 20
0.0
 30
0.0
  9
$EXTMAX
 10
297.0
 20
210.0
 30
0.0
  9
$LIMMIN
 10
0.0
 20
0.0
  9
$LIMMAX
 10
297.0
 20
210.0
  9
$ORTHOMODE
 70
     0
  9
$REGENMODE
 70
     1
  9
$FILLMODE
 70
     1
  9
$QTEXTMODE
 70
     0
  9
$MIRRTEXT
 70
     1
  9
$LTSCALE
 40
1.0
  9
$ATTMODE
 70
     1
  9
$TEXTSIZE
 40
3.5277777778
  9
$TRACEWID
 40
1.0
  9
$TEXTSTYLE
  7
Standard
  9
$CLAYER
  8
0
  9
$CELTYPE
  6
ByLayer
  9
$CECOLOR
 62
   256
  9
$CELTSCALE
 40
1.0
  9
$DISPSILH
 70
     0
  9
$DIMSCALE
 40
1.0
  9
$DIMASZ
 40
2.728515625
  9
$DIMEXO
 40
1.0
  9
$DIMDLI
 40
3.75
  9
$DIMRND
 40
0.0
  9
$DIMDLE
 40
0.0
  9
$DIMEXE
 40
1.0
  9
$DIMTP
 40
0.0
  9
$DIMTM
 40
0.0
  9
$DIMTXT
 40
3.5277777778
  9
$DIMCEN
 40
2.5
  9
$DIMTSZ
 40
0.0
  9
$DIMTOL
 70
     0
  9
$DIMLIM
 70
     0
  9
$DIMTIH
 70
     1
  9
$DIMTOH
 70
     1
  9
$DIMSE1
 70
     0
  9
$DIMSE2
 70
     0
  9
$DIMTAD
 70
     1
  9
$DIMZIN
 70
     0
  9
$DIMBLK
  1

  9
$DIMASO
 70
     1
  9
$DIMSHO
 70
     1
  9
$DIMPOST
  1

  9
$DIMAPOST
  1

  9
$DIMALT
 70
     0
  9
$DIMALTD
 70
     3
  9
$DIMALTF
 40
0.0393700787
  9
$DIMLFAC
 40
1.0
  9
$DIMTOFL
 70
     1
  9
$DIMTVP
 40
0.0
  9
$DIMTIX
 70
     0
  9
$DIMSOXD
 70
     0
  9
$DIMSAH
 70
     0
  9
$DIMBLK1
  1

  9
$DIMBLK2
  1

  9
$DIMSTYLE
  2
ISO-25
  9
$DIMCLRD
 70
     0
  9
$DIMCLRE
 70
     0
  9
$DIMCLRT
 70
     0
  9
$DIMTFAC
 40
1.0
  9
$DIMGAP
 40
1.524
  9
$DIMJUST
 70
     0
  9
$DIMSD1
 70
     0
  9
$DIMSD2
 70
     0
  9
$DIMTOLJ
 70
     0
  9
$DIMTZIN
 70
     0
  9
$DIMALTZ
 70
     0
  9
$DIMALTTZ
 70
     0
  9
$DIMUPT
 70
     0
  9
$DIMDEC
 70
     2
  9
$DIMTDEC
 70
     2
  9
$DIMALTU
 70
     2
  9
$DIMALTTD
 70
     3
  9
$DIMTXSTY
  7
Standard
  9
$DIMAUNIT
 70
     0
  9
$DIMADEC
 70
     2
  9
$DIMALTRND
 40
0.0
  9
$DIMAZIN
 70
     0
  9
$DIMDSEP
 70
    44
  9
$DIMATFIT
 70
     3
  9
$DIMFRAC
 70
     0
  9
$DIMLDRBLK
  1

  9
$DIMLUNIT
 70
     2
  9
$DIMLWD
 70
    -2
  9
$DIMLWE
 70
    -2
  9
$DIMTMOVE
 70
     0
  9
$LUNITS
 70
     2
  9
$LUPREC
 70
     2
  9
$SKETCHINC
 40
1.0
  9
$FILLETRAD
 40
0.0
  9
$AUNITS
 70
     0
  9
$AUPREC
 70
     2
  9
$MENU
  1
.
  9
$ELEVATION
 40
0.0
  9
$PELEVATION
 40
0.0
  9
$THICKNESS
 40
0.0
  9
$LIMCHECK
 70
     0
  9
$CHAMFERA
 40
0.0
  9
$CHAMFERB
 40
0.0
  9
$CHAMFERC
 40
0.0
  9
$CHAMFERD
 40
0.0
  9
$SKPOLY
 70
     0
  9
$TDCREATE
 40
2460398.681813843
  9
$TDUCREATE
 40
2460398.306813843
  9
$TDUPDATE
 40
2460398.681814502
  9
$TDUUPDATE
 40
2460398.306814502
  9
$TDINDWG
 40
0.0000000116
  9
$TDUSRTIMER
 40
0.0000000116
  9
$USRTIMER
 70
     1
  9
$ANGBASE
 50
0.0
  9
$ANGDIR
 70
     0
  9
$PDMODE
 70
     0
  9
$PDSIZE
 40
-1.0
  9
$PLINEWID
 40
0.0
  9
$SPLFRAME
 70
     0
  9
$SPLINETYPE
 70
     6
  9
$SPLINESEGS
 70
     8
  9
$HANDSEED
  5
12E
  9
$SURFTAB1
 70
     6
  9
$SURFTAB2
 70
     6
  9
$SURFTYPE
 70
     6
  9
$SURFU
 70
     6
  9
$SURFV
 70
     6
  9
$UCSBASE
  2

  9
$UCSNAME
  2

  9
$UCSORG
 10
0.0
 20
0.0
 30
0.0
  9
$UCSXDIR
 10
1.0
 20
0.0
 30
0.0
  9
$UCSYDIR
 10
0.0
 20
1.0
 30
0.0
  9
$UCSORTHOREF
  2

  9
$UCSORTHOVIEW
 70
     0
  9
$UCSORGTOP
 10
0.0
 20
0.0
 30
0.0
  9
$UCSORGBOTTOM
 10
0.0
 20
0.0
 30
0.0
  9
$UCSORGLEFT
 10
0.0
 20
0.0
 30
0.0
  9
$UCSORGRIGHT
 10
0.0
 20
0.0
 30
0.0
  9
$UCSORGFRONT
 10
0.0
 20
0.0
 30
0.0
  9
$UCSORGBACK
 10
0.0
 20
0.0
 30
0.0
  9
$PUCSBASE
  2

  9
$PUCSNAME
  2

  9
$PUCSORG
 10
0.0
 20
0.0
 30
0.0
  9
$PUCSXDIR
 10
1.0
 20
0.0
 30
0.0
  9
$PUCSYDIR
 10
0.0
 20
1.0
 30
0.0
  9
$PUCSORTHOREF
  2

  9
$PUCSORTHOVIEW
 70
     0
  9
$PUCSORGTOP
 10
0.0
 20
0.0
 30
0.0
  9
$PUCSORGBOTTOM
 10
0.0
 20
0.0
 30
0.0
  9
$PUCSORGLEFT
 10
0.0
 20
0.0
 30
0.0
  9
$PUCSORGRIGHT
 10
0.0
 20
0.0
 30
0.0
  9
$PUCSORGFRONT
 10
0.0
 20
0.0
 30
0.0
  9
$PUCSORGBACK
 10
0.0
 20
0.0
 30
0.0
  9
$USERI1
 70
     0
  9
$USERI2
 70
     0
  9
$USERI3
 70
     0
  9
$USERI4
 70
     0
  9
$USERI5
 70
     0
  9
$USERR1
 40
0.0
  9
$USERR2
 40
0.0
  9
$USERR3
 40
0.0
  9
$USERR4
 40
0.0
  9
$USERR5
 40
0.0
  9
$WORLDVIEW
 70
     1
  9
$SHADEDGE
 70
     3
  9
$SHADEDIF
 70
    70
  9
$TILEMODE
 70
     1
  9
$MAXACTVP
 70
    64
  9
$PINSBASE
 10
0.0
 20
0.0
 30
0.0
  9
$PLIMCHECK
 70
     0
  9
$PEXTMIN
 10
1.0000000000E+20
 20
1.0000000000E+20
 30
1.0000000000E+20
  9
$PEXTMAX
 10
-1.0000000000E+20
 20
-1.0000000000E+20
 30
-1.0000000000E+20
  9
$PLIMMIN
 10
0.0
 20
0.0
  9
$PLIMMAX
 10
420.0
 20
297.0
  9
$UNITMODE
 70
     0
  9
$VISRETAIN
 70
     1
  9
$PLINEGEN
 70
     0
  9
$PSLTSCALE
 70
     1
  9
$TREEDEPTH
 70
  3020
  9
$CMLSTYLE
  2
Standard
  9
$CMLJUST
 70
     0
  9
$CMLSCALE
 40
20.0
  9
$PROXYGRAPHICS
 70
     1
  9
$MEASUREMENT
 70
     1
  9
$CELWEIGHT
370
    -1
  9
$ENDCAPS
280
     0
  9
$JOINSTYLE
280
     0
  9
$LWDISPLAY
290
     1
  9
$INSUNITS
 70
     4
  9
$HYPERLINKBASE
  1

  9
$STYLESHEET
  1

  9
$XEDIT
290
     1
  9
$CEPSNTYPE
380
     0
  9
$PSTYLEMODE
290
     1
  9
$FINGERPRINTGUID
  2
{2eb60cf4-c31c-437c-a568-465d03b602f0}
  9
$VERSIONGUID
  2
{FAEB1C32-E019-11D5-929B-00C0DF256EC4}
  9
$EXTNAMES
290
     1
  9
$PSVPSCALE
 40
0.0
  9
$OLESTARTUP
290
     0
  0
ENDSEC
  0
SECTION
  2
CLASSES
  0
CLASS
  1
ACDBDICTIONARYWDFLT
  2
AcDbDictionaryWithDefault
  3
ObjectDBX Classes
 90
        0
280
     0
281
     0
  0
CLASS
  1
VISUALSTYLE
  2
AcDbVisualStyle
  3
ObjectDBX Classes
 90
     4095
280
     0
281
     0
  0
CLASS
  1
MATERIAL
  2
AcDbMaterial
  3
ObjectDBX Classes
 90
     1153
280
     0
281
     0
  0
CLASS
  1
SCALE
  2
AcDbScale
  3
ObjectDBX Classes
 90
     1153
280
     0
281
     0
  0
CLASS
  1
TABLESTYLE
  2
AcDbTableStyle
  3
ObjectDBX Classes
 90
     4095
280
     0
281
     0
  0
CLASS
  1
MLEADERSTYLE
  2
AcDbMLeaderStyle
  3
ACDB_MLEADERSTYLE_CLASS
 90
     4095
280
     0
281
     0
  0
CLASS
  1
SUN
  2
AcDbSun
  3
SCENEOE
 90
     1153
280
     0
281
     0
  0
CLASS
  1
ACDBPLACEHOLDER
  2
AcDbPlaceHolder
  3
ObjectDBX Classes
 90
        0
280
     0
281
     0
  0
CLASS
  1
LAYOUT
  2
AcDbLayout
  3
ObjectDBX Classes
 90
        0
280
     0
281
     0
  0
ENDSEC
  0
SECTION
  2
TABLES
  0
TABLE
  2
VPORT
  5
8
330
0
100
AcDbSymbolTable
 70
     1
  0
VPORT
  5
29
330
8
100
AcDbSymbolTableRecord
100
AcDbViewportTableRecord
  2
*Active
 70
     0
 10
0.0
 20
0.0
 11
1.0
 21
1.0
 12
148.5
 22
105.0
 13
0.0
 23
0.0
 14
10.0
 24
10.0
 15
10.0
 25
10.0
 16
0.0
 26
0.0
 36
1.0
 17
0.0
 27
0.0
 37
0.0
 40
210.0
 41
1.4142857143
 42
50.0
 43
0.0
 44
0.0
 50
0.0
 51
0.0
 71
     0
 72
  2000
 73
     1
 74
     3
 75
     0
 76
     0
 77
     0
 78
     0
281
     0
 65
     1
110
0.0
120
0.0
130
0.0
111
1.0
121
0.0
131
0.0
112
0.0
122
1.0
132
0.0
 79
     0
146
0.0
  0
ENDTAB
  0
TABLE
  2
LTYPE
  5
5
330
0
100
AcDbSymbolTable
 70
     6
  0
LTYPE
  5
14
330
5
100
AcDbSymbolTableRecord
100
AcDbLinetypeTableRecord
  2
ByBlock
 70
     0
  3

 72
    65
 73
     0
 40
0.0
  0
LTYPE
  5
15
330
5
100
AcDbSymbolTableRecord
100
AcDbLinetypeTableRecord
  2
ByLayer
 70
     0
  3

 72
    65
 73
     0
 40
0.0
  0
LTYPE
  5
16
330
5
100
AcDbSymbolTableRecord
100
AcDbLinetypeTableRecord
  2
Continuous
 70
     0
  3
Solid line
 72
    65
 73
     0
 40
0.0
  0
LTYPE
  5
5E
330
5
100
AcDbSymbolTableRecord
100
AcDbLinetypeTableRecord
  2
HIDDEN
 70
     0
  3
Hidden __ __ __ __ __ __ __ __ __ __ __ __ __ __
 72
    65
 73
     2
 40
1.905
 49
1.27
 74
     0
 49
-0.635
 74
     0
  0
LTYPE
  5
5F
330
5
100
AcDbSymbolTableRecord
100
AcDbLinetypeTableRecord
  2
PHANTOM
 70
     0
  3
Phantom ______  __  __  ______  __  __  ______
 72
    65
 73
     6
 40
12.7
 49
6.35
 74
     0
 49
-1.27
 74
     0
 49
1.27
 74
     0
 49
-1.27
 74
     0
 49
1.27
 74
     0
 49
-1.27
 74
     0
  0
LTYPE
  5
60
330
5
100
AcDbSymbolTableRecord
100
AcDbLinetypeTableRecord
  2
CENTER
 70
     0
  3
Center ____ _ ____ _ ____ _ ____ _ ____ _ ____
 72
    65
 73
     4
 40
10.16
 49
6.35
 74
     0
 49
-1.27
 74
     0
 49
1.27
 74
     0
 49
-1.27
 74
     0
  0
LTYPE
  5
61
330
5
100
AcDbSymbolTableRecord
100
AcDbLinetypeTableRecord
  2
CENTERX2
 70
     0
  3
Center (2x) ________  __  ________  __  _____
 72
    65
 73
     4
 40
20.32
 49
12.7
 74
     0
 49
-2.54
 74
     0
 49
2.54
 74
     0
 49
-2.54
 74
     0
  0
LTYPE
  5
62
330
5
100
AcDbSymbolTableRecord
100
AcDbLinetypeTableRecord
  2
DOT2
 70
     0
  3
Dot (.5x) ........................................
 72
    65
 73
     2
 40
0.635
 49
0.0
 74
     0
 49
-0.635
 74
     0
  0
ENDTAB
  0
TABLE
  2
LAYER
  5
2
330
0
100
AcDbSymbolTable
 70
     2
  0
LAYER
  5
10
330
2
100
AcDbSymbolTableRecord
100
AcDbLayerTableRecord
  2
0
 70
     0
 62
     7
  6
Continuous
370
    -3
390
F
  0
LAYER
  5
63
330
2
100
AcDbSymbolTableRecord
100
AcDbLayerTableRecord
  2
FORMAT
 70
     0
 62
     7
  6
Continuous
370
    -3
390
F
  0
ENDTAB
  0
TABLE
  2
STYLE
  5
3
330
0
100
AcDbSymbolTable
 70
     2
  0
STYLE
  5
11
330
3
100
AcDbSymbolTableRecord
100
AcDbTextStyleTableRecord
  2
Standard
 70
     0
 40
0.0
 41
1.0
 50
0.0
 71
     0
 42
3.5277777778
  3
txt
  4
bigfont
  0
STYLE
  5
64
330
3
100
AcDbSymbolTableRecord
100
AcDbTextStyleTableRecord
  2
SLDTEXTSTYLE0
 70
     0
 40
0.0
 41
0.7
 50
0.0
 71
     0
 42
3.5277777778
  3
TXT
  4
bigfont
  0
ENDTAB
  0
TABLE
  2
VIEW
  5
6
330
0
100
AcDbSymbolTable
 70
     0
  0
ENDTAB
  0
TABLE
  2
UCS
  5
7
330
0
100
AcDbSymbolTable
 70
     0
  0
ENDTAB
  0
TABLE
  2
APPID
  5
9
330
0
100
AcDbSymbolTable
 70
     1
  0
APPID
  5
12
330
9
100
AcDbSymbolTableRecord
100
AcDbRegAppTableRecord
  2
ACAD
 70
     0
  0
ENDTAB
  0
TABLE
  2
DIMSTYLE
  5
A
330
0
100
AcDbSymbolTable
 70
     1
100
AcDbDimStyleTable
  0
DIMSTYLE
105
27
330
A
100
AcDbSymbolTableRecord
100
AcDbDimStyleTableRecord
  2
ISO-25
 70
     0
 41
2.5
 42
0.625
 43
3.75
 44
1.25
 73
     0
 74
     0
 77
     1
 78
     8
140
2.5
141
2.5
143
0.0393700787
147
0.625
171
     3
172
     1
178
     0
271
     2
272
     2
274
     3
278
    44
283
     0
284
     8
340
11
  0
ENDTAB
  0
TABLE
  2
BLOCK_RECORD
  5
1
330
0
100
AcDbSymbolTable
 70
     2
  0
BLOCK_RECORD
  5
1F
330
1
100
AcDbSymbolTableRecord
100
AcDbBlockTableRecord
  2
*Model_Space
340
22
  0
BLOCK_RECORD
  5
1B
330
1
100
AcDbSymbolTableRecord
100
AcDbBlockTableRecord
  2
*Paper_Space
340
1E
  0
BLOCK_RECORD
  5
23
330
1
100
AcDbSymbolTableRecord
100
AcDbBlockTableRecord
  2
*Paper_Space0
340
26
  0
BLOCK_RECORD
  5
104
330
1
100
AcDbSymbolTableRecord
100
AcDbBlockTableRecord
  2
SW_CENTERMARKSYMBOL_0
340
0
102
{BLKREFS
331
10F
102
}
  0
ENDTAB
  0
ENDSEC
  0
SECTION
  2
BLOCKS
  0
BLOCK
  5
20
330
1F
100
AcDbEntity
  8
0
100
AcDbBlockBegin
  2
*Model_Space
 70
     0
 10
0.0
 20
0.0
 30
0.0
  3
*Model_Space
  1

  0
ENDBLK
  5
21
330
1F
100
AcDbEntity
  8
0
100
AcDbBlockEnd
  0
BLOCK
  5
1C
330
1B
100
AcDbEntity
 67
     1
  8
0
100
AcDbBlockBegin
  2
*Paper_Space
 70
     0
 10
0.0
 20
0.0
 30
0.0
  3
*Paper_Space
  1

  0
ENDBLK
  5
1D
330
1B
100
AcDbEntity
 67
     1
  8
0
100
AcDbBlockEnd
  0
BLOCK
  5
24
330
23
100
AcDbEntity
  8
0
100
AcDbBlockBegin
  2
*Paper_Space0
 70
     0
 10
0.0
 20
0.0
 30
0.0
  3
*Paper_Space0
  1

  0
ENDBLK
  5
25
330
23
100
AcDbEntity
  8
0
100
AcDbBlockEnd
  0
BLOCK
  5
105
330
104
100
AcDbEntity
  8
0
100
AcDbBlockBegin
  2
SW_CENTERMARKSYMBOL_0
 70
     0
 10
0.0
 20
0.0
 30
0.0
  3
SW_CENTERMARKSYMBOL_0
  1

  0
LINE
  5
107
330
104
100
AcDbEntity
  8
FORMAT
 62
     0
100
AcDbLine
 10
0.0
 20
0.0
 30
0.0
 11
0.0
 21
2.5
 31
0.0
  0
LINE
  5
108
330
104
100
AcDbEntity
  8
FORMAT
 62
     0
100
AcDbLine
 10
0.0
 20
0.0
 30
0.0
 11
-2.5
 21
0.0
 31
0.0
  0
LINE
  5
109
330
104
100
AcDbEntity
  8
FORMAT
 62
     0
100
AcDbLine
 10
0.0
 20
0.0
 30
0.0
 11
0.0
 21
-2.5
 31
0.0
  0
LINE
  5
10A
330
104
100
AcDbEntity
  8
FORMAT
 62
     0
100
AcDbLine
 10
0.0
 20
0.0
 30
0.0
 11
2.5
 21
0.0
 31
0.0
  0
LINE
  5
10B
330
104
100
AcDbEntity
  8
FORMAT
 62
     0
100
AcDbLine
 10
0.0
 20
5.0
 30
0.0
 11
0.0
 21
21.3908969205
 31
0.0
  0
LINE
  5
10C
330
104
100
AcDbEntity
  8
FORMAT
 62
     0
100
AcDbLine
 10
-5.0
 20
0.0
 30
0.0
 11
-19.75
 21
0.0
 31
0.0
  0
LINE
  5
10D
330
104
100
AcDbEntity
  8
FORMAT
 62
     0
100
AcDbLine
 10
0.0
 20
-5.0
 30
0.0
 11
0.0
 21
-21.2754091747
 31
0.0
  0
LINE
  5
10E
330
104
100
AcDbEntity
  8
FORMAT
 62
     0
100
AcDbLine
 10
5.0
 20
0.0
 30
0.0
 11
19.75
 21
0.0
 31
0.0
  0
ENDBLK
  5
106
330
104
100
AcDbEntity
  8
0
100
AcDbBlockEnd
  0
ENDSEC
  0
SECTION
  2
ENTITIES
  0
MTEXT
  5
65
330
1F
100
AcDbEntity
  8
FORMAT
100
AcDbMText
 10
227.3515156066
 20
105.6796337708
 30
0.0
 40
4.2333333333
 41
0.0
 71
     1
 72
     1
  1
5NB-7486
  7
SLDTEXTSTYLE0
 73
     1
 44
1.0
  0
LINE
  5
66
330
1F
100
AcDbEntity
  8
0
  6
Continuous
 62
     7
370
    25
100
AcDbLine
 10
199.5346488941
 20
92.1283966346
 30
0.0
 11
197.827274371
 21
89.171137213
 31
0.0
  0
LINE
  5
67
330
1F
100
AcDbEntity
  8
0
  6
Continuous
 62
     7
370
    25
100
AcDbLine
 10
197.827274371
 20
54.671137213
 30
0.0
 11
199.5346488941
 21
51.7138777913
 31
0.0
  0
LINE
  5
68
330
1F
100
AcDbEntity
  8
0
  6
Continuous
 62
     7
370
    25
100
AcDbLine
 10
207.1198998478
 20
51.7138777913
 30
0.0
 11
208.827274371
 21
54.671137213
 31
0.0
  0
LINE
  5
69
330
1F
100
AcDbEntity
  8
0
  6
Continuous
 62
     7
370
    25
100
AcDbLine
 10
208.827274371
 20
89.171137213
 30
0.0
 11
207.1198998478
 21
92.1283966346
 31
0.0
  0
LINE
  5
6A
330
1F
100
AcDbEntity
  8
0
  6
Continuous
 62
     7
370
    25
100
AcDbLine
 10
197.827274371
 20
88.905137213
 30
0.0
 11
177.8298550161
 21
88.2802178581
 31
0.0
  0
LINE
  5
6B
330
1F
100
AcDbEntity
  8
0
  6
Continuous
 62
     7
370
    25
100
AcDbLine
 10
177.8298550161
 20
55.5620565678
 30
0.0
 11
197.827274371
 21
54.937137213
 31
0.0
  0
LINE
  5
6C
330
1F
100
AcDbEntity
  8
0
  6
Continuous
 62
     7
370
    25
100
AcDbLine
 10
177.8298550161
 20
88.2802178581
 30
0.0
 11
175.827274371
 21
86.277637213
 31
0.0
  0
LINE
  5
6D
330
1F
100
AcDbEntity
  8
0
  6
Continuous
 62
     7
370
    25
100
AcDbLine
 10
175.827274371
 20
57.564637213
 30
0.0
 11
177.8298550161
 21
55.5620565678
 31
0.0
  0
SPLINE
  5
6E
330
1F
100
AcDbEntity
  8
0
  6
Continuous
 62
     7
370
    25
100
AcDbSpline
210
0.0
220
0.0
230
1.0
 70
     8
 71
     3
 72
    18
 73
    14
 74
     0
 42
0.00000001
 43
0.00000001
 40
0.0
 40
0.0
 40
0.0
 40
0.0
 40
0.2499999999999999
 40
0.2499999999999999
 40
0.4999999999999998
 40
0.4999999999999998
 40
0.5624999999999998
 40
0.5624999999999998
 40
0.6249999999999998
 40
0.6249999999999998
 40
0.7499999999999998
 40
0.7499999999999998
 40
1.0
 40
1.0
 40
1.0
 40
1.0
 10
199.5346488941329
 20
51.71387779134174
 30
0.0
 10
199.0584124442395
 20
52.53874351897332
 30
0.0
 10
198.6659074701917
 20
53.36962299894789
 30
0.0
 10
198.1221607403677
 20
55.0487099377664
 30
0.0
 10
197.9727125676032
 20
55.8970462151213
 30
0.0
 10
197.9713444697076
 20
56.97078536410176
 30
0.0
 10
197.9802691427806
 20
57.18662164526981
 30
0.0
 10
198.0162282791767
 20
57.6163363283877
 30
0.0
 10
198.0432211569527
 20
57.83044717661175
 30
0.0
 10
198.1500694850423
 20
58.47063716148958
 30
0.0
 10
198.2558551119239
 20
58.89456872917182
 30
0.0
 10
198.6643421837379
 20
60.15881591820855
 30
0.0
 10
199.0578187317786
 20
60.99161343438107
 30
0.0
 10
199.5346488941329
 20
61.81750750216023
 30
0.0
  0
LINE
  5
6F
330
1F
100
AcDbEntity
  8
0
  6
Continuous
 62
     7
370
    25
100
AcDbLine
 10
199.5346488941
 20
61.8175075022
 30
0.0
 11
207.1198998478
 21
61.8175075022
 31
0.0
  0
SPLINE
  5
70
330
1F
100
AcDbEntity
  8
0
  6
Continuous
 62
     7
370
    25
100
AcDbSpline
210
0.0
220
0.0
230
1.0
 70
     8
 71
     3
 72
    18
 73
    14
 74
     0
 42
0.00000001
 43
0.00000001
 40
0.0
 40
0.0
 40
0.0
 40
0.0
 40
0.2499999999999999
 40
0.2499999999999999
 40
0.4999999999999998
 40
0.4999999999999998
 40
0.5624999999999998
 40
0.5624999999999998
 40
0.6249999999999998
 40
0.6249999999999998
 40
0.7499999999999998
 40
0.7499999999999998
 40
1.0
 40
1.0
 40
1.0
 40
1.0
 10
207.119899847842
 20
51.71387779134174
 30
0.0
 10
207.5961362977354
 20
52.53874351897332
 30
0.0
 10
207.9886412717832
 20
53.36962299894789
 30
0.0
 10
208.5323880016071
 20
55.0487099377664
 30
0.0
 10
208.6818361743717
 20
55.8970462151213
 30
0.0
 10
208.6832042722673
 20
56.97078536410176
 30
0.0
 10
208.6742795991943
 20
57.18662164526981
 30
0.0
 10
208.6383204627981
 20
57.6163363283877
 30
0.0
 10
208.6113275850222
 20
57.83044717661175
 30
0.0
 10
208.5044792569326
 20
58.47063716148958
 30
0.0
 10
208.398693630051
 20
58.89456872917182
 30
0.0
 10
207.990206558237
 20
60.15881591820855
 30
0.0
 10
207.5967300101963
 20
60.99161343438107
 30
0.0
 10
207.1198998478419
 20
61.81750750216023
 30
0.0
  0
LINE
  5
71
330
1F
100
AcDbEntity
  8
0
  6
Continuous
 62
     7
370
    25
100
AcDbLine
 10
199.5346488941
 20
51.7138777913
 30
0.0
 11
207.1198998478
 21
51.7138777913
 31
0.0
  0
SPLINE
  5
72
330
1F
100
AcDbEntity
  8
0
  6
Continuous
 62
     7
370
    25
100
AcDbSpline
210
0.0
220
0.0
230
1.0
 70
     8
 71
     3
 72
    14
 73
    10
 74
     0
 42
0.00000001
 43
0.00000001
 40
0.0
 40
0.0
 40
0.0
 40
0.0
 40
0.25
 40
0.25
 40
0.5
 40
0.5
 40
0.75
 40
0.75
 40
1.0
 40
1.0
 40
1.0
 40
1.0
 10
199.5346488941331
 20
61.81750750216021
 30
0.0
 10
199.0598516297512
 20
63.46225347256838
 30
0.0
 10
198.6671977056745
 20
65.12217860121602
 30
0.0
 10
198.1220973866504
 20
68.4864164872761
 30
0.0
 10
197.971474873222
 20
70.19263822372592
 30
0.0
 10
197.9717491936792
 20
73.65443999954886
 30
0.0
 10
198.1223729681733
 20
75.3579663312948
 30
0.0
 10
198.6673586651725
 20
78.7206813395409
 30
0.0
 10
199.0599034779645
 20
80.38020056086825
 30
0.0
 10
199.5346488941331
 20
82.02476692379712
 30
0.0
  0
LINE
  5
73
330
1F
100
AcDbEntity
  8
0
  6
Continuous
 62
     7
370
    25
100
AcDbLine
 10
199.5346488941
 20
82.0247669238
 30
0.0
 11
207.1198998478
 21
82.0247669238
 31
0.0
  0
SPLINE
  5
74
330
1F
100
AcDbEntity
  8
0
  6
Continuous
 62
     7
370
    25
100
AcDbSpline
210
0.0
220
0.0
230
1.0
 70
     8
 71
     3
 72
    14
 73
    10
 74
     0
 42
0.00000001
 43
0.00000001
 40
0.0
 40
0.0
 40
0.0
 40
0.0
 40
0.25
 40
0.25
 40
0.5
 40
0.5
 40
0.75
 40
0.75
 40
1.0
 40
1.0
 40
1.0
 40
1.0
 10
207.1198998478418
 20
61.81750750216021
 30
0.0
 10
207.5946971122237
 20
63.46225347256838
 30
0.0
 10
207.9873510363003
 20
65.12217860121602
 30
0.0
 10
208.5324513553245
 20
68.4864164872761
 30
0.0
 10
208.6830738687528
 20
70.19263822372592
 30
0.0
 10
208.6827995482957
 20
73.65443999954886
 30
0.0
 10
208.5321757738016
 20
75.3579663312948
 30
0.0
 10
207.9871900768024
 20
78.7206813395409
 30
0.0
 10
207.5946452640104
 20
80.38020056086825
 30
0.0
 10
207.1198998478418
 20
82.02476692379712
 30
0.0
  0
SPLINE
  5
75
330
1F
100
AcDbEntity
  8
0
  6
Continuous
 62
     7
370
    25
100
AcDbSpline
210
0.0
220
0.0
230
1.0
 70
     8
 71
     3
 72
    23
 73
    19
 74
     0
 42
0.00000001
 43
0.00000001
 40
0.0
 40
0.0
 40
0.0
 40
0.0
 40
0.0441906106282865
 40
0.0897849017527576
 40
0.1375220657281903
 40
0.1870790674012532
 40
0.2386344326447444
 40
0.292841115526398
 40
0.3496729339480915
 40
0.4094358303820873
 40
0.4719926205430656
 40
0.5377040045925532
 40
0.6060605743707042
 40
0.6781604155713942
 40
0.7535848462545455
 40
0.8324062082865283
 40
0.9141977901571282
 40
1.0
 40
1.0
 40
1.0
 40
1.0
 10
202.2774674211805
 20
65.80314530217551
 30
0.0
 10
202.2896282887274
 20
65.81475451760433
 30
0.0
 10
202.3143363043535
 20
65.83834170619218
 30
0.0
 10
202.3558676309335
 20
65.87031085906914
 30
0.0
 10
202.4017925957758
 20
65.89939459929184
 30
0.0
 10
202.4508914827526
 20
65.92766414779206
 30
0.0
 10
202.5046894994346
 20
65.95217298699389
 30
0.0
 10
202.5619398344824
 20
65.97558627722067
 30
0.0
 10
202.6236013910134
 20
65.99608681543675
 30
0.0
 10
202.6889107995191
 20
66.01557364678658
 30
0.0
 10
202.7586993982916
 20
66.0312965144729
 30
0.0
 10
202.8320300763016
 20
66.04592536155452
 30
0.0
 10
202.9095075312459
 20
66.05807436668135
 30
0.0
 10
202.9910347694133
 20
66.06780174029416
 30
0.0
 10
203.076792759468
 20
66.07534153088581
 30
0.0
 10
203.1664223837955
 20
66.08025093729482
 30
0.0
 10
203.2600611810398
 20
66.08403919568144
 30
0.0
 10
203.3237952942372
 20
66.0844183630818
 30
0.0
 10
203.356424950138
 20
66.0846124836427
 30
0.0
  0
SPLINE
  5
76
330
1F
100
AcDbEntity
  8
0
  6
Continuous
 62
     7
370
    25
100
AcDbSpline
210
0.0
220
0.0
230
1.0
 70
     8
 71
     3
 72
    15
 73
    11
 74
     0
 42
0.00000001
 43
0.00000001
 40
0.0
 40
0.0
 40
0.0
 40
0.0
 40
0.1195040863107436
 40
0.2383815255843717
 40
0.3571090773014076
 40
0.4777214423508238
 40
0.6009465942306371
 40
0.7281225224148413
 40
0.860631793127153
 40
1.0
 40
1.0
 40
1.0
 40
1.0
 10
202.0429114366245
 20
65.28712213615235
 30
0.0
 10
202.0435396901964
 20
65.31032985806665
 30
0.0
 10
202.0447929029486
 20
65.35662360689196
 30
0.0
 10
202.0561488845534
 20
65.42522859485669
 30
0.0
 10
202.0749876867834
 20
65.49225519898052
 30
0.0
 10
202.1004232401634
 20
65.55800080753026
 30
0.0
 10
202.1337007608281
 20
65.62204019179988
 30
0.0
 10
202.1748070232889
 20
65.68405777543411
 30
0.0
 10
202.2222805514369
 20
65.74540955240276
 30
0.0
 10
202.258764987648
 20
65.78357907151975
 30
0.0
 10
202.2774674211805
 20
65.80314530217551
 30
0.0
  0
SPLINE
  5
77
330
1F
100
AcDbEntity
  8
0
  6
Continuous
 62
     7
370
    25
100
AcDbSpline
210
0.0
220
0.0
230
1.0
 70
     8
 71
     3
 72
    15
 73
    11
 74
     0
 42
0.00000001
 43
0.00000001
 40
0.0
 40
0.0
 40
0.0
 40
0.0
 40
0.1171086905579873
 40
0.2333993299620623
 40
0.3506160626962322
 40
0.4711822020542312
 40
0.5946445890795224
 40
0.7237659205994504
 40
0.8581711095996146
 40
1.0
 40
1.0
 40
1.0
 40
1.0
 10
202.2305562242693
 20
64.77109897012917
 30
0.0
 10
202.2155207126316
 20
64.78719722632918
 30
0.0
 10
202.1855547184328
 20
64.81928128595565
 30
0.0
 10
202.1470498374258
 20
64.87304581062497
 30
0.0
 10
202.1152895609311
 20
64.93164958483594
 30
0.0
 10
202.0883472747949
 20
64.99411905129291
 30
0.0
 10
202.0684060913093
 20
65.06148949080504
 30
0.0
 10
202.0531366699158
 20
65.13268248076103
 30
0.0
 10
202.0445062449991
 20
65.20853157391845
 30
0.0
 10
202.0434524792868
 20
65.26046009468313
 30
0.0
 10
202.0429114366245
 20
65.28712213615235
 30
0.0
  0
SPLINE
  5
78
330
1F
100
AcDbEntity
  8
0
  6
Continuous
 62
     7
370
    25
100
AcDbSpline
210
0.0
220
0.0
230
1.0
 70
     8
 71
     3
 72
    15
 73
    11
 74
     0
 42
0.00000001
 43
0.00000001
 40
0.0
 40
0.0
 40
0.0
 40
0.0
 40
0.147627072439686
 40
0.2864810592714896
 40
0.4181894659268069
 40
0.5428808841137349
 40
0.6619178330920032
 40
0.7770087505932
 40
0.8893050437597239
 40
1.0
 40
1.0
 40
1.0
 40
1.0
 10
202.9654983092114
 20
64.52090591993613
 30
0.0
 10
202.9262813849826
 20
64.52169091220085
 30
0.0
 10
202.8501780943818
 20
64.52321424672076
 30
0.0
 10
202.7395440411226
 20
64.53477799724287
 30
0.0
 10
202.6363005261536
 20
64.5544012675004
 30
0.0
 10
202.54009621998
 20
64.58127820703828
 30
0.0
 10
202.4515036040051
 20
64.61692810110755
 30
0.0
 10
202.3698823553466
 20
64.6597161815134
 30
0.0
 10
202.2954940342632
 20
64.71063307794158
 30
0.0
 10
202.2520982835872
 20
64.75104039660572
 30
0.0
 10
202.2305562242693
 20
64.77109897012917
 30
0.0
  0
SPLINE
  5
79
330
1F
100
AcDbEntity
  8
0
  6
Continuous
 62
     7
370
    25
100
AcDbSpline
210
0.0
220
0.0
230
1.0
 70
     8
 71
     3
 72
    15
 73
    11
 74
     0
 42
0.00000001
 43
0.00000001
 40
0.0
 40
0.0
 40
0.0
 40
0.0
 40
0.1094376231375984
 40
0.2200197609697447
 40
0.3343721928536031
 40
0.4529129170384315
 40
0.5777009796868826
 40
0.7100641746072385
 40
0.8508042784674905
 40
1.0
 40
1.0
 40
1.0
 40
1.0
 10
203.6691662628793
 20
64.75546190449211
 30
0.0
 10
203.6487741538498
 20
64.73656139399908
 30
0.0
 10
203.6077766721272
 20
64.69856270870551
 30
0.0
 10
203.5370439052153
 20
64.65114809122602
 30
0.0
 10
203.4598267733799
 20
64.61046354007094
 30
0.0
 10
203.3751131797546
 20
64.57734646460848
 30
0.0
 10
203.2830324230788
 20
64.55215914907839
 30
0.0
 10
203.1836789012008
 20
64.53370009569221
 30
0.0
 10
203.0769465589566
 20
64.52263983623533
 30
0.0
 10
203.0033630496307
 20
64.52149502107255
 30
0.0
 10
202.9654983092114
 20
64.52090591993613
 30
0.0
  0
SPLINE
  5
7A
330
1F
100
AcDbEntity
  8
0
  6
Continuous
 62
     7
370
    25
100
AcDbSpline
210
0.0
220
0.0
230
1.0
 70
     8
 71
     3
 72
    15
 73
    11
 74
     0
 42
0.00000001
 43
0.00000001
 40
0.0
 40
0.0
 40
0.0
 40
0.0
 40
0.132887938264281
 40
0.261176441543332
 40
0.3862019221938198
 40
0.5075747214113135
 40
0.6293724124715362
 40
0.7508835925619992
 40
0.8736128964297305
 40
1.0
 40
1.0
 40
1.0
 40
1.0
 10
203.8568110505241
 20
65.22457387360409
 30
0.0
 10
203.8562587511603
 20
65.2015767082137
 30
0.0
 10
203.8551732682762
 20
65.15637834107294
 30
0.0
 10
203.8464920022778
 20
65.08995801140115
 30
0.0
 10
203.8312032685178
 20
65.02687313341146
 30
0.0
 10
203.8110481586633
 20
64.9663102047206
 30
0.0
 10
203.7840328429348
 20
64.90916530442097
 30
0.0
 10
203.7523982375574
 20
64.85418253521125
 30
0.0
 10
203.7136360968813
 20
64.80286511608372
 30
0.0
 10
203.6841339352206
 20
64.77141689409235
 30
0.0
 10
203.6691662628793
 20
64.75546190449211
 30
0.0
  0
SPLINE
  5
7B
330
1F
100
AcDbEntity
  8
0
  6
Continuous
 62
     7
370
    25
100
AcDbSpline
210
0.0
220
0.0
230
1.0
 70
     8
 71
     3
 72
    15
 73
    11
 74
     0
 42
0.00000001
 43
0.00000001
 40
0.0
 40
0.0
 40
0.0
 40
0.0
 40
0.1277118540336131
 40
0.2523621141955306
 40
0.3748537650566242
 40
0.4969693854038483
 40
0.6192731655242176
 40
0.7424854443019967
 40
0.8694478780376617
 40
1.0
 40
1.0
 40
1.0
 40
1.0
 10
203.7160774597905
 20
65.56858931761953
 30
0.0
 10
203.7273719289592
 20
65.55686756629544
 30
0.0
 10
203.7496901087373
 20
65.5337050652997
 30
0.0
 10
203.7777845668383
 20
65.49499590600499
 30
0.0
 10
203.8026466614504
 20
65.45501478779606
 30
0.0
 10
203.8220855618492
 20
65.4124320000762
 30
0.0
 10
203.8379910511253
 20
65.36834848131376
 30
0.0
 10
203.849020805781
 20
65.32212965264306
 30
0.0
 10
203.8553636132767
 20
65.27397967916872
 30
0.0
 10
203.8563241084213
 20
65.24119481305864
 30
0.0
 10
203.8568110505241
 20
65.22457387360409
 30
0.0
  0
SPLINE
  5
7C
330
1F
100
AcDbEntity
  8
0
  6
Continuous
 62
     7
370
    25
100
AcDbSpline
210
0.0
220
0.0
230
1.0
 70
     8
 71
     3
 72
    11
 73
     7
 74
     0
 42
0.00000001
 43
0.00000001
 40
0.0
 40
0.0
 40
0.0
 40
0.0
 40
0.2456044615709272
 40
0.4924340960494097
 40
0.7435400941223393
 40
1.0
 40
1.0
 40
1.0
 40
1.0
 10
203.5127956065087
 20
65.72495997399018
 30
0.0
 10
203.5309333440469
 20
65.71423982284335
 30
0.0
 10
203.5672992973847
 20
65.69274604416466
 30
0.0
 10
203.6188574332371
 20
65.65512572994406
 30
0.0
 10
203.6689493380527
 20
65.61412402548248
 30
0.0
 10
203.7002580025031
 20
65.58387391500155
 30
0.0
 10
203.7160774597905
 20
65.56858931761953
 30
0.0
  0
SPLINE
  5
7D
330
1F
100
AcDbEntity
  8
0
  6
Continuous
 62
     7
370
    25
100
AcDbSpline
210
0.0
220
0.0
230
1.0
 70
     8
 71
     3
 72
    15
 73
    11
 74
     0
 42
0.00000001
 43
0.00000001
 40
0.0
 40
0.0
 40
0.0
 40
0.0
 40
0.0964433484801637
 40
0.1980702687146754
 40
0.3069659373397292
 40
0.424387949689493
 40
0.551351396246796
 40
0.6889628351337207
 40
0.838501196133989
 40
1.0
 40
1.0
 40
1.0
 40
1.0
 10
204.3884712821844
 20
65.47476692379712
 30
0.0
 10
204.3662331753347
 20
65.49495286867257
 30
0.0
 10
204.3205617229346
 20
65.53640969891275
 30
0.0
 10
204.2391556617046
 20
65.58716928752735
 30
0.0
 10
204.1463399205338
 20
65.62976015873116
 30
0.0
 10
204.0421105016943
 20
65.6650606263837
 30
0.0
 10
203.9262288016645
 20
65.69175051074903
 30
0.0
 10
203.7988774112551
 20
65.71134029387788
 30
0.0
 10
203.6597191335295
 20
65.72267769474196
 30
0.0
 10
203.5630097181186
 20
65.72417995851397
 30
0.0
 10
203.5127956065087
 20
65.72495997399018
 30
0.0
  0
SPLINE
  5
7E
330
1F
100
AcDbEntity
  8
0
  6
Continuous
 62
     7
370
    25
100
AcDbSpline
210
0.0
220
0.0
230
1.0
 70
     8
 71
     3
 72
    11
 73
     7
 74
     0
 42
0.00000001
 43
0.00000001
 40
0.0
 40
0.0
 40
0.0
 40
0.0
 40
0.2600145085164594
 40
0.5081836035516296
 40
0.7509482378681017
 40
1.0
 40
1.0
 40
1.0
 40
1.0
 10
204.4822936760067
 20
65.24021093924115
 30
0.0
 10
204.481234589324
 20
65.2627241890834
 30
0.0
 10
204.4791646644958
 20
65.30672505848784
 30
0.0
 10
204.461349464662
 20
65.369723233123
 30
0.0
 10
204.4314449910838
 20
65.42699374044
 30
0.0
 10
204.4029174124476
 20
65.45870739234074
 30
0.0
 10
204.3884712821844
 20
65.47476692379712
 30
0.0
  0
SPLINE
  5
7F
330
1F
100
AcDbEntity
  8
0
  6
Continuous
 62
     7
370
    25
100
AcDbSpline
210
0.0
220
0.0
230
1.0
 70
     8
 71
     3
 72
    11
 73
     7
 74
     0
 42
0.00000001
 43
0.00000001
 40
0.0
 40
0.0
 40
0.0
 40
0.0
 40
0.2490517621318983
 40
0.4918163964483703
 40
0.7399854914835406
 40
1.0
 40
1.0
 40
1.0
 40
1.0
 10
204.3884712821844
 20
65.00565495468516
 30
0.0
 10
204.4029174124476
 20
65.02171448614153
 30
0.0
 10
204.4314449910838
 20
65.0534281380423
 30
0.0
 10
204.461349464662
 20
65.1106986453593
 30
0.0
 10
204.4791646644958
 20
65.17369681999446
 30
0.0
 10
204.481234589324
 20
65.2176976893989
 30
0.0
 10
204.4822936760067
 20
65.24021093924115
 30
0.0
  0
SPLINE
  5
80
330
1F
100
AcDbEntity
  8
0
  6
Continuous
 62
     7
370
    25
100
AcDbSpline
210
0.0
220
0.0
230
1.0
 70
     8
 71
     3
 72
    15
 73
    11
 74
     0
 42
0.00000001
 43
0.00000001
 40
0.0
 40
0.0
 40
0.0
 40
0.0
 40
0.1575795759530239
 40
0.3051873770201196
 40
0.4403374772752371
 40
0.5671048604317456
 40
0.6842314239145103
 40
0.7956973262442268
 40
0.8993807647161665
 40
1.0
 40
1.0
 40
1.0
 40
1.0
 10
204.075729969443
 20
64.91183256086276
 30
0.0
 10
204.0933016661726
 20
64.91226346682421
 30
0.0
 10
204.127333107127
 20
64.91309801063692
 30
0.0
 10
204.1763680939943
 20
64.9167089958939
 30
0.0
 10
204.2214676266489
 20
64.92438766743389
 30
0.0
 10
204.2624727020192
 20
64.93480043149287
 30
0.0
 10
204.3001557476674
 20
64.94732640772816
 30
0.0
 10
204.3336434327106
 20
64.96342989872667
 30
0.0
 10
204.3632986367054
 20
64.98271510544059
 30
0.0
 10
204.3801647215107
 20
64.99808518019508
 30
0.0
 10
204.3884712821844
 20
65.00565495468516
 30
0.0
  0
LINE
  5
81
330
1F
100
AcDbEntity
  8
0
  6
Continuous
 62
     7
370
    25
100
AcDbLine
 10
204.0757299694
 20
64.5521800512
 30
0.0
 11
204.0757299694
 21
64.9118325609
 31
0.0
  0
SPLINE
  5
82
330
1F
100
AcDbEntity
  8
0
  6
Continuous
 62
     7
370
    25
100
AcDbSpline
210
0.0
220
0.0
230
1.0
 70
     8
 71
     3
 72
    15
 73
    11
 74
     0
 42
0.00000001
 43
0.00000001
 40
0.0
 40
0.0
 40
0.0
 40
0.0
 40
0.1244915194717255
 40
0.2464474751764524
 40
0.3675919258474104
 40
0.4881209488130425
 40
0.6115333728269707
 40
0.7365382274243159
 40
0.865752242726236
 40
1.0
 40
1.0
 40
1.0
 40
1.0
 10
204.5917531354662
 20
64.75546190449211
 30
0.0
 10
204.5744586342923
 20
64.73932072745235
 30
0.0
 10
204.5402218753001
 20
64.70736712655885
 30
0.0
 10
204.4843670846455
 20
64.6651611074442
 30
0.0
 10
204.4244083559254
 20
64.63057062074328
 30
0.0
 10
204.3611589311063
 20
64.60192331468663
 30
0.0
 10
204.2947175814932
 20
64.57914201348893
 30
0.0
 10
204.2245227873491
 20
64.56394295478843
 30
0.0
 10
204.151338272918
 20
64.55342054316931
 30
0.0
 10
204.1012517244199
 20
64.55259878209529
 30
0.0
 10
204.075729969443
 20
64.55218005121026
 30
0.0
  0
SPLINE
  5
83
330
1F
100
AcDbEntity
  8
0
  6
Continuous
 62
     7
370
    25
100
AcDbSpline
210
0.0
220
0.0
230
1.0
 70
     8
 71
     3
 72
    15
 73
    11
 74
     0
 42
0.00000001
 43
0.00000001
 40
0.0
 40
0.0
 40
0.0
 40
0.0
 40
0.1356800108501694
 40
0.266841589777109
 40
0.3926005974967499
 40
0.5157318537894205
 40
0.6360998884170285
 40
0.7560959929543329
 40
0.8771413117267546
 40
1.0
 40
1.0
 40
1.0
 40
1.0
 10
204.779397923111
 20
65.24021093924115
 30
0.0
 10
204.7788348893578
 20
65.21605906092485
 30
0.0
 10
204.7777275720688
 20
65.16855961302802
 30
0.0
 10
204.7692315865315
 20
65.09902604894225
 30
0.0
 10
204.7536299474579
 20
65.03313309338182
 30
0.0
 10
204.7340254350347
 20
64.97025941057483
 30
0.0
 10
204.7066004358911
 20
64.9115069350574
 30
0.0
 10
204.6749764213514
 20
64.85540444165343
 30
0.0
 10
204.6365815396566
 20
64.80297722141398
 30
0.0
 10
204.6067698179328
 20
64.77137865279944
 30
0.0
 10
204.5917531354662
 20
64.75546190449211
 30
0.0
  0
SPLINE
  5
84
330
1F
100
AcDbEntity
  8
0
  6
Continuous
 62
     7
370
    25
100
AcDbSpline
210
0.0
220
0.0
230
1.0
 70
     8
 71
     3
 72
    15
 73
    11
 74
     0
 42
0.00000001
 43
0.00000001
 40
0.0
 40
0.0
 40
0.0
 40
0.0
 40
0.1263812889588908
 40
0.2491049464973166
 40
0.3706105362999232
 40
0.4913917559424297
 40
0.6138158455532656
 40
0.7388355742356979
 40
0.8671181754268793
 40
1.0
 40
1.0
 40
1.0
 40
1.0
 10
204.5917531354662
 20
65.70932290835312
 30
0.0
 10
204.6067186311381
 20
65.69336695302825
 30
0.0
 10
204.6362165024555
 20
65.6619168275369
 30
0.0
 10
204.6750100041243
 20
65.6106133223656
 30
0.0
 10
204.7064401721119
 20
65.55573046265818
 30
0.0
 10
204.7339137206455
 20
65.49878167637871
 30
0.0
 10
204.7536515982365
 20
65.43805445533764
 30
0.0
 10
204.7691052623059
 20
65.37483652913183
 30
0.0
 10
204.7777531940144
 20
65.30840391082772
 30
0.0
 10
204.7788432811036
 20
65.26320724101976
 30
0.0
 10
204.779397923111
 20
65.24021093924115
 30
0.0
  0
SPLINE
  5
85
330
1F
100
AcDbEntity
  8
0
  6
Continuous
 62
     7
370
    25
100
AcDbSpline
210
0.0
220
0.0
230
1.0
 70
     8
 71
     3
 72
    23
 73
    19
 74
     0
 42
0.00000001
 43
0.00000001
 40
0.0
 40
0.0
 40
0.0
 40
0.0
 40
0.0796294701120216
 40
0.15668420677995
 40
0.2308342243899714
 40
0.3025278065272982
 40
0.3715101076111979
 40
0.4382633308465719
 40
0.5024649722906296
 40
0.5646604536693954
 40
0.6245612367645358
 40
0.68232154612077
 40
0.7385115542781727
 40
0.7932995870703852
 40
0.846720510756645
 40
0.8985430522702746
 40
0.9498534420925906
 40
1.0
 40
1.0
 40
1.0
 40
1.0
 10
203.356424950138
 20
66.0846124836427
 30
0.0
 10
203.3915616662
 20
66.08417197773973
 30
0.0
 10
203.4606989903249
 20
66.08330520921939
 30
0.0
 10
203.5625281547696
 20
66.07965576866638
 30
0.0
 10
203.6605802359331
 20
66.0716538573533
 30
0.0
 10
203.7549473352511
 20
66.06238236501383
 30
0.0
 10
203.8455004852788
 20
66.04878115686328
 30
0.0
 10
203.9322854399254
 20
66.03276832582644
 30
0.0
 10
204.0153635480399
 20
66.01358560287053
 30
0.0
 10
204.0946431698629
 20
65.9917211354511
 30
0.0
 10
204.1700542529146
 20
65.96685605072416
 30
0.0
 10
204.2415730912928
 20
65.93898155367752
 30
0.0
 10
204.3094158696483
 20
65.90822452414629
 30
0.0
 10
204.3739379025841
 20
65.87492672752309
 30
0.0
 10
204.4339655508292
 20
65.83762054913052
 30
0.0
 10
204.4907204257349
 20
65.79816962463522
 30
0.0
 10
204.5433197261974
 20
65.75550128860154
 30
0.0
 10
204.5757326038014
 20
65.72459753415723
 30
0.0
 10
204.5917531354662
 20
65.70932290835312
 30
0.0
  0
SPLINE
  5
86
330
1F
100
AcDbEntity
  8
0
  6
Continuous
 62
     7
370
    25
100
AcDbSpline
210
0.0
220
0.0
230
1.0
 70
     8
 71
     3
 72
    15
 73
    11
 74
     0
 42
0.00000001
 43
0.00000001
 40
0.0
 40
0.0
 40
0.0
 40
0.0
 40
0.1277537861028407
 40
0.2523881274276971
 40
0.3749507025098774
 40
0.4966307329499338
 40
0.6182353574560141
 40
0.741494457752796
 40
0.8687927067128582
 40
1.0
 40
1.0
 40
1.0
 40
1.0
 10
203.6066180003311
 20
67.86723796626818
 30
0.0
 10
203.6209860096603
 20
67.88110431668935
 30
0.0
 10
203.6493711955722
 20
67.90849843410705
 30
0.0
 10
203.6968251548708
 20
67.94305795977984
 30
0.0
 10
203.7461947331288
 20
67.97282308542167
 30
0.0
 10
203.7978926785501
 20
67.99740604408001
 30
0.0
 10
203.8521795451409
 20
68.01587704842123
 30
0.0
 10
203.9087980550964
 20
68.02925555647565
 30
0.0
 10
203.9679596717042
 20
68.03751099806357
 30
0.0
 10
204.0083289216381
 20
68.03866165822429
 30
0.0
 10
204.0288187725318
 20
68.0392456882759
 30
0.0
  0
SPLINE
  5
87
330
1F
100
AcDbEntity
  8
0
  6
Continuous
 62
     7
370
    25
100
AcDbSpline
210
0.0
220
0.0
230
1.0
 70
     8
 71
     3
 72
    11
 73
     7
 74
     0
 42
0.00000001
 43
0.00000001
 40
0.0
 40
0.0
 40
0.0
 40
0.0
 40
0.2092977806128704
 40
0.4440196881627235
 40
0.7056818925799213
 40
1.0
 40
1.0
 40
1.0
 40
1.0
 10
203.4658844095975
 20
67.66395611298633
 30
0.0
 10
203.4721237854994
 20
67.68023420962676
 30
0.0
 10
203.4853604559227
 20
67.71476775973423
 30
0.0
 10
203.5174998535033
 20
67.76418156283708
 30
0.0
 10
203.5576202954323
 20
67.81625339539006
 30
0.0
 10
203.5896581760539
 20
67.84959041798557
 30
0.0
 10
203.6066180003311
 20
67.86723796626818
 30
0.0
  0
LINE
  5
88
330
1F
100
AcDbEntity
  8
0
  6
Continuous
 62
     7
370
    25
100
AcDbLine
 10
203.4346102783
 20
67.663956113
 30
0.0
 11
203.4658844096
 21
67.663956113
 31
0.0
  0
SPLINE
  5
89
330
1F
100
AcDbEntity
  8
0
  6
Continuous
 62
     7
370
    25
100
AcDbSpline
210
0.0
220
0.0
230
1.0
 70
     8
 71
     3
 72
    11
 73
     7
 74
     0
 42
0.00000001
 43
0.00000001
 40
0.0
 40
0.0
 40
0.0
 40
0.0
 40
0.2730973471020076
 40
0.5276266715073734
 40
0.7672178540063634
 40
0.9999999999999999
 40
0.9999999999999999
 40
0.9999999999999999
 40
0.9999999999999999
 10
203.2782396219527
 20
67.92978622881643
 30
0.0
 10
203.2977296035204
 20
67.9090229325571
 30
0.0
 10
203.3353844332412
 20
67.86890804674402
 30
0.0
 10
203.380839473784
 20
67.80288811049203
 30
0.0
 10
203.4152882685312
 20
67.73497607050979
 30
0.0
 10
203.4282318000061
 20
67.68740084073623
 30
0.0
 10
203.4346102783233
 20
67.66395611298633
 30
0.0
  0
SPLINE
  5
8A
330
1F
100
AcDbEntity
  8
0
  6
Continuous
 62
     7
370
    25
100
AcDbSpline
210
0.0
220
0.0
230
1.0
 70
     8
 71
     3
 72
    15
 73
    11
 74
     0
 42
0.00000001
 43
0.00000001
 40
0.0
 40
0.0
 40
0.0
 40
0.0
 40
0.1393528499704187
 40
0.2721672659958591
 40
0.3996369800758505
 40
0.5224193804230859
 40
0.643352370627366
 40
0.7619060577341118
 40
0.8804972885634693
 40
1.0
 40
1.0
 40
1.0
 40
1.0
 10
202.7778535215666
 20
68.11743101646123
 30
0.0
 10
202.8033576016789
 20
68.11688379609538
 30
0.0
 10
202.8531691107895
 20
68.11581503093625
 30
0.0
 10
202.9259493665378
 20
68.10722147160136
 30
0.0
 10
202.9944259547416
 20
68.09187050011127
 30
0.0
 10
203.0594702491414
 20
68.07189299700795
 30
0.0
 10
203.120178337063
 20
68.04493622011444
 30
0.0
 10
203.1775715787978
 20
68.01312963694203
 30
0.0
 10
203.2306599119308
 20
67.97478644988631
 30
0.0
 10
203.2623392931937
 20
67.94482453629894
 30
0.0
 10
203.2782396219527
 20
67.92978622881643
 30
0.0
  0
SPLINE
  5
8B
330
1F
100
AcDbEntity
  8
0
  6
Continuous
 62
     7
370
    25
100
AcDbSpline
210
0.0
220
0.0
230
1.0
 70
     8
 71
     3
 72
    15
 73
    11
 74
     0
 42
0.00000001
 43
0.00000001
 40
0.0
 40
0.0
 40
0.0
 40
0.0
 40
0.1290558124453279
 40
0.2537561262749729
 40
0.376491064692112
 40
0.4992690631939026
 40
0.6208079408516743
 40
0.7437423943369785
 40
0.8704610395548735
 40
1.0
 40
1.0
 40
1.0
 40
1.0
 10
202.2461932899063
 20
67.89851209754231
 30
0.0
 10
202.2645484051091
 20
67.91612468183453
 30
0.0
 10
202.3006391695849
 20
67.95075544413035
 30
0.0
 10
202.3605660839034
 20
67.9947173829113
 30
0.0
 10
202.4228240703554
 20
68.03279217864358
 30
0.0
 10
202.4881190511459
 20
68.06413471758043
 30
0.0
 10
202.556532177979
 20
68.08805607314984
 30
0.0
 10
202.6278037040535
 20
68.104683199623
 30
0.0
 10
202.701846925524
 20
68.11551566535215
 30
0.0
 10
202.7523327774665
 20
68.11678789878378
 30
0.0
 10
202.7778535215666
 20
68.11743101646123
 30
0.0
  0
SPLINE
  5
8C
330
1F
100
AcDbEntity
  8
0
  6
Continuous
 62
     7
370
    25
100
AcDbSpline
210
0.0
220
0.0
230
1.0
 70
     8
 71
     3
 72
    15
 73
    11
 74
     0
 42
0.00000001
 43
0.00000001
 40
0.0
 40
0.0
 40
0.0
 40
0.0
 40
0.1474010611502693
 40
0.2856974574838593
 40
0.4173170259111328
 40
0.541831173119504
 40
0.6607761138044992
 40
0.7757147634118137
 40
0.8886130455433358
 40
1.0
 40
1.0
 40
1.0
 40
1.0
 10
202.0429114366245
 20
67.3043036033338
 30
0.0
 10
202.0433023945201
 20
67.33599833899733
 30
0.0
 10
202.0440601616346
 20
67.39743009073658
 30
0.0
 10
202.0546212571231
 20
67.48659516380022
 30
0.0
 10
202.0694043145014
 20
67.57016090615441
 30
0.0
 10
202.092441475335
 20
67.64755119847372
 30
0.0
 10
202.1206063697419
 20
67.7193540281706
 30
0.0
 10
202.1555051286932
 20
67.78537801454551
 30
0.0
 10
202.1972114531944
 20
67.84547060065736
 30
0.0
 10
202.2299395228068
 20
67.8809112031118
 30
0.0
 10
202.2461932899063
 20
67.89851209754231
 30
0.0
  0
SPLINE
  5
8D
330
1F
100
AcDbEntity
  8
0
  6
Continuous
 62
     7
370
    25
100
AcDbSpline
210
0.0
220
0.0
230
1.0
 70
     8
 71
     3
 72
    15
 73
    11
 74
     0
 42
0.00000001
 43
0.00000001
 40
0.0
 40
0.0
 40
0.0
 40
0.0
 40
0.1113869544566642
 40
0.2242852365881851
 40
0.3392238861955009
 40
0.458168826880496
 40
0.5826829740888672
 40
0.7143025425161393
 40
0.8525989388497307
 40
1.0
 40
1.0
 40
1.0
 40
1.0
 10
202.2461932899063
 20
66.71009510912532
 30
0.0
 10
202.2299395228068
 20
66.72769600355582
 30
0.0
 10
202.1972114531944
 20
66.76313660601026
 30
0.0
 10
202.1555051286932
 20
66.82322919212211
 30
0.0
 10
202.1206063697419
 20
66.88925317849701
 30
0.0
 10
202.092441475335
 20
66.96105600819389
 30
0.0
 10
202.0694043145014
 20
67.03844630051321
 30
0.0
 10
202.0546212571231
 20
67.1220120428674
 30
0.0
 10
202.0440601616346
 20
67.21117711593104
 30
0.0
 10
202.0433023945201
 20
67.27260886767031
 30
0.0
 10
202.0429114366245
 20
67.3043036033338
 30
0.0
  0
SPLINE
  5
8E
330
1F
100
AcDbEntity
  8
0
  6
Continuous
 62
     7
370
    25
100
AcDbSpline
210
0.0
220
0.0
230
1.0
 70
     8
 71
     3
 72
    11
 73
     7
 74
     0
 42
0.00000001
 43
0.00000001
 40
0.0
 40
0.0
 40
0.0
 40
0.0
 40
0.2327821459936387
 40
0.4723733284926257
 40
0.7269026528979909
 40
1.0
 40
1.0
 40
1.0
 40
1.0
 10
203.4346102783233
 20
66.9446510936813
 30
0.0
 10
203.4282318000061
 20
66.9212063659314
 30
0.0
 10
203.4152882685312
 20
66.87363113615784
 30
0.0
 10
203.380839473784
 20
66.80571909617558
 30
0.0
 10
203.3353844332412
 20
66.73969915992359
 30
0.0
 10
203.2977296035204
 20
66.69958427411053
 30
0.0
 10
203.2782396219527
 20
66.67882097785119
 30
0.0
  0
LINE
  5
8F
330
1F
100
AcDbEntity
  8
0
  6
Continuous
 62
     7
370
    25
100
AcDbLine
 10
203.4658844096
 20
66.9446510937
 30
0.0
 11
203.4346102783
 21
66.9446510937
 31
0.0
  0
SPLINE
  5
90
330
1F
100
AcDbEntity
  8
0
  6
Continuous
 62
     7
370
    25
100
AcDbSpline
210
0.0
220
0.0
230
1.0
 70
     8
 71
     3
 72
    11
 73
     7
 74
     0
 42
0.00000001
 43
0.00000001
 40
0.0
 40
0.0
 40
0.0
 40
0.0
 40
0.2487470629387092
 40
0.4976060858529024
 40
0.7454415990538992
 40
1.0
 40
1.0
 40
1.0
 40
1.0
 10
203.5753438690569
 20
66.75700630603652
 30
0.0
 10
203.5630205002645
 20
66.77042461650976
 30
0.0
 10
203.5383682159849
 20
66.79726727697965
 30
0.0
 10
203.5078089465373
 20
66.84266324078983
 30
0.0
 10
203.4828833521488
 20
66.89187258224702
 30
0.0
 10
203.4716010492687
 20
66.92690200538719
 30
0.0
 10
203.4658844095975
 20
66.9446510936813
 30
0.0
  0
SPLINE
  5
91
330
1F
100
AcDbEntity
  8
0
  6
Continuous
 62
     7
370
    25
100
AcDbSpline
210
0.0
220
0.0
230
1.0
 70
     8
 71
     3
 72
    15
 73
    11
 74
     0
 42
0.00000001
 43
0.00000001
 40
0.0
 40
0.0
 40
0.0
 40
0.0
 40
0.1299113129690335
 40
0.2551436434037569
 40
0.3782673290843511
 40
0.4999523087047292
 40
0.6222158812656395
 40
0.7453234951064159
 40
0.8707452845457336
 40
1.0
 40
1.0
 40
1.0
 40
1.0
 10
204.0288187725318
 20
66.56936151839173
 30
0.0
 10
204.0069785658965
 20
66.56991157074755
 30
0.0
 10
203.9640847657625
 20
66.57099186436419
 30
0.0
 10
203.9009299398389
 20
66.57971653413264
 30
0.0
 10
203.8406054031611
 20
66.59516242071459
 30
0.0
 10
203.7820924957677
 20
66.61510791870514
 30
0.0
 10
203.7265758362326
 20
66.64228645978906
 30
0.0
 10
203.6727935843669
 20
66.67393935710858
 30
0.0
 10
203.6221494022373
 20
66.712539808808
 30
0.0
 10
203.5911014723783
 20
66.74203616518338
 30
0.0
 10
203.5753438690569
 20
66.75700630603652
 30
0.0
  0
SPLINE
  5
92
330
1F
100
AcDbEntity
  8
0
  6
Continuous
 62
     7
370
    25
100
AcDbSpline
210
0.0
220
0.0
230
1.0
 70
     8
 71
     3
 72
    15
 73
    11
 74
     0
 42
0.00000001
 43
0.00000001
 40
0.0
 40
0.0
 40
0.0
 40
0.0
 40
0.1190175566788506
 40
0.2372370543807521
 40
0.3548673391635889
 40
0.4755888455761292
 40
0.5992829081147946
 40
0.7265630484102548
 40
0.8598843047151131
 40
1.0
 40
1.0
 40
1.0
 40
1.0
 10
204.5761160698291
 20
66.77264337167357
 30
0.0
 10
204.5586672109999
 20
66.75644572748003
 30
0.0
 10
204.5238864947219
 20
66.72415905059293
 30
0.0
 10
204.4663016882693
 20
66.68241650615664
 30
0.0
 10
204.4041815158688
 20
66.64713461719418
 30
0.0
 10
204.3372926608459
 20
66.6191981444209
 30
0.0
 10
204.2665275854689
 20
66.59612275829798
 30
0.0
 10
204.1910902266302
 20
66.58105575562784
 30
0.0
 10
204.111547060592
 20
66.57056764383847
 30
0.0
 10
204.0568479284056
 20
66.56977016552976
 30
0.0
 10
204.0288187725318
 20
66.56936151839173
 30
0.0
  0
SPLINE
  5
93
330
1F
100
AcDbEntity
  8
0
  6
Continuous
 62
     7
370
    25
100
AcDbSpline
210
0.0
220
0.0
230
1.0
 70
     8
 71
     3
 72
    15
 73
    11
 74
     0
 42
0.00000001
 43
0.00000001
 40
0.0
 40
0.0
 40
0.0
 40
0.0
 40
0.1367625375912045
 40
0.2685728084152059
 40
0.3952257228126168
 40
0.5183084604466275
 40
0.6384758419271777
 40
0.7582466910205607
 40
0.8786831316695052
 40
1.0
 40
1.0
 40
1.0
 40
1.0
 10
204.779397923111
 20
67.3043036033338
 30
0.0
 10
204.7789778849977
 20
67.27762499805452
 30
0.0
 10
204.7781530186438
 20
67.22523383837984
 30
0.0
 10
204.7676567637658
 20
67.14877767180901
 30
0.0
 10
204.7526243144086
 20
67.07583607827975
 30
0.0
 10
204.7296189520537
 20
67.00734075565306
 30
0.0
 10
204.701183711212
 20
66.94244228003147
 30
0.0
 10
204.6663788093973
 20
66.88126388325759
 30
0.0
 10
204.6245747848124
 20
66.824285062258
 30
0.0
 10
204.5923081448396
 20
66.78989901140531
 30
0.0
 10
204.5761160698291
 20
66.77264337167357
 30
0.0
  0
SPLINE
  5
94
330
1F
100
AcDbEntity
  8
0
  6
Continuous
 62
     7
370
    25
100
AcDbSpline
210
0.0
220
0.0
230
1.0
 70
     8
 71
     3
 72
    15
 73
    11
 74
     0
 42
0.00000001
 43
0.00000001
 40
0.0
 40
0.0
 40
0.0
 40
0.0
 40
0.1171086905579873
 40
0.2333993299620623
 40
0.3506160626962324
 40
0.4711822020542324
 40
0.5946445890795222
 40
0.7237659205994503
 40
0.8581711095996144
 40
1.0
 40
1.0
 40
1.0
 40
1.0
 10
204.5917531354662
 20
67.82032676935698
 30
0.0
 10
204.6067886471039
 20
67.80422851315697
 30
0.0
 10
204.6367546413027
 20
67.77214445353052
 30
0.0
 10
204.6752595223097
 20
67.71837992886117
 30
0.0
 10
204.7070197988044
 20
67.65977615465022
 30
0.0
 10
204.7339620849405
 20
67.59730668819323
 30
0.0
 10
204.7539032684262
 20
67.5299362486811
 30
0.0
 10
204.7691726898197
 20
67.45874325872511
 30
0.0
 10
204.7778031147364
 20
67.38289416556769
 30
0.0
 10
204.7788568804487
 20
67.33096564480303
 30
0.0
 10
204.779397923111
 20
67.3043036033338
 30
0.0
  0
SPLINE
  5
95
330
1F
100
AcDbEntity
  8
0
  6
Continuous
 62
     7
370
    25
100
AcDbSpline
210
0.0
220
0.0
230
1.0
 70
     8
 71
     3
 72
    15
 73
    11
 74
     0
 42
0.00000001
 43
0.00000001
 40
0.0
 40
0.0
 40
0.0
 40
0.0
 40
0.1354445824934152
 40
0.2662567558803004
 40
0.3914793001254334
 40
0.5142572831105968
 40
0.6353709597957445
 40
0.7562290499621888
 40
0.876447607935172
 40
1.0
 40
1.0
 40
1.0
 40
1.0
 10
204.0288187725318
 20
68.0392456882759
 30
0.0
 10
204.0568456138351
 20
68.03861015288633
 30
0.0
 10
204.1119407361766
 20
68.03736081837654
 30
0.0
 10
204.1923583609822
 20
68.02661315636578
 30
0.0
 10
204.2689891560896
 20
68.00990125969425
 30
0.0
 10
204.341805058963
 20
67.98636256938795
 30
0.0
 10
204.4103767674183
 20
67.95453993418359
 30
0.0
 10
204.475330821866
 20
67.9170481630859
 30
0.0
 10
204.5366251770929
 20
67.87271210684293
 30
0.0
 10
204.5732103685195
 20
67.83794703198026
 30
0.0
 10
204.5917531354662
 20
67.82032676935698
 30
0.0
  0
LINE
  5
96
330
1F
100
AcDbEntity
  8
0
  6
Continuous
 62
     7
370
    25
100
AcDbLine
 10
203.0749577687
 20
70.1658866149
 30
0.0
 11
204.7793979231
 21
69.1182032172
 31
0.0
  0
LINE
  5
97
330
1F
100
AcDbEntity
  8
0
  6
Continuous
 62
     7
370
    25
100
AcDbLine
 10
202.7633747571
 20
70.1658866149
 30
0.0
 11
203.0749577687
 21
70.1658866149
 31
0.0
  0
LINE
  5
98
330
1F
100
AcDbEntity
  8
0
  6
Continuous
 62
     7
370
    25
100
AcDbLine
 10
202.7633747571
 20
69.1286279277
 30
0.0
 11
202.7633747571
 21
70.1658866149
 31
0.0
  0
LINE
  5
99
330
1F
100
AcDbEntity
  8
0
  6
Continuous
 62
     7
370
    25
100
AcDbLine
 10
202.0741855679
 20
69.1286279277
 30
0.0
 11
202.7633747571
 21
69.1286279277
 31
0.0
  0
LINE
  5
9A
330
1F
100
AcDbEntity
  8
0
  6
Continuous
 62
     7
370
    25
100
AcDbLine
 10
202.0741855679
 20
68.7585507076
 30
0.0
 11
202.0741855679
 21
69.1286279277
 31
0.0
  0
LINE
  5
9B
330
1F
100
AcDbEntity
  8
0
  6
Continuous
 62
     7
370
    25
100
AcDbLine
 10
202.7633747571
 20
68.7585507076
 30
0.0
 11
202.0741855679
 21
68.7585507076
 31
0.0
  0
LINE
  5
9C
330
1F
100
AcDbEntity
  8
0
  6
Continuous
 62
     7
370
    25
100
AcDbLine
 10
202.7633747571
 20
68.4301723292
 30
0.0
 11
202.7633747571
 21
68.7585507076
 31
0.0
  0
LINE
  5
9D
330
1F
100
AcDbEntity
  8
0
  6
Continuous
 62
     7
370
    25
100
AcDbLine
 10
203.059320703
 20
68.4301723292
 30
0.0
 11
202.7633747571
 21
68.4301723292
 31
0.0
  0
LINE
  5
9E
330
1F
100
AcDbEntity
  8
0
  6
Continuous
 62
     7
370
    25
100
AcDbLine
 10
203.059320703
 20
68.7585507076
 30
0.0
 11
203.059320703
 21
68.4301723292
 31
0.0
  0
LINE
  5
9F
330
1F
100
AcDbEntity
  8
0
  6
Continuous
 62
     7
370
    25
100
AcDbLine
 10
204.7793979231
 20
68.7585507076
 30
0.0
 11
203.059320703
 21
68.7585507076
 31
0.0
  0
LINE
  5
A0
330
1F
100
AcDbEntity
  8
0
  6
Continuous
 62
     7
370
    25
100
AcDbLine
 10
204.7793979231
 20
69.1182032172
 30
0.0
 11
204.7793979231
 21
68.7585507076
 31
0.0
  0
LINE
  5
A1
330
1F
100
AcDbEntity
  8
0
  6
Continuous
 62
     7
370
    25
100
AcDbLine
 10
202.0741855679
 20
71.3073924064
 30
0.0
 11
202.0741855679
 21
71.6514078504
 31
0.0
  0
LINE
  5
A2
330
1F
100
AcDbEntity
  8
0
  6
Continuous
 62
     7
370
    25
100
AcDbLine
 10
204.4041083478
 20
70.5568132558
 30
0.0
 11
202.0741855679
 21
71.3073924064
 31
0.0
  0
LINE
  5
A3
330
1F
100
AcDbEntity
  8
0
  6
Continuous
 62
     7
370
    25
100
AcDbLine
 10
204.7481237918
 20
70.5568132558
 30
0.0
 11
204.4041083478
 21
70.5568132558
 31
0.0
  0
LINE
  5
A4
330
1F
100
AcDbEntity
  8
0
  6
Continuous
 62
     7
370
    25
100
AcDbLine
 10
203.3164635602
 20
74.2002495493
 30
0.0
 11
203.5753438691
 21
74.2002495493
 31
0.0
  0
LINE
  5
A5
330
1F
100
AcDbEntity
  8
0
  6
Continuous
 62
     7
370
    25
100
AcDbLine
 10
203.3164635602
 20
72.4176240667
 30
0.0
 11
203.3164635602
 21
74.2002495493
 31
0.0
  0
LINE
  5
A6
330
1F
100
AcDbEntity
  8
0
  6
Continuous
 62
     7
370
    25
100
AcDbLine
 10
203.5753438691
 20
72.4176240667
 30
0.0
 11
203.3164635602
 21
72.4176240667
 31
0.0
  0
LINE
  5
A7
330
1F
100
AcDbEntity
  8
0
  6
Continuous
 62
     7
370
    25
100
AcDbLine
 10
203.5753438691
 20
74.2002495493
 30
0.0
 11
203.5753438691
 21
72.4176240667
 31
0.0
  0
LINE
  5
A8
330
1F
100
AcDbEntity
  8
0
  6
Continuous
 62
     7
370
    25
100
AcDbLine
 10
202.0753438691
 20
76.6118325609
 30
0.0
 11
204.7481237918
 21
76.6118325609
 31
0.0
  0
LINE
  5
A9
330
1F
100
AcDbEntity
  8
0
  6
Continuous
 62
     7
370
    25
100
AcDbLine
 10
202.0753438691
 20
75.3660796651
 30
0.0
 11
202.0753438691
 21
76.6118325609
 31
0.0
  0
SPLINE
  5
AA
330
1F
100
AcDbEntity
  8
0
  6
Continuous
 62
     7
370
    25
100
AcDbSpline
210
0.0
220
0.0
230
1.0
 70
     8
 71
     3
 72
    15
 73
    11
 74
     0
 42
0.00000001
 43
0.00000001
 40
0.0
 40
0.0
 40
0.0
 40
0.0
 40
0.1086277469152501
 40
0.2195300404679355
 40
0.3340583594962496
 40
0.4525037346025808
 40
0.5781660321028795
 40
0.7098017975268057
 40
0.8504665399585423
 40
1.0
 40
1.0
 40
1.0
 40
1.0
 10
202.2618303555434
 20
74.80314530217551
 30
0.0
 10
202.2469587369005
 20
74.81942247696513
 30
0.0
 10
202.2169041041275
 20
74.85231765284553
 30
0.0
 10
202.1784946966813
 20
74.90843634670864
 30
0.0
 10
202.1468886387852
 20
74.97076438432147
 30
0.0
 10
202.1207302199962
 20
75.0387323102108
 30
0.0
 10
202.0998517718807
 20
75.11214378513792
 30
0.0
 10
202.0856623085815
 20
75.19169064113163
 30
0.0
 10
202.0768704005338
 20
75.27688404652021
 30
0.0
 10
202.0758629754872
 20
75.33574814567373
 30
0.0
 10
202.0753438690569
 20
75.36607966510988
 30
0.0
  0
SPLINE
  5
AB
330
1F
100
AcDbEntity
  8
0
  6
Continuous
 62
     7
370
    25
100
AcDbSpline
210
0.0
220
0.0
230
1.0
 70
     8
 71
     3
 72
    15
 73
    11
 74
     0
 42
0.00000001
 43
0.00000001
 40
0.0
 40
0.0
 40
0.0
 40
0.0
 40
0.1319114978615548
 40
0.2585593955794498
 40
0.3829282045992122
 40
0.5051155152535455
 40
0.6266776175559875
 40
0.7489849223246641
 40
0.872841572096447
 40
1.0
 40
1.0
 40
1.0
 40
1.0
 10
202.8404017841148
 20
74.56858931761953
 30
0.0
 10
202.8121789696172
 20
74.56918166128696
 30
0.0
 10
202.7568595018197
 20
74.57034271262148
 30
0.0
 10
202.6755708893011
 20
74.58172313426222
 30
0.0
 10
202.5978463253498
 20
74.60027418024367
 30
0.0
 10
202.5232094144433
 20
74.62572114776633
 30
0.0
 10
202.4521207113927
 20
74.65890943564638
 30
0.0
 10
202.3848624503384
 20
74.69985440979957
 30
0.0
 10
202.3204063551093
 20
74.74728173739801
 30
0.0
 10
202.2815261615896
 20
74.78436153501731
 30
0.0
 10
202.2618303555434
 20
74.80314530217551
 30
0.0
  0
SPLINE
  5
AC
330
1F
100
AcDbEntity
  8
0
  6
Continuous
 62
     7
370
    25
100
AcDbSpline
210
0.0
220
0.0
230
1.0
 70
     8
 71
     3
 72
    15
 73
    11
 74
     0
 42
0.00000001
 43
0.00000001
 40
0.0
 40
0.0
 40
0.0
 40
0.0
 40
0.126381288958891
 40
0.2491049464973164
 40
0.3706105362999226
 40
0.4913917559424306
 40
0.6138158455532665
 40
0.7388355742356975
 40
0.8671181754268791
 40
1.0
 40
1.0
 40
1.0
 40
1.0
 10
203.3095137532268
 20
74.75623410526431
 30
0.0
 10
203.2935577979019
 20
74.74126860959247
 30
0.0
 10
203.2621076724106
 20
74.71177073827505
 30
0.0
 10
203.2108041672393
 20
74.67297723660616
 30
0.0
 10
203.1559213075319
 20
74.64154706861865
 30
0.0
 10
203.0989725212524
 20
74.61407352008504
 30
0.0
 10
203.0382453002113
 20
74.59433564249404
 30
0.0
 10
202.9750273740055
 20
74.57888197842458
 30
0.0
 10
202.9085947557014
 20
74.57023404671611
 30
0.0
 10
202.8633980858935
 20
74.5691439596269
 30
0.0
 10
202.8404017841148
 20
74.56858931761953
 30
0.0
  0
SPLINE
  5
AD
330
1F
100
AcDbEntity
  8
0
  6
Continuous
 62
     7
370
    25
100
AcDbSpline
210
0.0
220
0.0
230
1.0
 70
     8
 71
     3
 72
    11
 73
     7
 74
     0
 42
0.00000001
 43
0.00000001
 40
0.0
 40
0.0
 40
0.0
 40
0.0
 40
0.2758864184465405
 40
0.5310076877713109
 40
0.7722766677115261
 40
1.0
 40
1.0
 40
1.0
 40
1.0
 10
203.4815214752346
 20
75.05333835236856
 30
0.0
 10
203.4707835928224
 20
75.02333447163105
 30
0.0
 10
203.4501160364295
 20
74.96558501290704
 30
0.0
 10
203.4095181038627
 20
74.88602770343321
 30
0.0
 10
203.363722207446
 20
74.8157616209111
 30
0.0
 10
203.3272319283965
 20
74.77569082958594
 30
0.0
 10
203.3095137532268
 20
74.75623410526431
 30
0.0
  0
SPLINE
  5
AE
330
1F
100
AcDbEntity
  8
0
  6
Continuous
 62
     7
370
    25
100
AcDbSpline
210
0.0
220
0.0
230
1.0
 70
     8
 71
     3
 72
    11
 73
     7
 74
     0
 42
0.00000001
 43
0.00000001
 40
0.0
 40
0.0
 40
0.0
 40
0.0
 40
0.2409277974217335
 40
0.4854864172424144
 40
0.7380410464993917
 40
1.0
 40
1.0
 40
1.0
 40
1.0
 10
203.6222550659681
 20
74.81878236781257
 30
0.0
 10
203.6071554251951
 20
74.83503055243784
 30
0.0
 10
203.576728589525
 20
74.86777178456143
 30
0.0
 10
203.5383961095301
 20
74.92410329688474
 30
0.0
 10
203.5065692988092
 20
74.98642349906733
 30
0.0
 10
203.4899718728271
 20
75.03076325263753
 30
0.0
 10
203.4815214752346
 20
75.05333835236856
 30
0.0
  0
SPLINE
  5
AF
330
1F
100
AcDbEntity
  8
0
  6
Continuous
 62
     7
370
    25
100
AcDbSpline
210
0.0
220
0.0
230
1.0
 70
     8
 71
     3
 72
    15
 73
    11
 74
     0
 42
0.00000001
 43
0.00000001
 40
0.0
 40
0.0
 40
0.0
 40
0.0
 40
0.1312072932871419
 40
0.2585055422472039
 40
0.381764642543986
 40
0.5033692670500662
 40
0.6250492974901227
 40
0.7476118725723027
 40
0.8722462138971592
 40
1.0
 40
1.0
 40
1.0
 40
1.0
 10
204.0444558381689
 20
74.64677464580485
 30
0.0
 10
204.0239659872751
 20
74.64735867585647
 30
0.0
 10
203.9835967373412
 20
74.64850933601718
 30
0.0
 10
203.9244351207335
 20
74.65676477760512
 30
0.0
 10
203.867816610778
 20
74.67014328565953
 30
0.0
 10
203.8135297441872
 20
74.68861429000074
 30
0.0
 10
203.7618317987659
 20
74.71319724865907
 30
0.0
 10
203.7124622205078
 20
74.7429623743009
 30
0.0
 10
203.6650082612093
 20
74.77752189997372
 30
0.0
 10
203.6366230752974
 20
74.8049160173914
 30
0.0
 10
203.6222550659681
 20
74.81878236781257
 30
0.0
  0
SPLINE
  5
B0
330
1F
100
AcDbEntity
  8
0
  6
Continuous
 62
     7
370
    25
100
AcDbSpline
210
0.0
220
0.0
230
1.0
 70
     8
 71
     3
 72
    15
 73
    11
 74
     0
 42
0.00000001
 43
0.00000001
 40
0.0
 40
0.0
 40
0.0
 40
0.0
 40
0.119502711436531
 40
0.2380939422658886
 40
0.3566476293726336
 40
0.4775806195769138
 40
0.600363019924149
 40
0.7278327340041402
 40
0.8606471500295807
 40
1.0
 40
1.0
 40
1.0
 40
1.0
 10
204.544841938555
 20
74.83441943344964
 30
0.0
 10
204.528941609796
 20
74.81938112596713
 30
0.0
 10
204.4972622285331
 20
74.78941921237977
 30
0.0
 10
204.4441738954001
 20
74.75107602532405
 30
0.0
 10
204.3867806536653
 20
74.71926944215164
 30
0.0
 10
204.3260725657437
 20
74.69231266525814
 30
0.0
 10
204.2610282713439
 20
74.67233516215481
 30
0.0
 10
204.1925516831401
 20
74.65698419066472
 30
0.0
 10
204.1197714273918
 20
74.64839063132983
 30
0.0
 10
204.0699599182812
 20
74.64732186617071
 30
0.0
 10
204.0444558381689
 20
74.64677464580485
 30
0.0
  0
SPLINE
  5
B1
330
1F
100
AcDbEntity
  8
0
  6
Continuous
 62
     7
370
    25
100
AcDbSpline
210
0.0
220
0.0
230
1.0
 70
     8
 71
     3
 72
    15
 73
    11
 74
     0
 42
0.00000001
 43
0.00000001
 40
0.0
 40
0.0
 40
0.0
 40
0.0
 40
0.134247757273764
 40
0.2634617725756843
 40
0.3884666271730294
 40
0.511879051186958
 40
0.6324080741525887
 40
0.7535525248235475
 40
0.8755084805282741
 40
1.0
 40
1.0
 40
1.0
 40
1.0
 10
204.7481237918369
 20
75.35044259947281
 30
0.0
 10
204.7477050609518
 20
75.32492084449592
 30
0.0
 10
204.7468832998778
 20
75.2748342959978
 30
0.0
 10
204.7363608882587
 20
75.20164978156677
 30
0.0
 10
204.7211618295582
 20
75.13145498742263
 30
0.0
 10
204.6983805283605
 20
75.06501363780954
 30
0.0
 10
204.6697332223038
 20
75.00176421299042
 30
0.0
 10
204.6351427356029
 20
74.9418054842703
 30
0.0
 10
204.5929367164883
 20
74.88595069361575
 30
0.0
 10
204.5609831155948
 20
74.8517139346235
 30
0.0
 10
204.544841938555
 20
74.83441943344964
 30
0.0
  0
LINE
  5
B2
330
1F
100
AcDbEntity
  8
0
  6
Continuous
 62
     7
370
    25
100
AcDbLine
 10
204.7481237918
 20
76.6118325609
 30
0.0
 11
204.7481237918
 21
75.3504425995
 31
0.0
  0
LINE
  5
B3
330
1F
100
AcDbEntity
  8
0
  6
Continuous
 62
     7
370
    25
100
AcDbLine
 10
202.0741855679
 20
79.1537244528
 30
0.0
 11
204.7481237918
 21
79.1537244528
 31
0.0
  0
LINE
  5
B4
330
1F
100
AcDbEntity
  8
0
  6
Continuous
 62
     7
370
    25
100
AcDbLine
 10
202.0741855679
 20
78.7836472327
 30
0.0
 11
202.0741855679
 21
79.1537244528
 31
0.0
  0
LINE
  5
B5
330
1F
100
AcDbEntity
  8
0
  6
Continuous
 62
     7
370
    25
100
AcDbLine
 10
204.1851894289
 20
78.7836472327
 30
0.0
 11
202.0741855679
 21
78.7836472327
 31
0.0
  0
LINE
  5
B6
330
1F
100
AcDbEntity
  8
0
  6
Continuous
 62
     7
370
    25
100
AcDbLine
 10
202.0741855679
 20
77.5326819817
 30
0.0
 11
204.1851894289
 21
78.7836472327
 31
0.0
  0
LINE
  5
B7
330
1F
100
AcDbEntity
  8
0
  6
Continuous
 62
     7
370
    25
100
AcDbLine
 10
202.0741855679
 20
77.1417553408
 30
0.0
 11
202.0741855679
 21
77.5326819817
 31
0.0
  0
LINE
  5
B8
330
1F
100
AcDbEntity
  8
0
  6
Continuous
 62
     7
370
    25
100
AcDbLine
 10
204.7481237918
 20
77.1417553408
 30
0.0
 11
202.0741855679
 21
77.1417553408
 31
0.0
  0
LINE
  5
B9
330
1F
100
AcDbEntity
  8
0
  6
Continuous
 62
     7
370
    25
100
AcDbLine
 10
204.7481237918
 20
77.5118325609
 30
0.0
 11
204.7481237918
 21
77.1417553408
 31
0.0
  0
LINE
  5
BA
330
1F
100
AcDbEntity
  8
0
  6
Continuous
 62
     7
370
    25
100
AcDbLine
 10
202.6371199308
 20
77.5118325609
 30
0.0
 11
204.7481237918
 21
77.5118325609
 31
0.0
  0
LINE
  5
BB
330
1F
100
AcDbEntity
  8
0
  6
Continuous
 62
     7
370
    25
100
AcDbLine
 10
204.7481237918
 20
78.7523731014
 30
0.0
 11
202.6371199308
 21
77.5118325609
 31
0.0
  0
LINE
  5
BC
330
1F
100
AcDbEntity
  8
0
  6
Continuous
 62
     7
370
    25
100
AcDbLine
 10
204.7481237918
 20
79.1537244528
 30
0.0
 11
204.7481237918
 21
78.7523731014
 31
0.0
  0
SPLINE
  5
BD
330
1F
100
AcDbEntity
  8
0
  6
Continuous
 62
     7
370
    25
100
AcDbSpline
210
0.0
220
0.0
230
1.0
 70
     8
 71
     3
 72
    15
 73
    11
 74
     0
 42
0.00000001
 43
0.00000001
 40
0.0
 40
0.0
 40
0.0
 40
0.0
 40
0.1295508505393024
 40
0.2562811269808871
 40
0.3792268643473065
 40
0.5011046489090126
 40
0.6234743780272041
 40
0.7462205820124119
 40
0.8709323418075805
 40
1.0
 40
1.0
 40
1.0
 40
1.0
 10
202.7778535215666
 20
66.49117619020639
 30
0.0
 10
202.7523306456754
 20
66.49181367467777
 30
0.0
 10
202.7018405765639
 20
66.49307476434313
 30
0.0
 10
202.6278281488617
 20
66.50398860185416
 30
0.0
 10
202.5563808969805
 20
66.52033233429604
 30
0.0
 10
202.4884036171251
 20
66.54535681715873
 30
0.0
 10
202.4226519412204
 20
66.57563099983135
 30
0.0
 10
202.3605936619092
 20
66.61395149718713
 30
0.0
 10
202.3006319461772
 20
66.6578356086377
 30
0.0
 10
202.2645459699114
 20
66.69247707893544
 30
0.0
 10
202.2461932899063
 20
66.71009510912532
 30
0.0
  0
SPLINE
  5
BE
330
1F
100
AcDbEntity
  8
0
  6
Continuous
 62
     7
370
    25
100
AcDbSpline
210
0.0
220
0.0
230
1.0
 70
     8
 71
     3
 72
    15
 73
    11
 74
     0
 42
0.00000001
 43
0.00000001
 40
0.0
 40
0.0
 40
0.0
 40
0.0
 40
0.1195027114365308
 40
0.2380939422658885
 40
0.3566476293726339
 40
0.477580619576914
 40
0.6003630199241493
 40
0.7278327340041406
 40
0.8606471500295814
 40
1.0
 40
1.0
 40
1.0
 40
1.0
 10
203.2782396219527
 20
66.67882097785119
 30
0.0
 10
203.2623392931937
 20
66.66378267036868
 30
0.0
 10
203.2306599119308
 20
66.63382075678132
 30
0.0
 10
203.1775715787978
 20
66.59547756972559
 30
0.0
 10
203.120178337063
 20
66.56367098655318
 30
0.0
 10
203.0594702491414
 20
66.53671420965968
 30
0.0
 10
202.9944259547416
 20
66.51673670655634
 30
0.0
 10
202.9259493665378
 20
66.50138573506626
 30
0.0
 10
202.8531691107895
 20
66.49279217573137
 30
0.0
 10
202.8033576016789
 20
66.49172341057225
 30
0.0
 10
202.7778535215666
 20
66.49117619020639
 30
0.0
  0
LINE
  5
BF
330
1F
100
AcDbEntity
  8
0
  6
Continuous
 62
     7
370
    25
100
AcDbLine
 10
204.7481237918
 20
72.0423344914
 30
0.0
 11
204.7481237918
 21
70.5568132558
 31
0.0
  0
LINE
  5
C0
330
1F
100
AcDbEntity
  8
0
  6
Continuous
 62
     7
370
    25
100
AcDbLine
 10
204.4521778459
 20
72.0423344914
 30
0.0
 11
204.7481237918
 21
72.0423344914
 31
0.0
  0
LINE
  5
C1
330
1F
100
AcDbEntity
  8
0
  6
Continuous
 62
     7
370
    25
100
AcDbLine
 10
204.4521778459
 20
70.9008286999
 30
0.0
 11
204.4521778459
 21
72.0423344914
 31
0.0
  0
LINE
  5
C2
330
1F
100
AcDbEntity
  8
0
  6
Continuous
 62
     7
370
    25
100
AcDbLine
 10
202.0741855679
 20
71.6514078504
 30
0.0
 11
204.4521778459
 21
70.9008286999
 31
0.0
  0
SPLINE
  5
C3
330
1F
100
AcDbEntity
  8
0
  6
Continuous
 62
     7
370
    25
100
AcDbSpline
210
0.0
220
0.0
230
1.0
 70
     8
 71
     3
 72
    18
 73
    14
 74
     0
 42
0.00000001
 43
0.00000001
 40
0.0
 40
0.0
 40
0.0
 40
0.0
 40
0.2500000000000004
 40
0.2500000000000004
 40
0.5000000000000009
 40
0.5000000000000009
 40
0.562500000000001
 40
0.562500000000001
 40
0.625000000000001
 40
0.625000000000001
 40
0.7500000000000007
 40
0.7500000000000007
 40
1.0
 40
1.0
 40
1.0
 40
1.0
 10
199.5346488941329
 20
82.02476692379712
 30
0.0
 10
199.0584124442395
 20
82.84963265142869
 30
0.0
 10
198.6659074701917
 20
83.68051213140325
 30
0.0
 10
198.1221607403677
 20
85.35959907022175
 30
0.0
 10
197.9727125676032
 20
86.20793534757668
 30
0.0
 10
197.9713444697076
 20
87.28167449655713
 30
0.0
 10
197.9802691427806
 20
87.49751077772518
 30
0.0
 10
198.0162282791767
 20
87.92722546084308
 30
0.0
 10
198.0432211569527
 20
88.14133630906711
 30
0.0
 10
198.1500694850423
 20
88.78152629394495
 30
0.0
 10
198.2558551119239
 20
89.20545786162718
 30
0.0
 10
198.6643421837379
 20
90.46970505066393
 30
0.0
 10
199.0578187317786
 20
91.30250256683644
 30
0.0
 10
199.5346488941329
 20
92.12839663461558
 30
0.0
  0
LINE
  5
C4
330
1F
100
AcDbEntity
  8
0
  6
Continuous
 62
     7
370
    25
100
AcDbLine
 10
197.827274371
 20
71.921137213
 30
0.0
 11
197.827274371
 21
89.171137213
 31
0.0
  0
LINE
  5
C5
330
1F
100
AcDbEntity
  8
0
  6
Continuous
 62
     7
370
    25
100
AcDbLine
 10
197.827274371
 20
54.671137213
 30
0.0
 11
197.827274371
 21
71.921137213
 31
0.0
  0
SPLINE
  5
C6
330
1F
100
AcDbEntity
  8
0
  6
Continuous
 62
     7
370
    25
100
AcDbSpline
210
0.0
220
0.0
230
1.0
 70
     8
 71
     3
 72
    18
 73
    14
 74
     0
 42
0.00000001
 43
0.00000001
 40
0.0
 40
0.0
 40
0.0
 40
0.0
 40
0.2500000000000004
 40
0.2500000000000004
 40
0.5000000000000009
 40
0.5000000000000009
 40
0.562500000000001
 40
0.562500000000001
 40
0.625000000000001
 40
0.625000000000001
 40
0.7500000000000007
 40
0.7500000000000007
 40
1.0
 40
1.0
 40
1.0
 40
1.0
 10
207.119899847842
 20
82.02476692379712
 30
0.0
 10
207.5961362977354
 20
82.84963265142869
 30
0.0
 10
207.9886412717832
 20
83.68051213140325
 30
0.0
 10
208.5323880016071
 20
85.35959907022175
 30
0.0
 10
208.6818361743717
 20
86.20793534757668
 30
0.0
 10
208.6832042722673
 20
87.28167449655713
 30
0.0
 10
208.6742795991943
 20
87.49751077772518
 30
0.0
 10
208.6383204627981
 20
87.92722546084308
 30
0.0
 10
208.6113275850222
 20
88.14133630906711
 30
0.0
 10
208.5044792569326
 20
88.78152629394495
 30
0.0
 10
208.398693630051
 20
89.20545786162718
 30
0.0
 10
207.990206558237
 20
90.46970505066393
 30
0.0
 10
207.5967300101963
 20
91.30250256683644
 30
0.0
 10
207.1198998478419
 20
92.12839663461558
 30
0.0
  0
LINE
  5
C7
330
1F
100
AcDbEntity
  8
0
  6
Continuous
 62
     7
370
    25
100
AcDbLine
 10
208.827274371
 20
71.921137213
 30
0.0
 11
208.827274371
 21
89.171137213
 31
0.0
  0
LINE
  5
C8
330
1F
100
AcDbEntity
  8
0
  6
Continuous
 62
     7
370
    25
100
AcDbLine
 10
208.827274371
 20
54.671137213
 30
0.0
 11
208.827274371
 21
71.921137213
 31
0.0
  0
LINE
  5
C9
330
1F
100
AcDbEntity
  8
0
  6
Continuous
 62
     7
370
    25
100
AcDbLine
 10
204.2008264945
 20
69.1286279277
 30
0.0
 11
203.059320703
 21
69.8218711709
 31
0.0
  0
LINE
  5
CA
330
1F
100
AcDbEntity
  8
0
  6
Continuous
 62
     7
370
    25
100
AcDbLine
 10
203.059320703
 20
69.1286279277
 30
0.0
 11
204.2008264945
 21
69.1286279277
 31
0.0
  0
LINE
  5
CB
330
1F
100
AcDbEntity
  8
0
  6
Continuous
 62
     7
370
    25
100
AcDbLine
 10
203.059320703
 20
69.8218711709
 30
0.0
 11
203.059320703
 21
69.1286279277
 31
0.0
  0
SPLINE
  5
CC
330
1F
100
AcDbEntity
  8
0
  6
Continuous
 62
     7
370
    25
100
AcDbSpline
210
0.0
220
0.0
230
1.0
 70
     8
 71
     3
 72
    15
 73
    11
 74
     0
 42
0.00000001
 43
0.00000001
 40
0.0
 40
0.0
 40
0.0
 40
0.0
 40
0.1380048591553919
 40
0.2688933811355679
 40
0.3953545540747323
 40
0.5185917470747126
 40
0.6392559432757062
 40
0.7592039617243792
 40
0.8785285343285412
 40
1.0
 40
1.0
 40
1.0
 40
1.0
 10
203.3095137532268
 20
67.3043036033338
 30
0.0
 10
203.3092457036011
 20
67.3209244845218
 30
0.0
 10
203.3087234265552
 20
67.35330917711485
 30
0.0
 10
203.3027459655678
 20
67.40061359064366
 30
0.0
 10
203.2930228015062
 20
67.44545598631862
 30
0.0
 10
203.2789277718402
 20
67.48782438305139
 30
0.0
 10
203.2616317807073
 20
67.52813653661823
 30
0.0
 10
203.240163924831
 20
67.56587290053605
 30
0.0
 10
203.2145071088061
 20
67.60106767911938
 30
0.0
 10
203.1945066285533
 20
67.62208142927432
 30
0.0
 10
203.1844172281303
 20
67.63268198171218
 30
0.0
  0
SPLINE
  5
CD
330
1F
100
AcDbEntity
  8
0
  6
Continuous
 62
     7
370
    25
100
AcDbSpline
210
0.0
220
0.0
230
1.0
 70
     8
 71
     3
 72
    15
 73
    11
 74
     0
 42
0.00000001
 43
0.00000001
 40
0.0
 40
0.0
 40
0.0
 40
0.0
 40
0.113414434283292
 40
0.2282264330862558
 40
0.3440192114958916
 40
0.4638726679659594
 40
0.5878409254964382
 40
0.7180827571090536
 40
0.8551689049579084
 40
1.0
 40
1.0
 40
1.0
 40
1.0
 10
203.2000542937674
 20
66.9915622905925
 30
0.0
 10
203.2087465791435
 20
67.0010452136532
 30
0.0
 10
203.2262382617438
 20
67.02012791436103
 30
0.0
 10
203.2489773476894
 20
67.0519978501096
 30
0.0
 10
203.2673063653138
 20
67.08732201295051
 30
0.0
 10
203.2833498970499
 20
67.12489263705311
 30
0.0
 10
203.2944974672715
 20
67.16590410754553
 30
0.0
 10
203.3033506640762
 20
67.2093950818932
 30
0.0
 10
203.308571663066
 20
67.25591543431113
 30
0.0
 10
203.3091940239215
 20
67.28788148546316
 30
0.0
 10
203.3095137532268
 20
67.3043036033338
 30
0.0
  0
SPLINE
  5
CE
330
1F
100
AcDbEntity
  8
0
  6
Continuous
 62
     7
370
    25
100
AcDbSpline
210
0.0
220
0.0
230
1.0
 70
     8
 71
     3
 72
    15
 73
    11
 74
     0
 42
0.00000001
 43
0.00000001
 40
0.0
 40
0.0
 40
0.0
 40
0.0
 40
0.1393810202816871
 40
0.2711199225959096
 40
0.3991411117306077
 40
0.5232616219685351
 40
0.6429586939517125
 40
0.7614343776763249
 40
0.8804849265728254
 40
1.0
 40
1.0
 40
1.0
 40
1.0
 10
202.8247647184778
 20
66.85082869985891
 30
0.0
 10
202.8438947341066
 20
66.85129541713104
 30
0.0
 10
202.8811058862853
 20
66.85220326204737
 30
0.0
 10
202.935586344717
 20
66.85864471393373
 30
0.0
 10
202.9872244758719
 20
66.86950104380995
 30
0.0
 10
203.035851848326
 20
66.88521370510664
 30
0.0
 10
203.0816504231843
 20
66.90485920758994
 30
0.0
 10
203.1239790804524
 20
66.92970830273171
 30
0.0
 10
203.1644461479153
 20
66.95758993312872
 30
0.0
 10
203.1881695141168
 20
66.98022348108682
 30
0.0
 10
203.2000542937674
 20
66.9915622905925
 30
0.0
  0
SPLINE
  5
CF
330
1F
100
AcDbEntity
  8
0
  6
Continuous
 62
     7
370
    25
100
AcDbSpline
210
0.0
220
0.0
230
1.0
 70
     8
 71
     3
 72
    15
 73
    11
 74
     0
 42
0.00000001
 43
0.00000001
 40
0.0
 40
0.0
 40
0.0
 40
0.0
 40
0.1195207678016612
 40
0.2385769889400706
 40
0.3570583175167617
 40
0.4780520139443317
 40
0.6008398709279144
 40
0.7288671597165913
 40
0.8606123388176882
 40
1.0
 40
1.0
 40
1.0
 40
1.0
 10
202.4494751431882
 20
66.9915622905925
 30
0.0
 10
202.4613591523405
 20
66.98022160222533
 30
0.0
 10
202.4850809805403
 20
66.95758430384687
 30
0.0
 10
202.5255595301593
 20
66.92973067271114
 30
0.0
 10
202.5679974459222
 20
66.9046852203091
 30
0.0
 10
202.6139728702363
 20
66.88548043099611
 30
0.0
 10
202.662452185251
 20
66.86936893538835
 30
0.0
 10
202.7139522716801
 20
66.8586710712264
 30
0.0
 10
202.7684210708791
 20
66.85219614172526
 30
0.0
 10
202.8056338608636
 20
66.85129299950502
 30
0.0
 10
202.8247647184778
 20
66.85082869985891
 30
0.0
  0
SPLINE
  5
D0
330
1F
100
AcDbEntity
  8
0
  6
Continuous
 62
     7
370
    25
100
AcDbSpline
210
0.0
220
0.0
230
1.0
 70
     8
 71
     3
 72
    15
 73
    11
 74
     0
 42
0.00000001
 43
0.00000001
 40
0.0
 40
0.0
 40
0.0
 40
0.0
 40
0.132290013348316
 40
0.2607898618052659
 40
0.3858441649047
 40
0.5080904451166506
 40
0.6294055086180675
 40
0.7510893117646902
 40
0.8732553966668093
 40
1.0
 40
1.0
 40
1.0
 40
1.0
 10
202.3243786180917
 20
67.3043036033338
 30
0.0
 10
202.3245707265376
 20
67.28901918143836
 30
0.0
 10
202.3249494394412
 20
67.25888824280592
 30
0.0
 10
202.332185932993
 20
67.21488597764609
 30
0.0
 10
202.3405969172041
 20
67.17227275823608
 30
0.0
 10
202.3552204624549
 20
67.13224001828594
 30
0.0
 10
202.3720637005042
 20
67.0935078902047
 30
0.0
 10
202.394815353727
 20
67.0579493266058
 30
0.0
 10
202.4194291587332
 20
67.0228893242205
 30
0.0
 10
202.4393377473708
 20
67.00213190731267
 30
0.0
 10
202.4494751431882
 20
66.9915622905925
 30
0.0
  0
SPLINE
  5
D1
330
1F
100
AcDbEntity
  8
0
  6
Continuous
 62
     7
370
    25
100
AcDbSpline
210
0.0
220
0.0
230
1.0
 70
     8
 71
     3
 72
    15
 73
    11
 74
     0
 42
0.00000001
 43
0.00000001
 40
0.0
 40
0.0
 40
0.0
 40
0.0
 40
0.1267446033331891
 40
0.2489106882353085
 40
0.3705944913819334
 40
0.4919095548833484
 40
0.6141558350953016
 40
0.7392101381947336
 40
0.8677099866516862
 40
1.0
 40
1.0
 40
1.0
 40
1.0
 10
202.4494751431882
 20
67.61704491607512
 30
0.0
 10
202.4393377473708
 20
67.60647529935494
 30
0.0
 10
202.4194291587332
 20
67.58571788244711
 30
0.0
 10
202.394815353727
 20
67.55065788006183
 30
0.0
 10
202.3720637005042
 20
67.51509931646294
 30
0.0
 10
202.3552204624549
 20
67.47636718838169
 30
0.0
 10
202.3405969172041
 20
67.43633444843154
 30
0.0
 10
202.332185932993
 20
67.39372122902152
 30
0.0
 10
202.3249494394412
 20
67.3497189638617
 30
0.0
 10
202.3245707265376
 20
67.31958802522925
 30
0.0
 10
202.3243786180917
 20
67.3043036033338
 30
0.0
  0
SPLINE
  5
D2
330
1F
100
AcDbEntity
  8
0
  6
Continuous
 62
     7
370
    25
100
AcDbSpline
210
0.0
220
0.0
230
1.0
 70
     8
 71
     3
 72
    15
 73
    11
 74
     0
 42
0.00000001
 43
0.00000001
 40
0.0
 40
0.0
 40
0.0
 40
0.0
 40
0.1393876611823118
 40
0.2711328402834086
 40
0.3991601290720856
 40
0.5219479860556683
 40
0.6429416824832372
 40
0.7614230110599293
 40
0.8804792321983375
 40
1.0
 40
1.0
 40
1.0
 40
1.0
 10
202.8247647184778
 20
67.7577785068087
 30
0.0
 10
202.8056338608636
 20
67.75731420716261
 30
0.0
 10
202.7684210708791
 20
67.75641106494236
 30
0.0
 10
202.7139522716801
 20
67.74993613544123
 30
0.0
 10
202.662452185251
 20
67.73923827127928
 30
0.0
 10
202.6139728702363
 20
67.7231267756715
 30
0.0
 10
202.5679974459222
 20
67.70392198635851
 30
0.0
 10
202.5255595301593
 20
67.67887653395647
 30
0.0
 10
202.4850809805403
 20
67.65102290282074
 30
0.0
 10
202.4613591523405
 20
67.62838560444229
 30
0.0
 10
202.4494751431882
 20
67.61704491607512
 30
0.0
  0
SPLINE
  5
D3
330
1F
100
AcDbEntity
  8
0
  6
Continuous
 62
     7
370
    25
100
AcDbSpline
210
0.0
220
0.0
230
1.0
 70
     8
 71
     3
 72
    15
 73
    11
 74
     0
 42
0.00000001
 43
0.00000001
 40
0.0
 40
0.0
 40
0.0
 40
0.0
 40
0.113277920188435
 40
0.2270870976600613
 40
0.3430442578526529
 40
0.4613052417311968
 40
0.5864247941069357
 40
0.7162590429098966
 40
0.8547899065957141
 40
1.0
 40
1.0
 40
1.0
 40
1.0
 10
203.1844172281303
 20
67.63268198171218
 30
0.0
 10
203.1736539948114
 20
67.64281610606724
 30
0.0
 10
203.152077050145
 20
67.66313188237466
 30
0.0
 10
203.1150998312947
 20
67.6885659477514
 30
0.0
 10
203.0750406425172
 20
67.71001451448697
 30
0.0
 10
203.0315010140299
 20
67.72751148267236
 30
0.0
 10
202.9847769647007
 20
67.74131223804346
 30
0.0
 10
202.9343759699928
 20
67.75115947154126
 30
0.0
 10
202.8806942607519
 20
67.75695136398524
 30
0.0
 10
202.8436981936338
 20
67.75749849936611
 30
0.0
 10
202.8247647184778
 20
67.7577785068087
 30
0.0
  0
SPLINE
  5
D4
330
1F
100
AcDbEntity
  8
0
  6
Continuous
 62
     7
370
    25
100
AcDbSpline
210
0.0
220
0.0
230
1.0
 70
     8
 71
     3
 72
    15
 73
    11
 74
     0
 42
0.00000001
 43
0.00000001
 40
0.0
 40
0.0
 40
0.0
 40
0.0
 40
0.1133059292696168
 40
0.2263015370273195
 40
0.3429947497841048
 40
0.4612849748553938
 40
0.5864354642724734
 40
0.7160226876888955
 40
0.8547540019702781
 40
1.0
 40
1.0
 40
1.0
 40
1.0
 10
203.6691662628793
 20
67.0384734875037
 30
0.0
 10
203.6798907530734
 20
67.02828037068993
 30
0.0
 10
203.7013103613005
 20
67.00792205390172
 30
0.0
 10
203.7388423145546
 20
66.98336990774908
 30
0.0
 10
203.7783383322174
 20
66.96095709175002
 30
0.0
 10
203.8221264120147
 20
66.94376253401919
 30
0.0
 10
203.8687191026499
 20
66.92959328791711
 30
0.0
 10
203.9193312306942
 20
66.92098085397257
 30
0.0
 10
203.9728321591138
 20
66.91393782895797
 30
0.0
 10
204.0098733160613
 20
66.91356675550547
 30
0.0
 10
204.0288187725318
 20
66.91337696240717
 30
0.0
  0
SPLINE
  5
D5
330
1F
100
AcDbEntity
  8
0
  6
Continuous
 62
     7
370
    25
100
AcDbSpline
210
0.0
220
0.0
230
1.0
 70
     8
 71
     3
 72
    11
 73
     7
 74
     0
 42
0.00000001
 43
0.00000001
 40
0.0
 40
0.0
 40
0.0
 40
0.0
 40
0.2653711544688524
 40
0.5124447543023585
 40
0.7549131194780966
 40
1.0
 40
1.0
 40
1.0
 40
1.0
 10
203.6848033285164
 20
67.57013371916393
 30
0.0
 10
203.6680006668753
 20
67.55180937559057
 30
0.0
 10
203.635553900634
 20
67.51642416667819
 30
0.0
 10
203.6006007289929
 20
67.45449747571946
 30
0.0
 10
203.5794086469426
 20
67.3884943364342
 30
0.0
 10
203.5767036376211
 20
67.34287356336179
 30
0.0
 10
203.5753438690569
 20
67.31994066897087
 30
0.0
  0
SPLINE
  5
D6
330
1F
100
AcDbEntity
  8
0
  6
Continuous
 62
     7
370
    25
100
AcDbSpline
210
0.0
220
0.0
230
1.0
 70
     8
 71
     3
 72
    15
 73
    11
 74
     0
 42
0.00000001
 43
0.00000001
 40
0.0
 40
0.0
 40
0.0
 40
0.0
 40
0.1132779201884349
 40
0.2270870976600624
 40
0.343044257852653
 40
0.4613052417311974
 40
0.5864247941069357
 40
0.7162590429098971
 40
0.854789906595714
 40
1.0
 40
1.0
 40
1.0
 40
1.0
 10
204.3884712821844
 20
67.57013371916393
 30
0.0
 10
204.3777080488654
 20
67.580267843519
 30
0.0
 10
204.356131104199
 20
67.6005836198264
 30
0.0
 10
204.3191538853488
 20
67.62601768520314
 30
0.0
 10
204.2790946965712
 20
67.64746625193871
 30
0.0
 10
204.235555068084
 20
67.66496322012408
 30
0.0
 10
204.1888310187548
 20
67.6787639754952
 30
0.0
 10
204.1384300240469
 20
67.68861120899298
 30
0.0
 10
204.0847483148059
 20
67.69440310143698
 30
0.0
 10
204.0477522476878
 20
67.69495023681783
 30
0.0
 10
204.0288187725318
 20
67.69523024426046
 30
0.0
  0
SPLINE
  5
D7
330
1F
100
AcDbEntity
  8
0
  6
Continuous
 62
     7
370
    25
100
AcDbSpline
210
0.0
220
0.0
230
1.0
 70
     8
 71
     3
 72
    11
 73
     7
 74
     0
 42
0.00000001
 43
0.00000001
 40
0.0
 40
0.0
 40
0.0
 40
0.0
 40
0.2562600332085377
 40
0.5016208045865223
 40
0.7449078564687264
 40
0.9999999999999999
 40
0.9999999999999999
 40
0.9999999999999999
 40
0.9999999999999999
 10
204.4979307416438
 20
67.3043036033338
 30
0.0
 10
204.4966218339887
 20
67.32954756187165
 30
0.0
 10
204.4940596891904
 20
67.37896180190805
 30
0.0
 10
204.4730533900742
 20
67.44982533065041
 30
0.0
 10
204.438290481322
 20
67.51495534264485
 30
0.0
 10
204.4053378644154
 20
67.5514527559802
 30
0.0
 10
204.3884712821844
 20
67.57013371916393
 30
0.0
  0
SPLINE
  5
D8
330
1F
100
AcDbEntity
  8
0
  6
Continuous
 62
     7
370
    25
100
AcDbSpline
210
0.0
220
0.0
230
1.0
 70
     8
 71
     3
 72
    11
 73
     7
 74
     0
 42
0.00000001
 43
0.00000001
 40
0.0
 40
0.0
 40
0.0
 40
0.0
 40
0.2901378045003216
 40
0.546542488739872
 40
0.7801595488425193
 40
1.0
 40
1.0
 40
1.0
 40
1.0
 10
203.5753438690569
 20
67.31994066897087
 30
0.0
 10
203.5761878992536
 20
67.29045545277101
 30
0.0
 10
203.5777778277536
 20
67.23491314427848
 30
0.0
 10
203.5965570342933
 20
67.15778104053017
 30
0.0
 10
203.6241387430264
 20
67.09031310438183
 30
0.0
 10
203.6544641980707
 20
67.05539978967369
 30
0.0
 10
203.6691662628793
 20
67.0384734875037
 30
0.0
  0
SPLINE
  5
D9
330
1F
100
AcDbEntity
  8
0
  6
Continuous
 62
     7
370
    25
100
AcDbSpline
210
0.0
220
0.0
230
1.0
 70
     8
 71
     3
 72
    15
 73
    11
 74
     0
 42
0.00000001
 43
0.00000001
 40
0.0
 40
0.0
 40
0.0
 40
0.0
 40
0.1417662078038661
 40
0.2766387327414356
 40
0.4056138818208841
 40
0.5283604514395143
 40
0.6484896893007585
 40
0.7663666155685053
 40
0.8822035907677863
 40
1.0
 40
1.0
 40
1.0
 40
1.0
 10
204.0288187725318
 20
67.69523024426046
 30
0.0
 10
204.0110406303836
 20
67.69496026979101
 30
0.0
 10
203.9763488459975
 20
67.69443344893394
 30
0.0
 10
203.9257765023156
 20
67.68848247005903
 30
0.0
 10
203.8781901580406
 20
67.67891530209467
 30
0.0
 10
203.8337521640152
 20
67.66461810322758
 30
0.0
 10
203.7918363699491
 20
67.64748313394924
 30
0.0
 10
203.7528914722119
 20
67.62603945902231
 30
0.0
 10
203.7170185108144
 20
67.60022711246927
 30
0.0
 10
203.6956015956693
 20
67.58022077989952
 30
0.0
 10
203.6848033285164
 20
67.57013371916393
 30
0.0
  0
SPLINE
  5
DA
330
1F
100
AcDbEntity
  8
0
  6
Continuous
 62
     7
370
    25
100
AcDbSpline
210
0.0
220
0.0
230
1.0
 70
     8
 71
     3
 72
    11
 73
     7
 74
     0
 42
0.00000001
 43
0.00000001
 40
0.0
 40
0.0
 40
0.0
 40
0.0
 40
0.2550921435312753
 40
0.4983791954134789
 40
0.7437399667914599
 40
1.0
 40
1.0
 40
1.0
 40
1.0
 10
204.3884712821844
 20
67.0384734875037
 30
0.0
 10
204.4053378644154
 20
67.05715445068742
 30
0.0
 10
204.438290481322
 20
67.09365186402276
 30
0.0
 10
204.4730533900742
 20
67.1587818760172
 30
0.0
 10
204.4940596891904
 20
67.2296454047596
 30
0.0
 10
204.4966218339887
 20
67.27905964479596
 30
0.0
 10
204.4979307416438
 20
67.3043036033338
 30
0.0
  0
SPLINE
  5
DB
330
1F
100
AcDbEntity
  8
0
  6
Continuous
 62
     7
370
    25
100
AcDbSpline
210
0.0
220
0.0
230
1.0
 70
     8
 71
     3
 72
    15
 73
    11
 74
     0
 42
0.00000001
 43
0.00000001
 40
0.0
 40
0.0
 40
0.0
 40
0.0
 40
0.1452459980297225
 40
0.2839773123111046
 40
0.4135645357275267
 40
0.5387150251446062
 40
0.6570052502158958
 40
0.7736984629726805
 40
0.8866940707303832
 40
1.0
 40
1.0
 40
1.0
 40
1.0
 10
204.0288187725318
 20
66.91337696240717
 30
0.0
 10
204.0477642290024
 20
66.91356675550547
 30
0.0
 10
204.0848053859499
 20
66.91393782895797
 30
0.0
 10
204.1383063143695
 20
66.92098085397257
 30
0.0
 10
204.1889184424138
 20
66.92959328791711
 30
0.0
 10
204.235511133049
 20
66.94376253401919
 30
0.0
 10
204.2792992128462
 20
66.96095709175002
 30
0.0
 10
204.318795230509
 20
66.98336990774908
 30
0.0
 10
204.3563271837631
 20
67.00792205390172
 30
0.0
 10
204.3777467919902
 20
67.02828037068993
 30
0.0
 10
204.3884712821844
 20
67.0384734875037
 30
0.0
  0
SPLINE
  5
DC
330
1F
100
AcDbEntity
  8
0
  6
Continuous
 62
     7
370
    25
100
AcDbSpline
210
0.0
220
0.0
230
1.0
 70
     8
 71
     3
 72
    11
 73
     7
 74
     0
 42
0.00000001
 43
0.00000001
 40
0.0
 40
0.0
 40
0.0
 40
0.0
 40
0.25626003320854
 40
0.5016208045865238
 40
0.7449078564687273
 40
1.0
 40
1.0
 40
1.0
 40
1.0
 10
203.5753438690569
 20
65.25584800487822
 30
0.0
 10
203.5740349614018
 20
65.28109196341606
 30
0.0
 10
203.5714728166035
 20
65.33050620345243
 30
0.0
 10
203.5504665174874
 20
65.40136973219482
 30
0.0
 10
203.5157036087351
 20
65.46649974418925
 30
0.0
 10
203.4827509918285
 20
65.5029971575246
 30
0.0
 10
203.4658844095975
 20
65.52167812070833
 30
0.0
  0
SPLINE
  5
DD
330
1F
100
AcDbEntity
  8
0
  6
Continuous
 62
     7
370
    25
100
AcDbSpline
210
0.0
220
0.0
230
1.0
 70
     8
 71
     3
 72
    11
 73
     7
 74
     0
 42
0.00000001
 43
0.00000001
 40
0.0
 40
0.0
 40
0.0
 40
0.0
 40
0.2912484084677854
 40
0.5474762715832013
 40
0.7812177661650658
 40
1.0
 40
1.0
 40
1.0
 40
1.0
 10
203.4658844095975
 20
65.03692908595929
 30
0.0
 10
203.4825332403057
 20
65.05476771316073
 30
0.0
 10
203.5138289984878
 20
65.08829999978086
 30
0.0
 10
203.549022314222
 20
65.14372907270928
 30
0.0
 10
203.5708402084879
 20
65.19964457532807
 30
0.0
 10
203.5738761017867
 20
65.23753100405057
 30
0.0
 10
203.5753438690569
 20
65.25584800487822
 30
0.0
  0
SPLINE
  5
DE
330
1F
100
AcDbEntity
  8
0
  6
Continuous
 62
     7
370
    25
100
AcDbSpline
210
0.0
220
0.0
230
1.0
 70
     8
 71
     3
 72
    15
 73
    11
 74
     0
 42
0.00000001
 43
0.00000001
 40
0.0
 40
0.0
 40
0.0
 40
0.0
 40
0.1621938662364104
 40
0.3128358862094928
 40
0.45149378481997
 40
0.5789754992164106
 40
0.6959713973784589
 40
0.8040446570061013
 40
0.9042792524989225
 40
1.0
 40
1.0
 40
1.0
 40
1.0
 10
202.9654983092114
 20
64.8961954952257
 30
0.0
 10
202.9942744177506
 20
64.89666244484138
 30
0.0
 10
203.0497771295696
 20
64.89756308677211
 30
0.0
 10
203.1296929226258
 20
64.90377966849391
 30
0.0
 10
203.2029352269687
 20
64.91450258923801
 30
0.0
 10
203.2691417355067
 20
64.9301752136246
 30
0.0
 10
203.3287741979527
 20
64.94947350167763
 30
0.0
 10
203.3811266892082
 20
64.97398183969314
 30
0.0
 10
203.4274492017794
 20
65.00212916301976
 30
0.0
 10
203.4532709423213
 20
65.02550862763135
 30
0.0
 10
203.4658844095975
 20
65.03692908595929
 30
0.0
  0
SPLINE
  5
DF
330
1F
100
AcDbEntity
  8
0
  6
Continuous
 62
     7
370
    25
100
AcDbSpline
210
0.0
220
0.0
230
1.0
 70
     8
 71
     3
 72
    15
 73
    11
 74
     0
 42
0.00000001
 43
0.00000001
 40
0.0
 40
0.0
 40
0.0
 40
0.0
 40
0.0889385933316044
 40
0.1846881048742349
 40
0.2906390975243623
 40
0.4070025892724362
 40
0.5351860897525821
 40
0.6768017488293067
 40
0.8315571904058214
 40
1.0
 40
1.0
 40
1.0
 40
1.0
 10
202.4182010119141
 20
65.03692908595929
 30
0.0
 10
202.4309788572247
 20
65.02545836537959
 30
0.0
 10
202.4575130753452
 20
65.00163849634357
 30
0.0
 10
202.5063857959445
 20
64.97365805471343
 30
0.0
 10
202.5626919110354
 20
64.94932785322789
 30
0.0
 10
202.6275342792273
 20
64.93008578124964
 30
0.0
 10
202.7002952126718
 20
64.91438837887894
 30
0.0
 10
202.7814501418379
 20
64.90376852466669
 30
0.0
 10
202.8708048848738
 20
64.89753754437596
 30
0.0
 10
202.9330550742613
 20
64.89665529923218
 30
0.0
 10
202.9654983092114
 20
64.8961954952257
 30
0.0
  0
SPLINE
  5
E0
330
1F
100
AcDbEntity
  8
0
  6
Continuous
 62
     7
370
    25
100
AcDbSpline
210
0.0
220
0.0
230
1.0
 70
     8
 71
     3
 72
    11
 73
     7
 74
     0
 42
0.00000001
 43
0.00000001
 40
0.0
 40
0.0
 40
0.0
 40
0.0
 40
0.2601257123120306
 40
0.509013388686446
 40
0.7508417226532328
 40
1.0
 40
1.0
 40
1.0
 40
1.0
 10
202.3243786180917
 20
65.27148507051528
 30
0.0
 10
202.3253595671475
 20
65.2489459235094
 30
0.0
 10
202.3272790859778
 20
65.20484137308415
 30
0.0
 10
202.346200383041
 20
65.14224556394701
 30
0.0
 10
202.3750759760557
 20
65.08453468926123
 30
0.0
 10
202.4036836386138
 20
65.05295477267617
 30
0.0
 10
202.4182010119141
 20
65.03692908595929
 30
0.0
  0
SPLINE
  5
E1
330
1F
100
AcDbEntity
  8
0
  6
Continuous
 62
     7
370
    25
100
AcDbSpline
210
0.0
220
0.0
230
1.0
 70
     8
 71
     3
 72
    11
 73
     7
 74
     0
 42
0.00000001
 43
0.00000001
 40
0.0
 40
0.0
 40
0.0
 40
0.0
 40
0.2767994473675431
 40
0.5300473798609809
 40
0.7673216447737531
 40
1.0
 40
1.0
 40
1.0
 40
1.0
 10
202.4338380775511
 20
65.50604105507126
 30
0.0
 10
202.4170675751062
 20
65.48808696448616
 30
0.0
 10
202.3849534904705
 20
65.45370640931192
 30
0.0
 10
202.350365052283
 20
65.3947191751101
 30
0.0
 10
202.3285718343671
 20
65.33379338243527
 30
0.0
 10
202.32576721424
 20
65.29211865491844
 30
0.0
 10
202.3243786180917
 20
65.27148507051528
 30
0.0
  0
SPLINE
  5
E2
330
1F
100
AcDbEntity
  8
0
  6
Continuous
 62
     7
370
    25
100
AcDbSpline
210
0.0
220
0.0
230
1.0
 70
     8
 71
     3
 72
    15
 73
    11
 74
     0
 42
0.00000001
 43
0.00000001
 40
0.0
 40
0.0
 40
0.0
 40
0.0
 40
0.1182864595995973
 40
0.2347934213738282
 40
0.3525293820747453
 40
0.472865723510988
 40
0.5967540177287655
 40
0.7246940143624924
 40
0.858807397913268
 40
1.0
 40
1.0
 40
1.0
 40
1.0
 10
203.4658844095975
 20
65.52167812070833
 30
0.0
 10
203.4511352516458
 20
65.53555844248434
 30
0.0
 10
203.4218588216166
 20
65.56311027090659
 30
0.0
 10
203.372422268655
 20
65.59796796442399
 30
0.0
 10
203.3194393056399
 20
65.62765135276834
 30
0.0
 10
203.2624405811135
 20
65.65217566709448
 30
0.0
 10
203.2013409067431
 20
65.67044739061546
 30
0.0
 10
203.1366220963544
 20
65.68377901788271
 30
0.0
 10
203.0680248600514
 20
65.69200286860551
 30
0.0
 10
203.020926939012
 20
65.69311531618628
 30
0.0
 10
202.9967724404855
 20
65.69368584271605
 30
0.0
  0
SPLINE
  5
E3
330
1F
100
AcDbEntity
  8
0
  6
Continuous
 62
     7
370
    25
100
AcDbSpline
210
0.0
220
0.0
230
1.0
 70
     8
 71
     3
 72
    15
 73
    11
 74
     0
 42
0.00000001
 43
0.00000001
 40
0.0
 40
0.0
 40
0.0
 40
0.0
 40
0.1493997748286759
 40
0.2899387608175545
 40
0.4216321191698549
 40
0.5469260282951609
 40
0.6656128117813255
 40
0.7800387407312271
 40
0.8908418859280363
 40
1.0
 40
1.0
 40
1.0
 40
1.0
 10
202.9967724404855
 20
65.69368584271605
 30
0.0
 10
202.966446940977
 20
65.6931390439311
 30
0.0
 10
202.9075945246412
 20
65.69207787658792
 30
0.0
 10
202.8222837651012
 20
65.68365916977899
 30
0.0
 10
202.7430376511017
 20
65.66816212150688
 30
0.0
 10
202.6691734061401
 20
65.64868658480827
 30
0.0
 10
202.6015992810001
 20
65.62136424695447
 30
0.0
 10
202.5391285815054
 20
65.58999188453262
 30
0.0
 10
202.4828348683645
 20
65.55154526446503
 30
0.0
 10
202.450088707912
 20
65.52113331059346
 30
0.0
 10
202.4338380775511
 20
65.50604105507126
 30
0.0
  0
LINE
  5
E4
330
1F
100
AcDbEntity
  8
0
  6
Continuous
 62
     7
370
    25
100
AcDbLine
 10
204.4521778459
 20
76.2417553408
 30
0.0
 11
203.622255066
 21
76.2417553408
 31
0.0
  0
LINE
  5
E5
330
1F
100
AcDbEntity
  8
0
  6
Continuous
 62
     7
370
    25
100
AcDbLine
 10
204.4521778459
 20
75.3660796651
 30
0.0
 11
204.4521778459
 21
76.2417553408
 31
0.0
  0
SPLINE
  5
E6
330
1F
100
AcDbEntity
  8
0
  6
Continuous
 62
     7
370
    25
100
AcDbSpline
210
0.0
220
0.0
230
1.0
 70
     8
 71
     3
 72
    11
 73
     7
 74
     0
 42
0.00000001
 43
0.00000001
 40
0.0
 40
0.0
 40
0.0
 40
0.0
 40
0.2499695538886852
 40
0.4922399851273412
 40
0.7405148106355978
 40
1.0
 40
1.0
 40
1.0
 40
1.0
 10
204.3571971509102
 20
75.1315236805539
 30
0.0
 10
204.3718898970163
 20
75.14754817354327
 30
0.0
 10
204.4008228490988
 20
75.17910360126659
 30
0.0
 10
204.4304684938286
 20
75.23668725001039
 30
0.0
 10
204.4492405208019
 20
75.29945356771113
 30
0.0
 10
204.4511844315916
 20
75.34354647050058
 30
0.0
 10
204.4521778458909
 20
75.36607966510988
 30
0.0
  0
SPLINE
  5
E7
330
1F
100
AcDbEntity
  8
0
  6
Continuous
 62
     7
370
    25
100
AcDbSpline
210
0.0
220
0.0
230
1.0
 70
     8
 71
     3
 72
    11
 73
     7
 74
     0
 42
0.00000001
 43
0.00000001
 40
0.0
 40
0.0
 40
0.0
 40
0.0
 40
0.2516095171558486
 40
0.496493079866558
 40
0.7426069856111286
 40
1.0
 40
1.0
 40
1.0
 40
1.0
 10
204.060092903806
 20
75.00642715545737
 30
0.0
 10
204.0878635397034
 20
75.00803052885732
 30
0.0
 10
204.1426624547145
 20
75.01119441473303
 30
0.0
 10
204.2217520505493
 20
75.03513399058201
 30
0.0
 10
204.2946964344533
 20
75.07523433227723
 30
0.0
 10
204.3360547548073
 20
75.11248243166746
 30
0.0
 10
204.3571971509102
 20
75.1315236805539
 30
0.0
  0
SPLINE
  5
E8
330
1F
100
AcDbEntity
  8
0
  6
Continuous
 62
     7
370
    25
100
AcDbSpline
210
0.0
220
0.0
230
1.0
 70
     8
 71
     3
 72
    15
 73
    11
 74
     0
 42
0.00000001
 43
0.00000001
 40
0.0
 40
0.0
 40
0.0
 40
0.0
 40
0.121504244690735
 40
0.2399194382132705
 40
0.3607014484775897
 40
0.4813982058565623
 40
0.6046686543565298
 40
0.7308278400410385
 40
0.8619579002966847
 40
1.0
 40
1.0
 40
1.0
 40
1.0
 10
203.7317145254276
 20
75.1315236805539
 30
0.0
 10
203.7422740963629
 20
75.12137484715622
 30
0.0
 10
203.7631247780245
 20
75.10133519822472
 30
0.0
 10
203.7988904112465
 20
75.07654022133136
 30
0.0
 10
203.8360510254849
 20
75.05413739874437
 30
0.0
 10
203.8766167918224
 20
75.03713015989034
 30
0.0
 10
203.9188443340108
 20
75.02266850681184
 30
0.0
 10
203.9639201089244
 20
75.01417272184268
 30
0.0
 10
204.0110230625944
 20
75.00695486214474
 30
0.0
 10
204.0434586535256
 20
75.00660604344428
 30
0.0
 10
204.060092903806
 20
75.00642715545737
 30
0.0
  0
SPLINE
  5
E9
330
1F
100
AcDbEntity
  8
0
  6
Continuous
 62
     7
370
    25
100
AcDbSpline
210
0.0
220
0.0
230
1.0
 70
     8
 71
     3
 72
    11
 73
     7
 74
     0
 42
0.00000001
 43
0.00000001
 40
0.0
 40
0.0
 40
0.0
 40
0.0
 40
0.2562600332085387
 40
0.5016208045865214
 40
0.7449078564687264
 40
1.0
 40
1.0
 40
1.0
 40
1.0
 10
203.6222550659681
 20
75.397353796384
 30
0.0
 10
203.6235639736233
 20
75.37210983784617
 30
0.0
 10
203.6261261184216
 20
75.32269559780978
 30
0.0
 10
203.6471324175377
 20
75.25183206906739
 30
0.0
 10
203.6818953262899
 20
75.18670205707296
 30
0.0
 10
203.7148479431966
 20
75.15020464373764
 30
0.0
 10
203.7317145254276
 20
75.1315236805539
 30
0.0
  0
LINE
  5
EA
330
1F
100
AcDbEntity
  8
0
  6
Continuous
 62
     7
370
    25
100
AcDbLine
 10
203.622255066
 20
76.2417553408
 30
0.0
 11
203.622255066
 21
75.3973537964
 31
0.0
  0
LINE
  5
EB
330
1F
100
AcDbEntity
  8
0
  6
Continuous
 62
     7
370
    25
100
AcDbLine
 10
199.5346488941
 20
92.1283966346
 30
0.0
 11
207.1198998478
 21
92.1283966346
 31
0.0
  0
SPLINE
  5
EC
330
1F
100
AcDbEntity
  8
0
  6
Continuous
 62
     7
370
    25
100
AcDbSpline
210
0.0
220
0.0
230
1.0
 70
     8
 71
     3
 72
    15
 73
    11
 74
     0
 42
0.00000001
 43
0.00000001
 40
0.0
 40
0.0
 40
0.0
 40
0.0
 40
0.1277118540336135
 40
0.2523621141955317
 40
0.3748537650566257
 40
0.4969693854038489
 40
0.6192731655242183
 40
0.7424854443019971
 40
0.8694478780376612
 40
1.0
 40
1.0
 40
1.0
 40
1.0
 10
202.4963863400994
 20
75.08461248364269
 30
0.0
 10
202.5081080914235
 20
75.07331801447403
 30
0.0
 10
202.5312705924192
 20
75.05099983469587
 30
0.0
 10
202.5699797517139
 20
75.02290537659489
 30
0.0
 10
202.6099608699229
 20
74.99804328198282
 30
0.0
 10
202.6525436576427
 20
74.97860438158405
 30
0.0
 10
202.6966271764052
 20
74.96269889230788
 30
0.0
 10
202.7428460050758
 20
74.95166913765217
 30
0.0
 10
202.7909959785502
 20
74.94532633015652
 30
0.0
 10
202.8237808446603
 20
74.94436583501194
 30
0.0
 10
202.8404017841148
 20
74.9438788929091
 30
0.0
  0
SPLINE
  5
ED
330
1F
100
AcDbEntity
  8
0
  6
Continuous
 62
     7
370
    25
100
AcDbSpline
210
0.0
220
0.0
230
1.0
 70
     8
 71
     3
 72
    15
 73
    11
 74
     0
 42
0.00000001
 43
0.00000001
 40
0.0
 40
0.0
 40
0.0
 40
0.0
 40
0.1452459980297225
 40
0.2839773123111056
 40
0.4135645357275263
 40
0.5387150251446059
 40
0.6570052502158957
 40
0.7736984629726816
 40
0.8866940707303834
 40
0.9999999999999999
 40
0.9999999999999999
 40
0.9999999999999999
 40
0.9999999999999999
 10
202.3712898150029
 20
75.4442649932952
 30
0.0
 10
202.3714796081012
 20
75.42531953682465
 30
0.0
 10
202.3718506815537
 20
75.38827837987712
 30
0.0
 10
202.3788937065683
 20
75.33477745145755
 30
0.0
 10
202.3875061405128
 20
75.28416532341326
 30
0.0
 10
202.4016753866149
 20
75.23757263277805
 30
0.0
 10
202.4188699443457
 20
75.1937845529808
 30
0.0
 10
202.4412827603448
 20
75.15428853531802
 30
0.0
 10
202.4658349064974
 20
75.11675658206387
 30
0.0
 10
202.4861932232857
 20
75.09533697383681
 30
0.0
 10
202.4963863400994
 20
75.08461248364269
 30
0.0
  0
LINE
  5
EE
330
1F
100
AcDbEntity
  8
0
  6
Continuous
 62
     7
370
    25
100
AcDbLine
 10
202.371289815
 20
76.2417553408
 30
0.0
 11
202.371289815
 21
75.4442649933
 31
0.0
  0
LINE
  5
EF
330
1F
100
AcDbEntity
  8
0
  6
Continuous
 62
     7
370
    25
100
AcDbLine
 10
203.32630912
 20
75.4442649933
 30
0.0
 11
203.32630912
 21
76.2417553408
 31
0.0
  0
SPLINE
  5
F0
330
1F
100
AcDbEntity
  8
0
  6
Continuous
 62
     7
370
    25
100
AcDbSpline
210
0.0
220
0.0
230
1.0
 70
     8
 71
     3
 72
    15
 73
    11
 74
     0
 42
0.00000001
 43
0.00000001
 40
0.0
 40
0.0
 40
0.0
 40
0.0
 40
0.1193556939378553
 40
0.2390663805212355
 40
0.3573840708360864
 40
0.478772892602903
 40
0.6013911634438122
 40
0.7292416297469767
 40
0.8608048514681801
 40
1.0
 40
1.0
 40
1.0
 40
1.0
 10
203.1844172281303
 20
75.06897541800562
 30
0.0
 10
203.1957094701379
 20
75.08089318602063
 30
0.0
 10
203.2183275400067
 20
75.10476416836958
 30
0.0
 10
203.2469509851202
 20
75.14484650609104
 30
0.0
 10
203.2717003964133
 20
75.18766752228201
 30
0.0
 10
203.2918216587316
 20
75.23331447429032
 30
0.0
 10
203.307715774004
 20
75.28197646141729
 30
0.0
 10
203.3184816003888
 20
75.33344583479789
 30
0.0
 10
203.3249376660165
 20
75.38792315883661
 30
0.0
 10
203.3258434580989
 20
75.42513475131248
 30
0.0
 10
203.3263091200222
 20
75.4442649932952
 30
0.0
  0
SPLINE
  5
F1
330
1F
100
AcDbEntity
  8
0
  6
Continuous
 62
     7
370
    25
100
AcDbSpline
210
0.0
220
0.0
230
1.0
 70
     8
 71
     3
 72
    15
 73
    11
 74
     0
 42
0.00000001
 43
0.00000001
 40
0.0
 40
0.0
 40
0.0
 40
0.0
 40
0.1417962611116214
 40
0.2768819513476974
 40
0.4055805706087831
 40
0.5298229690785621
 40
0.6485572024501445
 40
0.7672114666371233
 40
0.8821786188665557
 40
1.0
 40
1.0
 40
1.0
 40
1.0
 10
202.8404017841148
 20
74.9438788929091
 30
0.0
 10
202.8581916818533
 20
74.9440617639631
 30
0.0
 10
202.8929295625385
 20
74.94441885161746
 30
0.0
 10
202.9433234904417
 20
74.95158187335969
 30
0.0
 10
202.9912707106452
 20
74.96007454661498
 30
0.0
 10
203.0357145106519
 20
74.974346871348
 30
0.0
 10
203.0777135732851
 20
74.99161837892629
 30
0.0
 10
203.1159744485324
 20
75.01381848342568
 30
0.0
 10
203.1524020805011
 20
75.03878641797115
 30
0.0
 10
203.1736586364451
 20
75.05883049759113
 30
0.0
 10
203.1844172281303
 20
75.06897541800562
 30
0.0
  0
LINE
  5
F2
330
1F
100
AcDbEntity
  8
0
  6
Continuous
 62
     7
370
    25
100
AcDbLine
 10
203.32630912
 20
76.2417553408
 30
0.0
 11
202.371289815
 21
76.2417553408
 31
0.0
  0
LINE
  5
F3
330
1F
100
AcDbEntity
  8
0
  6
Continuous
 62
     7
370
    25
100
AcDbLine
 10
177.8298550161
 20
88.2802178581
 30
0.0
 11
177.8298550161
 21
55.5620565678
 31
0.0
  0
LINE
  5
F4
330
1F
100
AcDbEntity
  8
0
  6
Continuous
 62
     7
370
    25
100
AcDbLine
 10
175.827274371
 20
57.564637213
 30
0.0
 11
175.827274371
 21
86.277637213
 31
0.0
  0
LINE
  5
F5
330
1F
100
AcDbEntity
  8
0
  6
Continuous
 62
     7
370
    18
100
AcDbLine
 10
176.2274779545
 20
86.6778407965
 30
0.0
 11
195.527274371
 21
87.2809594345
 31
0.0
  0
LINE
  5
F6
330
1F
100
AcDbEntity
  8
0
  6
Continuous
 62
     7
370
    18
100
AcDbLine
 10
176.2274779545
 20
57.1644336295
 30
0.0
 11
195.527274371
 21
56.5613149915
 31
0.0
  0
LINE
  5
F7
330
1F
100
AcDbEntity
  8
0
  6
Continuous
 62
     7
370
    25
100
AcDbLine
 10
195.527274371
 20
55.009012213
 30
0.0
 11
195.527274371
 21
88.833262213
 31
0.0
  0
LINE
  5
F8
330
1F
100
AcDbEntity
  8
FORMAT
  6
CENTERX2
370
    18
100
AcDbLine
 10
210.6763163017
 20
71.921137213
 30
0.0
 11
173.827274371
 21
71.921137213
 31
0.0
  0
SPLINE
  5
F9
330
1F
100
AcDbEntity
  8
0
  6
Continuous
 62
     7
370
    25
100
AcDbSpline
210
0.0
220
0.0
230
1.0
 70
    24
 71
     3
 72
    18
 73
    14
 74
     0
 42
0.00000001
 43
0.00000001
 40
0.0
 40
0.0
 40
0.0
 40
0.0
 40
0.2500000000000004
 40
0.2500000000000004
 40
0.5000000000000009
 40
0.5000000000000009
 40
0.562500000000001
 40
0.562500000000001
 40
0.625000000000001
 40
0.625000000000001
 40
0.7500000000000007
 40
0.7500000000000007
 40
1.0
 40
1.0
 40
1.0
 40
1.0
 10
222.613537197629
 20
82.02476692379712
 30
0.0
 10
224.0422465473092
 20
82.84963265142869
 30
0.0
 10
225.4813720215915
 20
83.68051213140325
 30
0.0
 10
228.3896359099505
 20
85.35959907022175
 30
0.0
 10
229.858997444233
 20
86.20793534757668
 30
0.0
 10
231.718768204343
 20
87.28167449655713
 30
0.0
 10
232.0926076094427
 20
87.49751077772518
 30
0.0
 10
232.8368952733613
 20
87.92722546084308
 30
0.0
 10
233.207746140937
 20
88.14133630906711
 30
0.0
 10
234.3165877212422
 20
88.78152629394495
 30
0.0
 10
235.0508587354001
 20
89.20545786162718
 30
0.0
 10
237.2405991001379
 20
90.46970505066393
 30
0.0
 10
238.6830467105658
 20
91.30250256683644
 30
0.0
 10
240.1135371976291
 20
92.12839663461558
 30
0.0
  0
SPLINE
  5
FA
330
1F
100
AcDbEntity
  8
0
  6
Continuous
 62
     7
370
    25
100
AcDbSpline
210
0.0
220
0.0
230
1.0
 70
    24
 71
     3
 72
    18
 73
    14
 74
     0
 42
0.00000001
 43
0.00000001
 40
0.0
 40
0.0
 40
0.0
 40
0.0
 40
0.2499999999999996
 40
0.2499999999999996
 40
0.4999999999999991
 40
0.4999999999999991
 40
0.5624999999999991
 40
0.5624999999999991
 40
0.6249999999999991
 40
0.6249999999999991
 40
0.7499999999999994
 40
0.7499999999999994
 40
1.0
 40
1.0
 40
1.0
 40
1.0
 10
240.113537197629
 20
92.1283966346156
 30
0.0
 10
241.5422465473092
 20
91.30353090698402
 30
0.0
 10
242.9813720215915
 20
90.47265142700945
 30
0.0
 10
245.8896359099505
 20
88.79356448819095
 30
0.0
 10
247.358997444233
 20
87.94522821083605
 30
0.0
 10
249.218768204343
 20
86.87148906185558
 30
0.0
 10
249.5926076094428
 20
86.65565278068755
 30
0.0
 10
250.3368952733613
 20
86.22593809756965
 30
0.0
 10
250.707746140937
 20
86.0118272493456
 30
0.0
 10
251.8165877212422
 20
85.37163726446775
 30
0.0
 10
252.5508587354001
 20
84.94770569678553
 30
0.0
 10
254.7405991001379
 20
83.6834585077488
 30
0.0
 10
256.1830467105659
 20
82.85066099157629
 30
0.0
 10
257.6135371976291
 20
82.02476692379712
 30
0.0
  0
SPLINE
  5
FB
330
1F
100
AcDbEntity
  8
0
  6
Continuous
 62
     7
370
    25
100
AcDbSpline
210
0.0
220
0.0
230
1.0
 70
    24
 71
     3
 72
    14
 73
    10
 74
     0
 42
0.00000001
 43
0.00000001
 40
0.0
 40
0.0
 40
0.0
 40
0.0
 40
0.25
 40
0.25
 40
0.4999999999999999
 40
0.4999999999999999
 40
0.75
 40
0.75
 40
1.0
 40
1.0
 40
1.0
 40
1.0
 10
257.6135371976291
 20
82.02476692379713
 30
0.0
 10
257.6135371976291
 20
80.38002095338896
 30
0.0
 10
257.6135371976291
 20
78.72009582474132
 30
0.0
 10
257.6135371976291
 20
75.35585793868124
 30
0.0
 10
257.6135371976291
 20
73.6496362022314
 30
0.0
 10
257.613537197629
 20
70.18783442640847
 30
0.0
 10
257.613537197629
 20
68.48430809466254
 30
0.0
 10
257.6135371976291
 20
65.12159308641642
 30
0.0
 10
257.6135371976291
 20
63.46207386508909
 30
0.0
 10
257.6135371976291
 20
61.81750750216021
 30
0.0
  0
SPLINE
  5
FC
330
1F
100
AcDbEntity
  8
0
  6
Continuous
 62
     7
370
    25
100
AcDbSpline
210
0.0
220
0.0
230
1.0
 70
    24
 71
     3
 72
    18
 73
    14
 74
     0
 42
0.00000001
 43
0.00000001
 40
0.0
 40
0.0
 40
0.0
 40
0.0
 40
0.2500000000000003
 40
0.2500000000000003
 40
0.5000000000000007
 40
0.5000000000000007
 40
0.5625000000000008
 40
0.5625000000000008
 40
0.6250000000000009
 40
0.6250000000000009
 40
0.7500000000000006
 40
0.7500000000000006
 40
1.0
 40
1.0
 40
1.0
 40
1.0
 10
257.6135371976291
 20
61.81750750216023
 30
0.0
 10
256.184827847949
 20
60.99264177452866
 30
0.0
 10
254.7457023736666
 20
60.16176229455409
 30
0.0
 10
251.8374384853076
 20
58.48267535573559
 30
0.0
 10
250.3680769510251
 20
57.63433907838067
 30
0.0
 10
248.5083061909152
 20
56.56059992940021
 30
0.0
 10
248.1344667858154
 20
56.34476364823217
 30
0.0
 10
247.3901791218968
 20
55.91504896511427
 30
0.0
 10
247.0193282543211
 20
55.70093811689024
 30
0.0
 10
245.9104866740159
 20
55.06074813201239
 30
0.0
 10
245.176215659858
 20
54.63681656433015
 30
0.0
 10
242.9864752951202
 20
53.37256937529342
 30
0.0
 10
241.5440276846923
 20
52.53977185912091
 30
0.0
 10
240.113537197629
 20
51.71387779134176
 30
0.0
  0
SPLINE
  5
FD
330
1F
100
AcDbEntity
  8
0
  6
Continuous
 62
     7
370
    25
100
AcDbSpline
210
0.0
220
0.0
230
1.0
 70
    24
 71
     3
 72
    18
 73
    14
 74
     0
 42
0.00000001
 43
0.00000001
 40
0.0
 40
0.0
 40
0.0
 40
0.0
 40
0.2499999999999999
 40
0.2499999999999999
 40
0.4999999999999998
 40
0.4999999999999998
 40
0.5624999999999998
 40
0.5624999999999998
 40
0.6249999999999998
 40
0.6249999999999998
 40
0.7499999999999998
 40
0.7499999999999998
 40
1.0
 40
1.0
 40
1.0
 40
1.0
 10
240.1135371976291
 20
51.71387779134174
 30
0.0
 10
238.6848278479489
 20
52.53874351897332
 30
0.0
 10
237.2457023736666
 20
53.36962299894789
 30
0.0
 10
234.3374384853076
 20
55.0487099377664
 30
0.0
 10
232.8680769510251
 20
55.8970462151213
 30
0.0
 10
231.0083061909152
 20
56.97078536410176
 30
0.0
 10
230.6344667858154
 20
57.18662164526981
 30
0.0
 10
229.8901791218968
 20
57.6163363283877
 30
0.0
 10
229.5193282543211
 20
57.83044717661175
 30
0.0
 10
228.4104866740159
 20
58.47063716148958
 30
0.0
 10
227.676215659858
 20
58.89456872917182
 30
0.0
 10
225.4864752951202
 20
60.15881591820855
 30
0.0
 10
224.0440276846923
 20
60.99161343438107
 30
0.0
 10
222.6135371976291
 20
61.81750750216023
 30
0.0
  0
SPLINE
  5
FE
330
1F
100
AcDbEntity
  8
0
  6
Continuous
 62
     7
370
    25
100
AcDbSpline
210
0.0
220
0.0
230
1.0
 70
    24
 71
     3
 72
    14
 73
    10
 74
     0
 42
0.00000001
 43
0.00000001
 40
0.0
 40
0.0
 40
0.0
 40
0.0
 40
0.25
 40
0.25
 40
0.5
 40
0.5
 40
0.75
 40
0.75
 40
1.0
 40
1.0
 40
1.0
 40
1.0
 10
222.6135371976291
 20
61.81750750216021
 30
0.0
 10
222.6135371976291
 20
63.46225347256838
 30
0.0
 10
222.6135371976291
 20
65.12217860121602
 30
0.0
 10
222.6135371976291
 20
68.4864164872761
 30
0.0
 10
222.6135371976291
 20
70.19263822372592
 30
0.0
 10
222.6135371976291
 20
73.65443999954886
 30
0.0
 10
222.6135371976291
 20
75.3579663312948
 30
0.0
 10
222.6135371976291
 20
78.7206813395409
 30
0.0
 10
222.6135371976291
 20
80.38020056086825
 30
0.0
 10
222.6135371976291
 20
82.02476692379712
 30
0.0
  0
CIRCLE
  5
FF
330
1F
100
AcDbEntity
  8
0
  6
Continuous
 62
     7
370
    25
100
AcDbCircle
 10
240.1135371976
 20
71.921137213
 30
0.0
 40
17.25
  0
CIRCLE
  5
100
330
1F
100
AcDbEntity
  8
0
  6
Continuous
 62
     7
370
    25
100
AcDbCircle
 10
240.1135371976
 20
71.921137213
 30
0.0
 40
13.59559949999999
  0
CIRCLE
  5
101
330
1F
100
AcDbEntity
  8
0
  6
Continuous
 62
     7
370
    25
100
AcDbCircle
 10
240.1135371976
 20
71.921137213
 30
0.0
 40
12.09371576454618
  0
CIRCLE
  5
102
330
1F
100
AcDbEntity
  8
0
  6
Continuous
 62
     7
370
    25
100
AcDbCircle
 10
240.1135371976
 20
71.921137213
 30
0.0
 40
11.54748369975906
  0
CIRCLE
  5
103
330
1F
100
AcDbEntity
  8
0
  6
Continuous
 62
     7
370
    25
100
AcDbCircle
 10
240.1135371976
 20
71.921137213
 30
0.0
 40
11.50000000000003
  0
INSERT
  5
10F
330
1F
100
AcDbEntity
  8
FORMAT
100
AcDbBlockReference
  2
SW_CENTERMARKSYMBOL_0
 10
240.1135371976
 20
71.921137213
 30
0.0
  0
ARC
  5
110
330
1F
100
AcDbEntity
  8
0
  6
Continuous
 62
     7
370
    18
100
AcDbCircle
 10
240.1135371976
 20
71.921137213
 30
0.0
 40
13.30146825959372
100
AcDbArc
 50
75.0
 51
345.0
  0
LINE
  5
111
330
1F
100
AcDbEntity
  8
0
  6
Continuous
 62
     7
370
    25
100
AcDbLine
 10
208.6829368037
 20
101.2642501154
 30
0.0
 11
208.827274371
 21
101.5142501154
 31
0.0
  0
LINE
  5
112
330
1F
100
AcDbEntity
  8
0
  6
Continuous
 62
     7
370
    25
100
AcDbLine
 10
208.827274371
 20
136.0142501154
 30
0.0
 11
208.6829368037
 21
136.2642501154
 31
0.0
  0
LINE
  5
113
330
1F
100
AcDbEntity
  8
0
  6
Continuous
 62
     7
370
    25
100
AcDbLine
 10
197.9716119383
 20
136.2642501154
 30
0.0
 11
197.827274371
 21
136.0142501154
 31
0.0
  0
LINE
  5
114
330
1F
100
AcDbEntity
  8
0
  6
Continuous
 62
     7
370
    25
100
AcDbLine
 10
197.827274371
 20
101.5142501154
 30
0.0
 11
197.9716119383
 21
101.2642501154
 31
0.0
  0
LINE
  5
115
330
1F
100
AcDbEntity
  8
0
  6
Continuous
 62
     7
370
    25
100
AcDbLine
 10
197.827274371
 20
135.7482501154
 30
0.0
 11
177.8298550161
 21
135.1233307606
 31
0.0
  0
LINE
  5
116
330
1F
100
AcDbEntity
  8
0
  6
Continuous
 62
     7
370
    25
100
AcDbLine
 10
177.8298550161
 20
102.4051694702
 30
0.0
 11
197.827274371
 21
101.7802501154
 31
0.0
  0
LINE
  5
117
330
1F
100
AcDbEntity
  8
0
  6
Continuous
 62
     7
370
    25
100
AcDbLine
 10
177.8298550161
 20
135.1233307606
 30
0.0
 11
175.827274371
 21
133.1207501154
 31
0.0
  0
LINE
  5
118
330
1F
100
AcDbEntity
  8
0
  6
Continuous
 62
     7
370
    25
100
AcDbLine
 10
175.827274371
 20
104.4077501154
 30
0.0
 11
177.8298550161
 21
102.4051694702
 31
0.0
  0
SPLINE
  5
119
330
1F
100
AcDbEntity
  8
0
  6
Continuous
 62
     7
370
    25
100
AcDbSpline
210
0.0
220
0.0
230
1.0
 70
     8
 71
     3
 72
    18
 73
    14
 74
     0
 42
0.00000001
 43
0.00000001
 40
0.0
 40
0.0
 40
0.0
 40
0.0
 40
0.2499999999999996
 40
0.2499999999999996
 40
0.4999999999999991
 40
0.4999999999999991
 40
0.5624999999999991
 40
0.5624999999999991
 40
0.6249999999999991
 40
0.6249999999999991
 40
0.7499999999999994
 40
0.7499999999999994
 40
1.0
 40
1.0
 40
1.0
 40
1.0
 10
199.5346488941329
 20
118.7642501154103
 30
0.0
 10
199.0584124442395
 20
120.1929594650904
 30
0.0
 10
198.6659074701917
 20
121.6320849393728
 30
0.0
 10
198.1221607403677
 20
124.5403488277317
 30
0.0
 10
197.9727125676032
 20
126.0097103620143
 30
0.0
 10
197.9713444697076
 20
127.8694811221242
 30
0.0
 10
197.9802691427806
 20
128.243320527224
 30
0.0
 10
198.0162282791767
 20
128.9876081911425
 30
0.0
 10
198.0432211569527
 20
129.3584590587183
 30
0.0
 10
198.1500694850423
 20
130.4673006390234
 30
0.0
 10
198.2558551119239
 20
131.2015716531814
 30
0.0
 10
198.6643421837379
 20
133.3913120179191
 30
0.0
 10
199.0578187317785
 20
134.8337596283471
 30
0.0
 10
199.5346488941329
 20
136.2642501154103
 30
0.0
  0
LINE
  5
11A
330
1F
100
AcDbEntity
  8
0
  6
Continuous
 62
     7
370
    25
100
AcDbLine
 10
199.5346488941
 20
136.2642501154
 30
0.0
 11
207.1198998478
 21
136.2642501154
 31
0.0
  0
SPLINE
  5
11B
330
1F
100
AcDbEntity
  8
0
  6
Continuous
 62
     7
370
    25
100
AcDbSpline
210
0.0
220
0.0
230
1.0
 70
     8
 71
     3
 72
    18
 73
    14
 74
     0
 42
0.00000001
 43
0.00000001
 40
0.0
 40
0.0
 40
0.0
 40
0.0
 40
0.2499999999999996
 40
0.2499999999999996
 40
0.4999999999999991
 40
0.4999999999999991
 40
0.5624999999999991
 40
0.5624999999999991
 40
0.6249999999999991
 40
0.6249999999999991
 40
0.7499999999999994
 40
0.7499999999999994
 40
1.0
 40
1.0
 40
1.0
 40
1.0
 10
207.119899847842
 20
118.7642501154103
 30
0.0
 10
207.5961362977354
 20
120.1929594650904
 30
0.0
 10
207.9886412717832
 20
121.6320849393728
 30
0.0
 10
208.5323880016071
 20
124.5403488277317
 30
0.0
 10
208.6818361743717
 20
126.0097103620143
 30
0.0
 10
208.6832042722673
 20
127.8694811221242
 30
0.0
 10
208.6742795991943
 20
128.243320527224
 30
0.0
 10
208.6383204627981
 20
128.9876081911425
 30
0.0
 10
208.6113275850222
 20
129.3584590587183
 30
0.0
 10
208.5044792569326
 20
130.4673006390234
 30
0.0
 10
208.398693630051
 20
131.2015716531814
 30
0.0
 10
207.990206558237
 20
133.3913120179191
 30
0.0
 10
207.5967300101963
 20
134.8337596283471
 30
0.0
 10
207.1198998478419
 20
136.2642501154103
 30
0.0
  0
LINE
  5
11C
330
1F
100
AcDbEntity
  8
0
  6
Continuous
 62
     7
370
    25
100
AcDbLine
 10
199.5346488941
 20
118.7642501154
 30
0.0
 11
207.1198998478
 21
118.7642501154
 31
0.0
  0
SPLINE
  5
11D
330
1F
100
AcDbEntity
  8
0
  6
Continuous
 62
     7
370
    25
100
AcDbSpline
210
0.0
220
0.0
230
1.0
 70
     8
 71
     3
 72
    18
 73
    14
 74
     0
 42
0.00000001
 43
0.00000001
 40
0.0
 40
0.0
 40
0.0
 40
0.0
 40
0.2500000000000004
 40
0.2500000000000004
 40
0.5000000000000009
 40
0.5000000000000009
 40
0.562500000000001
 40
0.562500000000001
 40
0.625000000000001
 40
0.625000000000001
 40
0.7500000000000007
 40
0.7500000000000007
 40
1.0
 40
1.0
 40
1.0
 40
1.0
 10
207.119899847842
 20
101.2642501154103
 30
0.0
 10
207.5961362977354
 20
102.6929594650904
 30
0.0
 10
207.9886412717832
 20
104.1320849393728
 30
0.0
 10
208.5323880016071
 20
107.0403488277317
 30
0.0
 10
208.6818361743717
 20
108.5097103620143
 30
0.0
 10
208.6832042722673
 20
110.3694811221242
 30
0.0
 10
208.6742795991943
 20
110.743320527224
 30
0.0
 10
208.6383204627981
 20
111.4876081911425
 30
0.0
 10
208.6113275850222
 20
111.8584590587183
 30
0.0
 10
208.5044792569326
 20
112.9673006390234
 30
0.0
 10
208.398693630051
 20
113.7015716531814
 30
0.0
 10
207.990206558237
 20
115.8913120179191
 30
0.0
 10
207.5967300101963
 20
117.3337596283471
 30
0.0
 10
207.1198998478419
 20
118.7642501154103
 30
0.0
  0
SPLINE
  5
11E
330
1F
100
AcDbEntity
  8
0
  6
Continuous
 62
     7
370
    25
100
AcDbSpline
210
0.0
220
0.0
230
1.0
 70
    24
 71
     3
 72
    14
 73
    10
 74
     0
 42
0.00000001
 43
0.00000001
 40
0.0
 40
0.0
 40
0.0
 40
0.0
 40
0.1639469055449046
 40
0.3279395409926725
 40
0.4918482763620393
 40
0.6587971852996386
 40
0.8258503269467583
 40
0.9927684684310456
 40
1.0
 40
1.0
 40
1.0
 40
1.0
 10
207.1198998478418
 20
136.2642501154103
 30
0.0
 10
207.2703968940026
 20
136.2642501154103
 30
0.0
 10
207.571432964642
 20
136.2642501154103
 30
0.0
 10
207.9491269713259
 20
136.2642501154103
 30
0.0
 10
208.2629358487388
 20
136.2642501154103
 30
0.0
 10
208.4996608938641
 20
136.2642501154103
 30
0.0
 10
208.6384866392945
 20
136.2642501154103
 30
0.0
 10
208.6976654780474
 20
136.2642501154103
 30
0.0
 10
208.6815904282304
 20
136.2642501154103
 30
0.0
 10
208.6809229148887
 20
136.2642501154103
 30
0.0
  0
SPLINE
  5
11F
330
1F
100
AcDbEntity
  8
0
  6
Continuous
 62
     7
370
    25
100
AcDbSpline
210
0.0
220
0.0
230
1.0
 70
    24
 71
     3
 72
    13
 73
     9
 74
     0
 42
0.00000001
 43
0.00000001
 40
0.0
 40
0.0
 40
0.0
 40
0.0
 40
0.1587427395074892
 40
0.3248499032264132
 40
0.4908526096830553
 40
0.6605220556109567
 40
0.8302864759863259
 40
1.0
 40
1.0
 40
1.0
 40
1.0
 10
208.6809229148887
 20
101.2642501154103
 30
0.0
 10
208.6730580725293
 20
101.2642501154103
 30
0.0
 10
208.656963520506
 20
101.2642501154103
 30
0.0
 10
208.5148632566724
 20
101.2642501154103
 30
0.0
 10
208.2890282467422
 20
101.2642501154103
 30
0.0
 10
207.973963598168
 20
101.2642501154103
 30
0.0
 10
207.5868386386701
 20
101.2642501154103
 30
0.0
 10
207.2755305537897
 20
101.2642501154103
 30
0.0
 10
207.1198998478418
 20
101.2642501154103
 30
0.0
  0
LINE
  5
120
330
1F
100
AcDbEntity
  8
0
  6
Continuous
 62
     7
370
    25
100
AcDbLine
 10
208.827274371
 20
101.5142501154
 30
0.0
 11
208.827274371
 21
136.0142501154
 31
0.0
  0
SPLINE
  5
121
330
1F
100
AcDbEntity
  8
0
  6
Continuous
 62
     7
370
    25
100
AcDbSpline
210
0.0
220
0.0
230
1.0
 70
    24
 71
     3
 72
    13
 73
     9
 74
     0
 42
0.00000001
 43
0.00000001
 40
0.0
 40
0.0
 40
0.0
 40
0.0
 40
0.1587427395074892
 40
0.3248499032264132
 40
0.4908526096830553
 40
0.6605220556109567
 40
0.8302864759863259
 40
1.0
 40
1.0
 40
1.0
 40
1.0
 10
197.9736258270862
 20
101.2642501154103
 30
0.0
 10
197.9814906694455
 20
101.2642501154103
 30
0.0
 10
197.9975852214689
 20
101.2642501154103
 30
0.0
 10
198.1396854853025
 20
101.2642501154103
 30
0.0
 10
198.3655204952327
 20
101.2642501154103
 30
0.0
 10
198.6805851438069
 20
101.2642501154103
 30
0.0
 10
199.0677101033047
 20
101.2642501154103
 30
0.0
 10
199.3790181881851
 20
101.2642501154103
 30
0.0
 10
199.5346488941331
 20
101.2642501154103
 30
0.0
  0
SPLINE
  5
122
330
1F
100
AcDbEntity
  8
0
  6
Continuous
 62
     7
370
    25
100
AcDbSpline
210
0.0
220
0.0
230
1.0
 70
    24
 71
     3
 72
    14
 73
    10
 74
     0
 42
0.00000001
 43
0.00000001
 40
0.0
 40
0.0
 40
0.0
 40
0.0
 40
0.1639469055449046
 40
0.3279395409926725
 40
0.4918482763620393
 40
0.6587971852996386
 40
0.8258503269467583
 40
0.9927684684310456
 40
1.0
 40
1.0
 40
1.0
 40
1.0
 10
199.5346488941331
 20
136.2642501154103
 30
0.0
 10
199.3841518479722
 20
136.2642501154103
 30
0.0
 10
199.0831157773329
 20
136.2642501154103
 30
0.0
 10
198.7054217706489
 20
136.2642501154103
 30
0.0
 10
198.3916128932361
 20
136.2642501154103
 30
0.0
 10
198.1548878481108
 20
136.2642501154103
 30
0.0
 10
198.0160621026803
 20
136.2642501154103
 30
0.0
 10
197.9568832639275
 20
136.2642501154103
 30
0.0
 10
197.9729583137444
 20
136.2642501154103
 30
0.0
 10
197.9736258270862
 20
136.2642501154103
 30
0.0
  0
SPLINE
  5
123
330
1F
100
AcDbEntity
  8
0
  6
Continuous
 62
     7
370
    25
100
AcDbSpline
210
0.0
220
0.0
230
1.0
 70
     8
 71
     3
 72
    18
 73
    14
 74
     0
 42
0.00000001
 43
0.00000001
 40
0.0
 40
0.0
 40
0.0
 40
0.0
 40
0.2500000000000004
 40
0.2500000000000004
 40
0.5000000000000009
 40
0.5000000000000009
 40
0.562500000000001
 40
0.562500000000001
 40
0.625000000000001
 40
0.625000000000001
 40
0.7500000000000007
 40
0.7500000000000007
 40
1.0
 40
1.0
 40
1.0
 40
1.0
 10
199.5346488941329
 20
101.2642501154103
 30
0.0
 10
199.0584124442395
 20
102.6929594650904
 30
0.0
 10
198.6659074701917
 20
104.1320849393728
 30
0.0
 10
198.1221607403677
 20
107.0403488277317
 30
0.0
 10
197.9727125676032
 20
108.5097103620143
 30
0.0
 10
197.9713444697076
 20
110.3694811221242
 30
0.0
 10
197.9802691427806
 20
110.743320527224
 30
0.0
 10
198.0162282791767
 20
111.4876081911425
 30
0.0
 10
198.0432211569527
 20
111.8584590587183
 30
0.0
 10
198.1500694850423
 20
112.9673006390234
 30
0.0
 10
198.2558551119239
 20
113.7015716531814
 30
0.0
 10
198.6643421837379
 20
115.8913120179191
 30
0.0
 10
199.0578187317786
 20
117.3337596283471
 30
0.0
 10
199.5346488941329
 20
118.7642501154103
 30
0.0
  0
LINE
  5
124
330
1F
100
AcDbEntity
  8
0
  6
Continuous
 62
     7
370
    25
100
AcDbLine
 10
197.827274371
 20
101.5142501154
 30
0.0
 11
197.827274371
 21
136.0142501154
 31
0.0
  0
LINE
  5
125
330
1F
100
AcDbEntity
  8
0
  6
Continuous
 62
     7
370
    25
100
AcDbLine
 10
199.5346488941
 20
101.2642501154
 30
0.0
 11
207.1198998478
 21
101.2642501154
 31
0.0
  0
LINE
  5
126
330
1F
100
AcDbEntity
  8
0
  6
Continuous
 62
     7
370
    25
100
AcDbLine
 10
177.8298550161
 20
135.1233307606
 30
0.0
 11
177.8298550161
 21
102.4051694702
 31
0.0
  0
LINE
  5
127
330
1F
100
AcDbEntity
  8
0
  6
Continuous
 62
     7
370
    25
100
AcDbLine
 10
175.827274371
 20
118.7642501154
 30
0.0
 11
175.827274371
 21
133.1207501154
 31
0.0
  0
LINE
  5
128
330
1F
100
AcDbEntity
  8
0
  6
Continuous
 62
     7
370
    25
100
AcDbLine
 10
175.827274371
 20
104.4077501154
 30
0.0
 11
175.827274371
 21
118.7642501154
 31
0.0
  0
LINE
  5
129
330
1F
100
AcDbEntity
  8
0
  6
Continuous
 62
     7
370
    18
100
AcDbLine
 10
176.2274779545
 20
133.5209536989
 30
0.0
 11
195.527274371
 21
134.1240723369
 31
0.0
  0
LINE
  5
12A
330
1F
100
AcDbEntity
  8
0
  6
Continuous
 62
     7
370
    18
100
AcDbLine
 10
176.2274779545
 20
104.0075465319
 30
0.0
 11
195.527274371
 21
103.4044278939
 31
0.0
  0
LINE
  5
12B
330
1F
100
AcDbEntity
  8
0
  6
Continuous
 62
     7
370
    25
100
AcDbLine
 10
195.527274371
 20
101.8521251154
 30
0.0
 11
195.527274371
 21
135.6763751154
 31
0.0
  0
LINE
  5
12C
330
1F
100
AcDbEntity
  8
FORMAT
  6
CENTERX2
370
    18
100
AcDbLine
 10
210.6763163017
 20
118.7642501154
 30
0.0
 11
173.827274371
 21
118.7642501154
 31
0.0
  0
ENDSEC
  0
SECTION
  2
OBJECTS
  0
DICTIONARY
  5
C
330
0
100
AcDbDictionary
281
     1
  3
ACAD_GROUP
350
D
  3
ACAD_LAYOUT
350
1A
  3
ACAD_MLINESTYLE
350
17
  3
ACAD_PLOTSETTINGS
350
19
  3
ACAD_PLOTSTYLENAME
350
E
  3
ACAD_SCALELIST
350
47
  3
DWGPROPS
350
12D
  0
DICTIONARY
  5
D
102
{ACAD_REACTORS
330
C
102
}
330
C
100
AcDbDictionary
281
     1
  0
DICTIONARY
  5
1A
102
{ACAD_REACTORS
330
C
102
}
330
C
100
AcDbDictionary
281
     1
  3
Layout1
350
1E
  3
Layout2
350
26
  3
Model
350
22
  0
DICTIONARY
  5
17
102
{ACAD_REACTORS
330
C
102
}
330
C
100
AcDbDictionary
281
     1
  3
Standard
350
18
  0
DICTIONARY
  5
19
102
{ACAD_REACTORS
330
C
102
}
330
C
100
AcDbDictionary
281
     1
  0
ACDBDICTIONARYWDFLT
  5
E
102
{ACAD_REACTORS
330
C
102
}
330
C
100
AcDbDictionary
281
     1
  3
Normal
350
F
100
AcDbDictionaryWithDefault
340
F
  0
DICTIONARY
  5
47
102
{ACAD_REACTORS
330
C
102
}
330
C
100
AcDbDictionary
281
     1
  3
A0
350
48
  3
A1
350
49
  3
A2
350
4A
  3
A3
350
4B
  3
A4
350
4C
  3
A5
350
4D
  3
A6
350
4E
  3
A7
350
4F
  3
A8
350
50
  3
A9
350
51
  3
B0
350
52
  3
B1
350
53
  3
B2
350
54
  3
B3
350
55
  3
B4
350
56
  3
B5
350
57
  3
B6
350
58
  0
XRECORD
  5
12D
102
{ACAD_REACTORS
330
C
102
}
330
C
100
AcDbXrecord
280
     1
  1
DWGPROPS COOKIE
  2

  3

  4

  6

  7

  8
user28
  9

300
=
301
=
302
=
303
=
304
=
305
=
306
=
307
=
308
=
309
=
 40
0.0
 41
2460398.306813843
 42
2460398.306814502
  1

 90
        0
  0
LAYOUT
  5
1E
102
{ACAD_REACTORS
330
1A
102
}
330
1A
100
AcDbPlotSettings
  1

  2
none_device
  4

  6

 40
0.0
 41
0.0
 42
0.0
 43
0.0
 44
0.0
 45
0.0
 46
0.0
 47
0.0
 48
0.0
 49
0.0
140
0.0
141
0.0
142
1.0
143
1.0
 70
   688
 72
     1
 73
     0
 74
     5
  7

 75
    16
147
1.0
148
0.0
149
0.0
100
AcDbLayout
  1
Layout1
 70
     1
 71
     1
 10
0.0
 20
0.0
 11
420.0
 21
297.0
 12
0.0
 22
0.0
 32
0.0
 14
1.0000000000E+20
 24
1.0000000000E+20
 34
1.0000000000E+20
 15
-1.0000000000E+20
 25
-1.0000000000E+20
 35
-1.0000000000E+20
146
0.0
 13
0.0
 23
0.0
 33
0.0
 16
1.0
 26
0.0
 36
0.0
 17
0.0
 27
1.0
 37
0.0
 76
     0
330
1B
  0
LAYOUT
  5
26
102
{ACAD_REACTORS
330
1A
102
}
330
1A
100
AcDbPlotSettings
  1

  2
none_device
  4

  6

 40
0.0
 41
0.0
 42
0.0
 43
0.0
 44
0.0
 45
0.0
 46
0.0
 47
0.0
 48
0.0
 49
0.0
140
0.0
141
0.0
142
1.0
143
1.0
 70
   688
 72
     1
 73
     0
 74
     5
  7

 75
    16
147
1.0
148
0.0
149
0.0
100
AcDbLayout
  1
Layout2
 70
     1
 71
     2
 10
0.0
 20
0.0
 11
0.0
 21
0.0
 12
0.0
 22
0.0
 32
0.0
 14
0.0
 24
0.0
 34
0.0
 15
0.0
 25
0.0
 35
0.0
146
0.0
 13
0.0
 23
0.0
 33
0.0
 16
1.0
 26
0.0
 36
0.0
 17
0.0
 27
1.0
 37
0.0
 76
     0
330
23
  0
LAYOUT
  5
22
102
{ACAD_REACTORS
330
1A
102
}
330
1A
100
AcDbPlotSettings
  1

  2
none_device
  4
Letter_(8.50_x_11.00_Inches)
  6

 40
6.35
 41
6.35
 42
6.35000508
 43
6.35000508
 44
215.9
 45
279.4
 46
0.0
 47
0.0
 48
0.0
 49
0.0
140
0.0
141
0.0
142
1.0
143
1.0
 70
  1712
 72
     1
 73
     0
 74
     0
  7

 75
     0
147
1.0
148
0.0
149
0.0
100
AcDbLayout
  1
Model
 70
     1
 71
     0
 10
0.0
 20
0.0
 11
297.0
 21
210.0
 12
0.0
 22
0.0
 32
0.0
 14
0.0
 24
0.0
 34
0.0
 15
297.0
 25
210.0
 35
0.0
146
0.0
 13
0.0
 23
0.0
 33
0.0
 16
1.0
 26
0.0
 36
0.0
 17
0.0
 27
1.0
 37
0.0
 76
     0
330
1F
331
29
  0
MLINESTYLE
  5
18
102
{ACAD_REACTORS
330
17
102
}
330
17
100
AcDbMlineStyle
  2
Standard
 70
     0
  3

 62
   256
 51
90.0
 52
90.0
 71
     2
 49
0.5
 62
   256
  6
BYLAYER
 49
-0.5
 62
   256
  6
BYLAYER
  0
ACDBPLACEHOLDER
  5
F
102
{ACAD_REACTORS
330
E
102
}
330
E
  0
SCALE
  5
48
102
{ACAD_REACTORS
330
47
102
}
330
47
100
AcDbScale
 70
     0
300
1:1
140
1.0
141
1.0
290
     1
  0
SCALE
  5
49
102
{ACAD_REACTORS
330
47
102
}
330
47
100
AcDbScale
 70
     0
300
1:2
140
1.0
141
2.0
290
     0
  0
SCALE
  5
4A
102
{ACAD_REACTORS
330
47
102
}
330
47
100
AcDbScale
 70
     0
300
1:4
140
1.0
141
4.0
290
     0
  0
SCALE
  5
4B
102
{ACAD_REACTORS
330
47
102
}
330
47
100
AcDbScale
 70
     0
300
1:5
140
1.0
141
5.0
290
     0
  0
SCALE
  5
4C
102
{ACAD_REACTORS
330
47
102
}
330
47
100
AcDbScale
 70
     0
300
1:8
140
1.0
141
8.0
290
     0
  0
SCALE
  5
4D
102
{ACAD_REACTORS
330
47
102
}
330
47
100
AcDbScale
 70
     0
300
1:10
140
1.0
141
10.0
290
     0
  0
SCALE
  5
4E
102
{ACAD_REACTORS
330
47
102
}
330
47
100
AcDbScale
 70
     0
300
1:16
140
1.0
141
16.0
290
     0
  0
SCALE
  5
4F
102
{ACAD_REACTORS
330
47
102
}
330
47
100
AcDbScale
 70
     0
300
1:20
140
1.0
141
20.0
290
     0
  0
SCALE
  5
50
102
{ACAD_REACTORS
330
47
102
}
330
47
100
AcDbScale
 70
     0
300
1:30
140
1.0
141
30.0
290
     0
  0
SCALE
  5
51
102
{ACAD_REACTORS
330
47
102
}
330
47
100
AcDbScale
 70
     0
300
1:40
140
1.0
141
40.0
290
     0
  0
SCALE
  5
52
102
{ACAD_REACTORS
330
47
102
}
330
47
100
AcDbScale
 70
     0
300
1:50
140
1.0
141
50.0
290
     0
  0
SCALE
  5
53
102
{ACAD_REACTORS
330
47
102
}
330
47
100
AcDbScale
 70
     0
300
1:100
140
1.0
141
100.0
290
     0
  0
SCALE
  5
54
102
{ACAD_REACTORS
330
47
102
}
330
47
100
AcDbScale
 70
     0
300
2:1
140
2.0
141
1.0
290
     0
  0
SCALE
  5
55
102
{ACAD_REACTORS
330
47
102
}
330
47
100
AcDbScale
 70
     0
300
4:1
140
4.0
141
1.0
290
     0
  0
SCALE
  5
56
102
{ACAD_REACTORS
330
47
102
}
330
47
100
AcDbScale
 70
     0
300
8:1
140
8.0
141
1.0
290
     0
  0
SCALE
  5
57
102
{ACAD_REACTORS
330
47
102
}
330
47
100
AcDbScale
 70
     0
300
10:1
140
10.0
141
1.0
290
     0
  0
SCALE
  5
58
102
{ACAD_REACTORS
330
47
102
}
330
47
100
AcDbScale
 70
     0
300
100:1
140
100.0
141
1.0
290
     0
  0
ENDSEC
  0
EOF
