  0
SECTION
  2
HEADER
  9
$ACADVER
  1
AC1015
  9
$ACADMAINTVER
 70
     6
  9
$DWGCODEPAGE
  3
DOS932
  9
$INSBASE
 10
0.0
 20
0.0
 30
0.0
  9
$EXTMIN
 10
0.0
 20
0.0
 30
0.0
  9
$EXTMAX
 10
297.0
 20
210.0
 30
0.0
  9
$LIMMIN
 10
0.0
 20
0.0
  9
$LIMMAX
 10
297.0
 20
210.0
  9
$ORTHOMODE
 70
     0
  9
$REGENMODE
 70
     1
  9
$FILLMODE
 70
     1
  9
$QTEXTMODE
 70
     0
  9
$MIRRTEXT
 70
     1
  9
$LTSCALE
 40
1.0
  9
$ATTMODE
 70
     1
  9
$TEXTSIZE
 40
3.5277777778
  9
$TRACEWID
 40
1.0
  9
$TEXTSTYLE
  7
Standard
  9
$CLAYER
  8
0
  9
$CELTYPE
  6
ByLayer
  9
$CECOLOR
 62
   256
  9
$CELTSCALE
 40
1.0
  9
$DISPSILH
 70
     0
  9
$DIMSCALE
 40
1.0
  9
$DIMASZ
 40
2.728515625
  9
$DIMEXO
 40
1.0
  9
$DIMDLI
 40
3.75
  9
$DIMRND
 40
0.0
  9
$DIMDLE
 40
0.0
  9
$DIMEXE
 40
1.0
  9
$DIMTP
 40
0.0
  9
$DIMTM
 40
0.0
  9
$DIMTXT
 40
3.5277777778
  9
$DIMCEN
 40
2.5
  9
$DIMTSZ
 40
0.0
  9
$DIMTOL
 70
     0
  9
$DIMLIM
 70
     0
  9
$DIMTIH
 70
     1
  9
$DIMTOH
 70
     1
  9
$DIMSE1
 70
     0
  9
$DIMSE2
 70
     0
  9
$DIMTAD
 70
     1
  9
$DIMZIN
 70
     0
  9
$DIMBLK
  1

  9
$DIMASO
 70
     1
  9
$DIMSHO
 70
     1
  9
$DIMPOST
  1

  9
$DIMAPOST
  1

  9
$DIMALT
 70
     0
  9
$DIMALTD
 70
     3
  9
$DIMALTF
 40
0.0393700787
  9
$DIMLFAC
 40
1.0
  9
$DIMTOFL
 70
     1
  9
$DIMTVP
 40
0.0
  9
$DIMTIX
 70
     0
  9
$DIMSOXD
 70
     0
  9
$DIMSAH
 70
     0
  9
$DIMBLK1
  1

  9
$DIMBLK2
  1

  9
$DIMSTYLE
  2
ISO-25
  9
$DIMCLRD
 70
     0
  9
$DIMCLRE
 70
     0
  9
$DIMCLRT
 70
     0
  9
$DIMTFAC
 40
1.0
  9
$DIMGAP
 40
1.524
  9
$DIMJUST
 70
     0
  9
$DIMSD1
 70
     0
  9
$DIMSD2
 70
     0
  9
$DIMTOLJ
 70
     0
  9
$DIMTZIN
 70
     0
  9
$DIMALTZ
 70
     0
  9
$DIMALTTZ
 70
     0
  9
$DIMUPT
 70
     0
  9
$DIMDEC
 70
     2
  9
$DIMTDEC
 70
     2
  9
$DIMALTU
 70
     2
  9
$DIMALTTD
 70
     3
  9
$DIMTXSTY
  7
Standard
  9
$DIMAUNIT
 70
     0
  9
$DIMADEC
 70
     2
  9
$DIMALTRND
 40
0.0
  9
$DIMAZIN
 70
     0
  9
$DIMDSEP
 70
    44
  9
$DIMATFIT
 70
     3
  9
$DIMFRAC
 70
     0
  9
$DIMLDRBLK
  1

  9
$DIMLUNIT
 70
     2
  9
$DIMLWD
 70
    -2
  9
$DIMLWE
 70
    -2
  9
$DIMTMOVE
 70
     0
  9
$LUNITS
 70
     2
  9
$LUPREC
 70
     2
  9
$SKETCHINC
 40
1.0
  9
$FILLETRAD
 40
0.0
  9
$AUNITS
 70
     0
  9
$AUPREC
 70
     2
  9
$MENU
  1
.
  9
$ELEVATION
 40
0.0
  9
$PELEVATION
 40
0.0
  9
$THICKNESS
 40
0.0
  9
$LIMCHECK
 70
     0
  9
$CHAMFERA
 40
0.0
  9
$CHAMFERB
 40
0.0
  9
$CHAMFERC
 40
0.0
  9
$CHAMFERD
 40
0.0
  9
$SKPOLY
 70
     0
  9
$TDCREATE
 40
2460398.680629236
  9
$TDUCREATE
 40
2460398.305629236
  9
$TDUPDATE
 40
2460398.680629861
  9
$TDUUPDATE
 40
2460398.305629861
  9
$TDINDWG
 40
0.0000000116
  9
$TDUSRTIMER
 40
0.0000000116
  9
$USRTIMER
 70
     1
  9
$ANGBASE
 50
0.0
  9
$ANGDIR
 70
     0
  9
$PDMODE
 70
     0
  9
$PDSIZE
 40
-1.0
  9
$PLINEWID
 40
0.0
  9
$SPLFRAME
 70
     0
  9
$SPLINETYPE
 70
     6
  9
$SPLINESEGS
 70
     8
  9
$HANDSEED
  5
11A
  9
$SURFTAB1
 70
     6
  9
$SURFTAB2
 70
     6
  9
$SURFTYPE
 70
     6
  9
$SURFU
 70
     6
  9
$SURFV
 70
     6
  9
$UCSBASE
  2

  9
$UCSNAME
  2

  9
$UCSORG
 10
0.0
 20
0.0
 30
0.0
  9
$UCSXDIR
 10
1.0
 20
0.0
 30
0.0
  9
$UCSYDIR
 10
0.0
 20
1.0
 30
0.0
  9
$UCSORTHOREF
  2

  9
$UCSORTHOVIEW
 70
     0
  9
$UCSORGTOP
 10
0.0
 20
0.0
 30
0.0
  9
$UCSORGBOTTOM
 10
0.0
 20
0.0
 30
0.0
  9
$UCSORGLEFT
 10
0.0
 20
0.0
 30
0.0
  9
$UCSORGRIGHT
 10
0.0
 20
0.0
 30
0.0
  9
$UCSORGFRONT
 10
0.0
 20
0.0
 30
0.0
  9
$UCSORGBACK
 10
0.0
 20
0.0
 30
0.0
  9
$PUCSBASE
  2

  9
$PUCSNAME
  2

  9
$PUCSORG
 10
0.0
 20
0.0
 30
0.0
  9
$PUCSXDIR
 10
1.0
 20
0.0
 30
0.0
  9
$PUCSYDIR
 10
0.0
 20
1.0
 30
0.0
  9
$PUCSORTHOREF
  2

  9
$PUCSORTHOVIEW
 70
     0
  9
$PUCSORGTOP
 10
0.0
 20
0.0
 30
0.0
  9
$PUCSORGBOTTOM
 10
0.0
 20
0.0
 30
0.0
  9
$PUCSORGLEFT
 10
0.0
 20
0.0
 30
0.0
  9
$PUCSORGRIGHT
 10
0.0
 20
0.0
 30
0.0
  9
$PUCSORGFRONT
 10
0.0
 20
0.0
 30
0.0
  9
$PUCSORGBACK
 10
0.0
 20
0.0
 30
0.0
  9
$USERI1
 70
     0
  9
$USERI2
 70
     0
  9
$USERI3
 70
     0
  9
$USERI4
 70
     0
  9
$USERI5
 70
     0
  9
$USERR1
 40
0.0
  9
$USERR2
 40
0.0
  9
$USERR3
 40
0.0
  9
$USERR4
 40
0.0
  9
$USERR5
 40
0.0
  9
$WORLDVIEW
 70
     1
  9
$SHADEDGE
 70
     3
  9
$SHADEDIF
 70
    70
  9
$TILEMODE
 70
     1
  9
$MAXACTVP
 70
    64
  9
$PINSBASE
 10
0.0
 20
0.0
 30
0.0
  9
$PLIMCHECK
 70
     0
  9
$PEXTMIN
 10
1.0000000000E+20
 20
1.0000000000E+20
 30
1.0000000000E+20
  9
$PEXTMAX
 10
-1.0000000000E+20
 20
-1.0000000000E+20
 30
-1.0000000000E+20
  9
$PLIMMIN
 10
0.0
 20
0.0
  9
$PLIMMAX
 10
420.0
 20
297.0
  9
$UNITMODE
 70
     0
  9
$VISRETAIN
 70
     1
  9
$PLINEGEN
 70
     0
  9
$PSLTSCALE
 70
     1
  9
$TREEDEPTH
 70
  3020
  9
$CMLSTYLE
  2
Standard
  9
$CMLJUST
 70
     0
  9
$CMLSCALE
 40
20.0
  9
$PROXYGRAPHICS
 70
     1
  9
$MEASUREMENT
 70
     1
  9
$CELWEIGHT
370
    -1
  9
$ENDCAPS
280
     0
  9
$JOINSTYLE
280
     0
  9
$LWDISPLAY
290
     1
  9
$INSUNITS
 70
     4
  9
$HYPERLINKBASE
  1

  9
$STYLESHEET
  1

  9
$XEDIT
290
     1
  9
$CEPSNTYPE
380
     0
  9
$PSTYLEMODE
290
     1
  9
$FINGERPRINTGUID
  2
{6e22d4fc-b13e-44db-a8c8-dd26da938991}
  9
$VERSIONGUID
  2
{FAEB1C32-E019-11D5-929B-00C0DF256EC4}
  9
$EXTNAMES
290
     1
  9
$PSVPSCALE
 40
0.0
  9
$OLESTARTUP
290
     0
  0
ENDSEC
  0
SECTION
  2
CLASSES
  0
CLASS
  1
ACDBDICTIONARYWDFLT
  2
AcDbDictionaryWithDefault
  3
ObjectDBX Classes
 90
        0
280
     0
281
     0
  0
CLASS
  1
VISUALSTYLE
  2
AcDbVisualStyle
  3
ObjectDBX Classes
 90
     4095
280
     0
281
     0
  0
CLASS
  1
MATERIAL
  2
AcDbMaterial
  3
ObjectDBX Classes
 90
     1153
280
     0
281
     0
  0
CLASS
  1
SCALE
  2
AcDbScale
  3
ObjectDBX Classes
 90
     1153
280
     0
281
     0
  0
CLASS
  1
TABLESTYLE
  2
AcDbTableStyle
  3
ObjectDBX Classes
 90
     4095
280
     0
281
     0
  0
CLASS
  1
MLEADERSTYLE
  2
AcDbMLeaderStyle
  3
ACDB_MLEADERSTYLE_CLASS
 90
     4095
280
     0
281
     0
  0
CLASS
  1
SUN
  2
AcDbSun
  3
SCENEOE
 90
     1153
280
     0
281
     0
  0
CLASS
  1
ACDBPLACEHOLDER
  2
AcDbPlaceHolder
  3
ObjectDBX Classes
 90
        0
280
     0
281
     0
  0
CLASS
  1
LAYOUT
  2
AcDbLayout
  3
ObjectDBX Classes
 90
        0
280
     0
281
     0
  0
ENDSEC
  0
SECTION
  2
TABLES
  0
TABLE
  2
VPORT
  5
8
330
0
100
AcDbSymbolTable
 70
     1
  0
VPORT
  5
29
330
8
100
AcDbSymbolTableRecord
100
AcDbViewportTableRecord
  2
*Active
 70
     0
 10
0.0
 20
0.0
 11
1.0
 21
1.0
 12
148.5
 22
105.0
 13
0.0
 23
0.0
 14
10.0
 24
10.0
 15
10.0
 25
10.0
 16
0.0
 26
0.0
 36
1.0
 17
0.0
 27
0.0
 37
0.0
 40
210.0
 41
1.4142857143
 42
50.0
 43
0.0
 44
0.0
 50
0.0
 51
0.0
 71
     0
 72
  2000
 73
     1
 74
     3
 75
     0
 76
     0
 77
     0
 78
     0
281
     0
 65
     1
110
0.0
120
0.0
130
0.0
111
1.0
121
0.0
131
0.0
112
0.0
122
1.0
132
0.0
 79
     0
146
0.0
  0
ENDTAB
  0
TABLE
  2
LTYPE
  5
5
330
0
100
AcDbSymbolTable
 70
     6
  0
LTYPE
  5
14
330
5
100
AcDbSymbolTableRecord
100
AcDbLinetypeTableRecord
  2
ByBlock
 70
     0
  3

 72
    65
 73
     0
 40
0.0
  0
LTYPE
  5
15
330
5
100
AcDbSymbolTableRecord
100
AcDbLinetypeTableRecord
  2
ByLayer
 70
     0
  3

 72
    65
 73
     0
 40
0.0
  0
LTYPE
  5
16
330
5
100
AcDbSymbolTableRecord
100
AcDbLinetypeTableRecord
  2
Continuous
 70
     0
  3
Solid line
 72
    65
 73
     0
 40
0.0
  0
LTYPE
  5
5E
330
5
100
AcDbSymbolTableRecord
100
AcDbLinetypeTableRecord
  2
HIDDEN
 70
     0
  3
Hidden __ __ __ __ __ __ __ __ __ __ __ __ __ __
 72
    65
 73
     2
 40
1.905
 49
1.27
 74
     0
 49
-0.635
 74
     0
  0
LTYPE
  5
5F
330
5
100
AcDbSymbolTableRecord
100
AcDbLinetypeTableRecord
  2
PHANTOM
 70
     0
  3
Phantom ______  __  __  ______  __  __  ______
 72
    65
 73
     6
 40
12.7
 49
6.35
 74
     0
 49
-1.27
 74
     0
 49
1.27
 74
     0
 49
-1.27
 74
     0
 49
1.27
 74
     0
 49
-1.27
 74
     0
  0
LTYPE
  5
60
330
5
100
AcDbSymbolTableRecord
100
AcDbLinetypeTableRecord
  2
CENTER
 70
     0
  3
Center ____ _ ____ _ ____ _ ____ _ ____ _ ____
 72
    65
 73
     4
 40
10.16
 49
6.35
 74
     0
 49
-1.27
 74
     0
 49
1.27
 74
     0
 49
-1.27
 74
     0
  0
LTYPE
  5
61
330
5
100
AcDbSymbolTableRecord
100
AcDbLinetypeTableRecord
  2
CENTERX2
 70
     0
  3
Center (2x) ________  __  ________  __  _____
 72
    65
 73
     4
 40
20.32
 49
12.7
 74
     0
 49
-2.54
 74
     0
 49
2.54
 74
     0
 49
-2.54
 74
     0
  0
LTYPE
  5
62
330
5
100
AcDbSymbolTableRecord
100
AcDbLinetypeTableRecord
  2
DOT2
 70
     0
  3
Dot (.5x) ........................................
 72
    65
 73
     2
 40
0.635
 49
0.0
 74
     0
 49
-0.635
 74
     0
  0
ENDTAB
  0
TABLE
  2
LAYER
  5
2
330
0
100
AcDbSymbolTable
 70
     2
  0
LAYER
  5
10
330
2
100
AcDbSymbolTableRecord
100
AcDbLayerTableRecord
  2
0
 70
     0
 62
     7
  6
Continuous
370
    -3
390
F
  0
LAYER
  5
63
330
2
100
AcDbSymbolTableRecord
100
AcDbLayerTableRecord
  2
FORMAT
 70
     0
 62
     7
  6
Continuous
370
    -3
390
F
  0
ENDTAB
  0
TABLE
  2
STYLE
  5
3
330
0
100
AcDbSymbolTable
 70
     2
  0
STYLE
  5
11
330
3
100
AcDbSymbolTableRecord
100
AcDbTextStyleTableRecord
  2
Standard
 70
     0
 40
0.0
 41
1.0
 50
0.0
 71
     0
 42
3.5277777778
  3
txt
  4
bigfont
  0
STYLE
  5
64
330
3
100
AcDbSymbolTableRecord
100
AcDbTextStyleTableRecord
  2
SLDTEXTSTYLE0
 70
     0
 40
0.0
 41
0.7
 50
0.0
 71
     0
 42
3.5277777778
  3
TXT
  4
bigfont
  0
ENDTAB
  0
TABLE
  2
VIEW
  5
6
330
0
100
AcDbSymbolTable
 70
     0
  0
ENDTAB
  0
TABLE
  2
UCS
  5
7
330
0
100
AcDbSymbolTable
 70
     0
  0
ENDTAB
  0
TABLE
  2
APPID
  5
9
330
0
100
AcDbSymbolTable
 70
     1
  0
APPID
  5
12
330
9
100
AcDbSymbolTableRecord
100
AcDbRegAppTableRecord
  2
ACAD
 70
     0
  0
ENDTAB
  0
TABLE
  2
DIMSTYLE
  5
A
330
0
100
AcDbSymbolTable
 70
     1
100
AcDbDimStyleTable
  0
DIMSTYLE
105
27
330
A
100
AcDbSymbolTableRecord
100
AcDbDimStyleTableRecord
  2
ISO-25
 70
     0
 41
2.5
 42
0.625
 43
3.75
 44
1.25
 73
     0
 74
     0
 77
     1
 78
     8
140
2.5
141
2.5
143
0.0393700787
147
0.625
171
     3
172
     1
178
     0
271
     2
272
     2
274
     3
278
    44
283
     0
284
     8
340
11
  0
ENDTAB
  0
TABLE
  2
BLOCK_RECORD
  5
1
330
0
100
AcDbSymbolTable
 70
     2
  0
BLOCK_RECORD
  5
1F
330
1
100
AcDbSymbolTableRecord
100
AcDbBlockTableRecord
  2
*Model_Space
340
22
  0
BLOCK_RECORD
  5
1B
330
1
100
AcDbSymbolTableRecord
100
AcDbBlockTableRecord
  2
*Paper_Space
340
1E
  0
BLOCK_RECORD
  5
23
330
1
100
AcDbSymbolTableRecord
100
AcDbBlockTableRecord
  2
*Paper_Space0
340
26
  0
BLOCK_RECORD
  5
F0
330
1
100
AcDbSymbolTableRecord
100
AcDbBlockTableRecord
  2
SW_CENTERMARKSYMBOL_0
340
0
102
{BLKREFS
331
FB
102
}
  0
ENDTAB
  0
ENDSEC
  0
SECTION
  2
BLOCKS
  0
BLOCK
  5
20
330
1F
100
AcDbEntity
  8
0
100
AcDbBlockBegin
  2
*Model_Space
 70
     0
 10
0.0
 20
0.0
 30
0.0
  3
*Model_Space
  1

  0
ENDBLK
  5
21
330
1F
100
AcDbEntity
  8
0
100
AcDbBlockEnd
  0
BLOCK
  5
1C
330
1B
100
AcDbEntity
 67
     1
  8
0
100
AcDbBlockBegin
  2
*Paper_Space
 70
     0
 10
0.0
 20
0.0
 30
0.0
  3
*Paper_Space
  1

  0
ENDBLK
  5
1D
330
1B
100
AcDbEntity
 67
     1
  8
0
100
AcDbBlockEnd
  0
BLOCK
  5
24
330
23
100
AcDbEntity
  8
0
100
AcDbBlockBegin
  2
*Paper_Space0
 70
     0
 10
0.0
 20
0.0
 30
0.0
  3
*Paper_Space0
  1

  0
ENDBLK
  5
25
330
23
100
AcDbEntity
  8
0
100
AcDbBlockEnd
  0
BLOCK
  5
F1
330
F0
100
AcDbEntity
  8
0
100
AcDbBlockBegin
  2
SW_CENTERMARKSYMBOL_0
 70
     0
 10
0.0
 20
0.0
 30
0.0
  3
SW_CENTERMARKSYMBOL_0
  1

  0
LINE
  5
F3
330
F0
100
AcDbEntity
  8
FORMAT
 62
     0
100
AcDbLine
 10
0.0
 20
0.0
 30
0.0
 11
0.0
 21
2.5
 31
0.0
  0
LINE
  5
F4
330
F0
100
AcDbEntity
  8
FORMAT
 62
     0
100
AcDbLine
 10
0.0
 20
0.0
 30
0.0
 11
-2.5
 21
0.0
 31
0.0
  0
LINE
  5
F5
330
F0
100
AcDbEntity
  8
FORMAT
 62
     0
100
AcDbLine
 10
0.0
 20
0.0
 30
0.0
 11
0.0
 21
-2.5
 31
0.0
  0
LINE
  5
F6
330
F0
100
AcDbEntity
  8
FORMAT
 62
     0
100
AcDbLine
 10
0.0
 20
0.0
 30
0.0
 11
2.5
 21
0.0
 31
0.0
  0
LINE
  5
F7
330
F0
100
AcDbEntity
  8
FORMAT
 62
     0
100
AcDbLine
 10
0.0
 20
5.0
 30
0.0
 11
0.0
 21
18.2946106897
 31
0.0
  0
LINE
  5
F8
330
F0
100
AcDbEntity
  8
FORMAT
 62
     0
100
AcDbLine
 10
-5.0
 20
0.0
 30
0.0
 11
-17.25
 21
0.0
 31
0.0
  0
LINE
  5
F9
330
F0
100
AcDbEntity
  8
FORMAT
 62
     0
100
AcDbLine
 10
0.0
 20
-5.0
 30
0.0
 11
0.0
 21
-18.1221735985
 31
0.0
  0
LINE
  5
FA
330
F0
100
AcDbEntity
  8
FORMAT
 62
     0
100
AcDbLine
 10
5.0
 20
0.0
 30
0.0
 11
17.25
 21
0.0
 31
0.0
  0
ENDBLK
  5
F2
330
F0
100
AcDbEntity
  8
0
100
AcDbBlockEnd
  0
ENDSEC
  0
SECTION
  2
ENTITIES
  0
MTEXT
  5
65
330
1F
100
AcDbEntity
  8
FORMAT
100
AcDbMText
 10
216.5052914782
 20
108.3518918894
 30
0.0
 40
4.2333333333
 41
0.0
 71
     1
 72
     1
  1
5NB-7464
  7
SLDTEXTSTYLE0
 73
     1
 44
1.0
  0
LINE
  5
66
330
1F
100
AcDbEntity
  8
0
  6
Continuous
 62
     7
370
    25
100
AcDbLine
 10
196.7310548371
 20
98.3216589622
 30
0.0
 11
195.2469713076
 21
95.7511508865
 31
0.0
  0
LINE
  5
67
330
1F
100
AcDbEntity
  8
0
  6
Continuous
 62
     7
370
    25
100
AcDbLine
 10
195.2469713076
 20
66.2511508865
 30
0.0
 11
196.7310548371
 21
63.6806428108
 31
0.0
  0
LINE
  5
68
330
1F
100
AcDbEntity
  8
0
  6
Continuous
 62
     7
370
    25
100
AcDbLine
 10
200.7628877782
 20
63.6806428108
 30
0.0
 11
202.2469713076
 21
66.2511508865
 31
0.0
  0
LINE
  5
69
330
1F
100
AcDbEntity
  8
0
  6
Continuous
 62
     7
370
    25
100
AcDbLine
 10
202.2469713076
 20
95.7511508865
 30
0.0
 11
200.7628877782
 21
98.3216589622
 31
0.0
  0
LINE
  5
6A
330
1F
100
AcDbEntity
  8
0
  6
Continuous
 62
     7
370
    25
100
AcDbLine
 10
195.2469713076
 20
94.5790571365
 30
0.0
 11
178.7489067915
 21
94.0634926204
 31
0.0
  0
LINE
  5
6B
330
1F
100
AcDbEntity
  8
0
  6
Continuous
 62
     7
370
    25
100
AcDbLine
 10
178.7489067915
 20
67.9388091527
 30
0.0
 11
195.2469713076
 21
67.4232446365
 31
0.0
  0
LINE
  5
6C
330
1F
100
AcDbEntity
  8
0
  6
Continuous
 62
     7
370
    25
100
AcDbLine
 10
178.7489067915
 20
94.0634926204
 30
0.0
 11
177.2469713076
 21
92.5615571365
 31
0.0
  0
LINE
  5
6D
330
1F
100
AcDbEntity
  8
0
  6
Continuous
 62
     7
370
    25
100
AcDbLine
 10
177.2469713076
 20
69.4407446365
 30
0.0
 11
178.7489067915
 21
67.9388091527
 31
0.0
  0
SPLINE
  5
6E
330
1F
100
AcDbEntity
  8
0
  6
Continuous
 62
     7
370
    25
100
AcDbSpline
210
0.0
220
0.0
230
1.0
 70
     8
 71
     3
 72
    16
 73
    12
 74
     0
 42
0.00000001
 43
0.00000001
 40
0.0
 40
0.0
 40
0.0
 40
0.0
 40
0.2500000000000001
 40
0.2500000000000001
 40
0.5000000000000001
 40
0.5000000000000001
 40
0.625
 40
0.625
 40
0.7499999999999999
 40
0.7499999999999999
 40
1.0
 40
1.0
 40
1.0
 40
1.0
 10
196.7310548371011
 20
89.66140492436817
 30
0.0
 10
196.3228521917126
 20
90.36843264596507
 30
0.0
 10
195.9864193511985
 20
91.08061504530049
 30
0.0
 10
195.5203506973237
 20
92.51983249731383
 30
0.0
 10
195.3922522416277
 20
93.24697796666831
 30
0.0
 10
195.3908450995343
 20
94.35139560912775
 30
0.0
 10
195.4221601467629
 20
94.72126755866537
 30
0.0
 10
195.5442725414588
 20
95.45291319707967
 30
0.0
 10
195.634945940335
 20
95.81628308263483
 30
0.0
 10
195.985077714072
 20
96.89992344084492
 30
0.0
 10
196.3223433047974
 20
97.61374982262313
 30
0.0
 10
196.7310548371012
 20
98.32165896221258
 30
0.0
  0
LINE
  5
6F
330
1F
100
AcDbEntity
  8
0
  6
Continuous
 62
     7
370
    25
100
AcDbLine
 10
196.7310548371
 20
98.3216589622
 30
0.0
 11
200.7628877782
 21
98.3216589622
 31
0.0
  0
SPLINE
  5
70
330
1F
100
AcDbEntity
  8
0
  6
Continuous
 62
     7
370
    25
100
AcDbSpline
210
0.0
220
0.0
230
1.0
 70
     8
 71
     3
 72
    16
 73
    12
 74
     0
 42
0.00000001
 43
0.00000001
 40
0.0
 40
0.0
 40
0.0
 40
0.0
 40
0.2500000000000001
 40
0.2500000000000001
 40
0.5000000000000001
 40
0.5000000000000001
 40
0.625
 40
0.625
 40
0.7499999999999999
 40
0.7499999999999999
 40
1.0
 40
1.0
 40
1.0
 40
1.0
 10
200.7628877781955
 20
89.66140492436817
 30
0.0
 10
201.171090423584
 20
90.36843264596507
 30
0.0
 10
201.5075232640982
 20
91.08061504530049
 30
0.0
 10
201.973591917973
 20
92.51983249731383
 30
0.0
 10
202.1016903736689
 20
93.24697796666831
 30
0.0
 10
202.1030975157623
 20
94.35139560912775
 30
0.0
 10
202.0717824685338
 20
94.72126755866537
 30
0.0
 10
201.9496700738378
 20
95.45291319707967
 30
0.0
 10
201.8589966749616
 20
95.81628308263483
 30
0.0
 10
201.5088649012246
 20
96.89992344084492
 30
0.0
 10
201.1715993104992
 20
97.61374982262313
 30
0.0
 10
200.7628877781954
 20
98.32165896221258
 30
0.0
  0
LINE
  5
71
330
1F
100
AcDbEntity
  8
0
  6
Continuous
 62
     7
370
    25
100
AcDbLine
 10
196.7310548371
 20
89.6614049244
 30
0.0
 11
200.7628877782
 21
89.6614049244
 31
0.0
  0
SPLINE
  5
72
330
1F
100
AcDbEntity
  8
0
  6
Continuous
 62
     7
370
    25
100
AcDbSpline
210
0.0
220
0.0
230
1.0
 70
     8
 71
     3
 72
    16
 73
    12
 74
     0
 42
0.00000001
 43
0.00000001
 40
0.0
 40
0.0
 40
0.0
 40
0.0
 40
0.25
 40
0.25
 40
0.5
 40
0.5
 40
0.6249999999999999
 40
0.6249999999999999
 40
0.7499999999999998
 40
0.7499999999999998
 40
1.0
 40
1.0
 40
1.0
 40
1.0
 10
196.7310548371011
 20
63.68064281083499
 30
0.0
 10
196.3228521917126
 20
64.3876705324319
 30
0.0
 10
195.9864193511985
 20
65.09985293176732
 30
0.0
 10
195.5203506973237
 20
66.53907038378065
 30
0.0
 10
195.3922522416277
 20
67.26621585313512
 30
0.0
 10
195.3908450995343
 20
68.37063349559457
 30
0.0
 10
195.4221601467629
 20
68.74050544513219
 30
0.0
 10
195.5442725414588
 20
69.47215108354648
 30
0.0
 10
195.634945940335
 20
69.83552096910165
 30
0.0
 10
195.985077714072
 20
70.91916132731174
 30
0.0
 10
196.3223433047974
 20
71.63298770908995
 30
0.0
 10
196.7310548371012
 20
72.3408968486794
 30
0.0
  0
LINE
  5
73
330
1F
100
AcDbEntity
  8
0
  6
Continuous
 62
     7
370
    25
100
AcDbLine
 10
196.7310548371
 20
72.3408968487
 30
0.0
 11
200.7628877782
 21
72.3408968487
 31
0.0
  0
SPLINE
  5
74
330
1F
100
AcDbEntity
  8
0
  6
Continuous
 62
     7
370
    25
100
AcDbSpline
210
0.0
220
0.0
230
1.0
 70
     8
 71
     3
 72
    16
 73
    12
 74
     0
 42
0.00000001
 43
0.00000001
 40
0.0
 40
0.0
 40
0.0
 40
0.0
 40
0.25
 40
0.25
 40
0.5
 40
0.5
 40
0.6249999999999999
 40
0.6249999999999999
 40
0.7499999999999998
 40
0.7499999999999998
 40
1.0
 40
1.0
 40
1.0
 40
1.0
 10
200.7628877781955
 20
63.68064281083499
 30
0.0
 10
201.171090423584
 20
64.3876705324319
 30
0.0
 10
201.5075232640982
 20
65.09985293176732
 30
0.0
 10
201.973591917973
 20
66.53907038378065
 30
0.0
 10
202.1016903736689
 20
67.26621585313512
 30
0.0
 10
202.1030975157623
 20
68.37063349559457
 30
0.0
 10
202.0717824685338
 20
68.74050544513219
 30
0.0
 10
201.9496700738378
 20
69.47215108354648
 30
0.0
 10
201.8589966749616
 20
69.83552096910165
 30
0.0
 10
201.5088649012246
 20
70.91916132731174
 30
0.0
 10
201.1715993104992
 20
71.63298770908995
 30
0.0
 10
200.7628877781954
 20
72.3408968486794
 30
0.0
  0
LINE
  5
75
330
1F
100
AcDbEntity
  8
0
  6
Continuous
 62
     7
370
    25
100
AcDbLine
 10
196.7310548371
 20
63.6806428108
 30
0.0
 11
200.7628877782
 21
63.6806428108
 31
0.0
  0
SPLINE
  5
76
330
1F
100
AcDbEntity
  8
0
  6
Continuous
 62
     7
370
    25
100
AcDbSpline
210
0.0
220
0.0
230
1.0
 70
     8
 71
     3
 72
    14
 73
    10
 74
     0
 42
0.00000001
 43
0.00000001
 40
0.0
 40
0.0
 40
0.0
 40
0.0
 40
0.2500000000000001
 40
0.2500000000000001
 40
0.5000000000000001
 40
0.5000000000000001
 40
0.75
 40
0.75
 40
1.0
 40
1.0
 40
1.0
 40
1.0
 10
196.7310548371013
 20
72.34089684867939
 30
0.0
 10
196.3240865572028
 20
73.75067632438571
 30
0.0
 10
195.9875257115967
 20
75.17346902163445
 30
0.0
 10
195.5202957370106
 20
78.05710884247394
 30
0.0
 10
195.3911900220111
 20
79.51961479040088
 30
0.0
 10
195.3914278948497
 20
82.48685255223633
 30
0.0
 10
195.5205335864318
 20
83.94701143338624
 30
0.0
 10
195.9876633352957
 20
86.82933130354101
 30
0.0
 10
196.3241298932629
 20
88.2517755691778
 30
0.0
 10
196.7310548371013
 20
89.6614049243682
 30
0.0
  0
SPLINE
  5
77
330
1F
100
AcDbEntity
  8
0
  6
Continuous
 62
     7
370
    25
100
AcDbSpline
210
0.0
220
0.0
230
1.0
 70
     8
 71
     3
 72
    14
 73
    10
 74
     0
 42
0.00000001
 43
0.00000001
 40
0.0
 40
0.0
 40
0.0
 40
0.0
 40
0.2500000000000001
 40
0.2500000000000001
 40
0.5000000000000001
 40
0.5000000000000001
 40
0.75
 40
0.75
 40
1.0
 40
1.0
 40
1.0
 40
1.0
 10
200.7628877781953
 20
72.34089684867939
 30
0.0
 10
201.1698560580938
 20
73.75067632438571
 30
0.0
 10
201.5064169037
 20
75.17346902163445
 30
0.0
 10
201.973646878286
 20
78.05710884247394
 30
0.0
 10
202.1027525932855
 20
79.51961479040088
 30
0.0
 10
202.1025147204469
 20
82.48685255223633
 30
0.0
 10
201.9734090288649
 20
83.94701143338624
 30
0.0
 10
201.5062792800009
 20
86.82933130354101
 30
0.0
 10
201.1698127220337
 20
88.2517755691778
 30
0.0
 10
200.7628877781953
 20
89.6614049243682
 30
0.0
  0
LINE
  5
78
330
1F
100
AcDbEntity
  8
0
  6
Continuous
 62
     7
370
    25
100
AcDbLine
 10
198.6006392613
 20
76.6553560183
 30
0.0
 11
199.9894423501
 21
75.8016880647
 31
0.0
  0
LINE
  5
79
330
1F
100
AcDbEntity
  8
0
  6
Continuous
 62
     7
370
    25
100
AcDbLine
 10
198.3467568074
 20
76.6553560183
 30
0.0
 11
198.6006392613
 21
76.6553560183
 31
0.0
  0
LINE
  5
7A
330
1F
100
AcDbEntity
  8
0
  6
Continuous
 62
     7
370
    25
100
AcDbLine
 10
198.3467568074
 20
75.8101822731
 30
0.0
 11
198.3467568074
 21
76.6553560183
 31
0.0
  0
LINE
  5
7B
330
1F
100
AcDbEntity
  8
0
  6
Continuous
 62
     7
370
    25
100
AcDbLine
 10
197.7851952459
 20
75.8101822731
 30
0.0
 11
198.3467568074
 21
75.8101822731
 31
0.0
  0
LINE
  5
7C
330
1F
100
AcDbEntity
  8
0
  6
Continuous
 62
     7
370
    25
100
AcDbLine
 10
197.7851952459
 20
75.5086378716
 30
0.0
 11
197.7851952459
 21
75.8101822731
 31
0.0
  0
LINE
  5
7D
330
1F
100
AcDbEntity
  8
0
  6
Continuous
 62
     7
370
    25
100
AcDbLine
 10
198.3467568074
 20
75.5086378716
 30
0.0
 11
197.7851952459
 21
75.5086378716
 31
0.0
  0
LINE
  5
7E
330
1F
100
AcDbEntity
  8
0
  6
Continuous
 62
     7
370
    25
100
AcDbLine
 10
198.3467568074
 20
75.241070304
 30
0.0
 11
198.3467568074
 21
75.5086378716
 31
0.0
  0
LINE
  5
7F
330
1F
100
AcDbEntity
  8
0
  6
Continuous
 62
     7
370
    25
100
AcDbLine
 10
198.5878979486
 20
75.241070304
 30
0.0
 11
198.3467568074
 21
75.241070304
 31
0.0
  0
LINE
  5
80
330
1F
100
AcDbEntity
  8
0
  6
Continuous
 62
     7
370
    25
100
AcDbLine
 10
198.5878979486
 20
75.5086378716
 30
0.0
 11
198.5878979486
 21
75.241070304
 31
0.0
  0
LINE
  5
81
330
1F
100
AcDbEntity
  8
0
  6
Continuous
 62
     7
370
    25
100
AcDbLine
 10
199.9894423501
 20
75.5086378716
 30
0.0
 11
198.5878979486
 21
75.5086378716
 31
0.0
  0
LINE
  5
82
330
1F
100
AcDbEntity
  8
0
  6
Continuous
 62
     7
370
    25
100
AcDbLine
 10
199.9894423501
 20
75.8016880647
 30
0.0
 11
199.9894423501
 21
75.5086378716
 31
0.0
  0
SPLINE
  5
83
330
1F
100
AcDbEntity
  8
0
  6
Continuous
 62
     7
370
    25
100
AcDbSpline
210
0.0
220
0.0
230
1.0
 70
     8
 71
     3
 72
    23
 73
    19
 74
     0
 42
0.00000001
 43
0.00000001
 40
0.0
 40
0.0
 40
0.0
 40
0.0
 40
0.044190610628286
 40
0.0897849017527571
 40
0.1375220657281902
 40
0.1870790674012529
 40
0.2386344326447438
 40
0.2928411155263977
 40
0.3496729339480912
 40
0.409435830382087
 40
0.4719926205430653
 40
0.5377040045925527
 40
0.6060605743707039
 40
0.6781604155713941
 40
0.7535848462545452
 40
0.8324062082865283
 40
0.9141977901571282
 40
1.0
 40
1.0
 40
1.0
 40
1.0
 10
197.9508323115093
 20
77.99319385615712
 30
0.0
 10
197.9607411665475
 20
78.0026532168769
 30
0.0
 10
197.9808736237244
 20
78.02187240757812
 30
0.0
 10
198.0147139639006
 20
78.04792134695933
 30
0.0
 10
198.0521343056241
 20
78.07161920936302
 30
0.0
 10
198.0921408061236
 20
78.09465365628913
 30
0.0
 10
198.1359762271238
 20
78.1146238215647
 30
0.0
 10
198.1826246482738
 20
78.13370131730503
 30
0.0
 10
198.2328673980399
 20
78.15040545955516
 30
0.0
 10
198.2860824716371
 20
78.16628361843281
 30
0.0
 10
198.3429472558221
 20
78.179094843955
 30
0.0
 10
198.4026981786451
 20
78.19101464528076
 30
0.0
 10
198.4658279567477
 20
78.20091383464336
 30
0.0
 10
198.5322575582176
 20
78.2088398427723
 30
0.0
 10
198.6021344390029
 20
78.214983375847
 30
0.0
 10
198.6751659847511
 20
78.218983632921
 30
0.0
 10
198.7514642639873
 20
78.22207036197678
 30
0.0
 10
198.8033957636297
 20
78.22237931319187
 30
0.0
 10
198.8299828906599
 20
78.22253748550075
 30
0.0
  0
SPLINE
  5
84
330
1F
100
AcDbEntity
  8
0
  6
Continuous
 62
     7
370
    25
100
AcDbSpline
210
0.0
220
0.0
230
1.0
 70
     8
 71
     3
 72
    15
 73
    11
 74
     0
 42
0.00000001
 43
0.00000001
 40
0.0
 40
0.0
 40
0.0
 40
0.0
 40
0.1195040863107422
 40
0.2383815255843715
 40
0.3571090773014072
 40
0.4777214423508231
 40
0.6009465942306369
 40
0.7281225224148412
 40
0.860631793127152
 40
1.0
 40
1.0
 40
1.0
 40
1.0
 10
197.7597126203896
 20
77.57273053569381
 30
0.0
 10
197.7602245307074
 20
77.59164053132767
 30
0.0
 10
197.7612456670241
 20
77.62936136370385
 30
0.0
 10
197.7704986890725
 20
77.68526172426772
 30
0.0
 10
197.7858488242228
 20
77.73987599429454
 30
0.0
 10
197.8065740899398
 20
77.79344649014988
 30
0.0
 10
197.8336891067777
 20
77.84562672918439
 30
0.0
 10
197.8671830984125
 20
77.89615957510858
 30
0.0
 10
197.905865232459
 20
77.94614991189786
 30
0.0
 10
197.935593291594
 20
77.97725100154874
 30
0.0
 10
197.9508323115093
 20
77.99319385615712
 30
0.0
  0
SPLINE
  5
85
330
1F
100
AcDbEntity
  8
0
  6
Continuous
 62
     7
370
    25
100
AcDbSpline
210
0.0
220
0.0
230
1.0
 70
     8
 71
     3
 72
    15
 73
    11
 74
     0
 42
0.00000001
 43
0.00000001
 40
0.0
 40
0.0
 40
0.0
 40
0.0
 40
0.1171086905579878
 40
0.2333993299620635
 40
0.3506160626962318
 40
0.4711822020542324
 40
0.5946445890795229
 40
0.7237659205994504
 40
0.8581711095996138
 40
1.0
 40
1.0
 40
1.0
 40
1.0
 10
197.9126083732854
 20
77.15226721523048
 30
0.0
 10
197.9003572156546
 20
77.16538431287492
 30
0.0
 10
197.8759404796408
 20
77.19152687997797
 30
0.0
 10
197.8445661321537
 20
77.23533501119002
 30
0.0
 10
197.8186873883432
 20
77.28308623462117
 30
0.0
 10
197.7967344144544
 20
77.3339872813639
 30
0.0
 10
197.7804860427254
 20
77.38888171355897
 30
0.0
 10
197.7680442919603
 20
77.44689081648607
 30
0.0
 10
197.7610120938801
 20
77.508693781281
 30
0.0
 10
197.7601534699663
 20
77.55100590931148
 30
0.0
 10
197.7597126203896
 20
77.57273053569381
 30
0.0
  0
SPLINE
  5
86
330
1F
100
AcDbEntity
  8
0
  6
Continuous
 62
     7
370
    25
100
AcDbSpline
210
0.0
220
0.0
230
1.0
 70
     8
 71
     3
 72
    15
 73
    11
 74
     0
 42
0.00000001
 43
0.00000001
 40
0.0
 40
0.0
 40
0.0
 40
0.0
 40
0.1476270724396861
 40
0.2864810592714899
 40
0.4181894659268071
 40
0.542880884113735
 40
0.6619178330920035
 40
0.7770087505932002
 40
0.8893050437597246
 40
1.0
 40
1.0
 40
1.0
 40
1.0
 10
198.5114500721271
 20
76.94840621136947
 30
0.0
 10
198.479495541274
 20
76.94904583469629
 30
0.0
 10
198.4174854526363
 20
76.95028707023103
 30
0.0
 10
198.3273391870177
 20
76.95970938547127
 30
0.0
 10
198.2432148414874
 20
76.97569871679222
 30
0.0
 10
198.1648261475682
 20
76.99759844530456
 30
0.0
 10
198.0926395715886
 20
77.02664650713878
 30
0.0
 10
198.026133368978
 20
77.06151086895096
 30
0.0
 10
197.96552066291
 20
77.10299871048502
 30
0.0
 10
197.9301611623592
 20
77.13592319235951
 30
0.0
 10
197.9126083732854
 20
77.15226721523048
 30
0.0
  0
SPLINE
  5
87
330
1F
100
AcDbEntity
  8
0
  6
Continuous
 62
     7
370
    25
100
AcDbSpline
210
0.0
220
0.0
230
1.0
 70
     8
 71
     3
 72
    15
 73
    11
 74
     0
 42
0.00000001
 43
0.00000001
 40
0.0
 40
0.0
 40
0.0
 40
0.0
 40
0.1094376231375987
 40
0.2200197609697443
 40
0.3343721928536027
 40
0.452912917038431
 40
0.5777009796868827
 40
0.7100641746072383
 40
0.8508042784674903
 40
1.0
 40
1.0
 40
1.0
 40
1.0
 10
199.0848091454862
 20
77.13952590248917
 30
0.0
 10
199.0681933529436
 20
77.12412548653188
 30
0.0
 10
199.0347879974659
 20
77.0931635948112
 30
0.0
 10
198.9771538910932
 20
77.05452946205013
 30
0.0
 10
198.9142362281163
 20
77.02137908703489
 30
0.0
 10
198.8452103370142
 20
76.99439480332474
 30
0.0
 10
198.7701815723153
 20
76.9738718054854
 30
0.0
 10
198.6892268507851
 20
76.95883109531889
 30
0.0
 10
198.6022597571047
 20
76.9498190320577
 30
0.0
 10
198.5423028235799
 20
76.94888621970286
 30
0.0
 10
198.5114500721271
 20
76.94840621136947
 30
0.0
  0
SPLINE
  5
88
330
1F
100
AcDbEntity
  8
0
  6
Continuous
 62
     7
370
    25
100
AcDbSpline
210
0.0
220
0.0
230
1.0
 70
     8
 71
     3
 72
    15
 73
    11
 74
     0
 42
0.00000001
 43
0.00000001
 40
0.0
 40
0.0
 40
0.0
 40
0.0
 40
0.1328879382642822
 40
0.2611764415433329
 40
0.3862019221938195
 40
0.5075747214113124
 40
0.629372412471537
 40
0.7508835925620004
 40
0.8736128964297308
 40
1.0
 40
1.0
 40
1.0
 40
1.0
 10
199.2377048983819
 20
77.52176528472856
 30
0.0
 10
199.2372548766781
 20
77.50302685366971
 30
0.0
 10
199.2363704091428
 20
77.46619855451799
 30
0.0
 10
199.229296784996
 20
77.41207828589653
 30
0.0
 10
199.2168392982286
 20
77.36067579271976
 30
0.0
 10
199.2004166161249
 20
77.31132822119386
 30
0.0
 10
199.1784041366425
 20
77.2647657098386
 30
0.0
 10
199.1526277915201
 20
77.21996493492699
 30
0.0
 10
199.1210438250434
 20
77.17815074156381
 30
0.0
 10
199.0970050266531
 20
77.15252626438567
 30
0.0
 10
199.0848091454862
 20
77.13952590248917
 30
0.0
  0
SPLINE
  5
89
330
1F
100
AcDbEntity
  8
0
  6
Continuous
 62
     7
370
    25
100
AcDbSpline
210
0.0
220
0.0
230
1.0
 70
     8
 71
     3
 72
    15
 73
    11
 74
     0
 42
0.00000001
 43
0.00000001
 40
0.0
 40
0.0
 40
0.0
 40
0.0
 40
0.1277118540336134
 40
0.2523621141955311
 40
0.3748537650566259
 40
0.4969693854038489
 40
0.619273165524218
 40
0.7424854443019975
 40
0.8694478780376607
 40
0.9999999999999999
 40
0.9999999999999999
 40
0.9999999999999999
 40
0.9999999999999999
 10
199.1230330837101
 20
77.80207416503742
 30
0.0
 10
199.1322359845142
 20
77.79252310840299
 30
0.0
 10
199.1504211680371
 20
77.7736499594435
 30
0.0
 10
199.173312948712
 20
77.74210916298115
 30
0.0
 10
199.1935709517293
 20
77.70953195555165
 30
0.0
 10
199.2094100557579
 20
77.67483486926139
 30
0.0
 10
199.222370084057
 20
77.63891496508458
 30
0.0
 10
199.2313572915542
 20
77.60125517876031
 30
0.0
 10
199.2365255050692
 20
77.56202186704047
 30
0.0
 10
199.2373081307425
 20
77.53530827243226
 30
0.0
 10
199.2377048983819
 20
77.52176528472856
 30
0.0
  0
SPLINE
  5
8A
330
1F
100
AcDbEntity
  8
0
  6
Continuous
 62
     7
370
    25
100
AcDbSpline
210
0.0
220
0.0
230
1.0
 70
     8
 71
     3
 72
    11
 73
     7
 74
     0
 42
0.00000001
 43
0.00000001
 40
0.0
 40
0.0
 40
0.0
 40
0.0
 40
0.2456044615709284
 40
0.49243409604941
 40
0.7435400941223409
 40
1.0
 40
1.0
 40
1.0
 40
1.0
 10
198.957396018073
 20
77.92948729245056
 30
0.0
 10
198.9721749153264
 20
77.92075235447906
 30
0.0
 10
199.0018064328609
 20
77.90323890518533
 30
0.0
 10
199.0438167657776
 20
77.87258531582037
 30
0.0
 10
199.0846323919237
 20
77.83917651959243
 30
0.0
 10
199.11014315555
 20
77.81452828142278
 30
0.0
 10
199.1230330837101
 20
77.80207416503742
 30
0.0
  0
SPLINE
  5
8B
330
1F
100
AcDbEntity
  8
0
  6
Continuous
 62
     7
370
    25
100
AcDbSpline
210
0.0
220
0.0
230
1.0
 70
     8
 71
     3
 72
    15
 73
    11
 74
     0
 42
0.00000001
 43
0.00000001
 40
0.0
 40
0.0
 40
0.0
 40
0.0
 40
0.0964433484801641
 40
0.1980702687146757
 40
0.3069659373397293
 40
0.4243879496894929
 40
0.5513513962467962
 40
0.6889628351337206
 40
0.8385011961339891
 40
0.9999999999999999
 40
0.9999999999999999
 40
0.9999999999999999
 40
0.9999999999999999
 10
199.6709095315865
 20
77.72562628858955
 30
0.0
 10
199.652789592672
 20
77.7420740955251
 30
0.0
 10
199.6155758166423
 20
77.77585373498006
 30
0.0
 10
199.5492449519364
 20
77.81721339977713
 30
0.0
 10
199.4736173109824
 20
77.85191707260987
 30
0.0
 10
199.3886896363725
 20
77.88068041662305
 30
0.0
 10
199.2942675104222
 20
77.90242772980963
 30
0.0
 10
199.1904997108294
 20
77.91838977532203
 30
0.0
 10
199.0771114845344
 20
77.92762765750756
 30
0.0
 10
198.9983112201256
 20
77.92885172428477
 30
0.0
 10
198.957396018073
 20
77.92948729245056
 30
0.0
  0
SPLINE
  5
8C
330
1F
100
AcDbEntity
  8
0
  6
Continuous
 62
     7
370
    25
100
AcDbSpline
210
0.0
220
0.0
230
1.0
 70
     8
 71
     3
 72
    11
 73
     7
 74
     0
 42
0.00000001
 43
0.00000001
 40
0.0
 40
0.0
 40
0.0
 40
0.0
 40
0.2600145085164581
 40
0.5081836035516303
 40
0.7509482378681022
 40
1.0
 40
1.0
 40
1.0
 40
1.0
 10
199.7473574080344
 20
77.53450659746987
 30
0.0
 10
199.7464944485152
 20
77.55285072697095
 30
0.0
 10
199.7448078430996
 20
77.58870328722642
 30
0.0
 10
199.7302917543461
 20
77.64003513322544
 30
0.0
 10
199.7059251462454
 20
77.68669999103929
 30
0.0
 10
199.6826804525418
 20
77.7125407444399
 30
0.0
 10
199.6709095315865
 20
77.72562628858955
 30
0.0
  0
SPLINE
  5
8D
330
1F
100
AcDbEntity
  8
0
  6
Continuous
 62
     7
370
    25
100
AcDbSpline
210
0.0
220
0.0
230
1.0
 70
     8
 71
     3
 72
    11
 73
     7
 74
     0
 42
0.00000001
 43
0.00000001
 40
0.0
 40
0.0
 40
0.0
 40
0.0
 40
0.2490517621318991
 40
0.4918163964483706
 40
0.7399854914835423
 40
1.0
 40
1.0
 40
1.0
 40
1.0
 10
199.6709095315865
 20
77.34338690635018
 30
0.0
 10
199.6826804525418
 20
77.35647245049981
 30
0.0
 10
199.7059251462454
 20
77.38231320390044
 30
0.0
 10
199.7302917543461
 20
77.42897806171428
 30
0.0
 10
199.7448078430996
 20
77.4803099077133
 30
0.0
 10
199.7464944485152
 20
77.51616246796877
 30
0.0
 10
199.7473574080344
 20
77.53450659746987
 30
0.0
  0
SPLINE
  5
8E
330
1F
100
AcDbEntity
  8
0
  6
Continuous
 62
     7
370
    25
100
AcDbSpline
210
0.0
220
0.0
230
1.0
 70
     8
 71
     3
 72
    15
 73
    11
 74
     0
 42
0.00000001
 43
0.00000001
 40
0.0
 40
0.0
 40
0.0
 40
0.0
 40
0.1575795759530237
 40
0.3051873770201199
 40
0.4403374772752369
 40
0.5671048604317455
 40
0.6842314239145111
 40
0.7956973262442274
 40
0.8993807647161675
 40
1.0
 40
1.0
 40
1.0
 40
1.0
 10
199.4160832767603
 20
77.26693902990229
 30
0.0
 10
199.4304009555769
 20
77.26729013846348
 30
0.0
 10
199.4581302778361
 20
77.26797013712567
 30
0.0
 10
199.4980847115798
 20
77.27091242140914
 30
0.0
 10
199.5348324789281
 20
77.27716911673801
 30
0.0
 10
199.5682440218224
 20
77.28565359115645
 30
0.0
 10
199.5989487256838
 20
77.29585994216298
 30
0.0
 10
199.6262349875709
 20
77.30898130519881
 30
0.0
 10
199.6503984871222
 20
77.32469517733608
 30
0.0
 10
199.6641412228895
 20
77.33721894195085
 30
0.0
 10
199.6709095315865
 20
77.34338690635018
 30
0.0
  0
LINE
  5
8F
330
1F
100
AcDbEntity
  8
0
  6
Continuous
 62
     7
370
    25
100
AcDbLine
 10
199.4160832768
 20
76.9738888369
 30
0.0
 11
199.4160832768
 21
77.2669390299
 31
0.0
  0
SPLINE
  5
90
330
1F
100
AcDbEntity
  8
0
  6
Continuous
 62
     7
370
    25
100
AcDbSpline
210
0.0
220
0.0
230
1.0
 70
     8
 71
     3
 72
    15
 73
    11
 74
     0
 42
0.00000001
 43
0.00000001
 40
0.0
 40
0.0
 40
0.0
 40
0.0
 40
0.1244915194717264
 40
0.2464474751764525
 40
0.3675919258474105
 40
0.4881209488130426
 40
0.6115333728269708
 40
0.736538227424316
 40
0.8657522427262369
 40
0.9999999999999999
 40
0.9999999999999999
 40
0.9999999999999999
 40
0.9999999999999999
 10
199.8365465972236
 20
77.13952590248917
 30
0.0
 10
199.8224547814523
 20
77.12637383230862
 30
0.0
 10
199.7945581630142
 20
77.10033756491391
 30
0.0
 10
199.7490468521105
 20
77.06594747526493
 30
0.0
 10
199.7001915916719
 20
77.03776263424939
 30
0.0
 10
199.6486550233007
 20
77.01442038486988
 30
0.0
 10
199.5945176273197
 20
76.99585784315326
 30
0.0
 10
199.5373218691282
 20
76.98347342495283
 30
0.0
 10
199.4776900425547
 20
76.97489960807799
 30
0.0
 10
199.4368787808155
 20
76.97423002498064
 30
0.0
 10
199.4160832767603
 20
76.97388883685211
 30
0.0
  0
SPLINE
  5
91
330
1F
100
AcDbEntity
  8
0
  6
Continuous
 62
     7
370
    25
100
AcDbSpline
210
0.0
220
0.0
230
1.0
 70
     8
 71
     3
 72
    15
 73
    11
 74
     0
 42
0.00000001
 43
0.00000001
 40
0.0
 40
0.0
 40
0.0
 40
0.0
 40
0.1356800108501684
 40
0.2668415897771093
 40
0.3926005974967501
 40
0.5157318537894202
 40
0.6360998884170286
 40
0.7560959929543323
 40
0.8771413117267548
 40
1.0
 40
1.0
 40
1.0
 40
1.0
 10
199.9894423501194
 20
77.53450659746987
 30
0.0
 10
199.988983581876
 20
77.51482728921215
 30
0.0
 10
199.9880813233442
 20
77.47612403537028
 30
0.0
 10
199.981158668462
 20
77.41946705722631
 30
0.0
 10
199.9684462218094
 20
77.36577650084375
 30
0.0
 10
199.9524721746498
 20
77.31454609263064
 30
0.0
 10
199.9301258790513
 20
77.266673705172
 30
0.0
 10
199.9043581635004
 20
77.22096056239839
 30
0.0
 10
199.8730734450825
 20
77.17824208664773
 30
0.0
 10
199.8487824125668
 20
77.15249510481365
 30
0.0
 10
199.8365465972236
 20
77.13952590248917
 30
0.0
  0
SPLINE
  5
92
330
1F
100
AcDbEntity
  8
0
  6
Continuous
 62
     7
370
    25
100
AcDbSpline
210
0.0
220
0.0
230
1.0
 70
     8
 71
     3
 72
    15
 73
    11
 74
     0
 42
0.00000001
 43
0.00000001
 40
0.0
 40
0.0
 40
0.0
 40
0.0
 40
0.1263812889588912
 40
0.2491049464973162
 40
0.370610536299922
 40
0.49139175594243
 40
0.6138158455532658
 40
0.7388355742356969
 40
0.8671181754268791
 40
0.9999999999999999
 40
0.9999999999999999
 40
0.9999999999999999
 40
0.9999999999999999
 10
199.8365465972236
 20
77.91674597970923
 30
0.0
 10
199.8487407048081
 20
77.90374483092602
 30
0.0
 10
199.872776007363
 20
77.87811880274788
 30
0.0
 10
199.9043855272414
 20
77.83631594668238
 30
0.0
 10
199.9299952937497
 20
77.79159657951335
 30
0.0
 10
199.9523811481104
 20
77.74519386476713
 30
0.0
 10
199.9684638631846
 20
77.69571242540034
 30
0.0
 10
199.9810557376115
 20
77.64420152256598
 30
0.0
 10
199.9881022004851
 20
77.59007124098486
 30
0.0
 10
199.9889904195948
 20
77.55324432484502
 30
0.0
 10
199.9894423501194
 20
77.53450659746987
 30
0.0
  0
SPLINE
  5
93
330
1F
100
AcDbEntity
  8
0
  6
Continuous
 62
     7
370
    25
100
AcDbSpline
210
0.0
220
0.0
230
1.0
 70
     8
 71
     3
 72
    23
 73
    19
 74
     0
 42
0.00000001
 43
0.00000001
 40
0.0
 40
0.0
 40
0.0
 40
0.0
 40
0.0796294701120216
 40
0.1566842067799501
 40
0.2308342243899715
 40
0.3025278065272982
 40
0.3715101076111981
 40
0.4382633308465719
 40
0.5024649722906295
 40
0.5646604536693954
 40
0.6245612367645359
 40
0.6823215461207703
 40
0.738511554278173
 40
0.7932995870703852
 40
0.8467205107566449
 40
0.8985430522702744
 40
0.9498534420925908
 40
1.0
 40
1.0
 40
1.0
 40
1.0
 10
198.8299828906599
 20
78.22253748550075
 30
0.0
 10
198.8586128074512
 20
78.22217855476501
 30
0.0
 10
198.9149469234048
 20
78.22147229893362
 30
0.0
 10
198.9979188351745
 20
78.21849868070524
 30
0.0
 10
199.0778131235299
 20
78.2119786048205
 30
0.0
 10
199.1547048340854
 20
78.20442405550686
 30
0.0
 10
199.2284888822561
 20
78.19334158960642
 30
0.0
 10
199.2992025490052
 20
78.18029409765049
 30
0.0
 10
199.3668958222837
 20
78.16466373079751
 30
0.0
 10
199.431494032658
 20
78.14684823882612
 30
0.0
 10
199.4929401003297
 20
78.12658779941899
 30
0.0
 10
199.5512147093786
 20
78.10387524626988
 30
0.0
 10
199.6064940102609
 20
78.07881396294815
 30
0.0
 10
199.659067518579
 20
78.05168242495886
 30
0.0
 10
199.7079789356675
 20
78.02128479812046
 30
0.0
 10
199.7542236485537
 20
77.98913960038355
 30
0.0
 10
199.7970823378194
 20
77.95437280805982
 30
0.0
 10
199.8234928306819
 20
77.9291919711052
 30
0.0
 10
199.8365465972236
 20
77.91674597970923
 30
0.0
  0
LINE
  5
94
330
1F
100
AcDbEntity
  8
0
  6
Continuous
 62
     7
370
    25
100
AcDbLine
 10
198.6006392613
 20
79.9171320801
 30
0.0
 11
199.9894423501
 21
79.0634641264
 31
0.0
  0
LINE
  5
95
330
1F
100
AcDbEntity
  8
0
  6
Continuous
 62
     7
370
    25
100
AcDbLine
 10
198.3467568074
 20
79.9171320801
 30
0.0
 11
198.6006392613
 21
79.9171320801
 31
0.0
  0
LINE
  5
96
330
1F
100
AcDbEntity
  8
0
  6
Continuous
 62
     7
370
    25
100
AcDbLine
 10
198.3467568074
 20
79.0719583349
 30
0.0
 11
198.3467568074
 21
79.9171320801
 31
0.0
  0
LINE
  5
97
330
1F
100
AcDbEntity
  8
0
  6
Continuous
 62
     7
370
    25
100
AcDbLine
 10
197.7851952459
 20
79.0719583349
 30
0.0
 11
198.3467568074
 21
79.0719583349
 31
0.0
  0
LINE
  5
98
330
1F
100
AcDbEntity
  8
0
  6
Continuous
 62
     7
370
    25
100
AcDbLine
 10
197.7851952459
 20
78.7704139334
 30
0.0
 11
197.7851952459
 21
79.0719583349
 31
0.0
  0
LINE
  5
99
330
1F
100
AcDbEntity
  8
0
  6
Continuous
 62
     7
370
    25
100
AcDbLine
 10
198.3467568074
 20
78.7704139334
 30
0.0
 11
197.7851952459
 21
78.7704139334
 31
0.0
  0
LINE
  5
9A
330
1F
100
AcDbEntity
  8
0
  6
Continuous
 62
     7
370
    25
100
AcDbLine
 10
198.3467568074
 20
78.5028463658
 30
0.0
 11
198.3467568074
 21
78.7704139334
 31
0.0
  0
LINE
  5
9B
330
1F
100
AcDbEntity
  8
0
  6
Continuous
 62
     7
370
    25
100
AcDbLine
 10
198.5878979486
 20
78.5028463658
 30
0.0
 11
198.3467568074
 21
78.5028463658
 31
0.0
  0
LINE
  5
9C
330
1F
100
AcDbEntity
  8
0
  6
Continuous
 62
     7
370
    25
100
AcDbLine
 10
198.5878979486
 20
78.7704139334
 30
0.0
 11
198.5878979486
 21
78.5028463658
 31
0.0
  0
LINE
  5
9D
330
1F
100
AcDbEntity
  8
0
  6
Continuous
 62
     7
370
    25
100
AcDbLine
 10
199.9894423501
 20
78.7704139334
 30
0.0
 11
198.5878979486
 21
78.7704139334
 31
0.0
  0
LINE
  5
9E
330
1F
100
AcDbEntity
  8
0
  6
Continuous
 62
     7
370
    25
100
AcDbLine
 10
199.9894423501
 20
79.0634641264
 30
0.0
 11
199.9894423501
 21
78.7704139334
 31
0.0
  0
LINE
  5
9F
330
1F
100
AcDbEntity
  8
0
  6
Continuous
 62
     7
370
    25
100
AcDbLine
 10
199.7228185835
 20
81.4460896091
 30
0.0
 11
199.9639597246
 21
81.4460896091
 31
0.0
  0
LINE
  5
A0
330
1F
100
AcDbEntity
  8
0
  6
Continuous
 62
     7
370
    25
100
AcDbLine
 10
199.7228185835
 20
80.5159737789
 30
0.0
 11
199.7228185835
 21
81.4460896091
 31
0.0
  0
LINE
  5
A1
330
1F
100
AcDbEntity
  8
0
  6
Continuous
 62
     7
370
    25
100
AcDbLine
 10
197.7851952459
 20
81.1275567905
 30
0.0
 11
199.7228185835
 21
80.5159737789
 31
0.0
  0
LINE
  5
A2
330
1F
100
AcDbEntity
  8
0
  6
Continuous
 62
     7
370
    25
100
AcDbLine
 10
197.7851952459
 20
80.8472479102
 30
0.0
 11
197.7851952459
 21
81.1275567905
 31
0.0
  0
LINE
  5
A3
330
1F
100
AcDbEntity
  8
0
  6
Continuous
 62
     7
370
    25
100
AcDbLine
 10
199.6836508443
 20
80.2356648986
 30
0.0
 11
197.7851952459
 21
80.8472479102
 31
0.0
  0
LINE
  5
A4
330
1F
100
AcDbEntity
  8
0
  6
Continuous
 62
     7
370
    25
100
AcDbLine
 10
199.9639597246
 20
80.2356648986
 30
0.0
 11
199.6836508443
 21
80.2356648986
 31
0.0
  0
LINE
  5
A5
330
1F
100
AcDbEntity
  8
0
  6
Continuous
 62
     7
370
    25
100
AcDbLine
 10
199.9639597246
 20
81.4460896091
 30
0.0
 11
199.9639597246
 21
80.2356648986
 31
0.0
  0
LINE
  5
A6
330
1F
100
AcDbEntity
  8
0
  6
Continuous
 62
     7
370
    25
100
AcDbLine
 10
198.7974217581
 20
83.2043907674
 30
0.0
 11
199.008361269
 21
83.2043907674
 31
0.0
  0
LINE
  5
A7
330
1F
100
AcDbEntity
  8
0
  6
Continuous
 62
     7
370
    25
100
AcDbLine
 10
198.7974217581
 20
81.7518811148
 30
0.0
 11
198.7974217581
 21
83.2043907674
 31
0.0
  0
LINE
  5
A8
330
1F
100
AcDbEntity
  8
0
  6
Continuous
 62
     7
370
    25
100
AcDbLine
 10
199.008361269
 20
81.7518811148
 30
0.0
 11
198.7974217581
 21
81.7518811148
 31
0.0
  0
LINE
  5
A9
330
1F
100
AcDbEntity
  8
0
  6
Continuous
 62
     7
370
    25
100
AcDbLine
 10
199.008361269
 20
83.2043907674
 30
0.0
 11
199.008361269
 21
81.7518811148
 31
0.0
  0
LINE
  5
AA
330
1F
100
AcDbEntity
  8
0
  6
Continuous
 62
     7
370
    25
100
AcDbLine
 10
197.7861390468
 20
85.1693843323
 30
0.0
 11
199.9639597246
 21
85.1693843323
 31
0.0
  0
LINE
  5
AB
330
1F
100
AcDbEntity
  8
0
  6
Continuous
 62
     7
370
    25
100
AcDbLine
 10
197.7861390468
 20
84.1543264173
 30
0.0
 11
197.7861390468
 21
85.1693843323
 31
0.0
  0
SPLINE
  5
AC
330
1F
100
AcDbEntity
  8
0
  6
Continuous
 62
     7
370
    25
100
AcDbSpline
210
0.0
220
0.0
230
1.0
 70
     8
 71
     3
 72
    15
 73
    11
 74
     0
 42
0.00000001
 43
0.00000001
 40
0.0
 40
0.0
 40
0.0
 40
0.0
 40
0.1086277469152493
 40
0.219530040467935
 40
0.3340583594962496
 40
0.4525037346025801
 40
0.578166032102879
 40
0.7098017975268048
 40
0.8504665399585418
 40
1.0
 40
1.0
 40
1.0
 40
1.0
 10
197.938090998768
 20
83.69563915860242
 30
0.0
 10
197.9259733835775
 20
83.70890204176433
 30
0.0
 10
197.9014844235402
 20
83.73570551840763
 30
0.0
 10
197.8701878693248
 20
83.78143186155535
 30
0.0
 10
197.8444347851132
 20
83.83221766998061
 30
0.0
 10
197.8231205179518
 20
83.88759894292747
 30
0.0
 10
197.8061084491169
 20
83.94741570027549
 30
0.0
 10
197.7945466642065
 20
84.0122316570111
 30
0.0
 10
197.7873828872787
 20
84.08164850584625
 30
0.0
 10
197.7865620224259
 20
84.12961184589726
 30
0.0
 10
197.7861390468161
 20
84.15432641728968
 30
0.0
  0
SPLINE
  5
AD
330
1F
100
AcDbEntity
  8
0
  6
Continuous
 62
     7
370
    25
100
AcDbSpline
210
0.0
220
0.0
230
1.0
 70
     8
 71
     3
 72
    15
 73
    11
 74
     0
 42
0.00000001
 43
0.00000001
 40
0.0
 40
0.0
 40
0.0
 40
0.0
 40
0.1319114978615549
 40
0.2585593955794498
 40
0.3829282045992121
 40
0.5051155152535453
 40
0.6266776175559875
 40
0.7489849223246636
 40
0.8728415720964464
 40
1.0
 40
1.0
 40
1.0
 40
1.0
 10
198.4095195701966
 20
83.50451946748274
 30
0.0
 10
198.3865232028281
 20
83.50500211787842
 30
0.0
 10
198.3414480809191
 20
83.50594815970655
 30
0.0
 10
198.2752129151632
 20
83.51522109585825
 30
0.0
 10
198.2118817889807
 20
83.53033676295425
 30
0.0
 10
198.151066528242
 20
83.55107132908384
 30
0.0
 10
198.0931423998303
 20
83.57811363772683
 30
0.0
 10
198.0383393723047
 20
83.61147620925905
 30
0.0
 10
197.9858195910069
 20
83.65012069841335
 30
0.0
 10
197.9541394333241
 20
83.68033386684388
 30
0.0
 10
197.938090998768
 20
83.69563915860242
 30
0.0
  0
SPLINE
  5
AE
330
1F
100
AcDbEntity
  8
0
  6
Continuous
 62
     7
370
    25
100
AcDbSpline
210
0.0
220
0.0
230
1.0
 70
     8
 71
     3
 72
    15
 73
    11
 74
     0
 42
0.00000001
 43
0.00000001
 40
0.0
 40
0.0
 40
0.0
 40
0.0
 40
0.1312072932871418
 40
0.2585055422472042
 40
0.3817646425439864
 40
0.5033692670500668
 40
0.6250492974901231
 40
0.7476118725723038
 40
0.8722462138971595
 40
1.0
 40
1.0
 40
1.0
 40
1.0
 10
199.3906006512777
 20
83.5682260311893
 30
0.0
 10
199.3739052172161
 20
83.56870190752764
 30
0.0
 10
199.341011754307
 20
83.5696394824734
 30
0.0
 10
199.2928059926266
 20
83.5763661385821
 30
0.0
 10
199.2466723919221
 20
83.58726714514496
 30
0.0
 10
199.2024386487741
 20
83.60231759312668
 30
0.0
 10
199.1603143969493
 20
83.62234815203348
 30
0.0
 10
199.1200873331834
 20
83.64660121737126
 30
0.0
 10
199.0814211441254
 20
83.67476083088245
 30
0.0
 10
199.0582924741231
 20
83.69708196359315
 30
0.0
 10
199.0465852072622
 20
83.70838047134374
 30
0.0
  0
LINE
  5
AF
330
1F
100
AcDbEntity
  8
0
  6
Continuous
 62
     7
370
    25
100
AcDbLine
 10
199.9639597246
 20
85.1693843323
 30
0.0
 11
199.9639597246
 21
84.1415851045
 31
0.0
  0
LINE
  5
B0
330
1F
100
AcDbEntity
  8
0
  6
Continuous
 62
     7
370
    25
100
AcDbLine
 10
197.7851952459
 20
87.2405555035
 30
0.0
 11
199.9639597246
 21
87.2405555035
 31
0.0
  0
LINE
  5
B1
330
1F
100
AcDbEntity
  8
0
  6
Continuous
 62
     7
370
    25
100
AcDbLine
 10
197.7851952459
 20
86.939011102
 30
0.0
 11
197.7851952459
 21
87.2405555035
 31
0.0
  0
LINE
  5
B2
330
1F
100
AcDbEntity
  8
0
  6
Continuous
 62
     7
370
    25
100
AcDbLine
 10
199.5052724659
 20
86.939011102
 30
0.0
 11
197.7851952459
 21
86.939011102
 31
0.0
  0
LINE
  5
B3
330
1F
100
AcDbEntity
  8
0
  6
Continuous
 62
     7
370
    25
100
AcDbLine
 10
197.7851952459
 20
85.9197060827
 30
0.0
 11
199.5052724659
 21
86.939011102
 31
0.0
  0
LINE
  5
B4
330
1F
100
AcDbEntity
  8
0
  6
Continuous
 62
     7
370
    25
100
AcDbLine
 10
197.7851952459
 20
85.6011732641
 30
0.0
 11
197.7851952459
 21
85.9197060827
 31
0.0
  0
LINE
  5
B5
330
1F
100
AcDbEntity
  8
0
  6
Continuous
 62
     7
370
    25
100
AcDbLine
 10
199.9639597246
 20
85.6011732641
 30
0.0
 11
197.7851952459
 21
85.6011732641
 31
0.0
  0
LINE
  5
B6
330
1F
100
AcDbEntity
  8
0
  6
Continuous
 62
     7
370
    25
100
AcDbLine
 10
199.9639597246
 20
85.9027176657
 30
0.0
 11
199.9639597246
 21
85.6011732641
 31
0.0
  0
LINE
  5
B7
330
1F
100
AcDbEntity
  8
0
  6
Continuous
 62
     7
370
    25
100
AcDbLine
 10
198.2438825046
 20
85.9027176657
 30
0.0
 11
199.9639597246
 21
85.9027176657
 31
0.0
  0
LINE
  5
B8
330
1F
100
AcDbEntity
  8
0
  6
Continuous
 62
     7
370
    25
100
AcDbLine
 10
199.9639597246
 20
86.9135284765
 30
0.0
 11
198.2438825046
 21
85.9027176657
 31
0.0
  0
LINE
  5
B9
330
1F
100
AcDbEntity
  8
0
  6
Continuous
 62
     7
370
    25
100
AcDbLine
 10
199.9639597246
 20
87.2405555035
 30
0.0
 11
199.9639597246
 21
86.9135284765
 31
0.0
  0
SPLINE
  5
BA
330
1F
100
AcDbEntity
  8
0
  6
Continuous
 62
     7
370
    25
100
AcDbSpline
210
0.0
220
0.0
230
1.0
 70
     8
 71
     3
 72
    15
 73
    11
 74
     0
 42
0.00000001
 43
0.00000001
 40
0.0
 40
0.0
 40
0.0
 40
0.0
 40
0.1263812889588905
 40
0.249104946497316
 40
0.3706105362999225
 40
0.4913917559424302
 40
0.6138158455532662
 40
0.7388355742356973
 40
0.8671181754268791
 40
0.9999999999999999
 40
0.9999999999999999
 40
0.9999999999999999
 40
0.9999999999999999
 10
198.7917589524359
 20
83.65741522037848
 30
0.0
 10
198.7787578036527
 20
83.64522111279402
 30
0.0
 10
198.7531317754746
 20
83.62118581023908
 30
0.0
 10
198.7113289194091
 20
83.58957629036072
 30
0.0
 10
198.6666095522401
 20
83.5639665238524
 30
0.0
 10
198.6202068374938
 20
83.54158066949168
 30
0.0
 10
198.5707253981271
 20
83.52549795441752
 30
0.0
 10
198.5192144952927
 20
83.51290607999056
 30
0.0
 10
198.4650842137115
 20
83.50585961711698
 30
0.0
 10
198.4282572975717
 20
83.50497139800724
 30
0.0
 10
198.4095195701966
 20
83.50451946748274
 30
0.0
  0
SPLINE
  5
BB
330
1F
100
AcDbEntity
  8
0
  6
Continuous
 62
     7
370
    25
100
AcDbSpline
210
0.0
220
0.0
230
1.0
 70
     8
 71
     3
 72
    11
 73
     7
 74
     0
 42
0.00000001
 43
0.00000001
 40
0.0
 40
0.0
 40
0.0
 40
0.0
 40
0.2758864184465412
 40
0.5310076877713112
 40
0.7722766677115253
 40
1.0
 40
1.0
 40
1.0
 40
1.0
 10
198.9319133925904
 20
83.89950016246344
 30
0.0
 10
198.9231640069212
 20
83.87505255593656
 30
0.0
 10
198.9063237757863
 20
83.8279974414207
 30
0.0
 10
198.87324397888
 20
83.76317296703462
 30
0.0
 10
198.835928804022
 20
83.70591912201661
 30
0.0
 10
198.8061959840557
 20
83.67326884760352
 30
0.0
 10
198.7917589524359
 20
83.65741522037848
 30
0.0
  0
SPLINE
  5
BC
330
1F
100
AcDbEntity
  8
0
  6
Continuous
 62
     7
370
    25
100
AcDbSpline
210
0.0
220
0.0
230
1.0
 70
     8
 71
     3
 72
    11
 73
     7
 74
     0
 42
0.00000001
 43
0.00000001
 40
0.0
 40
0.0
 40
0.0
 40
0.0
 40
0.2409277974217337
 40
0.4854864172424148
 40
0.7380410464993908
 40
1.0
 40
1.0
 40
1.0
 40
1.0
 10
199.0465852072622
 20
83.70838047134374
 30
0.0
 10
199.034281796262
 20
83.72161973289025
 30
0.0
 10
199.00948955979
 20
83.74829777387984
 30
0.0
 10
198.9782556872016
 20
83.7941975246618
 30
0.0
 10
198.9523227303179
 20
83.84497694866243
 30
0.0
 10
198.9387989017399
 20
83.88110563675666
 30
0.0
 10
198.9319133925904
 20
83.89950016246344
 30
0.0
  0
SPLINE
  5
BD
330
1F
100
AcDbEntity
  8
0
  6
Continuous
 62
     7
370
    25
100
AcDbSpline
210
0.0
220
0.0
230
1.0
 70
     8
 71
     3
 72
    15
 73
    11
 74
     0
 42
0.00000001
 43
0.00000001
 40
0.0
 40
0.0
 40
0.0
 40
0.0
 40
0.1195027114365308
 40
0.2380939422658887
 40
0.3566476293726336
 40
0.4775806195769138
 40
0.6003630199241493
 40
0.727832734004141
 40
0.8606471500295813
 40
1.0
 40
1.0
 40
1.0
 40
1.0
 10
199.7983226589997
 20
83.72112178408504
 30
0.0
 10
199.7853668355664
 20
83.70886834835855
 30
0.0
 10
199.7595540063893
 20
83.68445493728738
 30
0.0
 10
199.7162968460586
 20
83.65321234042715
 30
0.0
 10
199.6695319824229
 20
83.62729586524964
 30
0.0
 10
199.6200661330053
 20
83.60533108407715
 30
0.0
 10
199.5670670783091
 20
83.58905311858555
 30
0.0
 10
199.5112713397727
 20
83.57654491959363
 30
0.0
 10
199.451968909163
 20
83.56954276013558
 30
0.0
 10
199.4113817535913
 20
83.56867191445036
 30
0.0
 10
199.3906006512777
 20
83.5682260311893
 30
0.0
  0
SPLINE
  5
BE
330
1F
100
AcDbEntity
  8
0
  6
Continuous
 62
     7
370
    25
100
AcDbSpline
210
0.0
220
0.0
230
1.0
 70
     8
 71
     3
 72
    15
 73
    11
 74
     0
 42
0.00000001
 43
0.00000001
 40
0.0
 40
0.0
 40
0.0
 40
0.0
 40
0.1342477572737627
 40
0.263461772575683
 40
0.3884666271730283
 40
0.5118790511869571
 40
0.6324080741525893
 40
0.7535525248235474
 40
0.875508480528274
 40
1.0
 40
1.0
 40
1.0
 40
1.0
 10
199.9639597246367
 20
84.14158510454837
 30
0.0
 10
199.9636185365082
 20
84.12078960049313
 30
0.0
 10
199.9629489534108
 20
84.07997833875393
 30
0.0
 10
199.954375136536
 20
84.02034651218048
 30
0.0
 10
199.9419907183356
 20
83.96315075398896
 30
0.0
 10
199.923428176619
 20
83.90901335800794
 30
0.0
 10
199.9000859272394
 20
83.8574767896368
 30
0.0
 10
199.8719010862239
 20
83.80862152919819
 30
0.0
 10
199.8375109965749
 20
83.76311021829449
 30
0.0
 10
199.8114747291802
 20
83.73521359985634
 30
0.0
 10
199.7983226589997
 20
83.72112178408504
 30
0.0
  0
LINE
  5
BF
330
1F
100
AcDbEntity
  8
0
  6
Continuous
 62
     7
370
    25
100
AcDbLine
 10
195.2469713076
 20
81.0011508865
 30
0.0
 11
195.2469713076
 21
95.7511508865
 31
0.0
  0
LINE
  5
C0
330
1F
100
AcDbEntity
  8
0
  6
Continuous
 62
     7
370
    25
100
AcDbLine
 10
195.2469713076
 20
66.2511508865
 30
0.0
 11
195.2469713076
 21
81.0011508865
 31
0.0
  0
LINE
  5
C1
330
1F
100
AcDbEntity
  8
0
  6
Continuous
 62
     7
370
    25
100
AcDbLine
 10
202.2469713076
 20
81.0011508865
 30
0.0
 11
202.2469713076
 21
95.7511508865
 31
0.0
  0
LINE
  5
C2
330
1F
100
AcDbEntity
  8
0
  6
Continuous
 62
     7
370
    25
100
AcDbLine
 10
202.2469713076
 20
66.2511508865
 30
0.0
 11
202.2469713076
 21
81.0011508865
 31
0.0
  0
SPLINE
  5
C3
330
1F
100
AcDbEntity
  8
0
  6
Continuous
 62
     7
370
    25
100
AcDbSpline
210
0.0
220
0.0
230
1.0
 70
     8
 71
     3
 72
    11
 73
     7
 74
     0
 42
0.00000001
 43
0.00000001
 40
0.0
 40
0.0
 40
0.0
 40
0.0
 40
0.256260033208539
 40
0.5016208045865225
 40
0.7449078564687267
 40
1.0
 40
1.0
 40
1.0
 40
1.0
 10
199.0083612690383
 20
77.54724791021117
 30
0.0
 10
199.0072947516896
 20
77.56781706161237
 30
0.0
 10
199.0052070781503
 20
77.60808051645685
 30
0.0
 10
198.988090834426
 20
77.6658211695062
 30
0.0
 10
198.9597655013687
 20
77.71889006816832
 30
0.0
 10
198.9329152209262
 20
77.74862870125638
 30
0.0
 10
198.9191720798491
 20
77.76385022681349
 30
0.0
  0
SPLINE
  5
C4
330
1F
100
AcDbEntity
  8
0
  6
Continuous
 62
     7
370
    25
100
AcDbSpline
210
0.0
220
0.0
230
1.0
 70
     8
 71
     3
 72
    11
 73
     7
 74
     0
 42
0.00000001
 43
0.00000001
 40
0.0
 40
0.0
 40
0.0
 40
0.0
 40
0.2912484084677852
 40
0.5474762715832016
 40
0.7812177661650671
 40
1.0
 40
1.0
 40
1.0
 40
1.0
 10
198.9191720798491
 20
77.36886953183279
 30
0.0
 10
198.9327377937595
 20
77.38340470955248
 30
0.0
 10
198.9582380411671
 20
77.41072731346519
 30
0.0
 10
198.9869140762098
 20
77.45589174325872
 30
0.0
 10
199.0046916196857
 20
77.50145252317031
 30
0.0
 10
199.0071653105218
 20
77.53232294657383
 30
0.0
 10
199.0083612690383
 20
77.54724791021117
 30
0.0
  0
SPLINE
  5
C5
330
1F
100
AcDbEntity
  8
0
  6
Continuous
 62
     7
370
    25
100
AcDbSpline
210
0.0
220
0.0
230
1.0
 70
     8
 71
     3
 72
    15
 73
    11
 74
     0
 42
0.00000001
 43
0.00000001
 40
0.0
 40
0.0
 40
0.0
 40
0.0
 40
0.16219386623641
 40
0.3128358862094926
 40
0.4514937848199697
 40
0.5789754992164101
 40
0.6959713973784581
 40
0.8040446570061007
 40
0.9042792524989225
 40
1.0
 40
1.0
 40
1.0
 40
1.0
 10
198.5114500721271
 20
77.25419771716098
 30
0.0
 10
198.5348972716776
 20
77.25457819462561
 30
0.0
 10
198.5801217035301
 20
77.25531205101362
 30
0.0
 10
198.6452382756499
 20
77.26037741389804
 30
0.0
 10
198.7049171902998
 20
77.26911460857843
 30
0.0
 10
198.7588632342937
 20
77.28188489511564
 30
0.0
 10
198.8074526481385
 20
77.29760942612181
 30
0.0
 10
198.850110233606
 20
77.31757918302333
 30
0.0
 10
198.8878545031084
 20
77.34051403906724
 30
0.0
 10
198.9088944398463
 20
77.35956397319522
 30
0.0
 10
198.9191720798491
 20
77.36886953183279
 30
0.0
  0
SPLINE
  5
C6
330
1F
100
AcDbEntity
  8
0
  6
Continuous
 62
     7
370
    25
100
AcDbSpline
210
0.0
220
0.0
230
1.0
 70
     8
 71
     3
 72
    15
 73
    11
 74
     0
 42
0.00000001
 43
0.00000001
 40
0.0
 40
0.0
 40
0.0
 40
0.0
 40
0.0889385933316046
 40
0.1846881048742357
 40
0.2906390975243628
 40
0.4070025892724369
 40
0.5351860897525824
 40
0.6768017488293069
 40
0.8315571904058214
 40
0.9999999999999999
 40
0.9999999999999999
 40
0.9999999999999999
 40
0.9999999999999999
 10
198.0655041261811
 20
77.36886953183279
 30
0.0
 10
198.0759157038416
 20
77.35952301876786
 30
0.0
 10
198.0975361778658
 20
77.34011423659037
 30
0.0
 10
198.1373583946504
 20
77.31731535822506
 30
0.0
 10
198.1832374513911
 20
77.2974907496072
 30
0.0
 10
198.2360719736216
 20
77.2818120242916
 30
0.0
 10
198.2953586601319
 20
77.26902154828583
 30
0.0
 10
198.3614848987117
 20
77.26036833374252
 30
0.0
 10
198.4342924671113
 20
77.25529123869083
 30
0.0
 10
198.4850148436492
 20
77.25457237227737
 30
0.0
 10
198.5114500721271
 20
77.25419771716098
 30
0.0
  0
SPLINE
  5
C7
330
1F
100
AcDbEntity
  8
0
  6
Continuous
 62
     7
370
    25
100
AcDbSpline
210
0.0
220
0.0
230
1.0
 70
     8
 71
     3
 72
    11
 73
     7
 74
     0
 42
0.00000001
 43
0.00000001
 40
0.0
 40
0.0
 40
0.0
 40
0.0
 40
0.2601257123120324
 40
0.5090133886864487
 40
0.7508417226532333
 40
1.0
 40
1.0
 40
1.0
 40
1.0
 10
197.9890562497333
 20
77.55998922295248
 30
0.0
 10
197.9898555415565
 20
77.5416239920588
 30
0.0
 10
197.9914195939368
 20
77.50568695097157
 30
0.0
 10
198.0068369470994
 20
77.45468295834131
 30
0.0
 10
198.0303652080743
 20
77.40765928267142
 30
0.0
 10
198.0536751553439
 20
77.38192749878729
 30
0.0
 10
198.0655041261811
 20
77.36886953183279
 30
0.0
  0
SPLINE
  5
C8
330
1F
100
AcDbEntity
  8
0
  6
Continuous
 62
     7
370
    25
100
AcDbSpline
210
0.0
220
0.0
230
1.0
 70
     8
 71
     3
 72
    15
 73
    11
 74
     0
 42
0.00000001
 43
0.00000001
 40
0.0
 40
0.0
 40
0.0
 40
0.0
 40
0.149399774828676
 40
0.2899387608175547
 40
0.4216321191698549
 40
0.546926028295161
 40
0.6656128117813253
 40
0.7800387407312269
 40
0.8908418859280363
 40
1.0
 40
1.0
 40
1.0
 40
1.0
 10
198.5369326976097
 20
77.90400466696794
 30
0.0
 10
198.5122230313435
 20
77.90355912721722
 30
0.0
 10
198.4642692106255
 20
77.902694472345
 30
0.0
 10
198.3947567398892
 20
77.8958347853155
 30
0.0
 10
198.3301858321859
 20
77.88320756079749
 30
0.0
 10
198.270000151106
 20
77.867338604969
 30
0.0
 10
198.2149397528439
 20
77.84507595931035
 30
0.0
 10
198.1640377014037
 20
77.81951329363329
 30
0.0
 10
198.1181687499555
 20
77.78818641802266
 30
0.0
 10
198.0914866932906
 20
77.76340630746063
 30
0.0
 10
198.0782454389224
 20
77.75110891407218
 30
0.0
  0
SPLINE
  5
C9
330
1F
100
AcDbEntity
  8
0
  6
Continuous
 62
     7
370
    25
100
AcDbSpline
210
0.0
220
0.0
230
1.0
 70
     8
 71
     3
 72
    15
 73
    11
 74
     0
 42
0.00000001
 43
0.00000001
 40
0.0
 40
0.0
 40
0.0
 40
0.0
 40
0.1182864595995975
 40
0.2347934213738277
 40
0.3525293820747458
 40
0.4728657235109875
 40
0.5967540177287658
 40
0.7246940143624929
 40
0.858807397913268
 40
1.0
 40
1.0
 40
1.0
 40
1.0
 10
198.9191720798491
 20
77.76385022681349
 30
0.0
 10
198.907154247444
 20
77.77516011863099
 30
0.0
 10
198.8832993785313
 20
77.79760975660467
 30
0.0
 10
198.8430177427848
 20
77.82601232169293
 30
0.0
 10
198.7998464395873
 20
77.8501987862698
 30
0.0
 10
198.7534030344177
 20
77.87018156090592
 30
0.0
 10
198.7036181145604
 20
77.88506963192302
 30
0.0
 10
198.6508842690585
 20
77.89593243932593
 30
0.0
 10
198.5949902246634
 20
77.90263335472973
 30
0.0
 10
198.5566141408536
 20
77.90353979349923
 30
0.0
 10
198.5369326976097
 20
77.90400466696794
 30
0.0
  0
SPLINE
  5
CA
330
1F
100
AcDbEntity
  8
0
  6
Continuous
 62
     7
370
    25
100
AcDbSpline
210
0.0
220
0.0
230
1.0
 70
     8
 71
     3
 72
    11
 73
     7
 74
     0
 42
0.00000001
 43
0.00000001
 40
0.0
 40
0.0
 40
0.0
 40
0.0
 40
0.2767994473675437
 40
0.5300473798609834
 40
0.7673216447737559
 40
1.0
 40
1.0
 40
1.0
 40
1.0
 10
198.0782454389224
 20
77.75110891407218
 30
0.0
 10
198.0645805850785
 20
77.7364796550769
 30
0.0
 10
198.038413553153
 20
77.70846586937938
 30
0.0
 10
198.0102303812966
 20
77.66040219706679
 30
0.0
 10
197.9924729444762
 20
77.61075895859102
 30
0.0
 10
197.9901876984467
 20
77.57680177320691
 30
0.0
 10
197.9890562497333
 20
77.55998922295248
 30
0.0
  0
LINE
  5
CB
330
1F
100
AcDbEntity
  8
0
  6
Continuous
 62
     7
370
    25
100
AcDbLine
 10
198.8054440661
 20
84.8678399308
 30
0.0
 11
198.027280188
 21
84.8678399308
 31
0.0
  0
LINE
  5
CC
330
1F
100
AcDbEntity
  8
0
  6
Continuous
 62
     7
370
    25
100
AcDbLine
 10
198.8054440661
 20
84.218032981
 30
0.0
 11
198.8054440661
 21
84.8678399308
 31
0.0
  0
SPLINE
  5
CD
330
1F
100
AcDbEntity
  8
0
  6
Continuous
 62
     7
370
    25
100
AcDbSpline
210
0.0
220
0.0
230
1.0
 70
     8
 71
     3
 72
    15
 73
    11
 74
     0
 42
0.00000001
 43
0.00000001
 40
0.0
 40
0.0
 40
0.0
 40
0.0
 40
0.1193556939378552
 40
0.2390663805212357
 40
0.3573840708360868
 40
0.4787728926029022
 40
0.6013911634438133
 40
0.7292416297469767
 40
0.8608048514681793
 40
1.0
 40
1.0
 40
1.0
 40
1.0
 10
198.6898284505054
 20
83.91224147520474
 30
0.0
 10
198.6990295365857
 20
83.92195224914288
 30
0.0
 10
198.7174590749973
 20
83.941402679205
 30
0.0
 10
198.7407818821268
 20
83.97406236179286
 30
0.0
 10
198.7609480691064
 20
84.00895356017068
 30
0.0
 10
198.7773431717361
 20
84.0461473729182
 30
0.0
 10
198.7902939323284
 20
84.08579788094757
 30
0.0
 10
198.7990660871606
 20
84.12773588888732
 30
0.0
 10
198.8043265850794
 20
84.17212481958555
 30
0.0
 10
198.8050646378873
 20
84.20244537641774
 30
0.0
 10
198.8054440661211
 20
84.21803298099624
 30
0.0
  0
SPLINE
  5
CE
330
1F
100
AcDbEntity
  8
0
  6
Continuous
 62
     7
370
    25
100
AcDbSpline
210
0.0
220
0.0
230
1.0
 70
     8
 71
     3
 72
    15
 73
    11
 74
     0
 42
0.00000001
 43
0.00000001
 40
0.0
 40
0.0
 40
0.0
 40
0.0
 40
0.1417962611116212
 40
0.2768819513476975
 40
0.4055805706087828
 40
0.5298229690785614
 40
0.6485572024501441
 40
0.7672114666371235
 40
0.8821786188665555
 40
1.0
 40
1.0
 40
1.0
 40
1.0
 10
198.4095195701966
 20
83.81031097327424
 30
0.0
 10
198.4240150424279
 20
83.81045997931824
 30
0.0
 10
198.4523199822455
 20
83.81075093962919
 30
0.0
 10
198.4933817012777
 20
83.8165874758636
 30
0.0
 10
198.5324498066287
 20
83.8235074318494
 30
0.0
 10
198.5686632733008
 20
83.83513673348371
 30
0.0
 10
198.6028847317427
 20
83.84920981373268
 30
0.0
 10
198.634060259722
 20
83.86729878776923
 30
0.0
 10
198.6637420339188
 20
83.8876430307322
 30
0.0
 10
198.6810621906138
 20
83.9039752437559
 30
0.0
 10
198.6898284505054
 20
83.91224147520474
 30
0.0
  0
SPLINE
  5
CF
330
1F
100
AcDbEntity
  8
0
  6
Continuous
 62
     7
370
    25
100
AcDbSpline
210
0.0
220
0.0
230
1.0
 70
     8
 71
     3
 72
    15
 73
    11
 74
     0
 42
0.00000001
 43
0.00000001
 40
0.0
 40
0.0
 40
0.0
 40
0.0
 40
0.1277118540336137
 40
0.2523621141955313
 40
0.3748537650566264
 40
0.4969693854038494
 40
0.6192731655242182
 40
0.742485444301997
 40
0.869447878037661
 40
1.0
 40
1.0
 40
1.0
 40
1.0
 10
198.1292106898877
 20
83.92498278794605
 30
0.0
 10
198.1387617465221
 20
83.91577988714195
 30
0.0
 10
198.1576348954816
 20
83.89759470361902
 30
0.0
 10
198.189175691944
 20
83.87470292294415
 30
0.0
 10
198.2217528993735
 20
83.85444491992689
 30
0.0
 10
198.2564499856637
 20
83.83860581589828
 30
0.0
 10
198.2923698898405
 20
83.82564578759917
 30
0.0
 10
198.3300296761648
 20
83.81665858010193
 30
0.0
 10
198.3692629878847
 20
83.81149036658694
 30
0.0
 10
198.3959765824929
 20
83.81070774091359
 30
0.0
 10
198.4095195701966
 20
83.81031097327424
 30
0.0
  0
SPLINE
  5
D0
330
1F
100
AcDbEntity
  8
0
  6
Continuous
 62
     7
370
    25
100
AcDbSpline
210
0.0
220
0.0
230
1.0
 70
     8
 71
     3
 72
    15
 73
    11
 74
     0
 42
0.00000001
 43
0.00000001
 40
0.0
 40
0.0
 40
0.0
 40
0.0
 40
0.1452459980297222
 40
0.2839773123111058
 40
0.4135645357275262
 40
0.5387150251446063
 40
0.6570052502158962
 40
0.7736984629726813
 40
0.8866940707303831
 40
1.0
 40
1.0
 40
1.0
 40
1.0
 10
198.0272801879572
 20
84.21803298099624
 30
0.0
 10
198.0274348341854
 20
84.2025959423906
 30
0.0
 10
198.0277371903319
 20
84.17241425895187
 30
0.0
 10
198.0334759514549
 20
84.12882090986928
 30
0.0
 10
198.0404934902246
 20
84.08758139812949
 30
0.0
 10
198.0520388018633
 20
84.04961698353783
 30
0.0
 10
198.0660491822366
 20
84.01393780740673
 30
0.0
 10
198.0843114767543
 20
83.9817558670889
 30
0.0
 10
198.104316929175
 20
83.95117427554851
 30
0.0
 10
198.1209051872987
 20
83.93372126143754
 30
0.0
 10
198.1292106898877
 20
83.92498278794605
 30
0.0
  0
LINE
  5
D1
330
1F
100
AcDbEntity
  8
0
  6
Continuous
 62
     7
370
    25
100
AcDbLine
 10
198.027280188
 20
84.8678399308
 30
0.0
 11
198.027280188
 21
84.218032981
 31
0.0
  0
LINE
  5
D2
330
1F
100
AcDbEntity
  8
0
  6
Continuous
 62
     7
370
    25
100
AcDbLine
 10
199.5180137787
 20
75.8101822731
 30
0.0
 11
198.5878979486
 21
76.375047138
 31
0.0
  0
LINE
  5
D3
330
1F
100
AcDbEntity
  8
0
  6
Continuous
 62
     7
370
    25
100
AcDbLine
 10
198.5878979486
 20
75.8101822731
 30
0.0
 11
199.5180137787
 21
75.8101822731
 31
0.0
  0
LINE
  5
D4
330
1F
100
AcDbEntity
  8
0
  6
Continuous
 62
     7
370
    25
100
AcDbLine
 10
198.5878979486
 20
76.375047138
 30
0.0
 11
198.5878979486
 21
75.8101822731
 31
0.0
  0
LINE
  5
D5
330
1F
100
AcDbEntity
  8
0
  6
Continuous
 62
     7
370
    25
100
AcDbLine
 10
199.7228185835
 20
84.1543264173
 30
0.0
 11
199.7228185835
 21
84.8678399308
 31
0.0
  0
LINE
  5
D6
330
1F
100
AcDbEntity
  8
0
  6
Continuous
 62
     7
370
    25
100
AcDbLine
 10
199.7228185835
 20
84.8678399308
 30
0.0
 11
199.0465852073
 21
84.8678399308
 31
0.0
  0
SPLINE
  5
D7
330
1F
100
AcDbEntity
  8
0
  6
Continuous
 62
     7
370
    25
100
AcDbSpline
210
0.0
220
0.0
230
1.0
 70
     8
 71
     3
 72
    11
 73
     7
 74
     0
 42
0.00000001
 43
0.00000001
 40
0.0
 40
0.0
 40
0.0
 40
0.0
 40
0.2499695538886859
 40
0.4922399851273401
 40
0.7405148106355975
 40
1.0
 40
1.0
 40
1.0
 40
1.0
 10
199.6454269061039
 20
83.96320672617
 30
0.0
 10
199.6573987733015
 20
83.97626372045764
 30
0.0
 10
199.6809737712946
 20
84.0019755504544
 30
0.0
 10
199.7051294818152
 20
84.04889556054196
 30
0.0
 10
199.7204252074972
 20
84.10003848607589
 30
0.0
 10
199.7220091348073
 20
84.13596603649692
 30
0.0
 10
199.7228185834956
 20
84.15432641728968
 30
0.0
  0
SPLINE
  5
D8
330
1F
100
AcDbEntity
  8
0
  6
Continuous
 62
     7
370
    25
100
AcDbSpline
210
0.0
220
0.0
230
1.0
 70
     8
 71
     3
 72
    11
 73
     7
 74
     0
 42
0.00000001
 43
0.00000001
 40
0.0
 40
0.0
 40
0.0
 40
0.0
 40
0.2516095171558483
 40
0.4964930798665574
 40
0.7426069856111283
 40
0.9999999999999999
 40
0.9999999999999999
 40
0.9999999999999999
 40
0.9999999999999999
 10
199.4033419640189
 20
83.86127622423949
 30
0.0
 10
199.4259698895651
 20
83.86258267663946
 30
0.0
 10
199.4706208573518
 20
83.86516065772337
 30
0.0
 10
199.5350642317358
 20
83.88466697878549
 30
0.0
 10
199.5945003963982
 20
83.91734133127791
 30
0.0
 10
199.6281997685386
 20
83.94769163448474
 30
0.0
 10
199.6454269061039
 20
83.96320672617
 30
0.0
  0
SPLINE
  5
D9
330
1F
100
AcDbEntity
  8
0
  6
Continuous
 62
     7
370
    25
100
AcDbSpline
210
0.0
220
0.0
230
1.0
 70
     8
 71
     3
 72
    15
 73
    11
 74
     0
 42
0.00000001
 43
0.00000001
 40
0.0
 40
0.0
 40
0.0
 40
0.0
 40
0.1215042446907354
 40
0.2399194382132708
 40
0.3607014484775902
 40
0.4813982058565628
 40
0.6046686543565303
 40
0.7308278400410383
 40
0.861957900296685
 40
1.0
 40
1.0
 40
1.0
 40
1.0
 10
199.1357743964514
 20
83.96320672617
 30
0.0
 10
199.1443784912876
 20
83.95493730636449
 30
0.0
 10
199.1613679356044
 20
83.93860870353141
 30
0.0
 10
199.190510303415
 20
83.91840538902571
 30
0.0
 10
199.2207893224241
 20
83.90015123728817
 30
0.0
 10
199.2538429098102
 20
83.8862934871108
 30
0.0
 10
199.2882505367785
 20
83.87450991793573
 30
0.0
 10
199.3249789459674
 20
83.86758742647939
 30
0.0
 10
199.3633591304392
 20
83.86170620746623
 30
0.0
 10
199.3897881304572
 20
83.8614219848214
 30
0.0
 10
199.4033419640189
 20
83.86127622423949
 30
0.0
  0
SPLINE
  5
DA
330
1F
100
AcDbEntity
  8
0
  6
Continuous
 62
     7
370
    25
100
AcDbSpline
210
0.0
220
0.0
230
1.0
 70
     8
 71
     3
 72
    11
 73
     7
 74
     0
 42
0.00000001
 43
0.00000001
 40
0.0
 40
0.0
 40
0.0
 40
0.0
 40
0.2562600332085377
 40
0.5016208045865217
 40
0.7449078564687268
 40
1.0
 40
1.0
 40
1.0
 40
1.0
 10
199.0465852072622
 20
84.1798090427723
 30
0.0
 10
199.0476517246108
 20
84.15923989137112
 30
0.0
 10
199.0497393981502
 20
84.11897643652665
 30
0.0
 10
199.0668556418745
 20
84.0612357834773
 30
0.0
 10
199.0951809749318
 20
84.00816688481515
 30
0.0
 10
199.1220312553743
 20
83.97842825172711
 30
0.0
 10
199.1357743964514
 20
83.96320672617
 30
0.0
  0
LINE
  5
DB
330
1F
100
AcDbEntity
  8
0
  6
Continuous
 62
     7
370
    25
100
AcDbLine
 10
199.0465852073
 20
84.8678399308
 30
0.0
 11
199.0465852073
 21
84.1798090428
 31
0.0
  0
LINE
  5
DC
330
1F
100
AcDbEntity
  8
0
  6
Continuous
 62
     7
370
    25
100
AcDbLine
 10
199.5180137787
 20
79.0719583349
 30
0.0
 11
198.5878979486
 21
79.6368231998
 31
0.0
  0
LINE
  5
DD
330
1F
100
AcDbEntity
  8
0
  6
Continuous
 62
     7
370
    25
100
AcDbLine
 10
198.5878979486
 20
79.0719583349
 30
0.0
 11
199.5180137787
 21
79.0719583349
 31
0.0
  0
LINE
  5
DE
330
1F
100
AcDbEntity
  8
0
  6
Continuous
 62
     7
370
    25
100
AcDbLine
 10
198.5878979486
 20
79.6368231998
 30
0.0
 11
198.5878979486
 21
79.0719583349
 31
0.0
  0
LINE
  5
DF
330
1F
100
AcDbEntity
  8
0
  6
Continuous
 62
     7
370
    25
100
AcDbLine
 10
178.7489067915
 20
94.0634926204
 30
0.0
 11
178.7489067915
 21
67.9388091527
 31
0.0
  0
LINE
  5
E0
330
1F
100
AcDbEntity
  8
0
  6
Continuous
 62
     7
370
    25
100
AcDbLine
 10
177.2469713076
 20
69.4407446365
 30
0.0
 11
177.2469713076
 21
92.5615571365
 31
0.0
  0
LINE
  5
E1
330
1F
100
AcDbEntity
  8
0
  6
Continuous
 62
     7
370
    18
100
AcDbLine
 10
177.4388435747
 20
92.7534294036
 30
0.0
 11
192.9469713076
 21
93.2380583953
 31
0.0
  0
LINE
  5
E2
330
1F
100
AcDbEntity
  8
0
  6
Continuous
 62
     7
370
    18
100
AcDbLine
 10
177.4388435747
 20
69.2488723694
 30
0.0
 11
192.9469713076
 21
68.7642433778
 31
0.0
  0
LINE
  5
E3
330
1F
100
AcDbEntity
  8
0
  6
Continuous
 62
     7
370
    25
100
AcDbLine
 10
192.9469713076
 20
67.4951196365
 30
0.0
 11
192.9469713076
 21
94.5071821365
 31
0.0
  0
LINE
  5
E4
330
1F
100
AcDbEntity
  8
FORMAT
  6
CENTERX2
370
    18
100
AcDbLine
 10
203.4668139102
 20
81.0011508865
 30
0.0
 11
175.2469713076
 21
81.0011508865
 31
0.0
  0
SPLINE
  5
E5
330
1F
100
AcDbEntity
  8
0
  6
Continuous
 62
     7
370
    25
100
AcDbSpline
210
0.0
220
0.0
230
1.0
 70
    24
 71
     3
 72
    16
 73
    12
 74
     0
 42
0.00000001
 43
0.00000001
 40
0.0
 40
0.0
 40
0.0
 40
0.0
 40
0.2500000000000001
 40
0.2500000000000001
 40
0.5000000000000001
 40
0.5000000000000001
 40
0.625
 40
0.625
 40
0.7499999999999999
 40
0.7499999999999999
 40
1.0
 40
1.0
 40
1.0
 40
1.0
 10
214.4195608136885
 20
89.66140492436817
 30
0.0
 10
215.644168749854
 20
90.36843264596507
 30
0.0
 10
216.8777048497593
 20
91.08061504530049
 30
0.0
 10
219.3705025997862
 20
92.51983249731383
 30
0.0
 10
220.6299554972017
 20
93.24697796666831
 30
0.0
 10
222.5428629667169
 20
94.35139560912775
 30
0.0
 10
223.1834999756106
 20
94.72126755866537
 30
0.0
 10
224.4507473944803
 20
95.45291319707967
 30
0.0
 10
225.0801224982024
 20
95.81628308263483
 30
0.0
 10
226.9570426557544
 20
96.89992344084492
 30
0.0
 10
228.1934262167773
 20
97.61374982262313
 30
0.0
 10
229.4195608136886
 20
98.32165896221258
 30
0.0
  0
SPLINE
  5
E6
330
1F
100
AcDbEntity
  8
0
  6
Continuous
 62
     7
370
    25
100
AcDbSpline
210
0.0
220
0.0
230
1.0
 70
    24
 71
     3
 72
    16
 73
    12
 74
     0
 42
0.00000001
 43
0.00000001
 40
0.0
 40
0.0
 40
0.0
 40
0.0
 40
0.2499999999999999
 40
0.2499999999999999
 40
0.4999999999999998
 40
0.4999999999999998
 40
0.6249999999999998
 40
0.6249999999999998
 40
0.7499999999999998
 40
0.7499999999999998
 40
1.0
 40
1.0
 40
1.0
 40
1.0
 10
229.4195608136885
 20
98.3216589622126
 30
0.0
 10
230.6441687498541
 20
97.61463124061571
 30
0.0
 10
231.8777048497593
 20
96.90244884128028
 30
0.0
 10
234.3705025997862
 20
95.46323138926694
 30
0.0
 10
235.6299554972017
 20
94.73608591991247
 30
0.0
 10
237.5428629667169
 20
93.631668277453
 30
0.0
 10
238.1834999756106
 20
93.26179632791539
 30
0.0
 10
239.4507473944803
 20
92.53015068950108
 30
0.0
 10
240.0801224982024
 20
92.16678080394593
 30
0.0
 10
241.9570426557544
 20
91.08314044573585
 30
0.0
 10
243.1934262167773
 20
90.36931406395763
 30
0.0
 10
244.4195608136886
 20
89.66140492436818
 30
0.0
  0
SPLINE
  5
E7
330
1F
100
AcDbEntity
  8
0
  6
Continuous
 62
     7
370
    25
100
AcDbSpline
210
0.0
220
0.0
230
1.0
 70
    24
 71
     3
 72
    14
 73
    10
 74
     0
 42
0.00000001
 43
0.00000001
 40
0.0
 40
0.0
 40
0.0
 40
0.0
 40
0.25
 40
0.25
 40
0.5
 40
0.5
 40
0.75
 40
0.75
 40
1.0
 40
1.0
 40
1.0
 40
1.0
 10
244.4195608136886
 20
89.6614049243682
 30
0.0
 10
244.4195608136886
 20
88.25162544866187
 30
0.0
 10
244.4195608136886
 20
86.82883275141313
 30
0.0
 10
244.4195608136886
 20
83.94519293057367
 30
0.0
 10
244.4195608136886
 20
82.48268698264671
 30
0.0
 10
244.4195608136886
 20
79.51544922081126
 30
0.0
 10
244.4195608136886
 20
78.05529033966135
 30
0.0
 10
244.4195608136886
 20
75.17297046950658
 30
0.0
 10
244.4195608136886
 20
73.75052620386981
 30
0.0
 10
244.4195608136886
 20
72.3408968486794
 30
0.0
  0
SPLINE
  5
E8
330
1F
100
AcDbEntity
  8
0
  6
Continuous
 62
     7
370
    25
100
AcDbSpline
210
0.0
220
0.0
230
1.0
 70
    24
 71
     3
 72
    16
 73
    12
 74
     0
 42
0.00000001
 43
0.00000001
 40
0.0
 40
0.0
 40
0.0
 40
0.0
 40
0.2499999999999999
 40
0.2499999999999999
 40
0.4999999999999998
 40
0.4999999999999998
 40
0.6249999999999998
 40
0.6249999999999998
 40
0.7499999999999997
 40
0.7499999999999997
 40
1.0
 40
1.0
 40
1.0
 40
1.0
 10
244.4195608136886
 20
72.34089684867942
 30
0.0
 10
243.1949528775231
 20
71.63386912708253
 30
0.0
 10
241.9614167776179
 20
70.92168672774712
 30
0.0
 10
239.4686190275909
 20
69.48246927573376
 30
0.0
 10
238.2091661301754
 20
68.7553238063793
 30
0.0
 10
236.2962586606603
 20
67.65090616391983
 30
0.0
 10
235.6556216517666
 20
67.28103421438222
 30
0.0
 10
234.3883742328968
 20
66.54938857596792
 30
0.0
 10
233.7589991291748
 20
66.18601869041277
 30
0.0
 10
231.8820789716228
 20
65.10237833220268
 30
0.0
 10
230.6456954105999
 20
64.38855195042446
 30
0.0
 10
229.4195608136885
 20
63.680642810835
 30
0.0
  0
SPLINE
  5
E9
330
1F
100
AcDbEntity
  8
0
  6
Continuous
 62
     7
370
    25
100
AcDbSpline
210
0.0
220
0.0
230
1.0
 70
    24
 71
     3
 72
    16
 73
    12
 74
     0
 42
0.00000001
 43
0.00000001
 40
0.0
 40
0.0
 40
0.0
 40
0.0
 40
0.25
 40
0.25
 40
0.5
 40
0.5
 40
0.6249999999999999
 40
0.6249999999999999
 40
0.7499999999999998
 40
0.7499999999999998
 40
1.0
 40
1.0
 40
1.0
 40
1.0
 10
229.4195608136886
 20
63.68064281083499
 30
0.0
 10
228.1949528775231
 20
64.3876705324319
 30
0.0
 10
226.9614167776179
 20
65.09985293176732
 30
0.0
 10
224.4686190275909
 20
66.53907038378065
 30
0.0
 10
223.2091661301755
 20
67.26621585313512
 30
0.0
 10
221.2962586606602
 20
68.37063349559457
 30
0.0
 10
220.6556216517666
 20
68.74050544513219
 30
0.0
 10
219.3883742328968
 20
69.47215108354648
 30
0.0
 10
218.7589991291748
 20
69.83552096910165
 30
0.0
 10
216.8820789716228
 20
70.91916132731174
 30
0.0
 10
215.6456954105999
 20
71.63298770908995
 30
0.0
 10
214.4195608136886
 20
72.3408968486794
 30
0.0
  0
SPLINE
  5
EA
330
1F
100
AcDbEntity
  8
0
  6
Continuous
 62
     7
370
    25
100
AcDbSpline
210
0.0
220
0.0
230
1.0
 70
    24
 71
     3
 72
    14
 73
    10
 74
     0
 42
0.00000001
 43
0.00000001
 40
0.0
 40
0.0
 40
0.0
 40
0.0
 40
0.2500000000000001
 40
0.2500000000000001
 40
0.5000000000000001
 40
0.5000000000000001
 40
0.75
 40
0.75
 40
1.0
 40
1.0
 40
1.0
 40
1.0
 10
214.4195608136886
 20
72.34089684867939
 30
0.0
 10
214.4195608136886
 20
73.75067632438571
 30
0.0
 10
214.4195608136886
 20
75.17346902163445
 30
0.0
 10
214.4195608136886
 20
78.05710884247394
 30
0.0
 10
214.4195608136886
 20
79.51961479040088
 30
0.0
 10
214.4195608136886
 20
82.48685255223633
 30
0.0
 10
214.4195608136886
 20
83.94701143338624
 30
0.0
 10
214.4195608136886
 20
86.82933130354101
 30
0.0
 10
214.4195608136886
 20
88.2517755691778
 30
0.0
 10
214.4195608136886
 20
89.6614049243682
 30
0.0
  0
CIRCLE
  5
EB
330
1F
100
AcDbEntity
  8
0
  6
Continuous
 62
     7
370
    25
100
AcDbCircle
 10
229.4195608137
 20
81.0011508865
 30
0.0
 40
14.75
  0
CIRCLE
  5
EC
330
1F
100
AcDbEntity
  8
0
  6
Continuous
 62
     7
370
    25
100
AcDbCircle
 10
229.4195608137
 20
81.0011508865
 30
0.0
 40
10.83386950000002
  0
CIRCLE
  5
ED
330
1F
100
AcDbEntity
  8
0
  6
Continuous
 62
     7
370
    25
100
AcDbCircle
 10
229.4195608137
 20
81.0011508865
 30
0.0
 40
9.331985764546175
  0
CIRCLE
  5
EE
330
1F
100
AcDbEntity
  8
0
  6
Continuous
 62
     7
370
    25
100
AcDbCircle
 10
229.4195608137
 20
81.0011508865
 30
0.0
 40
8.84818694188968
  0
CIRCLE
  5
EF
330
1F
100
AcDbEntity
  8
0
  6
Continuous
 62
     7
370
    25
100
AcDbCircle
 10
229.4195608137
 20
81.0011508865
 30
0.0
 40
8.75
  0
INSERT
  5
FB
330
1F
100
AcDbEntity
  8
FORMAT
100
AcDbBlockReference
  2
SW_CENTERMARKSYMBOL_0
 10
229.4195608137
 20
81.0011508865
 30
0.0
  0
ARC
  5
FC
330
1F
100
AcDbEntity
  8
0
  6
Continuous
 62
     7
370
    18
100
AcDbCircle
 10
229.4195608137
 20
81.0011508865
 30
0.0
 40
10.55856919828774
100
AcDbArc
 50
75.0
 51
345.0
  0
LINE
  5
FD
330
1F
100
AcDbEntity
  8
0
  6
Continuous
 62
     7
370
    25
100
AcDbLine
 10
202.1026337404
 20
107.5500488811
 30
0.0
 11
202.2469713076
 21
107.8000488811
 31
0.0
  0
LINE
  5
FE
330
1F
100
AcDbEntity
  8
0
  6
Continuous
 62
     7
370
    25
100
AcDbLine
 10
202.2469713076
 20
137.3000488811
 30
0.0
 11
202.1026337404
 21
137.5500488811
 31
0.0
  0
LINE
  5
FF
330
1F
100
AcDbEntity
  8
0
  6
Continuous
 62
     7
370
    25
100
AcDbLine
 10
195.3913088749
 20
137.5500488811
 30
0.0
 11
195.2469713076
 21
137.3000488811
 31
0.0
  0
LINE
  5
100
330
1F
100
AcDbEntity
  8
0
  6
Continuous
 62
     7
370
    25
100
AcDbLine
 10
195.2469713076
 20
107.8000488811
 30
0.0
 11
195.3913088749
 21
107.5500488811
 31
0.0
  0
LINE
  5
101
330
1F
100
AcDbEntity
  8
0
  6
Continuous
 62
     7
370
    25
100
AcDbLine
 10
195.2469713076
 20
136.1279551311
 30
0.0
 11
178.7489067915
 21
135.6123906149
 31
0.0
  0
LINE
  5
102
330
1F
100
AcDbEntity
  8
0
  6
Continuous
 62
     7
370
    25
100
AcDbLine
 10
178.7489067915
 20
109.4877071472
 30
0.0
 11
195.2469713076
 21
108.9721426311
 31
0.0
  0
LINE
  5
103
330
1F
100
AcDbEntity
  8
0
  6
Continuous
 62
     7
370
    25
100
AcDbLine
 10
178.7489067915
 20
135.6123906149
 30
0.0
 11
177.2469713076
 21
134.1104551311
 31
0.0
  0
LINE
  5
104
330
1F
100
AcDbEntity
  8
0
  6
Continuous
 62
     7
370
    25
100
AcDbLine
 10
177.2469713076
 20
110.9896426311
 30
0.0
 11
178.7489067915
 21
109.4877071472
 31
0.0
  0
SPLINE
  5
105
330
1F
100
AcDbEntity
  8
0
  6
Continuous
 62
     7
370
    25
100
AcDbSpline
210
0.0
220
0.0
230
1.0
 70
     8
 71
     3
 72
    16
 73
    12
 74
     0
 42
0.00000001
 43
0.00000001
 40
0.0
 40
0.0
 40
0.0
 40
0.0
 40
0.2500000000000001
 40
0.2500000000000001
 40
0.5000000000000001
 40
0.5000000000000001
 40
0.625
 40
0.625
 40
0.7499999999999999
 40
0.7499999999999999
 40
1.0
 40
1.0
 40
1.0
 40
1.0
 10
200.7628877781955
 20
107.5500488810564
 30
0.0
 10
201.171090423584
 20
108.7746568172219
 30
0.0
 10
201.5075232640982
 20
110.0081929171272
 30
0.0
 10
201.973591917973
 20
112.5009906671541
 30
0.0
 10
202.1016903736689
 20
113.7604435645696
 30
0.0
 10
202.1030975157623
 20
115.6733510340848
 30
0.0
 10
202.0717824685338
 20
116.3139880429785
 30
0.0
 10
201.9496700738378
 20
117.5812354618482
 30
0.0
 10
201.8589966749616
 20
118.2106105655702
 30
0.0
 10
201.5088649012246
 20
120.0875307231223
 30
0.0
 10
201.1715993104992
 20
121.3239142841452
 30
0.0
 10
200.7628877781954
 20
122.5500488810565
 30
0.0
  0
SPLINE
  5
106
330
1F
100
AcDbEntity
  8
0
  6
Continuous
 62
     7
370
    25
100
AcDbSpline
210
0.0
220
0.0
230
1.0
 70
     8
 71
     3
 72
    16
 73
    12
 74
     0
 42
0.00000001
 43
0.00000001
 40
0.0
 40
0.0
 40
0.0
 40
0.0
 40
0.2499999999999999
 40
0.2499999999999999
 40
0.4999999999999998
 40
0.4999999999999998
 40
0.6249999999999998
 40
0.6249999999999998
 40
0.7499999999999998
 40
0.7499999999999998
 40
1.0
 40
1.0
 40
1.0
 40
1.0
 10
200.7628877781955
 20
122.5500488810564
 30
0.0
 10
201.171090423584
 20
123.7746568172219
 30
0.0
 10
201.5075232640982
 20
125.0081929171272
 30
0.0
 10
201.973591917973
 20
127.5009906671541
 30
0.0
 10
202.1016903736689
 20
128.7604435645696
 30
0.0
 10
202.1030975157623
 20
130.6733510340848
 30
0.0
 10
202.0717824685338
 20
131.3139880429785
 30
0.0
 10
201.9496700738378
 20
132.5812354618482
 30
0.0
 10
201.8589966749616
 20
133.2106105655703
 30
0.0
 10
201.5088649012246
 20
135.0875307231223
 30
0.0
 10
201.1715993104992
 20
136.3239142841452
 30
0.0
 10
200.7628877781954
 20
137.5500488810565
 30
0.0
  0
SPLINE
  5
107
330
1F
100
AcDbEntity
  8
0
  6
Continuous
 62
     7
370
    25
100
AcDbSpline
210
0.0
220
0.0
230
1.0
 70
    24
 71
     3
 72
    14
 73
    10
 74
     0
 42
0.00000001
 43
0.00000001
 40
0.0
 40
0.0
 40
0.0
 40
0.0
 40
0.1639266967991939
 40
0.3278991061161046
 40
0.491787652269439
 40
0.6587150498545362
 40
0.8257466310634133
 40
0.9926432680958455
 40
1.0
 40
1.0
 40
1.0
 40
1.0
 10
200.7628877781953
 20
137.5500488810565
 30
0.0
 10
200.891869942143
 20
137.5500488810565
 30
0.0
 10
201.1498702379411
 20
137.5500488810565
 30
0.0
 10
201.4735783437649
 20
137.5500488810565
 30
0.0
 10
201.7425434981452
 20
137.5500488810565
 30
0.0
 10
201.9454537520153
 20
137.5500488810565
 30
0.0
 10
202.0644850645767
 20
137.5500488810565
 30
0.0
 10
202.1152367311799
 20
137.5500488810565
 30
0.0
 10
202.1014604062855
 20
137.5500488810565
 30
0.0
 10
202.1008787892442
 20
137.5500488810565
 30
0.0
  0
SPLINE
  5
108
330
1F
100
AcDbEntity
  8
0
  6
Continuous
 62
     7
370
    25
100
AcDbSpline
210
0.0
220
0.0
230
1.0
 70
    24
 71
     3
 72
    13
 73
     9
 74
     0
 42
0.00000001
 43
0.00000001
 40
0.0
 40
0.0
 40
0.0
 40
0.0
 40
0.1586375904836462
 40
0.3247648600472056
 40
0.4907876255051529
 40
0.6604787105784852
 40
0.8302648135082165
 40
1.0
 40
1.0
 40
1.0
 40
1.0
 10
202.1008787892442
 20
107.5500488810565
 30
0.0
 10
202.0941585976866
 20
107.5500488810565
 30
0.0
 10
202.0804009374494
 20
107.5500488810565
 30
0.0
 10
201.9586515282413
 20
107.5500488810565
 30
0.0
 10
201.7650909354112
 20
107.5500488810565
 30
0.0
 10
201.4950221008316
 20
107.5500488810565
 30
0.0
 10
201.1631702200849
 20
107.5500488810565
 30
0.0
 10
200.8963019184901
 20
107.5500488810565
 30
0.0
 10
200.7628877781953
 20
107.5500488810565
 30
0.0
  0
LINE
  5
109
330
1F
100
AcDbEntity
  8
0
  6
Continuous
 62
     7
370
    25
100
AcDbLine
 10
202.2469713076
 20
107.8000488811
 30
0.0
 11
202.2469713076
 21
137.3000488811
 31
0.0
  0
SPLINE
  5
10A
330
1F
100
AcDbEntity
  8
0
  6
Continuous
 62
     7
370
    25
100
AcDbSpline
210
0.0
220
0.0
230
1.0
 70
     8
 71
     3
 72
    16
 73
    12
 74
     0
 42
0.00000001
 43
0.00000001
 40
0.0
 40
0.0
 40
0.0
 40
0.0
 40
0.2499999999999999
 40
0.2499999999999999
 40
0.4999999999999998
 40
0.4999999999999998
 40
0.6249999999999998
 40
0.6249999999999998
 40
0.7499999999999998
 40
0.7499999999999998
 40
1.0
 40
1.0
 40
1.0
 40
1.0
 10
196.7310548371011
 20
122.5500488810564
 30
0.0
 10
196.3228521917126
 20
123.7746568172219
 30
0.0
 10
195.9864193511985
 20
125.0081929171272
 30
0.0
 10
195.5203506973237
 20
127.5009906671541
 30
0.0
 10
195.3922522416277
 20
128.7604435645696
 30
0.0
 10
195.3908450995343
 20
130.6733510340848
 30
0.0
 10
195.4221601467629
 20
131.3139880429785
 30
0.0
 10
195.5442725414588
 20
132.5812354618482
 30
0.0
 10
195.634945940335
 20
133.2106105655703
 30
0.0
 10
195.985077714072
 20
135.0875307231223
 30
0.0
 10
196.3223433047974
 20
136.3239142841452
 30
0.0
 10
196.7310548371012
 20
137.5500488810565
 30
0.0
  0
LINE
  5
10B
330
1F
100
AcDbEntity
  8
0
  6
Continuous
 62
     7
370
    25
100
AcDbLine
 10
196.7310548371
 20
137.5500488811
 30
0.0
 11
200.7628877782
 21
137.5500488811
 31
0.0
  0
LINE
  5
10C
330
1F
100
AcDbEntity
  8
0
  6
Continuous
 62
     7
370
    25
100
AcDbLine
 10
196.7310548371
 20
122.5500488811
 30
0.0
 11
200.7628877782
 21
122.5500488811
 31
0.0
  0
SPLINE
  5
10D
330
1F
100
AcDbEntity
  8
0
  6
Continuous
 62
     7
370
    25
100
AcDbSpline
210
0.0
220
0.0
230
1.0
 70
    24
 71
     3
 72
    13
 73
     9
 74
     0
 42
0.00000001
 43
0.00000001
 40
0.0
 40
0.0
 40
0.0
 40
0.0
 40
0.1586375904836462
 40
0.3247648600472056
 40
0.4907876255051529
 40
0.6604787105784852
 40
0.8302648135082165
 40
1.0
 40
1.0
 40
1.0
 40
1.0
 10
195.3930638260524
 20
107.5500488810565
 30
0.0
 10
195.3997840176101
 20
107.5500488810565
 30
0.0
 10
195.4135416778472
 20
107.5500488810565
 30
0.0
 10
195.5352910870554
 20
107.5500488810565
 30
0.0
 10
195.7288516798854
 20
107.5500488810565
 30
0.0
 10
195.998920514465
 20
107.5500488810565
 30
0.0
 10
196.3307723952117
 20
107.5500488810565
 30
0.0
 10
196.5976406968065
 20
107.5500488810565
 30
0.0
 10
196.7310548371013
 20
107.5500488810565
 30
0.0
  0
SPLINE
  5
10E
330
1F
100
AcDbEntity
  8
0
  6
Continuous
 62
     7
370
    25
100
AcDbSpline
210
0.0
220
0.0
230
1.0
 70
    24
 71
     3
 72
    14
 73
    10
 74
     0
 42
0.00000001
 43
0.00000001
 40
0.0
 40
0.0
 40
0.0
 40
0.0
 40
0.1639266967991939
 40
0.3278991061161046
 40
0.491787652269439
 40
0.6587150498545362
 40
0.8257466310634133
 40
0.9926432680958455
 40
1.0
 40
1.0
 40
1.0
 40
1.0
 10
196.7310548371013
 20
137.5500488810565
 30
0.0
 10
196.6020726731536
 20
137.5500488810565
 30
0.0
 10
196.3440723773555
 20
137.5500488810565
 30
0.0
 10
196.0203642715317
 20
137.5500488810565
 30
0.0
 10
195.7513991171514
 20
137.5500488810565
 30
0.0
 10
195.5484888632814
 20
137.5500488810565
 30
0.0
 10
195.4294575507199
 20
137.5500488810565
 30
0.0
 10
195.3787058841168
 20
137.5500488810565
 30
0.0
 10
195.3924822090112
 20
137.5500488810565
 30
0.0
 10
195.3930638260524
 20
137.5500488810565
 30
0.0
  0
SPLINE
  5
10F
330
1F
100
AcDbEntity
  8
0
  6
Continuous
 62
     7
370
    25
100
AcDbSpline
210
0.0
220
0.0
230
1.0
 70
     8
 71
     3
 72
    16
 73
    12
 74
     0
 42
0.00000001
 43
0.00000001
 40
0.0
 40
0.0
 40
0.0
 40
0.0
 40
0.2500000000000001
 40
0.2500000000000001
 40
0.5000000000000001
 40
0.5000000000000001
 40
0.625
 40
0.625
 40
0.7499999999999999
 40
0.7499999999999999
 40
1.0
 40
1.0
 40
1.0
 40
1.0
 10
196.7310548371011
 20
107.5500488810564
 30
0.0
 10
196.3228521917126
 20
108.7746568172219
 30
0.0
 10
195.9864193511985
 20
110.0081929171272
 30
0.0
 10
195.5203506973237
 20
112.5009906671541
 30
0.0
 10
195.3922522416277
 20
113.7604435645696
 30
0.0
 10
195.3908450995343
 20
115.6733510340848
 30
0.0
 10
195.4221601467629
 20
116.3139880429785
 30
0.0
 10
195.5442725414588
 20
117.5812354618482
 30
0.0
 10
195.634945940335
 20
118.2106105655702
 30
0.0
 10
195.985077714072
 20
120.0875307231223
 30
0.0
 10
196.3223433047974
 20
121.3239142841452
 30
0.0
 10
196.7310548371012
 20
122.5500488810565
 30
0.0
  0
LINE
  5
110
330
1F
100
AcDbEntity
  8
0
  6
Continuous
 62
     7
370
    25
100
AcDbLine
 10
195.2469713076
 20
107.8000488811
 30
0.0
 11
195.2469713076
 21
137.3000488811
 31
0.0
  0
LINE
  5
111
330
1F
100
AcDbEntity
  8
0
  6
Continuous
 62
     7
370
    25
100
AcDbLine
 10
196.7310548371
 20
107.5500488811
 30
0.0
 11
200.7628877782
 21
107.5500488811
 31
0.0
  0
LINE
  5
112
330
1F
100
AcDbEntity
  8
0
  6
Continuous
 62
     7
370
    25
100
AcDbLine
 10
178.7489067915
 20
135.6123906149
 30
0.0
 11
178.7489067915
 21
109.4877071472
 31
0.0
  0
LINE
  5
113
330
1F
100
AcDbEntity
  8
0
  6
Continuous
 62
     7
370
    25
100
AcDbLine
 10
177.2469713076
 20
122.5500488811
 30
0.0
 11
177.2469713076
 21
134.1104551311
 31
0.0
  0
LINE
  5
114
330
1F
100
AcDbEntity
  8
0
  6
Continuous
 62
     7
370
    25
100
AcDbLine
 10
177.2469713076
 20
110.9896426311
 30
0.0
 11
177.2469713076
 21
122.5500488811
 31
0.0
  0
LINE
  5
115
330
1F
100
AcDbEntity
  8
0
  6
Continuous
 62
     7
370
    18
100
AcDbLine
 10
177.4388435747
 20
134.3023273982
 30
0.0
 11
192.9469713076
 21
134.7869563898
 31
0.0
  0
LINE
  5
116
330
1F
100
AcDbEntity
  8
0
  6
Continuous
 62
     7
370
    18
100
AcDbLine
 10
177.4388435747
 20
110.797770364
 30
0.0
 11
192.9469713076
 21
110.3131413723
 31
0.0
  0
LINE
  5
117
330
1F
100
AcDbEntity
  8
0
  6
Continuous
 62
     7
370
    25
100
AcDbLine
 10
192.9469713076
 20
109.0440176311
 30
0.0
 11
192.9469713076
 21
136.0560801311
 31
0.0
  0
LINE
  5
118
330
1F
100
AcDbEntity
  8
FORMAT
  6
CENTERX2
370
    18
100
AcDbLine
 10
203.4922706525
 20
122.5500488811
 30
0.0
 11
175.2469713076
 21
122.5500488811
 31
0.0
  0
ENDSEC
  0
SECTION
  2
OBJECTS
  0
DICTIONARY
  5
C
330
0
100
AcDbDictionary
281
     1
  3
ACAD_GROUP
350
D
  3
ACAD_LAYOUT
350
1A
  3
ACAD_MLINESTYLE
350
17
  3
ACAD_PLOTSETTINGS
350
19
  3
ACAD_PLOTSTYLENAME
350
E
  3
ACAD_SCALELIST
350
47
  3
DWGPROPS
350
119
  0
DICTIONARY
  5
D
102
{ACAD_REACTORS
330
C
102
}
330
C
100
AcDbDictionary
281
     1
  0
DICTIONARY
  5
1A
102
{ACAD_REACTORS
330
C
102
}
330
C
100
AcDbDictionary
281
     1
  3
Layout1
350
1E
  3
Layout2
350
26
  3
Model
350
22
  0
DICTIONARY
  5
17
102
{ACAD_REACTORS
330
C
102
}
330
C
100
AcDbDictionary
281
     1
  3
Standard
350
18
  0
DICTIONARY
  5
19
102
{ACAD_REACTORS
330
C
102
}
330
C
100
AcDbDictionary
281
     1
  0
ACDBDICTIONARYWDFLT
  5
E
102
{ACAD_REACTORS
330
C
102
}
330
C
100
AcDbDictionary
281
     1
  3
Normal
350
F
100
AcDbDictionaryWithDefault
340
F
  0
DICTIONARY
  5
47
102
{ACAD_REACTORS
330
C
102
}
330
C
100
AcDbDictionary
281
     1
  3
A0
350
48
  3
A1
350
49
  3
A2
350
4A
  3
A3
350
4B
  3
A4
350
4C
  3
A5
350
4D
  3
A6
350
4E
  3
A7
350
4F
  3
A8
350
50
  3
A9
350
51
  3
B0
350
52
  3
B1
350
53
  3
B2
350
54
  3
B3
350
55
  3
B4
350
56
  3
B5
350
57
  3
B6
350
58
  0
XRECORD
  5
119
102
{ACAD_REACTORS
330
C
102
}
330
C
100
AcDbXrecord
280
     1
  1
DWGPROPS COOKIE
  2

  3

  4

  6

  7

  8
user28
  9

300
=
301
=
302
=
303
=
304
=
305
=
306
=
307
=
308
=
309
=
 40
0.0
 41
2460398.305629236
 42
2460398.305629861
  1

 90
        0
  0
LAYOUT
  5
1E
102
{ACAD_REACTORS
330
1A
102
}
330
1A
100
AcDbPlotSettings
  1

  2
none_device
  4

  6

 40
0.0
 41
0.0
 42
0.0
 43
0.0
 44
0.0
 45
0.0
 46
0.0
 47
0.0
 48
0.0
 49
0.0
140
0.0
141
0.0
142
1.0
143
1.0
 70
   688
 72
     1
 73
     0
 74
     5
  7

 75
    16
147
1.0
148
0.0
149
0.0
100
AcDbLayout
  1
Layout1
 70
     1
 71
     1
 10
0.0
 20
0.0
 11
420.0
 21
297.0
 12
0.0
 22
0.0
 32
0.0
 14
1.0000000000E+20
 24
1.0000000000E+20
 34
1.0000000000E+20
 15
-1.0000000000E+20
 25
-1.0000000000E+20
 35
-1.0000000000E+20
146
0.0
 13
0.0
 23
0.0
 33
0.0
 16
1.0
 26
0.0
 36
0.0
 17
0.0
 27
1.0
 37
0.0
 76
     0
330
1B
  0
LAYOUT
  5
26
102
{ACAD_REACTORS
330
1A
102
}
330
1A
100
AcDbPlotSettings
  1

  2
none_device
  4

  6

 40
0.0
 41
0.0
 42
0.0
 43
0.0
 44
0.0
 45
0.0
 46
0.0
 47
0.0
 48
0.0
 49
0.0
140
0.0
141
0.0
142
1.0
143
1.0
 70
   688
 72
     1
 73
     0
 74
     5
  7

 75
    16
147
1.0
148
0.0
149
0.0
100
AcDbLayout
  1
Layout2
 70
     1
 71
     2
 10
0.0
 20
0.0
 11
0.0
 21
0.0
 12
0.0
 22
0.0
 32
0.0
 14
0.0
 24
0.0
 34
0.0
 15
0.0
 25
0.0
 35
0.0
146
0.0
 13
0.0
 23
0.0
 33
0.0
 16
1.0
 26
0.0
 36
0.0
 17
0.0
 27
1.0
 37
0.0
 76
     0
330
23
  0
LAYOUT
  5
22
102
{ACAD_REACTORS
330
1A
102
}
330
1A
100
AcDbPlotSettings
  1

  2
none_device
  4
Letter_(8.50_x_11.00_Inches)
  6

 40
6.35
 41
6.35
 42
6.35000508
 43
6.35000508
 44
215.9
 45
279.4
 46
0.0
 47
0.0
 48
0.0
 49
0.0
140
0.0
141
0.0
142
1.0
143
1.0
 70
  1712
 72
     1
 73
     0
 74
     0
  7

 75
     0
147
1.0
148
0.0
149
0.0
100
AcDbLayout
  1
Model
 70
     1
 71
     0
 10
0.0
 20
0.0
 11
297.0
 21
210.0
 12
0.0
 22
0.0
 32
0.0
 14
0.0
 24
0.0
 34
0.0
 15
297.0
 25
210.0
 35
0.0
146
0.0
 13
0.0
 23
0.0
 33
0.0
 16
1.0
 26
0.0
 36
0.0
 17
0.0
 27
1.0
 37
0.0
 76
     0
330
1F
331
29
  0
MLINESTYLE
  5
18
102
{ACAD_REACTORS
330
17
102
}
330
17
100
AcDbMlineStyle
  2
Standard
 70
     0
  3

 62
   256
 51
90.0
 52
90.0
 71
     2
 49
0.5
 62
   256
  6
BYLAYER
 49
-0.5
 62
   256
  6
BYLAYER
  0
ACDBPLACEHOLDER
  5
F
102
{ACAD_REACTORS
330
E
102
}
330
E
  0
SCALE
  5
48
102
{ACAD_REACTORS
330
47
102
}
330
47
100
AcDbScale
 70
     0
300
1:1
140
1.0
141
1.0
290
     1
  0
SCALE
  5
49
102
{ACAD_REACTORS
330
47
102
}
330
47
100
AcDbScale
 70
     0
300
1:2
140
1.0
141
2.0
290
     0
  0
SCALE
  5
4A
102
{ACAD_REACTORS
330
47
102
}
330
47
100
AcDbScale
 70
     0
300
1:4
140
1.0
141
4.0
290
     0
  0
SCALE
  5
4B
102
{ACAD_REACTORS
330
47
102
}
330
47
100
AcDbScale
 70
     0
300
1:5
140
1.0
141
5.0
290
     0
  0
SCALE
  5
4C
102
{ACAD_REACTORS
330
47
102
}
330
47
100
AcDbScale
 70
     0
300
1:8
140
1.0
141
8.0
290
     0
  0
SCALE
  5
4D
102
{ACAD_REACTORS
330
47
102
}
330
47
100
AcDbScale
 70
     0
300
1:10
140
1.0
141
10.0
290
     0
  0
SCALE
  5
4E
102
{ACAD_REACTORS
330
47
102
}
330
47
100
AcDbScale
 70
     0
300
1:16
140
1.0
141
16.0
290
     0
  0
SCALE
  5
4F
102
{ACAD_REACTORS
330
47
102
}
330
47
100
AcDbScale
 70
     0
300
1:20
140
1.0
141
20.0
290
     0
  0
SCALE
  5
50
102
{ACAD_REACTORS
330
47
102
}
330
47
100
AcDbScale
 70
     0
300
1:30
140
1.0
141
30.0
290
     0
  0
SCALE
  5
51
102
{ACAD_REACTORS
330
47
102
}
330
47
100
AcDbScale
 70
     0
300
1:40
140
1.0
141
40.0
290
     0
  0
SCALE
  5
52
102
{ACAD_REACTORS
330
47
102
}
330
47
100
AcDbScale
 70
     0
300
1:50
140
1.0
141
50.0
290
     0
  0
SCALE
  5
53
102
{ACAD_REACTORS
330
47
102
}
330
47
100
AcDbScale
 70
     0
300
1:100
140
1.0
141
100.0
290
     0
  0
SCALE
  5
54
102
{ACAD_REACTORS
330
47
102
}
330
47
100
AcDbScale
 70
     0
300
2:1
140
2.0
141
1.0
290
     0
  0
SCALE
  5
55
102
{ACAD_REACTORS
330
47
102
}
330
47
100
AcDbScale
 70
     0
300
4:1
140
4.0
141
1.0
290
     0
  0
SCALE
  5
56
102
{ACAD_REACTORS
330
47
102
}
330
47
100
AcDbScale
 70
     0
300
8:1
140
8.0
141
1.0
290
     0
  0
SCALE
  5
57
102
{ACAD_REACTORS
330
47
102
}
330
47
100
AcDbScale
 70
     0
300
10:1
140
10.0
141
1.0
290
     0
  0
SCALE
  5
58
102
{ACAD_REACTORS
330
47
102
}
330
47
100
AcDbScale
 70
     0
300
100:1
140
100.0
141
1.0
290
     0
  0
ENDSEC
  0
EOF
