  0
SECTION
  2
HEADER
  9
$ACADVER
  1
AC1015
  9
$ACADMAINTVER
 70
     6
  9
$DWGCODEPAGE
  3
DOS932
  9
$INSBASE
 10
0.0
 20
0.0
 30
0.0
  9
$EXTMIN
 10
0.0
 20
0.0
 30
0.0
  9
$EXTMAX
 10
148.5
 20
105.0
 30
0.0
  9
$LIMMIN
 10
0.0
 20
0.0
  9
$LIMMAX
 10
148.5
 20
105.0
  9
$ORTHOMODE
 70
     0
  9
$REGENMODE
 70
     1
  9
$FILLMODE
 70
     1
  9
$QTEXTMODE
 70
     0
  9
$MIRRTEXT
 70
     1
  9
$LTSCALE
 40
0.5
  9
$ATTMODE
 70
     1
  9
$TEXTSIZE
 40
1.7638888889
  9
$TRACEWID
 40
1.0
  9
$TEXTSTYLE
  7
Standard
  9
$CLAYER
  8
0
  9
$CELTYPE
  6
ByLayer
  9
$CECOLOR
 62
   256
  9
$CELTSCALE
 40
1.0
  9
$DISPSILH
 70
     0
  9
$DIMSCALE
 40
1.0
  9
$DIMASZ
 40
1.3642578125
  9
$DIMEXO
 40
0.5
  9
$DIMDLI
 40
3.75
  9
$DIMRND
 40
0.0
  9
$DIMDLE
 40
0.0
  9
$DIMEXE
 40
0.5
  9
$DIMTP
 40
0.0
  9
$DIMTM
 40
0.0
  9
$DIMTXT
 40
1.7638888889
  9
$DIMCEN
 40
2.5
  9
$DIMTSZ
 40
0.0
  9
$DIMTOL
 70
     0
  9
$DIMLIM
 70
     0
  9
$DIMTIH
 70
     1
  9
$DIMTOH
 70
     1
  9
$DIMSE1
 70
     0
  9
$DIMSE2
 70
     0
  9
$DIMTAD
 70
     1
  9
$DIMZIN
 70
     0
  9
$DIMBLK
  1

  9
$DIMASO
 70
     1
  9
$DIMSHO
 70
     1
  9
$DIMPOST
  1

  9
$DIMAPOST
  1

  9
$DIMALT
 70
     0
  9
$DIMALTD
 70
     3
  9
$DIMALTF
 40
0.0393700787
  9
$DIMLFAC
 40
1.0
  9
$DIMTOFL
 70
     1
  9
$DIMTVP
 40
0.0
  9
$DIMTIX
 70
     0
  9
$DIMSOXD
 70
     0
  9
$DIMSAH
 70
     0
  9
$DIMBLK1
  1

  9
$DIMBLK2
  1

  9
$DIMSTYLE
  2
ISO-25
  9
$DIMCLRD
 70
     0
  9
$DIMCLRE
 70
     0
  9
$DIMCLRT
 70
     0
  9
$DIMTFAC
 40
1.0
  9
$DIMGAP
 40
0.762
  9
$DIMJUST
 70
     0
  9
$DIMSD1
 70
     0
  9
$DIMSD2
 70
     0
  9
$DIMTOLJ
 70
     0
  9
$DIMTZIN
 70
     0
  9
$DIMALTZ
 70
     0
  9
$DIMALTTZ
 70
     0
  9
$DIMUPT
 70
     0
  9
$DIMDEC
 70
     2
  9
$DIMTDEC
 70
     2
  9
$DIMALTU
 70
     2
  9
$DIMALTTD
 70
     3
  9
$DIMTXSTY
  7
Standard
  9
$DIMAUNIT
 70
     0
  9
$DIMADEC
 70
     2
  9
$DIMALTRND
 40
0.0
  9
$DIMAZIN
 70
     0
  9
$DIMDSEP
 70
    44
  9
$DIMATFIT
 70
     3
  9
$DIMFRAC
 70
     0
  9
$DIMLDRBLK
  1

  9
$DIMLUNIT
 70
     2
  9
$DIMLWD
 70
    -2
  9
$DIMLWE
 70
    -2
  9
$DIMTMOVE
 70
     0
  9
$LUNITS
 70
     2
  9
$LUPREC
 70
     2
  9
$SKETCHINC
 40
1.0
  9
$FILLETRAD
 40
0.0
  9
$AUNITS
 70
     0
  9
$AUPREC
 70
     2
  9
$MENU
  1
.
  9
$ELEVATION
 40
0.0
  9
$PELEVATION
 40
0.0
  9
$THICKNESS
 40
0.0
  9
$LIMCHECK
 70
     0
  9
$CHAMFERA
 40
0.0
  9
$CHAMFERB
 40
0.0
  9
$CHAMFERC
 40
0.0
  9
$CHAMFERD
 40
0.0
  9
$SKPOLY
 70
     0
  9
$TDCREATE
 40
2460398.679663356
  9
$TDUCREATE
 40
2460398.304663356
  9
$TDUPDATE
 40
2460398.679663854
  9
$TDUUPDATE
 40
2460398.304663854
  9
$TDINDWG
 40
0.0000000116
  9
$TDUSRTIMER
 40
0.0000000116
  9
$USRTIMER
 70
     1
  9
$ANGBASE
 50
0.0
  9
$ANGDIR
 70
     0
  9
$PDMODE
 70
     0
  9
$PDSIZE
 40
-1.0
  9
$PLINEWID
 40
0.0
  9
$SPLFRAME
 70
     0
  9
$SPLINETYPE
 70
     6
  9
$SPLINESEGS
 70
     8
  9
$HANDSEED
  5
120
  9
$SURFTAB1
 70
     6
  9
$SURFTAB2
 70
     6
  9
$SURFTYPE
 70
     6
  9
$SURFU
 70
     6
  9
$SURFV
 70
     6
  9
$UCSBASE
  2

  9
$UCSNAME
  2

  9
$UCSORG
 10
0.0
 20
0.0
 30
0.0
  9
$UCSXDIR
 10
1.0
 20
0.0
 30
0.0
  9
$UCSYDIR
 10
0.0
 20
1.0
 30
0.0
  9
$UCSORTHOREF
  2

  9
$UCSORTHOVIEW
 70
     0
  9
$UCSORGTOP
 10
0.0
 20
0.0
 30
0.0
  9
$UCSORGBOTTOM
 10
0.0
 20
0.0
 30
0.0
  9
$UCSORGLEFT
 10
0.0
 20
0.0
 30
0.0
  9
$UCSORGRIGHT
 10
0.0
 20
0.0
 30
0.0
  9
$UCSORGFRONT
 10
0.0
 20
0.0
 30
0.0
  9
$UCSORGBACK
 10
0.0
 20
0.0
 30
0.0
  9
$PUCSBASE
  2

  9
$PUCSNAME
  2

  9
$PUCSORG
 10
0.0
 20
0.0
 30
0.0
  9
$PUCSXDIR
 10
1.0
 20
0.0
 30
0.0
  9
$PUCSYDIR
 10
0.0
 20
1.0
 30
0.0
  9
$PUCSORTHOREF
  2

  9
$PUCSORTHOVIEW
 70
     0
  9
$PUCSORGTOP
 10
0.0
 20
0.0
 30
0.0
  9
$PUCSORGBOTTOM
 10
0.0
 20
0.0
 30
0.0
  9
$PUCSORGLEFT
 10
0.0
 20
0.0
 30
0.0
  9
$PUCSORGRIGHT
 10
0.0
 20
0.0
 30
0.0
  9
$PUCSORGFRONT
 10
0.0
 20
0.0
 30
0.0
  9
$PUCSORGBACK
 10
0.0
 20
0.0
 30
0.0
  9
$USERI1
 70
     0
  9
$USERI2
 70
     0
  9
$USERI3
 70
     0
  9
$USERI4
 70
     0
  9
$USERI5
 70
     0
  9
$USERR1
 40
0.0
  9
$USERR2
 40
0.0
  9
$USERR3
 40
0.0
  9
$USERR4
 40
0.0
  9
$USERR5
 40
0.0
  9
$WORLDVIEW
 70
     1
  9
$SHADEDGE
 70
     3
  9
$SHADEDIF
 70
    70
  9
$TILEMODE
 70
     1
  9
$MAXACTVP
 70
    64
  9
$PINSBASE
 10
0.0
 20
0.0
 30
0.0
  9
$PLIMCHECK
 70
     0
  9
$PEXTMIN
 10
1.0000000000E+20
 20
1.0000000000E+20
 30
1.0000000000E+20
  9
$PEXTMAX
 10
-1.0000000000E+20
 20
-1.0000000000E+20
 30
-1.0000000000E+20
  9
$PLIMMIN
 10
0.0
 20
0.0
  9
$PLIMMAX
 10
420.0
 20
297.0
  9
$UNITMODE
 70
     0
  9
$VISRETAIN
 70
     1
  9
$PLINEGEN
 70
     0
  9
$PSLTSCALE
 70
     1
  9
$TREEDEPTH
 70
  3020
  9
$CMLSTYLE
  2
Standard
  9
$CMLJUST
 70
     0
  9
$CMLSCALE
 40
20.0
  9
$PROXYGRAPHICS
 70
     1
  9
$MEASUREMENT
 70
     1
  9
$CELWEIGHT
370
    -1
  9
$ENDCAPS
280
     0
  9
$JOINSTYLE
280
     0
  9
$LWDISPLAY
290
     1
  9
$INSUNITS
 70
     4
  9
$HYPERLINKBASE
  1

  9
$STYLESHEET
  1

  9
$XEDIT
290
     1
  9
$CEPSNTYPE
380
     0
  9
$PSTYLEMODE
290
     1
  9
$FINGERPRINTGUID
  2
{5e0069b7-8613-46c5-a40d-800aa6071a2f}
  9
$VERSIONGUID
  2
{FAEB1C32-E019-11D5-929B-00C0DF256EC4}
  9
$EXTNAMES
290
     1
  9
$PSVPSCALE
 40
0.0
  9
$OLESTARTUP
290
     0
  0
ENDSEC
  0
SECTION
  2
CLASSES
  0
CLASS
  1
ACDBDICTIONARYWDFLT
  2
AcDbDictionaryWithDefault
  3
ObjectDBX Classes
 90
        0
280
     0
281
     0
  0
CLASS
  1
VISUALSTYLE
  2
AcDbVisualStyle
  3
ObjectDBX Classes
 90
     4095
280
     0
281
     0
  0
CLASS
  1
MATERIAL
  2
AcDbMaterial
  3
ObjectDBX Classes
 90
     1153
280
     0
281
     0
  0
CLASS
  1
SCALE
  2
AcDbScale
  3
ObjectDBX Classes
 90
     1153
280
     0
281
     0
  0
CLASS
  1
TABLESTYLE
  2
AcDbTableStyle
  3
ObjectDBX Classes
 90
     4095
280
     0
281
     0
  0
CLASS
  1
MLEADERSTYLE
  2
AcDbMLeaderStyle
  3
ACDB_MLEADERSTYLE_CLASS
 90
     4095
280
     0
281
     0
  0
CLASS
  1
SUN
  2
AcDbSun
  3
SCENEOE
 90
     1153
280
     0
281
     0
  0
CLASS
  1
ACDBPLACEHOLDER
  2
AcDbPlaceHolder
  3
ObjectDBX Classes
 90
        0
280
     0
281
     0
  0
CLASS
  1
LAYOUT
  2
AcDbLayout
  3
ObjectDBX Classes
 90
        0
280
     0
281
     0
  0
ENDSEC
  0
SECTION
  2
TABLES
  0
TABLE
  2
VPORT
  5
8
330
0
100
AcDbSymbolTable
 70
     1
  0
VPORT
  5
29
330
8
100
AcDbSymbolTableRecord
100
AcDbViewportTableRecord
  2
*Active
 70
     0
 10
0.0
 20
0.0
 11
1.0
 21
1.0
 12
74.25
 22
52.5
 13
0.0
 23
0.0
 14
10.0
 24
10.0
 15
10.0
 25
10.0
 16
0.0
 26
0.0
 36
1.0
 17
0.0
 27
0.0
 37
0.0
 40
105.0
 41
1.4142857143
 42
50.0
 43
0.0
 44
0.0
 50
0.0
 51
0.0
 71
     0
 72
  2000
 73
     1
 74
     3
 75
     0
 76
     0
 77
     0
 78
     0
281
     0
 65
     1
110
0.0
120
0.0
130
0.0
111
1.0
121
0.0
131
0.0
112
0.0
122
1.0
132
0.0
 79
     0
146
0.0
  0
ENDTAB
  0
TABLE
  2
LTYPE
  5
5
330
0
100
AcDbSymbolTable
 70
     6
  0
LTYPE
  5
14
330
5
100
AcDbSymbolTableRecord
100
AcDbLinetypeTableRecord
  2
ByBlock
 70
     0
  3

 72
    65
 73
     0
 40
0.0
  0
LTYPE
  5
15
330
5
100
AcDbSymbolTableRecord
100
AcDbLinetypeTableRecord
  2
ByLayer
 70
     0
  3

 72
    65
 73
     0
 40
0.0
  0
LTYPE
  5
16
330
5
100
AcDbSymbolTableRecord
100
AcDbLinetypeTableRecord
  2
Continuous
 70
     0
  3
Solid line
 72
    65
 73
     0
 40
0.0
  0
LTYPE
  5
5E
330
5
100
AcDbSymbolTableRecord
100
AcDbLinetypeTableRecord
  2
HIDDEN
 70
     0
  3
Hidden __ __ __ __ __ __ __ __ __ __ __ __ __ __
 72
    65
 73
     2
 40
1.905
 49
1.27
 74
     0
 49
-0.635
 74
     0
  0
LTYPE
  5
5F
330
5
100
AcDbSymbolTableRecord
100
AcDbLinetypeTableRecord
  2
PHANTOM
 70
     0
  3
Phantom ______  __  __  ______  __  __  ______
 72
    65
 73
     6
 40
12.7
 49
6.35
 74
     0
 49
-1.27
 74
     0
 49
1.27
 74
     0
 49
-1.27
 74
     0
 49
1.27
 74
     0
 49
-1.27
 74
     0
  0
LTYPE
  5
60
330
5
100
AcDbSymbolTableRecord
100
AcDbLinetypeTableRecord
  2
CENTER
 70
     0
  3
Center ____ _ ____ _ ____ _ ____ _ ____ _ ____
 72
    65
 73
     4
 40
10.16
 49
6.35
 74
     0
 49
-1.27
 74
     0
 49
1.27
 74
     0
 49
-1.27
 74
     0
  0
LTYPE
  5
61
330
5
100
AcDbSymbolTableRecord
100
AcDbLinetypeTableRecord
  2
CENTERX2
 70
     0
  3
Center (2x) ________  __  ________  __  _____
 72
    65
 73
     4
 40
20.32
 49
12.7
 74
     0
 49
-2.54
 74
     0
 49
2.54
 74
     0
 49
-2.54
 74
     0
  0
LTYPE
  5
62
330
5
100
AcDbSymbolTableRecord
100
AcDbLinetypeTableRecord
  2
DOT2
 70
     0
  3
Dot (.5x) ........................................
 72
    65
 73
     2
 40
0.635
 49
0.0
 74
     0
 49
-0.635
 74
     0
  0
ENDTAB
  0
TABLE
  2
LAYER
  5
2
330
0
100
AcDbSymbolTable
 70
     2
  0
LAYER
  5
10
330
2
100
AcDbSymbolTableRecord
100
AcDbLayerTableRecord
  2
0
 70
     0
 62
     7
  6
Continuous
370
    -3
390
F
  0
LAYER
  5
63
330
2
100
AcDbSymbolTableRecord
100
AcDbLayerTableRecord
  2
FORMAT
 70
     0
 62
     7
  6
Continuous
370
    -3
390
F
  0
ENDTAB
  0
TABLE
  2
STYLE
  5
3
330
0
100
AcDbSymbolTable
 70
     2
  0
STYLE
  5
11
330
3
100
AcDbSymbolTableRecord
100
AcDbTextStyleTableRecord
  2
Standard
 70
     0
 40
0.0
 41
1.0
 50
0.0
 71
     0
 42
1.7638888889
  3
txt
  4
bigfont
  0
STYLE
  5
64
330
3
100
AcDbSymbolTableRecord
100
AcDbTextStyleTableRecord
  2
SLDTEXTSTYLE0
 70
     0
 40
0.0
 41
0.7
 50
0.0
 71
     0
 42
1.7638888889
  3
TXT
  4
bigfont
  0
ENDTAB
  0
TABLE
  2
VIEW
  5
6
330
0
100
AcDbSymbolTable
 70
     0
  0
ENDTAB
  0
TABLE
  2
UCS
  5
7
330
0
100
AcDbSymbolTable
 70
     0
  0
ENDTAB
  0
TABLE
  2
APPID
  5
9
330
0
100
AcDbSymbolTable
 70
     1
  0
APPID
  5
12
330
9
100
AcDbSymbolTableRecord
100
AcDbRegAppTableRecord
  2
ACAD
 70
     0
  0
ENDTAB
  0
TABLE
  2
DIMSTYLE
  5
A
330
0
100
AcDbSymbolTable
 70
     1
100
AcDbDimStyleTable
  0
DIMSTYLE
105
27
330
A
100
AcDbSymbolTableRecord
100
AcDbDimStyleTableRecord
  2
ISO-25
 70
     0
 41
2.5
 42
0.625
 43
3.75
 44
1.25
 73
     0
 74
     0
 77
     1
 78
     8
140
2.5
141
2.5
143
0.0393700787
147
0.625
171
     3
172
     1
178
     0
271
     2
272
     2
274
     3
278
    44
283
     0
284
     8
340
11
  0
ENDTAB
  0
TABLE
  2
BLOCK_RECORD
  5
1
330
0
100
AcDbSymbolTable
 70
     2
  0
BLOCK_RECORD
  5
1F
330
1
100
AcDbSymbolTableRecord
100
AcDbBlockTableRecord
  2
*Model_Space
340
22
  0
BLOCK_RECORD
  5
1B
330
1
100
AcDbSymbolTableRecord
100
AcDbBlockTableRecord
  2
*Paper_Space
340
1E
  0
BLOCK_RECORD
  5
23
330
1
100
AcDbSymbolTableRecord
100
AcDbBlockTableRecord
  2
*Paper_Space0
340
26
  0
BLOCK_RECORD
  5
F6
330
1
100
AcDbSymbolTableRecord
100
AcDbBlockTableRecord
  2
SW_CENTERMARKSYMBOL_0
340
0
102
{BLKREFS
331
101
102
}
  0
ENDTAB
  0
ENDSEC
  0
SECTION
  2
BLOCKS
  0
BLOCK
  5
20
330
1F
100
AcDbEntity
  8
0
100
AcDbBlockBegin
  2
*Model_Space
 70
     0
 10
0.0
 20
0.0
 30
0.0
  3
*Model_Space
  1

  0
ENDBLK
  5
21
330
1F
100
AcDbEntity
  8
0
100
AcDbBlockEnd
  0
BLOCK
  5
1C
330
1B
100
AcDbEntity
 67
     1
  8
0
100
AcDbBlockBegin
  2
*Paper_Space
 70
     0
 10
0.0
 20
0.0
 30
0.0
  3
*Paper_Space
  1

  0
ENDBLK
  5
1D
330
1B
100
AcDbEntity
 67
     1
  8
0
100
AcDbBlockEnd
  0
BLOCK
  5
24
330
23
100
AcDbEntity
  8
0
100
AcDbBlockBegin
  2
*Paper_Space0
 70
     0
 10
0.0
 20
0.0
 30
0.0
  3
*Paper_Space0
  1

  0
ENDBLK
  5
25
330
23
100
AcDbEntity
  8
0
100
AcDbBlockEnd
  0
BLOCK
  5
F7
330
F6
100
AcDbEntity
  8
0
100
AcDbBlockBegin
  2
SW_CENTERMARKSYMBOL_0
 70
     0
 10
0.0
 20
0.0
 30
0.0
  3
SW_CENTERMARKSYMBOL_0
  1

  0
LINE
  5
F9
330
F6
100
AcDbEntity
  8
FORMAT
 62
     0
100
AcDbLine
 10
0.0
 20
0.0
 30
0.0
 11
0.0
 21
2.5
 31
0.0
  0
LINE
  5
FA
330
F6
100
AcDbEntity
  8
FORMAT
 62
     0
100
AcDbLine
 10
0.0
 20
0.0
 30
0.0
 11
-2.5
 21
0.0
 31
0.0
  0
LINE
  5
FB
330
F6
100
AcDbEntity
  8
FORMAT
 62
     0
100
AcDbLine
 10
0.0
 20
0.0
 30
0.0
 11
0.0
 21
-2.5
 31
0.0
  0
LINE
  5
FC
330
F6
100
AcDbEntity
  8
FORMAT
 62
     0
100
AcDbLine
 10
0.0
 20
0.0
 30
0.0
 11
2.5
 21
0.0
 31
0.0
  0
LINE
  5
FD
330
F6
100
AcDbEntity
  8
FORMAT
 62
     0
100
AcDbLine
 10
0.0
 20
5.0
 30
0.0
 11
0.0
 21
14.9646454641
 31
0.0
  0
LINE
  5
FE
330
F6
100
AcDbEntity
  8
FORMAT
 62
     0
100
AcDbLine
 10
-5.0
 20
0.0
 30
0.0
 11
-14.25
 21
0.0
 31
0.0
  0
LINE
  5
FF
330
F6
100
AcDbEntity
  8
FORMAT
 62
     0
100
AcDbLine
 10
0.0
 20
-5.0
 30
0.0
 11
0.0
 21
-15.1407001167
 31
0.0
  0
LINE
  5
100
330
F6
100
AcDbEntity
  8
FORMAT
 62
     0
100
AcDbLine
 10
5.0
 20
0.0
 30
0.0
 11
14.25
 21
0.0
 31
0.0
  0
ENDBLK
  5
F8
330
F6
100
AcDbEntity
  8
0
100
AcDbBlockEnd
  0
ENDSEC
  0
SECTION
  2
ENTITIES
  0
MTEXT
  5
65
330
1F
100
AcDbEntity
  8
FORMAT
100
AcDbMText
 10
106.6681538664
 20
55.4083285123
 30
0.0
 40
2.1166666667
 41
0.0
 71
     1
 72
     1
  1
5NB-7443
  7
SLDTEXTSTYLE0
 73
     1
 44
1.0
  0
LINE
  5
66
330
1F
100
AcDbEntity
  8
0
  6
Continuous
 62
     7
370
    25
100
AcDbLine
 10
90.1323564408
 20
47.4800223902
 30
0.0
 11
88.9162221037
 21
45.3736159297
 31
0.0
  0
LINE
  5
67
330
1F
100
AcDbEntity
  8
0
  6
Continuous
 62
     7
370
    25
100
AcDbLine
 10
88.9162221037
 20
21.8736159297
 30
0.0
 11
90.1323564408
 21
19.7672094691
 31
0.0
  0
LINE
  5
68
330
1F
100
AcDbEntity
  8
0
  6
Continuous
 62
     7
370
    25
100
AcDbLine
 10
93.7000877667
 20
19.7672094691
 30
0.0
 11
94.9162221037
 21
21.8736159297
 31
0.0
  0
LINE
  5
69
330
1F
100
AcDbEntity
  8
0
  6
Continuous
 62
     7
370
    25
100
AcDbLine
 10
94.9162221037
 20
45.3736159297
 30
0.0
 11
93.7000877667
 21
47.4800223902
 31
0.0
  0
LINE
  5
6A
330
1F
100
AcDbEntity
  8
0
  6
Continuous
 62
     7
370
    25
100
AcDbLine
 10
88.9162221037
 20
44.4977721797
 30
0.0
 11
73.4181575876
 21
44.0134576635
 31
0.0
  0
LINE
  5
6B
330
1F
100
AcDbEntity
  8
0
  6
Continuous
 62
     7
370
    25
100
AcDbLine
 10
73.4181575876
 20
23.2337741958
 30
0.0
 11
88.9162221037
 21
22.7494596797
 31
0.0
  0
LINE
  5
6C
330
1F
100
AcDbEntity
  8
0
  6
Continuous
 62
     7
370
    25
100
AcDbLine
 10
73.4181575876
 20
44.0134576635
 30
0.0
 11
71.9162221037
 21
42.5115221797
 31
0.0
  0
LINE
  5
6D
330
1F
100
AcDbEntity
  8
0
  6
Continuous
 62
     7
370
    25
100
AcDbLine
 10
71.9162221037
 20
24.7357096797
 30
0.0
 11
73.4181575876
 21
23.2337741958
 31
0.0
  0
SPLINE
  5
6E
330
1F
100
AcDbEntity
  8
0
  6
Continuous
 62
     7
370
    25
100
AcDbSpline
210
0.0
220
0.0
230
1.0
 70
     8
 71
     3
 72
    16
 73
    12
 74
     0
 42
0.00000001
 43
0.00000001
 40
0.0
 40
0.0
 40
0.0
 40
0.0
 40
0.2499999999999999
 40
0.2499999999999999
 40
0.4999999999999999
 40
0.4999999999999999
 40
0.625
 40
0.625
 40
0.7499999999999998
 40
0.7499999999999998
 40
1.0
 40
1.0
 40
1.0
 40
1.0
 10
90.13235644075918
 20
19.76720946911325
 30
0.0
 10
89.80579436077518
 20
20.3328315834709
 30
0.0
 10
89.53664808050068
 20
20.90257748604159
 30
0.0
 10
89.16379311776478
 20
22.05395155389296
 30
0.0
 10
89.06131432255187
 20
22.6356680536489
 30
0.0
 10
89.06018867091824
 20
23.51920249253077
 30
0.0
 10
89.08524073786766
 20
23.81509999619926
 30
0.0
 10
89.18293068125577
 20
24.40041642490509
 30
0.0
 10
89.25546940652545
 20
24.69111229190725
 30
0.0
 10
89.53557482257007
 20
25.55802445312384
 30
0.0
 10
89.80538726451687
 20
26.12908547362792
 30
0.0
 10
90.13235644075931
 20
26.6954126993888
 30
0.0
  0
LINE
  5
6F
330
1F
100
AcDbEntity
  8
0
  6
Continuous
 62
     7
370
    25
100
AcDbLine
 10
90.1323564408
 20
26.6954126994
 30
0.0
 11
93.7000877667
 21
26.6954126994
 31
0.0
  0
SPLINE
  5
70
330
1F
100
AcDbEntity
  8
0
  6
Continuous
 62
     7
370
    25
100
AcDbSpline
210
0.0
220
0.0
230
1.0
 70
     8
 71
     3
 72
    16
 73
    12
 74
     0
 42
0.00000001
 43
0.00000001
 40
0.0
 40
0.0
 40
0.0
 40
0.0
 40
0.2499999999999999
 40
0.2499999999999999
 40
0.4999999999999999
 40
0.4999999999999999
 40
0.625
 40
0.625
 40
0.7499999999999998
 40
0.7499999999999998
 40
1.0
 40
1.0
 40
1.0
 40
1.0
 10
93.70008776671597
 20
19.76720946911325
 30
0.0
 10
94.02664984669997
 20
20.3328315834709
 30
0.0
 10
94.29579612697447
 20
20.90257748604159
 30
0.0
 10
94.66865108971035
 20
22.05395155389296
 30
0.0
 10
94.77112988492328
 20
22.6356680536489
 30
0.0
 10
94.77225553655691
 20
23.51920249253077
 30
0.0
 10
94.74720346960748
 20
23.81509999619926
 30
0.0
 10
94.64951352621938
 20
24.40041642490509
 30
0.0
 10
94.57697480094969
 20
24.69111229190725
 30
0.0
 10
94.29686938490507
 20
25.55802445312384
 30
0.0
 10
94.0270569429583
 20
26.12908547362792
 30
0.0
 10
93.70008776671582
 20
26.6954126993888
 30
0.0
  0
LINE
  5
71
330
1F
100
AcDbEntity
  8
0
  6
Continuous
 62
     7
370
    25
100
AcDbLine
 10
90.1323564408
 20
19.7672094691
 30
0.0
 11
93.7000877667
 21
19.7672094691
 31
0.0
  0
SPLINE
  5
72
330
1F
100
AcDbEntity
  8
0
  6
Continuous
 62
     7
370
    25
100
AcDbSpline
210
0.0
220
0.0
230
1.0
 70
     8
 71
     3
 72
    14
 73
    10
 74
     0
 42
0.00000001
 43
0.00000001
 40
0.0
 40
0.0
 40
0.0
 40
0.0
 40
0.2499999999999999
 40
0.2499999999999999
 40
0.4999999999999999
 40
0.4999999999999999
 40
0.7499999999999999
 40
0.7499999999999999
 40
1.0
 40
1.0
 40
1.0
 40
1.0
 10
90.13235644075947
 20
26.69541269938878
 30
0.0
 10
89.8067829439718
 20
27.82323237545702
 30
0.0
 10
89.53753379034278
 20
28.96146615873316
 30
0.0
 10
89.16374822453193
 20
31.26838833960919
 30
0.0
 10
89.06046266768462
 20
32.43843543400394
 30
0.0
 10
89.06065681342018
 20
34.81219629886432
 30
0.0
 10
89.16394080377042
 20
35.98031421443717
 30
0.0
 10
89.53764341153891
 20
38.2861598921185
 30
0.0
 10
89.80681606221695
 20
39.42411420883813
 30
0.0
 10
90.13235644075947
 20
40.55181915993981
 30
0.0
  0
LINE
  5
73
330
1F
100
AcDbEntity
  8
0
  6
Continuous
 62
     7
370
    25
100
AcDbLine
 10
90.1323564408
 20
40.5518191599
 30
0.0
 11
93.7000877667
 21
40.5518191599
 31
0.0
  0
SPLINE
  5
74
330
1F
100
AcDbEntity
  8
0
  6
Continuous
 62
     7
370
    25
100
AcDbSpline
210
0.0
220
0.0
230
1.0
 70
     8
 71
     3
 72
    14
 73
    10
 74
     0
 42
0.00000001
 43
0.00000001
 40
0.0
 40
0.0
 40
0.0
 40
0.0
 40
0.2499999999999999
 40
0.2499999999999999
 40
0.4999999999999999
 40
0.4999999999999999
 40
0.7499999999999999
 40
0.7499999999999999
 40
1.0
 40
1.0
 40
1.0
 40
1.0
 10
93.70008776671568
 20
26.69541269938878
 30
0.0
 10
94.02566126350337
 20
27.82323237545702
 30
0.0
 10
94.29491041713237
 20
28.96146615873316
 30
0.0
 10
94.66869598294322
 20
31.26838833960919
 30
0.0
 10
94.77198153979052
 20
32.43843543400394
 30
0.0
 10
94.77178739405498
 20
34.81219629886432
 30
0.0
 10
94.66850340370472
 20
35.98031421443717
 30
0.0
 10
94.29480079593624
 20
38.2861598921185
 30
0.0
 10
94.0256281452582
 20
39.42411420883813
 30
0.0
 10
93.70008776671568
 20
40.55181915993981
 30
0.0
  0
SPLINE
  5
75
330
1F
100
AcDbEntity
  8
0
  6
Continuous
 62
     7
370
    25
100
AcDbSpline
210
0.0
220
0.0
230
1.0
 70
     8
 71
     3
 72
    11
 73
     7
 74
     0
 42
0.00000001
 43
0.00000001
 40
0.0
 40
0.0
 40
0.0
 40
0.0
 40
0.2322932923175257
 40
0.4682186081034743
 40
0.7217939329173712
 40
1.0
 40
1.0
 40
1.0
 40
1.0
 10
91.95869314620862
 20
29.54757205569271
 30
0.0
 10
91.95979547312434
 20
29.53199994614694
 30
0.0
 10
91.96201736239632
 20
29.50061224922287
 30
0.0
 10
91.978585190192
 20
29.45463256573107
 30
0.0
 10
92.00540585222997
 20
29.41042353057173
 30
0.0
 10
92.02949065516687
 20
29.38411533837137
 30
0.0
 10
92.04209082960631
 20
29.37035197847263
 30
0.0
  0
LINE
  5
76
330
1F
100
AcDbEntity
  8
0
  6
Continuous
 62
     7
370
    25
100
AcDbLine
 10
91.9586931462
 20
29.6101203182
 30
0.0
 11
91.9586931462
 21
29.5475720557
 31
0.0
  0
LINE
  5
77
330
1F
100
AcDbEntity
  8
0
  6
Continuous
 62
     7
370
    25
100
AcDbLine
 10
91.781473069
 20
29.6101203182
 30
0.0
 11
91.9586931462
 21
29.6101203182
 31
0.0
  0
LINE
  5
78
330
1F
100
AcDbEntity
  8
0
  6
Continuous
 62
     7
370
    25
100
AcDbLine
 10
91.781473069
 20
29.5267226348
 30
0.0
 11
91.781473069
 21
29.6101203182
 31
0.0
  0
SPLINE
  5
79
330
1F
100
AcDbEntity
  8
0
  6
Continuous
 62
     7
370
    25
100
AcDbSpline
210
0.0
220
0.0
230
1.0
 70
     8
 71
     3
 72
    11
 73
     7
 74
     0
 42
0.00000001
 43
0.00000001
 40
0.0
 40
0.0
 40
0.0
 40
0.0
 40
0.267632090560556
 40
0.5177929452577199
 40
0.7570315487829548
 40
1.0
 40
1.0
 40
1.0
 40
1.0
 10
91.69807538559085
 20
29.3390778471985
 30
0.0
 10
91.71095789702015
 20
29.35287730264501
 30
0.0
 10
91.73588193928023
 20
29.37957537410436
 30
0.0
 10
91.7615517037249
 20
29.42659219713012
 30
0.0
 10
91.77894869532852
 20
29.47557317472922
 30
0.0
 10
91.78062728317059
 20
29.50958512123124
 30
0.0
 10
91.78147306898853
 20
29.52672263484329
 30
0.0
  0
SPLINE
  5
7A
330
1F
100
AcDbEntity
  8
0
  6
Continuous
 62
     7
370
    25
100
AcDbSpline
210
0.0
220
0.0
230
1.0
 70
     8
 71
     3
 72
    15
 73
    11
 74
     0
 42
0.00000001
 43
0.00000001
 40
0.0
 40
0.0
 40
0.0
 40
0.0
 40
0.1417962611116215
 40
0.2768819513476974
 40
0.4055805706087834
 40
0.5298229690785615
 40
0.648557202450144
 40
0.7672114666371239
 40
0.8821786188665561
 40
1.0
 40
1.0
 40
1.0
 40
1.0
 10
91.46873175624722
 20
29.25568016380082
 30
0.0
 10
91.48059168807288
 20
29.25580207783682
 30
0.0
 10
91.50375027519634
 20
29.25604013627305
 30
0.0
 10
91.53734622713178
 20
29.2608154841012
 30
0.0
 10
91.56931104060078
 20
29.2664772662714
 30
0.0
 10
91.59894024060523
 20
29.27599214942675
 30
0.0
 10
91.62693961569407
 20
29.28750648781227
 30
0.0
 10
91.6524468658589
 20
29.30230655747853
 30
0.0
 10
91.6767319538381
 20
29.31895184717553
 30
0.0
 10
91.69090299113404
 20
29.33231456692218
 30
0.0
 10
91.69807538559085
 20
29.3390778471985
 30
0.0
  0
SPLINE
  5
7B
330
1F
100
AcDbEntity
  8
0
  6
Continuous
 62
     7
370
    25
100
AcDbSpline
210
0.0
220
0.0
230
1.0
 70
     8
 71
     3
 72
    15
 73
    11
 74
     0
 42
0.00000001
 43
0.00000001
 40
0.0
 40
0.0
 40
0.0
 40
0.0
 40
0.1062344532908164
 40
0.2134351374465918
 40
0.3266362515327417
 40
0.4454478074346335
 40
0.5709125865608564
 40
0.7047818913259151
 40
0.8472638984122981
 40
1.0
 40
1.0
 40
1.0
 40
1.0
 10
91.20811399562947
 20
29.3390778471985
 30
0.0
 10
91.21538721915955
 20
29.3322710164027
 30
0.0
 10
91.22999981813979
 20
29.31859544485811
 30
0.0
 10
91.25590932006384
 20
29.30217222562777
 30
0.0
 10
91.28392887401426
 20
29.28713654637953
 30
0.0
 10
91.3155555768419
 20
29.27599904444227
 30
0.0
 10
91.34964458330953
 20
29.26633288150803
 30
0.0
 10
91.38688490843026
 20
29.26079782105797
 30
0.0
 10
91.42678236700323
 20
29.25600603691905
 30
0.0
 10
91.45442853946673
 20
29.25579127468794
 30
0.0
 10
91.46873175624722
 20
29.25568016380082
 30
0.0
  0
SPLINE
  5
7C
330
1F
100
AcDbEntity
  8
0
  6
Continuous
 62
     7
370
    25
100
AcDbSpline
210
0.0
220
0.0
230
1.0
 70
     8
 71
     3
 72
    15
 73
    11
 74
     0
 42
0.00000001
 43
0.00000001
 40
0.0
 40
0.0
 40
0.0
 40
0.0
 40
0.1380420997033142
 40
0.2691721599589595
 40
0.3953313456434682
 40
0.5186017941434344
 40
0.6392985515224087
 40
0.7600805617867302
 40
0.8784957553092647
 40
1.0
 40
1.0
 40
1.0
 40
1.0
 10
91.1247163122318
 20
29.55799676611742
 30
0.0
 10
91.12483557088973
 20
29.54690726593051
 30
0.0
 10
91.12506811669003
 20
29.52528353864303
 30
0.0
 10
91.12988002315534
 20
29.49388156952974
 30
0.0
 10
91.13554387980145
 20
29.46383105292064
 30
0.0
 10
91.14518498185377
 20
29.43567935812842
 30
0.0
 10
91.15652314108979
 20
29.4086355139034
 30
0.0
 10
91.17145835614778
 20
29.38386177107776
 30
0.0
 10
91.18798834074335
 20
29.36001801559642
 30
0.0
 10
91.2013481066977
 20
29.34611756115538
 30
0.0
 10
91.20811399562947
 20
29.3390778471985
 30
0.0
  0
SPLINE
  5
7D
330
1F
100
AcDbEntity
  8
0
  6
Continuous
 62
     7
370
    25
100
AcDbSpline
210
0.0
220
0.0
230
1.0
 70
     8
 71
     3
 72
    11
 73
     7
 74
     0
 42
0.00000001
 43
0.00000001
 40
0.0
 40
0.0
 40
0.0
 40
0.0
 40
0.2550921435312734
 40
0.4983791954134758
 40
0.7437399667914584
 40
1.0
 40
1.0
 40
1.0
 40
1.0
 10
91.19768928520476
 20
29.7352168433375
 30
0.0
 10
91.18644489705075
 20
29.72276286788168
 30
0.0
 10
91.16447648577967
 20
29.69843125899146
 30
0.0
 10
91.14130121327815
 20
29.65501125099516
 30
0.0
 10
91.12729701386742
 20
29.60776889850024
 30
0.0
 10
91.12558891733522
 20
29.57482607180932
 30
0.0
 10
91.1247163122318
 20
29.55799676611742
 30
0.0
  0
SPLINE
  5
7E
330
1F
100
AcDbEntity
  8
0
  6
Continuous
 62
     7
370
    25
100
AcDbSpline
210
0.0
220
0.0
230
1.0
 70
     8
 71
     3
 72
    15
 73
    11
 74
     0
 42
0.00000001
 43
0.00000001
 40
0.0
 40
0.0
 40
0.0
 40
0.0
 40
0.1305521219623388
 40
0.257514555698003
 40
0.3807268344757817
 40
0.5030306145961515
 40
0.6251462349433738
 40
0.7476378858044689
 40
0.8722881459663866
 40
1.0
 40
1.0
 40
1.0
 40
1.0
 10
91.42703291454839
 20
29.82903923715989
 30
0.0
 10
91.41595228824535
 20
29.82871460909134
 30
0.0
 10
91.39409571083863
 20
29.82807427899495
 30
0.0
 10
91.3619957285224
 20
29.8238457406645
 30
0.0
 10
91.33118317607526
 20
29.81649257089404
 30
0.0
 10
91.30179416356697
 20
29.80588891137659
 30
0.0
 10
91.2734056384204
 20
29.79292964444409
 30
0.0
 10
91.24675155961444
 20
29.7763549147027
 30
0.0
 10
91.22094545341798
 20
29.75762527596871
 30
0.0
 10
91.20550378608748
 20
29.74274648944995
 30
0.0
 10
91.19768928520476
 20
29.7352168433375
 30
0.0
  0
LINE
  5
7F
330
1F
100
AcDbEntity
  8
0
  6
Continuous
 62
     7
370
    25
100
AcDbLine
 10
91.5000058875
 20
29.8290392372
 30
0.0
 11
91.4270329145
 21
29.8290392372
 31
0.0
  0
LINE
  5
80
330
1F
100
AcDbEntity
  8
0
  6
Continuous
 62
     7
370
    25
100
AcDbLine
 10
91.5000058875
 20
30.0757573839
 30
0.0
 11
91.5000058875
 21
29.8290392372
 31
0.0
  0
LINE
  5
81
330
1F
100
AcDbEntity
  8
0
  6
Continuous
 62
     7
370
    25
100
AcDbLine
 10
91.4166082041
 20
30.0757573839
 30
0.0
 11
91.5000058875
 21
30.0757573839
 31
0.0
  0
SPLINE
  5
82
330
1F
100
AcDbEntity
  8
0
  6
Continuous
 62
     7
370
    25
100
AcDbSpline
210
0.0
220
0.0
230
1.0
 70
     8
 71
     3
 72
    15
 73
    11
 74
     0
 42
0.00000001
 43
0.00000001
 40
0.0
 40
0.0
 40
0.0
 40
0.0
 40
0.1339120169181258
 40
0.2615284644313492
 40
0.386188722652978
 40
0.5091929985924211
 40
0.6296768122270385
 40
0.7512559744353483
 40
0.8742965747069021
 40
1.0
 40
1.0
 40
1.0
 40
1.0
 10
91.07259276010824
 20
29.92286163098229
 30
0.0
 10
91.08485733949195
 20
29.93506997466366
 30
0.0
 10
91.10880990690853
 20
29.95891271446939
 30
0.0
 10
91.14788570974444
 20
29.99007812838106
 30
0.0
 10
91.18858838196145
 20
30.01652830393255
 30
0.0
 10
91.23102326512752
 20
30.03817396425278
 30
0.0
 10
91.27517296012856
 20
30.05500476207708
 30
0.0
 10
91.320879346817
 20
30.0668540602887
 30
0.0
 10
91.36821307549577
 20
30.07457204991513
 30
0.0
 10
91.40036177642844
 20
30.07535946278414
 30
0.0
 10
91.41660820412368
 20
30.07575738387804
 30
0.0
  0
SPLINE
  5
83
330
1F
100
AcDbEntity
  8
0
  6
Continuous
 62
     7
370
    25
100
AcDbSpline
210
0.0
220
0.0
230
1.0
 70
     8
 71
     3
 72
    15
 73
    11
 74
     0
 42
0.00000001
 43
0.00000001
 40
0.0
 40
0.0
 40
0.0
 40
0.0
 40
0.1330514903197383
 40
0.2614008608137424
 40
0.3859789426424574
 40
0.508465614902219
 40
0.6295593452611178
 40
0.7509246542250774
 40
0.8741074588764667
 40
1.0
 40
1.0
 40
1.0
 40
1.0
 10
90.9266468141623
 20
29.55799676611742
 30
0.0
 10
90.92706114914846
 20
29.57591268229596
 30
0.0
 10
90.92787517627279
 20
29.61111135538173
 30
0.0
 10
90.93519604035157
 20
29.66263018128441
 30
0.0
 10
90.94603802373642
 20
29.71206168027722
 30
0.0
 10
90.96259997282584
 20
29.75886019871319
 30
0.0
 10
90.98294994665086
 20
29.80366065548533
 30
0.0
 10
91.00850706729851
 20
29.84578483272268
 30
0.0
 10
91.0375126627023
 20
29.88649382226209
 30
0.0
 10
91.06081489123038
 20
29.91065142308221
 30
0.0
 10
91.07259276010824
 20
29.92286163098229
 30
0.0
  0
SPLINE
  5
84
330
1F
100
AcDbEntity
  8
0
  6
Continuous
 62
     7
370
    25
100
AcDbSpline
210
0.0
220
0.0
230
1.0
 70
     8
 71
     3
 72
    15
 73
    11
 74
     0
 42
0.00000001
 43
0.00000001
 40
0.0
 40
0.0
 40
0.0
 40
0.0
 40
0.115883080271786
 40
0.2315534497979618
 40
0.348062577152427
 40
0.4678553783950307
 40
0.5925908197539059
 40
0.7213115030172623
 40
0.857144170463207
 40
1.0
 40
1.0
 40
1.0
 40
1.0
 10
91.07259276010824
 20
29.15143305955372
 30
0.0
 10
91.06077395525442
 20
29.1638750034256
 30
0.0
 10
91.0371580397129
 20
29.18873605319207
 30
0.0
 10
91.0082221224841
 20
29.23149635820213
 30
0.0
 10
90.98259133800558
 20
29.27686632973003
 30
0.0
 10
90.96232901502994
 20
29.32637523444866
 30
0.0
 10
90.94596027814511
 20
29.37916770255422
 30
0.0
 10
90.93507165878765
 20
29.43576451408257
 30
0.0
 10
90.9278565672288
 20
29.49564759991
 30
0.0
 10
90.92705678356997
 20
29.53686745349441
 30
0.0
 10
90.9266468141623
 20
29.55799676611742
 30
0.0
  0
SPLINE
  5
85
330
1F
100
AcDbEntity
  8
0
  6
Continuous
 62
     7
370
    25
100
AcDbSpline
210
0.0
220
0.0
230
1.0
 70
     8
 71
     3
 72
    15
 73
    11
 74
     0
 42
0.00000001
 43
0.00000001
 40
0.0
 40
0.0
 40
0.0
 40
0.0
 40
0.1354658418109469
 40
0.2653728839126843
 40
0.3915266279918203
 40
0.514617999244426
 40
0.6353652389705197
 40
0.7554358763572425
 40
0.8764282152102182
 40
1.0
 40
1.0
 40
1.0
 40
1.0
 10
91.44788233539781
 20
29.00548711360777
 30
0.0
 10
91.4291946732868
 20
29.00589624039494
 30
0.0
 10
91.39258619160842
 20
29.00669770557571
 30
0.0
 10
91.33901872271404
 20
29.0140471833813
 30
0.0
 10
91.28778124746044
 20
29.02482259609499
 30
0.0
 10
91.23942300563512
 20
29.04136868402077
 30
0.0
 10
91.19344988222993
 20
29.0617021095061
 30
0.0
 10
91.150514079189
 20
29.08723728237243
 30
0.0
 10
91.10936289729673
 20
29.11635113635127
 30
0.0
 10
91.08493535254561
 20
29.1396571480909
 30
0.0
 10
91.07259276010824
 20
29.15143305955372
 30
0.0
  0
SPLINE
  5
86
330
1F
100
AcDbEntity
  8
0
  6
Continuous
 62
     7
370
    25
100
AcDbSpline
210
0.0
220
0.0
230
1.0
 70
     8
 71
     3
 72
    15
 73
    11
 74
     0
 42
0.00000001
 43
0.00000001
 40
0.0
 40
0.0
 40
0.0
 40
0.0
 40
0.1195027114365314
 40
0.2380939422658885
 40
0.3566476293726339
 40
0.4775806195769144
 40
0.6003630199241496
 40
0.7278327340041411
 40
0.8606471500295817
 40
1.0
 40
1.0
 40
1.0
 40
1.0
 10
91.78147306898853
 20
29.13058363870429
 30
0.0
 10
91.77087284981589
 20
29.12055810038262
 30
0.0
 10
91.7497532623073
 20
29.10058349132438
 30
0.0
 10
91.7143610402186
 20
29.07502136662056
 30
0.0
 10
91.67609887906211
 20
29.05381697783896
 30
0.0
 10
91.63562682044771
 20
29.03584579324329
 30
0.0
 10
91.59226395751446
 20
29.02252745784107
 30
0.0
 10
91.54661289871196
 20
29.01229347684768
 30
0.0
 10
91.49809272821311
 20
29.00656443729109
 30
0.0
 10
91.46488505547266
 20
29.00585192718501
 30
0.0
 10
91.44788233539781
 20
29.00548711360777
 30
0.0
  0
SPLINE
  5
87
330
1F
100
AcDbEntity
  8
0
  6
Continuous
 62
     7
370
    25
100
AcDbSpline
210
0.0
220
0.0
230
1.0
 70
     8
 71
     3
 72
    11
 73
     7
 74
     0
 42
0.00000001
 43
0.00000001
 40
0.0
 40
0.0
 40
0.0
 40
0.0
 40
0.2570374775372492
 40
0.507341915909805
 40
0.7523129875772131
 40
1.0
 40
1.0
 40
1.0
 40
1.0
 10
91.88572017323565
 20
29.30780371592437
 30
0.0
 10
91.88010836536908
 20
29.29089474018596
 30
0.0
 10
91.86903174968637
 20
29.25751971554211
 30
0.0
 10
91.84503134870106
 20
29.21111372886567
 30
0.0
 10
91.81639649426023
 20
29.1681851659936
 30
0.0
 10
91.79315691603482
 20
29.14316346127716
 30
0.0
 10
91.78147306898853
 20
29.13058363870429
 30
0.0
  0
SPLINE
  5
88
330
1F
100
AcDbEntity
  8
0
  6
Continuous
 62
     7
370
    25
100
AcDbSpline
210
0.0
220
0.0
230
1.0
 70
     8
 71
     3
 72
    11
 73
     7
 74
     0
 42
0.00000001
 43
0.00000001
 40
0.0
 40
0.0
 40
0.0
 40
0.0
 40
0.2731656445547263
 40
0.5274113090719892
 40
0.7672619830757412
 40
1.0
 40
1.0
 40
1.0
 40
1.0
 10
91.96911785663332
 20
29.15143305955372
 30
0.0
 10
91.95789126944642
 20
29.16345882747612
 30
0.0
 10
91.93621567018022
 20
29.1866774354123
 30
0.0
 10
91.91144695250055
 20
29.2258149105527
 30
0.0
 10
91.89349872861666
 20
29.26599888387082
 30
0.0
 10
91.88828687818777
 20
29.29400929469847
 30
0.0
 10
91.88572017323565
 20
29.30780371592437
 30
0.0
  0
SPLINE
  5
89
330
1F
100
AcDbEntity
  8
0
  6
Continuous
 62
     7
370
    25
100
AcDbSpline
210
0.0
220
0.0
230
1.0
 70
     8
 71
     3
 72
    15
 73
    11
 74
     0
 42
0.00000001
 43
0.00000001
 40
0.0
 40
0.0
 40
0.0
 40
0.0
 40
0.1495888260512936
 40
0.2896239650819624
 40
0.4219290861937189
 40
0.5465682968532917
 40
0.6661289243466407
 40
0.7799971355270183
 40
0.8908038749321935
 40
1.0
 40
1.0
 40
1.0
 40
1.0
 10
92.28185916937464
 20
29.04718595530661
 30
0.0
 10
92.26498300437353
 20
29.04741723089618
 30
0.0
 10
92.23230849283402
 20
29.04786501135575
 30
0.0
 10
92.1849771843691
 20
29.05316237151889
 30
0.0
 10
92.14080705578841
 20
29.06084928685448
 30
0.0
 10
92.10005474463722
 20
29.07289284659528
 30
0.0
 10
92.06194384573053
 20
29.08651638219059
 30
0.0
 10
92.02780090165099
 20
29.10519853572461
 30
0.0
 10
91.99646706196107
 20
29.12626019657884
 30
0.0
 10
91.97818965618423
 20
29.14308315818387
 30
0.0
 10
91.96911785663332
 20
29.15143305955372
 30
0.0
  0
SPLINE
  5
8A
330
1F
100
AcDbEntity
  8
0
  6
Continuous
 62
     7
370
    25
100
AcDbSpline
210
0.0
220
0.0
230
1.0
 70
     8
 71
     3
 72
    15
 73
    11
 74
     0
 42
0.00000001
 43
0.00000001
 40
0.0
 40
0.0
 40
0.0
 40
0.0
 40
0.1195027114365316
 40
0.2380939422658883
 40
0.3566476293726339
 40
0.4775806195769142
 40
0.600363019924149
 40
0.7278327340041406
 40
0.8606471500295813
 40
1.0
 40
1.0
 40
1.0
 40
1.0
 10
92.61544990296537
 20
29.17228248040313
 30
0.0
 10
92.60484968379272
 20
29.16225694208147
 30
0.0
 10
92.58373009628413
 20
29.14228233302322
 30
0.0
 10
92.54833787419544
 20
29.1167202083194
 30
0.0
 10
92.51007571303894
 20
29.0955158195378
 30
0.0
 10
92.46960365442455
 20
29.07754463494213
 30
0.0
 10
92.4262407914913
 20
29.06422629953991
 30
0.0
 10
92.38058973268879
 20
29.05399231854652
 30
0.0
 10
92.33206956218994
 20
29.04826327898993
 30
0.0
 10
92.2988618894495
 20
29.04755076888385
 30
0.0
 10
92.28185916937464
 20
29.04718595530661
 30
0.0
  0
SPLINE
  5
8B
330
1F
100
AcDbEntity
  8
0
  6
Continuous
 62
     7
370
    25
100
AcDbSpline
210
0.0
220
0.0
230
1.0
 70
     8
 71
     3
 72
    15
 73
    11
 74
     0
 42
0.00000001
 43
0.00000001
 40
0.0
 40
0.0
 40
0.0
 40
0.0
 40
0.1401156952848877
 40
0.2734369515897453
 40
0.4007170918852072
 40
0.5244111544238715
 40
0.6451326608364121
 40
0.7627629456192487
 40
0.88098244332115
 40
1.0
 40
1.0
 40
1.0
 40
1.0
 10
92.75097113848662
 20
29.537147345268
 30
0.0
 10
92.75069870706125
 20
29.51846124135212
 30
0.0
 10
92.75016705485544
 20
29.48199515322789
 30
0.0
 10
92.7431749803292
 20
29.42896637586906
 30
0.0
 10
92.73313031188245
 20
29.37867480330999
 30
0.0
 10
92.71774672113382
 20
29.33149808639197
 30
0.0
 10
92.69912240595164
 20
29.2869055163767
 30
0.0
 10
92.67560114664333
 20
29.24549206810967
 30
0.0
 10
92.64777278368581
 20
29.20710219714126
 30
0.0
 10
92.62624833242774
 20
29.18391505295594
 30
0.0
 10
92.61544990296537
 20
29.17228248040314
 30
0.0
  0
SPLINE
  5
8C
330
1F
100
AcDbEntity
  8
0
  6
Continuous
 62
     7
370
    25
100
AcDbSpline
210
0.0
220
0.0
230
1.0
 70
     8
 71
     3
 72
    15
 73
    11
 74
     0
 42
0.00000001
 43
0.00000001
 40
0.0
 40
0.0
 40
0.0
 40
0.0
 40
0.1270527522076897
 40
0.2522753243044989
 40
0.3739697899787151
 40
0.4948832629277715
 40
0.6176556772794561
 40
0.7419399124466155
 40
0.8684128160693897
 40
1.0
 40
1.0
 40
1.0
 40
1.0
 10
92.61544990296537
 20
29.87073807885874
 30
0.0
 10
92.62623871559009
 20
29.85935882595183
 30
0.0
 10
92.64766092924911
 20
29.83676423695198
 30
0.0
 10
92.6752895691497
 20
29.79969773240891
 30
0.0
 10
92.69875273405823
 20
29.76078023079846
 30
0.0
 10
92.71770707252809
 20
29.71982210434355
 30
0.0
 10
92.73301559985943
 20
29.67699337658916
 30
0.0
 10
92.74304231006258
 20
29.63196460415074
 30
0.0
 10
92.75016103090405
 20
29.58525000084653
 30
0.0
 10
92.75069755829429
 20
29.55339201949107
 30
0.0
 10
92.75097113848662
 20
29.537147345268
 30
0.0
  0
SPLINE
  5
8D
330
1F
100
AcDbEntity
  8
0
  6
Continuous
 62
     7
370
    25
100
AcDbSpline
210
0.0
220
0.0
230
1.0
 70
     8
 71
     3
 72
    15
 73
    11
 74
     0
 42
0.00000001
 43
0.00000001
 40
0.0
 40
0.0
 40
0.0
 40
0.0
 40
0.1342207616992962
 40
0.2632543584014017
 40
0.3882486178889516
 40
0.5110181775835609
 40
0.6322369822528033
 40
0.7532951172272379
 40
0.8750618099117068
 40
1.0
 40
1.0
 40
1.0
 40
1.0
 10
92.21931090682638
 20
30.02710873522939
 30
0.0
 10
92.23889622973888
 20
30.02670803606218
 30
0.0
 10
92.27730997104196
 20
30.02592212335507
 30
0.0
 10
92.33357289377439
 20
30.01843998531842
 30
0.0
 10
92.38716725867769
 20
30.00597052425413
 30
0.0
 10
92.43836791878778
 20
29.98910257713156
 30
0.0
 10
92.48693476773883
 20
29.9669834007636
 30
0.0
 10
92.53258445734221
 20
29.9397101519883
 30
0.0
 10
92.57599872344841
 20
29.90798178190911
 30
0.0
 10
92.60218728803824
 20
29.88325858896935
 30
0.0
 10
92.61544990296537
 20
29.87073807885874
 30
0.0
  0
LINE
  5
8E
330
1F
100
AcDbEntity
  8
0
  6
Continuous
 62
     7
370
    25
100
AcDbLine
 10
91.6146777022
 20
31.444869353
 30
0.0
 11
92.7509711385
 21
30.7464137545
 31
0.0
  0
LINE
  5
8F
330
1F
100
AcDbEntity
  8
0
  6
Continuous
 62
     7
370
    25
100
AcDbLine
 10
91.4069556945
 20
31.444869353
 30
0.0
 11
91.6146777022
 21
31.444869353
 31
0.0
  0
LINE
  5
90
330
1F
100
AcDbEntity
  8
0
  6
Continuous
 62
     7
370
    25
100
AcDbLine
 10
91.4069556945
 20
30.7533635615
 30
0.0
 11
91.4069556945
 21
31.444869353
 31
0.0
  0
LINE
  5
91
330
1F
100
AcDbEntity
  8
0
  6
Continuous
 62
     7
370
    25
100
AcDbLine
 10
90.947496235
 20
30.7533635615
 30
0.0
 11
91.4069556945
 21
30.7533635615
 31
0.0
  0
LINE
  5
92
330
1F
100
AcDbEntity
  8
0
  6
Continuous
 62
     7
370
    25
100
AcDbLine
 10
90.947496235
 20
30.5066454148
 30
0.0
 11
90.947496235
 21
30.7533635615
 31
0.0
  0
LINE
  5
93
330
1F
100
AcDbEntity
  8
0
  6
Continuous
 62
     7
370
    25
100
AcDbLine
 10
91.4069556945
 20
30.5066454148
 30
0.0
 11
90.947496235
 21
30.5066454148
 31
0.0
  0
LINE
  5
94
330
1F
100
AcDbEntity
  8
0
  6
Continuous
 62
     7
370
    25
100
AcDbLine
 10
91.4069556945
 20
30.2877264958
 30
0.0
 11
91.4069556945
 21
30.5066454148
 31
0.0
  0
LINE
  5
95
330
1F
100
AcDbEntity
  8
0
  6
Continuous
 62
     7
370
    25
100
AcDbLine
 10
91.6042529918
 20
30.2877264958
 30
0.0
 11
91.4069556945
 21
30.2877264958
 31
0.0
  0
LINE
  5
96
330
1F
100
AcDbEntity
  8
0
  6
Continuous
 62
     7
370
    25
100
AcDbLine
 10
91.6042529918
 20
30.5066454148
 30
0.0
 11
91.6042529918
 21
30.2877264958
 31
0.0
  0
LINE
  5
97
330
1F
100
AcDbEntity
  8
0
  6
Continuous
 62
     7
370
    25
100
AcDbLine
 10
92.7509711385
 20
30.5066454148
 30
0.0
 11
91.6042529918
 21
30.5066454148
 31
0.0
  0
LINE
  5
98
330
1F
100
AcDbEntity
  8
0
  6
Continuous
 62
     7
370
    25
100
AcDbLine
 10
92.7509711385
 20
30.7464137545
 30
0.0
 11
92.7509711385
 21
30.5066454148
 31
0.0
  0
LINE
  5
99
330
1F
100
AcDbEntity
  8
0
  6
Continuous
 62
     7
370
    25
100
AcDbLine
 10
91.6146777022
 20
32.7792322874
 30
0.0
 11
92.7509711385
 21
32.0807766889
 31
0.0
  0
LINE
  5
9A
330
1F
100
AcDbEntity
  8
0
  6
Continuous
 62
     7
370
    25
100
AcDbLine
 10
91.4069556945
 20
32.7792322874
 30
0.0
 11
91.6146777022
 21
32.7792322874
 31
0.0
  0
LINE
  5
9B
330
1F
100
AcDbEntity
  8
0
  6
Continuous
 62
     7
370
    25
100
AcDbLine
 10
91.4069556945
 20
32.0877264958
 30
0.0
 11
91.4069556945
 21
32.7792322874
 31
0.0
  0
LINE
  5
9C
330
1F
100
AcDbEntity
  8
0
  6
Continuous
 62
     7
370
    25
100
AcDbLine
 10
90.947496235
 20
32.0877264958
 30
0.0
 11
91.4069556945
 21
32.0877264958
 31
0.0
  0
LINE
  5
9D
330
1F
100
AcDbEntity
  8
0
  6
Continuous
 62
     7
370
    25
100
AcDbLine
 10
90.947496235
 20
31.8410083491
 30
0.0
 11
90.947496235
 21
32.0877264958
 31
0.0
  0
LINE
  5
9E
330
1F
100
AcDbEntity
  8
0
  6
Continuous
 62
     7
370
    25
100
AcDbLine
 10
91.4069556945
 20
31.8410083491
 30
0.0
 11
90.947496235
 21
31.8410083491
 31
0.0
  0
LINE
  5
9F
330
1F
100
AcDbEntity
  8
0
  6
Continuous
 62
     7
370
    25
100
AcDbLine
 10
91.4069556945
 20
31.6220894302
 30
0.0
 11
91.4069556945
 21
31.8410083491
 31
0.0
  0
LINE
  5
A0
330
1F
100
AcDbEntity
  8
0
  6
Continuous
 62
     7
370
    25
100
AcDbLine
 10
91.6042529918
 20
31.6220894302
 30
0.0
 11
91.4069556945
 21
31.6220894302
 31
0.0
  0
LINE
  5
A1
330
1F
100
AcDbEntity
  8
0
  6
Continuous
 62
     7
370
    25
100
AcDbLine
 10
91.6042529918
 20
31.8410083491
 30
0.0
 11
91.6042529918
 21
31.6220894302
 31
0.0
  0
LINE
  5
A2
330
1F
100
AcDbEntity
  8
0
  6
Continuous
 62
     7
370
    25
100
AcDbLine
 10
92.7509711385
 20
31.8410083491
 30
0.0
 11
91.6042529918
 21
31.8410083491
 31
0.0
  0
LINE
  5
A3
330
1F
100
AcDbEntity
  8
0
  6
Continuous
 62
     7
370
    25
100
AcDbLine
 10
92.7509711385
 20
32.0807766889
 30
0.0
 11
92.7509711385
 21
31.8410083491
 31
0.0
  0
LINE
  5
A4
330
1F
100
AcDbEntity
  8
0
  6
Continuous
 62
     7
370
    25
100
AcDbLine
 10
92.5328244203
 20
34.0301975383
 30
0.0
 11
92.7301217176
 21
34.0301975383
 31
0.0
  0
LINE
  5
A5
330
1F
100
AcDbEntity
  8
0
  6
Continuous
 62
     7
370
    25
100
AcDbLine
 10
92.5328244203
 20
33.2691936773
 30
0.0
 11
92.5328244203
 21
34.0301975383
 31
0.0
  0
LINE
  5
A6
330
1F
100
AcDbEntity
  8
0
  6
Continuous
 62
     7
370
    25
100
AcDbLine
 10
90.947496235
 20
33.7695797777
 30
0.0
 11
92.5328244203
 21
33.2691936773
 31
0.0
  0
LINE
  5
A7
330
1F
100
AcDbEntity
  8
0
  6
Continuous
 62
     7
370
    25
100
AcDbLine
 10
90.947496235
 20
33.5402361484
 30
0.0
 11
90.947496235
 21
33.7695797777
 31
0.0
  0
LINE
  5
A8
330
1F
100
AcDbEntity
  8
0
  6
Continuous
 62
     7
370
    25
100
AcDbLine
 10
92.5007780883
 20
33.039850048
 30
0.0
 11
90.947496235
 21
33.5402361484
 31
0.0
  0
LINE
  5
A9
330
1F
100
AcDbEntity
  8
0
  6
Continuous
 62
     7
370
    25
100
AcDbLine
 10
92.7301217176
 20
33.039850048
 30
0.0
 11
92.5007780883
 21
33.039850048
 31
0.0
  0
LINE
  5
AA
330
1F
100
AcDbEntity
  8
0
  6
Continuous
 62
     7
370
    25
100
AcDbLine
 10
92.7301217176
 20
34.0301975383
 30
0.0
 11
92.7301217176
 21
33.039850048
 31
0.0
  0
LINE
  5
AB
330
1F
100
AcDbEntity
  8
0
  6
Continuous
 62
     7
370
    25
100
AcDbLine
 10
91.7756815632
 20
35.4688075769
 30
0.0
 11
91.9482684358
 21
35.4688075769
 31
0.0
  0
LINE
  5
AC
330
1F
100
AcDbEntity
  8
0
  6
Continuous
 62
     7
370
    25
100
AcDbLine
 10
91.7756815632
 20
34.2803905885
 30
0.0
 11
91.7756815632
 21
35.4688075769
 31
0.0
  0
LINE
  5
AD
330
1F
100
AcDbEntity
  8
0
  6
Continuous
 62
     7
370
    25
100
AcDbLine
 10
91.9482684358
 20
34.2803905885
 30
0.0
 11
91.7756815632
 21
34.2803905885
 31
0.0
  0
LINE
  5
AE
330
1F
100
AcDbEntity
  8
0
  6
Continuous
 62
     7
370
    25
100
AcDbLine
 10
91.9482684358
 20
35.4688075769
 30
0.0
 11
91.9482684358
 21
34.2803905885
 31
0.0
  0
LINE
  5
AF
330
1F
100
AcDbEntity
  8
0
  6
Continuous
 62
     7
370
    25
100
AcDbLine
 10
90.9482684358
 20
37.0765295847
 30
0.0
 11
92.7301217176
 21
37.0765295847
 31
0.0
  0
LINE
  5
B0
330
1F
100
AcDbEntity
  8
0
  6
Continuous
 62
     7
370
    25
100
AcDbLine
 10
90.9482684358
 20
36.2460276541
 30
0.0
 11
90.9482684358
 21
37.0765295847
 31
0.0
  0
SPLINE
  5
B1
330
1F
100
AcDbEntity
  8
0
  6
Continuous
 62
     7
370
    25
100
AcDbSpline
210
0.0
220
0.0
230
1.0
 70
     8
 71
     3
 72
    15
 73
    11
 74
     0
 42
0.00000001
 43
0.00000001
 40
0.0
 40
0.0
 40
0.0
 40
0.0
 40
0.1086277469152494
 40
0.2195300404679359
 40
0.3340583594962494
 40
0.4525037346025801
 40
0.5781660321028789
 40
0.709801797526806
 40
0.8504665399585413
 40
1.0
 40
1.0
 40
1.0
 40
1.0
 10
91.07259276010824
 20
35.87073807885873
 30
0.0
 10
91.06267834767964
 20
35.88158952871848
 30
0.0
 10
91.04264192583095
 20
35.90351964597208
 30
0.0
 10
91.01703565420016
 20
35.94093210854749
 30
0.0
 10
90.99596494893612
 20
35.98248413362271
 30
0.0
 10
90.97852600307678
 20
36.02779608421559
 30
0.0
 10
90.96460703766638
 20
36.07673706750034
 30
0.0
 10
90.95514739546697
 20
36.12976830482948
 30
0.0
 10
90.94928612343514
 20
36.18656390842186
 30
0.0
 10
90.94861450673741
 20
36.22580664119088
 30
0.0
 10
90.9482684357839
 20
36.24602765414831
 30
0.0
  0
SPLINE
  5
B2
330
1F
100
AcDbEntity
  8
0
  6
Continuous
 62
     7
370
    25
100
AcDbSpline
210
0.0
220
0.0
230
1.0
 70
     8
 71
     3
 72
    15
 73
    11
 74
     0
 42
0.00000001
 43
0.00000001
 40
0.0
 40
0.0
 40
0.0
 40
0.0
 40
0.1319114978615547
 40
0.2585593955794499
 40
0.3829282045992127
 40
0.5051155152535457
 40
0.6266776175559877
 40
0.7489849223246641
 40
0.8728415720964475
 40
1.0
 40
1.0
 40
1.0
 40
1.0
 10
91.45830704582251
 20
35.71436742248807
 30
0.0
 10
91.4394918361574
 20
35.71476231826637
 30
0.0
 10
91.4026121909591
 20
35.71553635248939
 30
0.0
 10
91.34841978261338
 20
35.72312330024987
 30
0.0
 10
91.29660340664586
 20
35.73549066423751
 30
0.0
 10
91.2468454660415
 20
35.75245530925261
 30
0.0
 10
91.19945299734106
 20
35.77458083450598
 30
0.0
 10
91.15461415663825
 20
35.80187748394144
 30
0.0
 10
91.11164342648547
 20
35.83349570234041
 30
0.0
 10
91.08572329747233
 20
35.85821556741993
 30
0.0
 10
91.07259276010824
 20
35.87073807885873
 30
0.0
  0
SPLINE
  5
B3
330
1F
100
AcDbEntity
  8
0
  6
Continuous
 62
     7
370
    25
100
AcDbSpline
210
0.0
220
0.0
230
1.0
 70
     8
 71
     3
 72
    15
 73
    11
 74
     0
 42
0.00000001
 43
0.00000001
 40
0.0
 40
0.0
 40
0.0
 40
0.0
 40
0.1263812889588911
 40
0.2491049464973166
 40
0.3706105362999224
 40
0.4913917559424307
 40
0.6138158455532667
 40
0.7388355742356976
 40
0.867118175426879
 40
1.0
 40
1.0
 40
1.0
 40
1.0
 10
91.77104835856383
 20
35.8394639475846
 30
0.0
 10
91.76041105501392
 20
35.82948695047004
 30
0.0
 10
91.73944430468634
 20
35.80982170292509
 30
0.0
 10
91.70524196790547
 20
35.78395936847916
 30
0.0
 10
91.66865339476719
 20
35.76300592315417
 30
0.0
 10
91.63068753724755
 20
35.74469022413177
 30
0.0
 10
91.59020272322019
 20
35.73153163907109
 30
0.0
 10
91.54805743908297
 20
35.72122919635811
 30
0.0
 10
91.50376902688024
 20
35.71546390855246
 30
0.0
 10
91.47363791367492
 20
35.71473718382632
 30
0.0
 10
91.45830704582251
 20
35.71436742248807
 30
0.0
  0
SPLINE
  5
B4
330
1F
100
AcDbEntity
  8
0
  6
Continuous
 62
     7
370
    25
100
AcDbSpline
210
0.0
220
0.0
230
1.0
 70
     8
 71
     3
 72
    11
 73
     7
 74
     0
 42
0.00000001
 43
0.00000001
 40
0.0
 40
0.0
 40
0.0
 40
0.0
 40
0.2758864184465412
 40
0.5310076877713114
 40
0.7722766677115269
 40
1.0
 40
1.0
 40
1.0
 40
1.0
 10
91.88572017323564
 20
36.0375334456541
 30
0.0
 10
91.87856158496085
 20
36.01753085849576
 30
0.0
 10
91.86478321403231
 20
35.97903121934642
 30
0.0
 10
91.8377179256544
 20
35.92599301303053
 30
0.0
 10
91.80718732804327
 20
35.8791489580158
 30
0.0
 10
91.78286047534361
 20
35.85243509713236
 30
0.0
 10
91.77104835856383
 20
35.8394639475846
 30
0.0
  0
SPLINE
  5
B5
330
1F
100
AcDbEntity
  8
0
  6
Continuous
 62
     7
370
    25
100
AcDbSpline
210
0.0
220
0.0
230
1.0
 70
     8
 71
     3
 72
    11
 73
     7
 74
     0
 42
0.00000001
 43
0.00000001
 40
0.0
 40
0.0
 40
0.0
 40
0.0
 40
0.2409277974217344
 40
0.4854864172424159
 40
0.738041046499392
 40
1.0
 40
1.0
 40
1.0
 40
1.0
 10
91.97954256705803
 20
35.88116278928344
 30
0.0
 10
91.96947613987605
 20
35.89199491236695
 30
0.0
 10
91.94919158276261
 20
35.91382240044936
 30
0.0
 10
91.92363659609937
 20
35.95137674199822
 30
0.0
 10
91.9024187222854
 20
35.99292354345329
 30
0.0
 10
91.89135377163069
 20
36.02248337916675
 30
0.0
 10
91.88572017323564
 20
36.0375334456541
 30
0.0
  0
SPLINE
  5
B6
330
1F
100
AcDbEntity
  8
0
  6
Continuous
 62
     7
370
    25
100
AcDbSpline
210
0.0
220
0.0
230
1.0
 70
     8
 71
     3
 72
    15
 73
    11
 74
     0
 42
0.00000001
 43
0.00000001
 40
0.0
 40
0.0
 40
0.0
 40
0.0
 40
0.1312072932871418
 40
0.2585055422472042
 40
0.3817646425439865
 40
0.5033692670500665
 40
0.6250492974901225
 40
0.7476118725723031
 40
0.8722462138971594
 40
0.9999999999999999
 40
0.9999999999999999
 40
0.9999999999999999
 40
0.9999999999999999
 10
92.26100974852523
 20
35.76649097461164
 30
0.0
 10
92.24734984792937
 20
35.76688032797937
 30
0.0
 10
92.22043701464011
 20
35.76764743475319
 30
0.0
 10
92.18099593690162
 20
35.77315106247847
 30
0.0
 10
92.14325026359796
 20
35.78207006784808
 30
0.0
 10
92.1070590192041
 20
35.79438407074223
 30
0.0
 10
92.07259372225656
 20
35.81077270984778
 30
0.0
 10
92.0396806700845
 20
35.83061612694233
 30
0.0
 10
92.00804469721879
 20
35.8536558107242
 30
0.0
 10
91.98912123994421
 20
35.87191855566933
 30
0.0
 10
91.97954256705803
 20
35.88116278928344
 30
0.0
  0
SPLINE
  5
B7
330
1F
100
AcDbEntity
  8
0
  6
Continuous
 62
     7
370
    25
100
AcDbSpline
210
0.0
220
0.0
230
1.0
 70
     8
 71
     3
 72
    15
 73
    11
 74
     0
 42
0.00000001
 43
0.00000001
 40
0.0
 40
0.0
 40
0.0
 40
0.0
 40
0.1195027114365312
 40
0.2380939422658884
 40
0.3566476293726336
 40
0.4775806195769144
 40
0.6003630199241496
 40
0.727832734004141
 40
0.8606471500295818
 40
1.0
 40
1.0
 40
1.0
 40
1.0
 10
92.59460048211595
 20
35.89158749970815
 30
0.0
 10
92.5840002629433
 20
35.88156196138648
 30
0.0
 10
92.56288067543471
 20
35.86158735232824
 30
0.0
 10
92.52748845334601
 20
35.83602522762442
 30
0.0
 10
92.48922629218951
 20
35.81482083884282
 30
0.0
 10
92.44875423357512
 20
35.79684965424715
 30
0.0
 10
92.40539137064187
 20
35.78353131884493
 30
0.0
 10
92.35974031183936
 20
35.77329733785154
 30
0.0
 10
92.31122014134053
 20
35.76756829829495
 30
0.0
 10
92.27801246860007
 20
35.76685578818887
 30
0.0
 10
92.26100974852523
 20
35.76649097461164
 30
0.0
  0
SPLINE
  5
B8
330
1F
100
AcDbEntity
  8
0
  6
Continuous
 62
     7
370
    25
100
AcDbSpline
210
0.0
220
0.0
230
1.0
 70
     8
 71
     3
 72
    15
 73
    11
 74
     0
 42
0.00000001
 43
0.00000001
 40
0.0
 40
0.0
 40
0.0
 40
0.0
 40
0.1342477572737641
 40
0.263461772575684
 40
0.3884666271730292
 40
0.5118790511869581
 40
0.6324080741525892
 40
0.7535525248235484
 40
0.8755084805282738
 40
1.0
 40
1.0
 40
1.0
 40
1.0
 10
92.73012171763719
 20
36.2356029437236
 30
0.0
 10
92.72984256371383
 20
36.21858844040568
 30
0.0
 10
92.72929472299782
 20
36.18519740807361
 30
0.0
 10
92.72227978191842
 20
36.13640773178624
 30
0.0
 10
92.71214707611807
 20
36.08961120235681
 30
0.0
 10
92.69695954198627
 20
36.04531696928142
 30
0.0
 10
92.6778613379485
 20
36.00315068606868
 30
0.0
 10
92.65480101348122
 20
35.96317820025526
 30
0.0
 10
92.6266636674048
 20
35.92594167315223
 30
0.0
 10
92.60536126680913
 20
35.9031171671574
 30
0.0
 10
92.59460048211595
 20
35.89158749970815
 30
0.0
  0
LINE
  5
B9
330
1F
100
AcDbEntity
  8
0
  6
Continuous
 62
     7
370
    25
100
AcDbLine
 10
92.7301217176
 20
37.0765295847
 30
0.0
 11
92.7301217176
 21
36.2356029437
 31
0.0
  0
LINE
  5
BA
330
1F
100
AcDbEntity
  8
0
  6
Continuous
 62
     7
370
    25
100
AcDbLine
 10
90.947496235
 20
38.7711241792
 30
0.0
 11
92.7301217176
 21
38.7711241792
 31
0.0
  0
LINE
  5
BB
330
1F
100
AcDbEntity
  8
0
  6
Continuous
 62
     7
370
    25
100
AcDbLine
 10
90.947496235
 20
38.5244060325
 30
0.0
 11
90.947496235
 21
38.7711241792
 31
0.0
  0
LINE
  5
BC
330
1F
100
AcDbEntity
  8
0
  6
Continuous
 62
     7
370
    25
100
AcDbLine
 10
92.3548321423
 20
38.5244060325
 30
0.0
 11
90.947496235
 21
38.5244060325
 31
0.0
  0
LINE
  5
BD
330
1F
100
AcDbEntity
  8
0
  6
Continuous
 62
     7
370
    25
100
AcDbLine
 10
90.947496235
 20
37.6904291985
 30
0.0
 11
92.3548321423
 21
38.5244060325
 31
0.0
  0
LINE
  5
BE
330
1F
100
AcDbEntity
  8
0
  6
Continuous
 62
     7
370
    25
100
AcDbLine
 10
90.947496235
 20
37.4298114379
 30
0.0
 11
90.947496235
 21
37.6904291985
 31
0.0
  0
LINE
  5
BF
330
1F
100
AcDbEntity
  8
0
  6
Continuous
 62
     7
370
    25
100
AcDbLine
 10
92.7301217176
 20
37.4298114379
 30
0.0
 11
90.947496235
 21
37.4298114379
 31
0.0
  0
LINE
  5
C0
330
1F
100
AcDbEntity
  8
0
  6
Continuous
 62
     7
370
    25
100
AcDbLine
 10
92.7301217176
 20
37.6765295847
 30
0.0
 11
92.7301217176
 21
37.4298114379
 31
0.0
  0
LINE
  5
C1
330
1F
100
AcDbEntity
  8
0
  6
Continuous
 62
     7
370
    25
100
AcDbLine
 10
91.3227858103
 20
37.6765295847
 30
0.0
 11
92.7301217176
 21
37.6765295847
 31
0.0
  0
LINE
  5
C2
330
1F
100
AcDbEntity
  8
0
  6
Continuous
 62
     7
370
    25
100
AcDbLine
 10
92.7301217176
 20
38.5035566117
 30
0.0
 11
91.3227858103
 21
37.6765295847
 31
0.0
  0
LINE
  5
C3
330
1F
100
AcDbEntity
  8
0
  6
Continuous
 62
     7
370
    25
100
AcDbLine
 10
92.7301217176
 20
38.7711241792
 30
0.0
 11
92.7301217176
 21
38.5035566117
 31
0.0
  0
LINE
  5
C4
330
1F
100
AcDbEntity
  8
0
  6
Continuous
 62
     7
370
    25
100
AcDbLine
 10
92.2193109068
 20
29.7977651059
 30
0.0
 11
92.2193109068
 21
30.0271087352
 31
0.0
  0
SPLINE
  5
C5
330
1F
100
AcDbEntity
  8
0
  6
Continuous
 62
     7
370
    25
100
AcDbSpline
210
0.0
220
0.0
230
1.0
 70
     8
 71
     3
 72
    15
 73
    11
 74
     0
 42
0.00000001
 43
0.00000001
 40
0.0
 40
0.0
 40
0.0
 40
0.0
 40
0.101773836684501
 40
0.2081280746103125
 40
0.3195222361320713
 40
0.4377158324105361
 40
0.5640612668215808
 40
0.7002741501736226
 40
0.8452618826189007
 40
1.0
 40
1.0
 40
1.0
 40
1.0
 10
92.49035337786884
 20
29.70394271206337
 30
0.0
 10
92.4830614282725
 20
29.71071927083066
 30
0.0
 10
92.46814934989278
 20
29.72457737203492
 30
0.0
 10
92.441930461804
 20
29.74175283233644
 30
0.0
 10
92.41272681406443
 20
29.75674829243055
 30
0.0
 10
92.38056967491589
 20
29.7701433263914
 30
0.0
 10
92.344709339686
 20
29.78018765088096
 30
0.0
 10
92.3058364409121
 20
29.78886780115726
 30
0.0
 10
92.26356944799014
 20
29.79439782117851
 30
0.0
 10
92.23438027168669
 20
29.7966185962967
 30
0.0
 10
92.21931090682638
 20
29.79776510588576
 30
0.0
  0
SPLINE
  5
C6
330
1F
100
AcDbEntity
  8
0
  6
Continuous
 62
     7
370
    25
100
AcDbSpline
210
0.0
220
0.0
230
1.0
 70
     8
 71
     3
 72
    11
 73
     7
 74
     0
 42
0.00000001
 43
0.00000001
 40
0.0
 40
0.0
 40
0.0
 40
0.0
 40
0.2450868805218999
 40
0.4875552456976409
 40
0.7346288455311483
 40
1.0
 40
1.0
 40
1.0
 40
1.0
 10
92.56332635084183
 20
29.537147345268
 30
0.0
 10
92.56241983846571
 20
29.55243594152861
 30
0.0
 10
92.56061649891804
 20
29.58284979024356
 30
0.0
 10
92.54648844421786
 20
29.62685188310039
 30
0.0
 10
92.52318632979048
 20
29.66813634373954
 30
0.0
 10
92.5015551522962
 20
29.69172648301446
 30
0.0
 10
92.49035337786884
 20
29.70394271206337
 30
0.0
  0
SPLINE
  5
C7
330
1F
100
AcDbEntity
  8
0
  6
Continuous
 62
     7
370
    25
100
AcDbSpline
210
0.0
220
0.0
230
1.0
 70
     8
 71
     3
 72
    11
 73
     7
 74
     0
 42
0.00000001
 43
0.00000001
 40
0.0
 40
0.0
 40
0.0
 40
0.0
 40
0.238820343026196
 40
0.477799411008103
 40
0.7288233729769951
 40
1.0
 40
1.0
 40
1.0
 40
1.0
 10
92.50077808829356
 20
29.37035197847263
 30
0.0
 10
92.51044690775103
 20
29.38130133993671
 30
0.0
 10
92.52979097276403
 20
29.40320734003769
 30
0.0
 10
92.54956975737846
 20
29.44351385391136
 30
0.0
 10
92.56134116209546
 20
29.488726430531
 30
0.0
 10
92.56264781259118
 20
29.52059705863171
 30
0.0
 10
92.56332635084183
 20
29.537147345268
 30
0.0
  0
SPLINE
  5
C8
330
1F
100
AcDbEntity
  8
0
  6
Continuous
 62
     7
370
    25
100
AcDbSpline
210
0.0
220
0.0
230
1.0
 70
     8
 71
     3
 72
    15
 73
    11
 74
     0
 42
0.00000001
 43
0.00000001
 40
0.0
 40
0.0
 40
0.0
 40
0.0
 40
0.1380420997033146
 40
0.2691721599589615
 40
0.3953313456434696
 40
0.5186017941434358
 40
0.6392985515224098
 40
0.7600805617867279
 40
0.8784957553092632
 40
1.0
 40
1.0
 40
1.0
 40
1.0
 10
92.28185916937464
 20
29.28695429507495
 30
0.0
 10
92.29294866956154
 20
29.28707355373289
 30
0.0
 10
92.31457239684903
 20
29.2873060995332
 30
0.0
 10
92.34597436596233
 20
29.2921180059985
 30
0.0
 10
92.37602488257141
 20
29.29778186264461
 30
0.0
 10
92.40417657736364
 20
29.30742296469694
 30
0.0
 10
92.43122042158866
 20
29.31876112393295
 30
0.0
 10
92.4559941644143
 20
29.33369633899094
 30
0.0
 10
92.47983791989564
 20
29.35022632358652
 30
0.0
 10
92.49373837433667
 20
29.36358608954085
 30
0.0
 10
92.50077808829356
 20
29.37035197847263
 30
0.0
  0
SPLINE
  5
C9
330
1F
100
AcDbEntity
  8
0
  6
Continuous
 62
     7
370
    25
100
AcDbSpline
210
0.0
220
0.0
230
1.0
 70
     8
 71
     3
 72
    15
 73
    11
 74
     0
 42
0.00000001
 43
0.00000001
 40
0.0
 40
0.0
 40
0.0
 40
0.0
 40
0.1133059292696187
 40
0.2263015370273206
 40
0.3429947497841048
 40
0.4612849748553949
 40
0.5864354642724746
 40
0.7160226876888958
 40
0.8547540019702786
 40
1.0
 40
1.0
 40
1.0
 40
1.0
 10
92.04209082960631
 20
29.37035197847263
 30
0.0
 10
92.0492404897357
 20
29.36355656726347
 30
0.0
 10
92.06352022855376
 20
29.34998435607133
 30
0.0
 10
92.08854153072318
 20
29.33361625863622
 30
0.0
 10
92.11487220916503
 20
29.31867438130351
 30
0.0
 10
92.14406426236322
 20
29.30721134281629
 30
0.0
 10
92.17512605612002
 20
29.29776517874825
 30
0.0
 10
92.20886747481622
 20
29.29202355611855
 30
0.0
 10
92.24453476042925
 20
29.28732820610881
 30
0.0
 10
92.26922886506094
 20
29.28708082380715
 30
0.0
 10
92.28185916937464
 20
29.28695429507495
 30
0.0
  0
SPLINE
  5
CA
330
1F
100
AcDbEntity
  8
0
  6
Continuous
 62
     7
370
    25
100
AcDbSpline
210
0.0
220
0.0
230
1.0
 70
     8
 71
     3
 72
    16
 73
    12
 74
     0
 42
0.00000001
 43
0.00000001
 40
0.0
 40
0.0
 40
0.0
 40
0.0
 40
0.2500000000000002
 40
0.2500000000000002
 40
0.5000000000000004
 40
0.5000000000000004
 40
0.6250000000000003
 40
0.6250000000000003
 40
0.7500000000000002
 40
0.7500000000000002
 40
1.0
 40
1.0
 40
1.0
 40
1.0
 10
90.13235644075918
 20
40.5518191599398
 30
0.0
 10
89.80579436077518
 20
41.11744127429745
 30
0.0
 10
89.53664808050068
 20
41.68718717686812
 30
0.0
 10
89.16379311776478
 20
42.8385612447195
 30
0.0
 10
89.06131432255187
 20
43.42027774447545
 30
0.0
 10
89.06018867091824
 20
44.30381218335731
 30
0.0
 10
89.08524073786766
 20
44.5997096870258
 30
0.0
 10
89.18293068125577
 20
45.18502611573163
 30
0.0
 10
89.25546940652546
 20
45.47572198273379
 30
0.0
 10
89.53557482257007
 20
46.34263414395038
 30
0.0
 10
89.80538726451687
 20
46.91369516445447
 30
0.0
 10
90.13235644075932
 20
47.48002239021534
 30
0.0
  0
LINE
  5
CB
330
1F
100
AcDbEntity
  8
0
  6
Continuous
 62
     7
370
    25
100
AcDbLine
 10
88.9162221037
 20
33.6236159297
 30
0.0
 11
88.9162221037
 21
45.3736159297
 31
0.0
  0
LINE
  5
CC
330
1F
100
AcDbEntity
  8
0
  6
Continuous
 62
     7
370
    25
100
AcDbLine
 10
88.9162221037
 20
21.8736159297
 30
0.0
 11
88.9162221037
 21
33.6236159297
 31
0.0
  0
SPLINE
  5
CD
330
1F
100
AcDbEntity
  8
0
  6
Continuous
 62
     7
370
    25
100
AcDbSpline
210
0.0
220
0.0
230
1.0
 70
     8
 71
     3
 72
    16
 73
    12
 74
     0
 42
0.00000001
 43
0.00000001
 40
0.0
 40
0.0
 40
0.0
 40
0.0
 40
0.2500000000000002
 40
0.2500000000000002
 40
0.5000000000000004
 40
0.5000000000000004
 40
0.6250000000000003
 40
0.6250000000000003
 40
0.7500000000000002
 40
0.7500000000000002
 40
1.0
 40
1.0
 40
1.0
 40
1.0
 10
93.70008776671597
 20
40.5518191599398
 30
0.0
 10
94.02664984669997
 20
41.11744127429745
 30
0.0
 10
94.29579612697447
 20
41.68718717686812
 30
0.0
 10
94.66865108971035
 20
42.8385612447195
 30
0.0
 10
94.77112988492328
 20
43.42027774447545
 30
0.0
 10
94.77225553655691
 20
44.30381218335731
 30
0.0
 10
94.74720346960748
 20
44.5997096870258
 30
0.0
 10
94.64951352621938
 20
45.18502611573163
 30
0.0
 10
94.57697480094969
 20
45.47572198273379
 30
0.0
 10
94.29686938490507
 20
46.34263414395038
 30
0.0
 10
94.02705694295828
 20
46.91369516445447
 30
0.0
 10
93.70008776671582
 20
47.48002239021534
 30
0.0
  0
LINE
  5
CE
330
1F
100
AcDbEntity
  8
0
  6
Continuous
 62
     7
370
    25
100
AcDbLine
 10
94.9162221037
 20
33.6236159297
 30
0.0
 11
94.9162221037
 21
45.3736159297
 31
0.0
  0
LINE
  5
CF
330
1F
100
AcDbEntity
  8
0
  6
Continuous
 62
     7
370
    25
100
AcDbLine
 10
94.9162221037
 20
21.8736159297
 30
0.0
 11
94.9162221037
 21
33.6236159297
 31
0.0
  0
LINE
  5
D0
330
1F
100
AcDbEntity
  8
0
  6
Continuous
 62
     7
370
    25
100
AcDbLine
 10
92.3652568528
 20
32.0877264958
 30
0.0
 11
91.6042529918
 21
32.549888658
 31
0.0
  0
LINE
  5
D1
330
1F
100
AcDbEntity
  8
0
  6
Continuous
 62
     7
370
    25
100
AcDbLine
 10
91.6042529918
 20
32.0877264958
 30
0.0
 11
92.3652568528
 21
32.0877264958
 31
0.0
  0
LINE
  5
D2
330
1F
100
AcDbEntity
  8
0
  6
Continuous
 62
     7
370
    25
100
AcDbLine
 10
91.6042529918
 20
32.549888658
 30
0.0
 11
91.6042529918
 21
32.0877264958
 31
0.0
  0
LINE
  5
D3
330
1F
100
AcDbEntity
  8
0
  6
Continuous
 62
     7
370
    25
100
AcDbLine
 10
92.3652568528
 20
30.7533635615
 30
0.0
 11
91.6042529918
 21
31.2155257236
 31
0.0
  0
LINE
  5
D4
330
1F
100
AcDbEntity
  8
0
  6
Continuous
 62
     7
370
    25
100
AcDbLine
 10
91.6042529918
 20
30.7533635615
 30
0.0
 11
92.3652568528
 21
30.7533635615
 31
0.0
  0
LINE
  5
D5
330
1F
100
AcDbEntity
  8
0
  6
Continuous
 62
     7
370
    25
100
AcDbLine
 10
91.6042529918
 20
31.2155257236
 30
0.0
 11
91.6042529918
 21
30.7533635615
 31
0.0
  0
LINE
  5
D6
330
1F
100
AcDbEntity
  8
0
  6
Continuous
 62
     7
370
    25
100
AcDbLine
 10
90.1323564408
 20
47.4800223902
 30
0.0
 11
93.7000877667
 21
47.4800223902
 31
0.0
  0
LINE
  5
D7
330
1F
100
AcDbEntity
  8
0
  6
Continuous
 62
     7
370
    25
100
AcDbLine
 10
92.5328244203
 20
36.8298114379
 30
0.0
 11
91.9795425671
 21
36.8298114379
 31
0.0
  0
LINE
  5
D8
330
1F
100
AcDbEntity
  8
0
  6
Continuous
 62
     7
370
    25
100
AcDbLine
 10
92.5328244203
 20
36.2460276541
 30
0.0
 11
92.5328244203
 21
36.8298114379
 31
0.0
  0
SPLINE
  5
D9
330
1F
100
AcDbEntity
  8
0
  6
Continuous
 62
     7
370
    25
100
AcDbSpline
210
0.0
220
0.0
230
1.0
 70
     8
 71
     3
 72
    11
 73
     7
 74
     0
 42
0.00000001
 43
0.00000001
 40
0.0
 40
0.0
 40
0.0
 40
0.0
 40
0.2499695538886841
 40
0.4922399851273383
 40
0.7405148106355972
 40
1.0
 40
1.0
 40
1.0
 40
1.0
 10
92.46950395701943
 20
36.08965699777765
 30
0.0
 10
92.47929912109016
 20
36.10033999310391
 30
0.0
 10
92.49858775581183
 20
36.12137694491945
 30
0.0
 10
92.518351518965
 20
36.159766044082
 30
0.0
 10
92.53086620361391
 20
36.20161025588248
 30
0.0
 10
92.53216214414037
 20
36.23100552440878
 30
0.0
 10
92.53282442033989
 20
36.24602765414831
 30
0.0
  0
SPLINE
  5
DA
330
1F
100
AcDbEntity
  8
0
  6
Continuous
 62
     7
370
    25
100
AcDbSpline
210
0.0
220
0.0
230
1.0
 70
     8
 71
     3
 72
    11
 73
     7
 74
     0
 42
0.00000001
 43
0.00000001
 40
0.0
 40
0.0
 40
0.0
 40
0.0
 40
0.2516095171558482
 40
0.4964930798665569
 40
0.7426069856111284
 40
1.0
 40
1.0
 40
1.0
 40
1.0
 10
92.27143445894993
 20
36.00625931437997
 30
0.0
 10
92.28994821621492
 20
36.00732822997994
 30
0.0
 10
92.3264808262223
 20
36.00943748723041
 30
0.0
 10
92.37920722344548
 20
36.02539720446307
 30
0.0
 10
92.4278368127148
 20
36.05213076559322
 30
0.0
 10
92.45540902628419
 20
36.07696283185336
 30
0.0
 10
92.46950395701943
 20
36.08965699777765
 30
0.0
  0
SPLINE
  5
DB
330
1F
100
AcDbEntity
  8
0
  6
Continuous
 62
     7
370
    25
100
AcDbSpline
210
0.0
220
0.0
230
1.0
 70
     8
 71
     3
 72
    15
 73
    11
 74
     0
 42
0.00000001
 43
0.00000001
 40
0.0
 40
0.0
 40
0.0
 40
0.0
 40
0.1215042446907351
 40
0.2399194382132706
 40
0.360701448477589
 40
0.4813982058565626
 40
0.6046686543565305
 40
0.730827840041038
 40
0.8619579002966852
 40
1.0
 40
1.0
 40
1.0
 40
1.0
 10
92.05251554003101
 20
36.08965699777766
 30
0.0
 10
92.05955525398788
 20
36.08289110884588
 30
0.0
 10
92.07345570842892
 20
36.06953134289154
 30
0.0
 10
92.09729946391026
 20
36.05300135829596
 30
0.0
 10
92.1220732067359
 20
36.03806614323797
 30
0.0
 10
92.14911705096094
 20
36.02672798400196
 30
0.0
 10
92.17726874575315
 20
36.01708688194962
 30
0.0
 10
92.20731926236225
 20
36.01142302530351
 30
0.0
 10
92.23872123147554
 20
36.00661111883822
 30
0.0
 10
92.26034495876303
 20
36.00637857303791
 30
0.0
 10
92.27143445894993
 20
36.00625931437997
 30
0.0
  0
SPLINE
  5
DC
330
1F
100
AcDbEntity
  8
0
  6
Continuous
 62
     7
370
    25
100
AcDbSpline
210
0.0
220
0.0
230
1.0
 70
     8
 71
     3
 72
    11
 73
     7
 74
     0
 42
0.00000001
 43
0.00000001
 40
0.0
 40
0.0
 40
0.0
 40
0.0
 40
0.2562600332085394
 40
0.501620804586522
 40
0.7449078564687267
 40
1.0
 40
1.0
 40
1.0
 40
1.0
 10
91.97954256705803
 20
36.26687707499773
 30
0.0
 10
91.98041517216146
 20
36.25004776930584
 30
0.0
 10
91.98212326869367
 20
36.21710494261492
 30
0.0
 10
91.99612746810442
 20
36.16986259011999
 30
0.0
 10
92.01930274060592
 20
36.1264425821237
 30
0.0
 10
92.041271151877
 20
36.10211097323347
 30
0.0
 10
92.05251554003101
 20
36.08965699777765
 30
0.0
  0
LINE
  5
DD
330
1F
100
AcDbEntity
  8
0
  6
Continuous
 62
     7
370
    25
100
AcDbLine
 10
91.9795425671
 20
36.8298114379
 30
0.0
 11
91.9795425671
 21
36.266877075
 31
0.0
  0
LINE
  5
DE
330
1F
100
AcDbEntity
  8
0
  6
Continuous
 62
     7
370
    25
100
AcDbLine
 10
91.7822452698
 20
36.2981512063
 30
0.0
 11
91.7822452698
 21
36.8298114379
 31
0.0
  0
SPLINE
  5
DF
330
1F
100
AcDbEntity
  8
0
  6
Continuous
 62
     7
370
    25
100
AcDbSpline
210
0.0
220
0.0
230
1.0
 70
     8
 71
     3
 72
    15
 73
    11
 74
     0
 42
0.00000001
 43
0.00000001
 40
0.0
 40
0.0
 40
0.0
 40
0.0
 40
0.1193556939378553
 40
0.2390663805212365
 40
0.3573840708360855
 40
0.4787728926029021
 40
0.6013911634438122
 40
0.7292416297469778
 40
0.8608048514681801
 40
1.0
 40
1.0
 40
1.0
 40
1.0
 10
91.68765067516614
 20
36.04795815607881
 30
0.0
 10
91.69517883650455
 20
36.05590333475548
 30
0.0
 10
91.7102575497504
 20
36.07181732298812
 30
0.0
 10
91.72933984649275
 20
36.09853888146909
 30
0.0
 10
91.74583945402145
 20
36.12708622559641
 30
0.0
 10
91.75925362890035
 20
36.15751752693528
 30
0.0
 10
91.76984970574858
 20
36.18995885168658
 30
0.0
 10
91.77702692333851
 20
36.22427176727365
 30
0.0
 10
91.78133096709028
 20
36.26058998329948
 30
0.0
 10
91.78193482847853
 20
36.28539771161672
 30
0.0
 10
91.78224526976074
 20
36.29815120627186
 30
0.0
  0
LINE
  5
E0
330
1F
100
AcDbEntity
  8
0
  6
Continuous
 62
     7
370
    25
100
AcDbLine
 10
91.7822452698
 20
36.8298114379
 30
0.0
 11
91.1455657331
 21
36.8298114379
 31
0.0
  0
SPLINE
  5
E1
330
1F
100
AcDbEntity
  8
0
  6
Continuous
 62
     7
370
    25
100
AcDbSpline
210
0.0
220
0.0
230
1.0
 70
     8
 71
     3
 72
    15
 73
    11
 74
     0
 42
0.00000001
 43
0.00000001
 40
0.0
 40
0.0
 40
0.0
 40
0.0
 40
0.1277118540336133
 40
0.2523621141955309
 40
0.3748537650566256
 40
0.4969693854038489
 40
0.6192731655242187
 40
0.7424854443019969
 40
0.8694478780376613
 40
1.0
 40
1.0
 40
1.0
 40
1.0
 10
91.22896341647889
 20
36.05838286650352
 30
0.0
 10
91.23677791736162
 20
36.05085322039108
 30
0.0
 10
91.25221958469211
 20
36.03597443387231
 30
0.0
 10
91.27802569088857
 20
36.01724479513832
 30
0.0
 10
91.30467976969453
 20
36.00067006539693
 30
0.0
 10
91.3330682948411
 20
35.98771079846443
 30
0.0
 10
91.36245730734939
 20
35.97710713894698
 30
0.0
 10
91.39326985979652
 20
35.96975396917652
 30
0.0
 10
91.42536984211276
 20
35.96552543084606
 30
0.0
 10
91.44722641951948
 20
35.96488510074968
 30
0.0
 10
91.45830704582251
 20
35.96456047268113
 30
0.0
  0
SPLINE
  5
E2
330
1F
100
AcDbEntity
  8
0
  6
Continuous
 62
     7
370
    25
100
AcDbSpline
210
0.0
220
0.0
230
1.0
 70
     8
 71
     3
 72
    15
 73
    11
 74
     0
 42
0.00000001
 43
0.00000001
 40
0.0
 40
0.0
 40
0.0
 40
0.0
 40
0.1452459980297225
 40
0.2839773123111045
 40
0.4135645357275252
 40
0.538715025144607
 40
0.6570052502158948
 40
0.7736984629726806
 40
0.8866940707303834
 40
1.0
 40
1.0
 40
1.0
 40
1.0
 10
91.1455657330812
 20
36.29815120627186
 30
0.0
 10
91.14569226181341
 20
36.28552090195815
 30
0.0
 10
91.14593964411506
 20
36.26082679732647
 30
0.0
 10
91.1506349941248
 20
36.22515951171343
 30
0.0
 10
91.1563766167545
 20
36.19141809301723
 30
0.0
 10
91.16582278082255
 20
36.16035629926044
 30
0.0
 10
91.17728581930977
 20
36.13116424606226
 30
0.0
 10
91.19222769664248
 20
36.1048335676204
 30
0.0
 10
91.20859579407758
 20
36.07981226545098
 30
0.0
 10
91.22216800526972
 20
36.06553252663293
 30
0.0
 10
91.22896341647889
 20
36.05838286650352
 30
0.0
  0
LINE
  5
E3
330
1F
100
AcDbEntity
  8
0
  6
Continuous
 62
     7
370
    25
100
AcDbLine
 10
91.1455657331
 20
36.8298114379
 30
0.0
 11
91.1455657331
 21
36.2981512063
 31
0.0
  0
SPLINE
  5
E4
330
1F
100
AcDbEntity
  8
0
  6
Continuous
 62
     7
370
    25
100
AcDbSpline
210
0.0
220
0.0
230
1.0
 70
     8
 71
     3
 72
    15
 73
    11
 74
     0
 42
0.00000001
 43
0.00000001
 40
0.0
 40
0.0
 40
0.0
 40
0.0
 40
0.1417962611116214
 40
0.2768819513476977
 40
0.4055805706087833
 40
0.5298229690785615
 40
0.6485572024501451
 40
0.767211466637124
 40
0.8821786188665564
 40
1.0
 40
1.0
 40
1.0
 40
1.0
 10
91.45830704582251
 20
35.96456047268113
 30
0.0
 10
91.47016697764816
 20
35.96468238671713
 30
0.0
 10
91.49332556477162
 20
35.96492044515336
 30
0.0
 10
91.52692151670706
 20
35.96969579298151
 30
0.0
 10
91.5588863301761
 20
35.97535757515171
 30
0.0
 10
91.58851553018052
 20
35.98487245830706
 30
0.0
 10
91.61651490526937
 20
35.99638679669258
 30
0.0
 10
91.6420221554342
 20
36.01118686635885
 30
0.0
 10
91.66630724341339
 20
36.02783215605583
 30
0.0
 10
91.68047828070932
 20
36.04119487580247
 30
0.0
 10
91.68765067516614
 20
36.04795815607881
 30
0.0
  0
LINE
  5
E5
330
1F
100
AcDbEntity
  8
0
  6
Continuous
 62
     7
370
    25
100
AcDbLine
 10
73.4181575876
 20
44.0134576635
 30
0.0
 11
73.4181575876
 21
23.2337741958
 31
0.0
  0
LINE
  5
E6
330
1F
100
AcDbEntity
  8
0
  6
Continuous
 62
     7
370
    25
100
AcDbLine
 10
71.9162221037
 20
24.7357096797
 30
0.0
 11
71.9162221037
 21
42.5115221797
 31
0.0
  0
LINE
  5
E7
330
1F
100
AcDbEntity
  8
0
  6
Continuous
 62
     7
370
    18
100
AcDbLine
 10
72.103516457
 20
42.6988165329
 30
0.0
 11
87.5162221037
 21
43.1804635844
 31
0.0
  0
LINE
  5
E8
330
1F
100
AcDbEntity
  8
0
  6
Continuous
 62
     7
370
    18
100
AcDbLine
 10
72.103516457
 20
24.5484153264
 30
0.0
 11
87.5162221037
 21
24.066768275
 31
0.0
  0
LINE
  5
E9
330
1F
100
AcDbEntity
  8
0
  6
Continuous
 62
     7
370
    25
100
AcDbLine
 10
87.5162221037
 20
22.7932096797
 30
0.0
 11
87.5162221037
 21
44.4540221797
 31
0.0
  0
LINE
  5
EA
330
1F
100
AcDbEntity
  8
FORMAT
  6
CENTERX2
370
    18
100
AcDbLine
 10
96.2595661967
 20
33.6236159297
 30
0.0
 11
70.9162221037
 21
33.6236159297
 31
0.0
  0
SPLINE
  5
EB
330
1F
100
AcDbEntity
  8
0
  6
Continuous
 62
     7
370
    25
100
AcDbSpline
210
0.0
220
0.0
230
1.0
 70
    24
 71
     3
 72
    16
 73
    12
 74
     0
 42
0.00000001
 43
0.00000001
 40
0.0
 40
0.0
 40
0.0
 40
0.0
 40
0.2500000000000002
 40
0.2500000000000002
 40
0.5000000000000004
 40
0.5000000000000004
 40
0.6250000000000003
 40
0.6250000000000003
 40
0.7500000000000002
 40
0.7500000000000002
 40
1.0
 40
1.0
 40
1.0
 40
1.0
 10
101.8736769895602
 20
40.5518191599398
 30
0.0
 10
102.8533632295122
 20
41.11744127429745
 30
0.0
 10
103.8401920801688
 20
41.68718717686812
 30
0.0
 10
105.8344304642046
 20
42.8385612447195
 30
0.0
 10
106.841992997383
 20
43.42027774447545
 30
0.0
 10
108.3723195357633
 20
44.30381218335731
 30
0.0
 10
108.8848290459499
 20
44.5997096870258
 30
0.0
 10
109.8986268389732
 20
45.18502611573163
 30
0.0
 10
110.4021268501712
 20
45.47572198273379
 30
0.0
 10
111.9036627590977
 20
46.34263414395038
 30
0.0
 10
112.8927694608329
 20
46.91369516445447
 30
0.0
 10
113.8736769895602
 20
47.48002239021534
 30
0.0
  0
SPLINE
  5
EC
330
1F
100
AcDbEntity
  8
0
  6
Continuous
 62
     7
370
    25
100
AcDbSpline
210
0.0
220
0.0
230
1.0
 70
    24
 71
     3
 72
    16
 73
    12
 74
     0
 42
0.00000001
 43
0.00000001
 40
0.0
 40
0.0
 40
0.0
 40
0.0
 40
0.2499999999999999
 40
0.2499999999999999
 40
0.4999999999999999
 40
0.4999999999999999
 40
0.6249999999999999
 40
0.6249999999999999
 40
0.7499999999999998
 40
0.7499999999999998
 40
1.0
 40
1.0
 40
1.0
 40
1.0
 10
113.8736769895602
 20
47.48002239021535
 30
0.0
 10
114.8533632295122
 20
46.9144002758577
 30
0.0
 10
115.8401920801688
 20
46.34465437328702
 30
0.0
 10
117.8344304642046
 20
45.19328030543564
 30
0.0
 10
118.841992997383
 20
44.61156380567969
 30
0.0
 10
120.3723195357633
 20
43.72802936679783
 30
0.0
 10
120.8848290459499
 20
43.43213186312934
 30
0.0
 10
121.8986268389732
 20
42.8468154344235
 30
0.0
 10
122.4021268501712
 20
42.55611956742135
 30
0.0
 10
123.9036627590977
 20
41.68920740620476
 30
0.0
 10
124.8927694608329
 20
41.11814638570068
 30
0.0
 10
125.8736769895603
 20
40.5518191599398
 30
0.0
  0
SPLINE
  5
ED
330
1F
100
AcDbEntity
  8
0
  6
Continuous
 62
     7
370
    25
100
AcDbSpline
210
0.0
220
0.0
230
1.0
 70
    24
 71
     3
 72
    14
 73
    10
 74
     0
 42
0.00000001
 43
0.00000001
 40
0.0
 40
0.0
 40
0.0
 40
0.0
 40
0.2500000000000001
 40
0.2500000000000001
 40
0.5000000000000001
 40
0.5000000000000001
 40
0.7500000000000001
 40
0.7500000000000001
 40
1.0
 40
1.0
 40
1.0
 40
1.0
 10
125.8736769895602
 20
40.55181915993981
 30
0.0
 10
125.8736769895602
 20
39.42399948387157
 30
0.0
 10
125.8736769895602
 20
38.28576570059543
 30
0.0
 10
125.8736769895602
 20
35.9788435197194
 30
0.0
 10
125.8736769895602
 20
34.80879642532465
 30
0.0
 10
125.8736769895602
 20
32.43503556046428
 30
0.0
 10
125.8736769895602
 20
31.26691764489143
 30
0.0
 10
125.8736769895602
 20
28.9610719672101
 30
0.0
 10
125.8736769895602
 20
27.82311765049047
 30
0.0
 10
125.8736769895602
 20
26.69541269938879
 30
0.0
  0
SPLINE
  5
EE
330
1F
100
AcDbEntity
  8
0
  6
Continuous
 62
     7
370
    25
100
AcDbSpline
210
0.0
220
0.0
230
1.0
 70
    24
 71
     3
 72
    16
 73
    12
 74
     0
 42
0.00000001
 43
0.00000001
 40
0.0
 40
0.0
 40
0.0
 40
0.0
 40
0.25
 40
0.25
 40
0.5
 40
0.5
 40
0.625
 40
0.625
 40
0.75
 40
0.75
 40
1.0
 40
1.0
 40
1.0
 40
1.0
 10
125.8736769895603
 20
26.6954126993888
 30
0.0
 10
124.8939907496083
 20
26.12979058503116
 30
0.0
 10
123.9071618989517
 20
25.56004468246048
 30
0.0
 10
121.9129235149158
 20
24.4086706146091
 30
0.0
 10
120.9053609817374
 20
23.82695411485316
 30
0.0
 10
119.3750344433572
 20
22.94341967597129
 30
0.0
 10
118.8625249331705
 20
22.6475221723028
 30
0.0
 10
117.8487271401473
 20
22.06220574359697
 30
0.0
 10
117.3452271289492
 20
21.77150987659481
 30
0.0
 10
115.8436912200228
 20
20.90459771537822
 30
0.0
 10
114.8545845182876
 20
20.33353669487414
 30
0.0
 10
113.8736769895602
 20
19.76720946911326
 30
0.0
  0
SPLINE
  5
EF
330
1F
100
AcDbEntity
  8
0
  6
Continuous
 62
     7
370
    25
100
AcDbSpline
210
0.0
220
0.0
230
1.0
 70
    24
 71
     3
 72
    16
 73
    12
 74
     0
 42
0.00000001
 43
0.00000001
 40
0.0
 40
0.0
 40
0.0
 40
0.0
 40
0.2499999999999999
 40
0.2499999999999999
 40
0.4999999999999999
 40
0.4999999999999999
 40
0.625
 40
0.625
 40
0.7499999999999998
 40
0.7499999999999998
 40
1.0
 40
1.0
 40
1.0
 40
1.0
 10
113.8736769895603
 20
19.76720946911325
 30
0.0
 10
112.8939907496083
 20
20.3328315834709
 30
0.0
 10
111.9071618989517
 20
20.90257748604159
 30
0.0
 10
109.9129235149158
 20
22.05395155389296
 30
0.0
 10
108.9053609817374
 20
22.6356680536489
 30
0.0
 10
107.3750344433572
 20
23.51920249253077
 30
0.0
 10
106.8625249331705
 20
23.81509999619926
 30
0.0
 10
105.8487271401473
 20
24.40041642490509
 30
0.0
 10
105.3452271289492
 20
24.69111229190725
 30
0.0
 10
103.8436912200228
 20
25.55802445312384
 30
0.0
 10
102.8545845182876
 20
26.12908547362792
 30
0.0
 10
101.8736769895602
 20
26.6954126993888
 30
0.0
  0
SPLINE
  5
F0
330
1F
100
AcDbEntity
  8
0
  6
Continuous
 62
     7
370
    25
100
AcDbSpline
210
0.0
220
0.0
230
1.0
 70
    24
 71
     3
 72
    14
 73
    10
 74
     0
 42
0.00000001
 43
0.00000001
 40
0.0
 40
0.0
 40
0.0
 40
0.0
 40
0.2499999999999999
 40
0.2499999999999999
 40
0.4999999999999999
 40
0.4999999999999999
 40
0.7499999999999999
 40
0.7499999999999999
 40
1.0
 40
1.0
 40
1.0
 40
1.0
 10
101.8736769895602
 20
26.69541269938878
 30
0.0
 10
101.8736769895602
 20
27.82323237545702
 30
0.0
 10
101.8736769895602
 20
28.96146615873316
 30
0.0
 10
101.8736769895602
 20
31.26838833960919
 30
0.0
 10
101.8736769895602
 20
32.43843543400394
 30
0.0
 10
101.8736769895602
 20
34.81219629886432
 30
0.0
 10
101.8736769895602
 20
35.98031421443717
 30
0.0
 10
101.8736769895602
 20
38.2861598921185
 30
0.0
 10
101.8736769895602
 20
39.42411420883813
 30
0.0
 10
101.8736769895602
 20
40.55181915993981
 30
0.0
  0
CIRCLE
  5
F1
330
1F
100
AcDbEntity
  8
0
  6
Continuous
 62
     7
370
    25
100
AcDbCircle
 10
113.8736769896
 20
33.6236159297
 30
0.0
 40
11.75000000000001
  0
CIRCLE
  5
F2
330
1F
100
AcDbEntity
  8
0
  6
Continuous
 62
     7
370
    25
100
AcDbCircle
 10
113.8736769896
 20
33.6236159297
 30
0.0
 40
8.52709950000002
  0
CIRCLE
  5
F3
330
1F
100
AcDbEntity
  8
0
  6
Continuous
 62
     7
370
    25
100
AcDbCircle
 10
113.8736769896
 20
33.6236159297
 30
0.0
 40
7.525843676364133
  0
CIRCLE
  5
F4
330
1F
100
AcDbEntity
  8
0
  6
Continuous
 62
     7
370
    25
100
AcDbCircle
 10
113.8736769896
 20
33.6236159297
 30
0.0
 40
7.120066805085614
  0
CIRCLE
  5
F5
330
1F
100
AcDbEntity
  8
0
  6
Continuous
 62
     7
370
    25
100
AcDbCircle
 10
113.8736769896
 20
33.6236159297
 30
0.0
 40
7.099999999999994
  0
INSERT
  5
101
330
1F
100
AcDbEntity
  8
FORMAT
100
AcDbBlockReference
  2
SW_CENTERMARKSYMBOL_0
 10
113.8736769896
 20
33.6236159297
 30
0.0
  0
ARC
  5
102
330
1F
100
AcDbEntity
  8
0
  6
Continuous
 62
     7
370
    18
100
AcDbCircle
 10
113.8736769896
 20
33.6236159297
 30
0.0
 40
8.411433630062858
100
AcDbArc
 50
75.0
 51
345.0
  0
LINE
  5
103
330
1F
100
AcDbEntity
  8
0
  6
Continuous
 62
     7
370
    25
100
AcDbLine
 10
94.7718845364
 20
53.8416173407
 30
0.0
 11
94.9162221037
 21
54.0916173407
 31
0.0
  0
LINE
  5
104
330
1F
100
AcDbEntity
  8
0
  6
Continuous
 62
     7
370
    25
100
AcDbLine
 10
94.9162221037
 20
77.5916173407
 30
0.0
 11
94.7718845364
 21
77.8416173407
 31
0.0
  0
LINE
  5
105
330
1F
100
AcDbEntity
  8
0
  6
Continuous
 62
     7
370
    25
100
AcDbLine
 10
89.060559671
 20
77.8416173407
 30
0.0
 11
88.9162221037
 21
77.5916173407
 31
0.0
  0
LINE
  5
106
330
1F
100
AcDbEntity
  8
0
  6
Continuous
 62
     7
370
    25
100
AcDbLine
 10
88.9162221037
 20
54.0916173407
 30
0.0
 11
89.060559671
 21
53.8416173407
 31
0.0
  0
LINE
  5
107
330
1F
100
AcDbEntity
  8
0
  6
Continuous
 62
     7
370
    25
100
AcDbLine
 10
88.9162221037
 20
76.7157735907
 30
0.0
 11
73.4181575876
 21
76.2314590746
 31
0.0
  0
LINE
  5
108
330
1F
100
AcDbEntity
  8
0
  6
Continuous
 62
     7
370
    25
100
AcDbLine
 10
73.4181575876
 20
55.4517756068
 30
0.0
 11
88.9162221037
 21
54.9674610907
 31
0.0
  0
LINE
  5
109
330
1F
100
AcDbEntity
  8
0
  6
Continuous
 62
     7
370
    25
100
AcDbLine
 10
73.4181575876
 20
76.2314590746
 30
0.0
 11
71.9162221037
 21
74.7295235907
 31
0.0
  0
LINE
  5
10A
330
1F
100
AcDbEntity
  8
0
  6
Continuous
 62
     7
370
    25
100
AcDbLine
 10
71.9162221037
 20
56.9537110907
 30
0.0
 11
73.4181575876
 21
55.4517756068
 31
0.0
  0
SPLINE
  5
10B
330
1F
100
AcDbEntity
  8
0
  6
Continuous
 62
     7
370
    25
100
AcDbSpline
210
0.0
220
0.0
230
1.0
 70
     8
 71
     3
 72
    16
 73
    12
 74
     0
 42
0.00000001
 43
0.00000001
 40
0.0
 40
0.0
 40
0.0
 40
0.0
 40
0.2500000000000002
 40
0.2500000000000002
 40
0.5000000000000004
 40
0.5000000000000004
 40
0.6250000000000003
 40
0.6250000000000003
 40
0.7500000000000002
 40
0.7500000000000002
 40
1.0
 40
1.0
 40
1.0
 40
1.0
 10
93.70008776671597
 20
53.84161734067901
 30
0.0
 10
94.02664984669997
 20
54.82130358063099
 30
0.0
 10
94.29579612697447
 20
55.8081324312876
 30
0.0
 10
94.66865108971035
 20
57.80237081532344
 30
0.0
 10
94.77112988492328
 20
58.80993334850186
 30
0.0
 10
94.77225553655691
 20
60.34025988688211
 30
0.0
 10
94.74720346960748
 20
60.85276939706873
 30
0.0
 10
94.64951352621938
 20
61.866567190092
 30
0.0
 10
94.57697480094969
 20
62.37006720129003
 30
0.0
 10
94.29686938490507
 20
63.8716031102165
 30
0.0
 10
94.02705694295828
 20
64.86070981195171
 30
0.0
 10
93.70008776671582
 20
65.84161734067908
 30
0.0
  0
SPLINE
  5
10C
330
1F
100
AcDbEntity
  8
0
  6
Continuous
 62
     7
370
    25
100
AcDbSpline
210
0.0
220
0.0
230
1.0
 70
     8
 71
     3
 72
    16
 73
    12
 74
     0
 42
0.00000001
 43
0.00000001
 40
0.0
 40
0.0
 40
0.0
 40
0.0
 40
0.2499999999999999
 40
0.2499999999999999
 40
0.4999999999999999
 40
0.4999999999999999
 40
0.6249999999999999
 40
0.6249999999999999
 40
0.7499999999999998
 40
0.7499999999999998
 40
1.0
 40
1.0
 40
1.0
 40
1.0
 10
93.70008776671597
 20
65.84161734067901
 30
0.0
 10
94.02664984669997
 20
66.821303580631
 30
0.0
 10
94.29579612697447
 20
67.8081324312876
 30
0.0
 10
94.66865108971035
 20
69.80237081532344
 30
0.0
 10
94.77112988492328
 20
70.80993334850187
 30
0.0
 10
94.77225553655691
 20
72.34025988688211
 30
0.0
 10
94.74720346960748
 20
72.85276939706874
 30
0.0
 10
94.64951352621938
 20
73.866567190092
 30
0.0
 10
94.57697480094969
 20
74.37006720129003
 30
0.0
 10
94.29686938490507
 20
75.8716031102165
 30
0.0
 10
94.02705694295828
 20
76.8607098119517
 30
0.0
 10
93.70008776671582
 20
77.84161734067906
 30
0.0
  0
SPLINE
  5
10D
330
1F
100
AcDbEntity
  8
0
  6
Continuous
 62
     7
370
    25
100
AcDbSpline
210
0.0
220
0.0
230
1.0
 70
    24
 71
     3
 72
    14
 73
    10
 74
     0
 42
0.00000001
 43
0.00000001
 40
0.0
 40
0.0
 40
0.0
 40
0.0
 40
0.1638914286381826
 40
0.3278285393495351
 40
0.4916818515520734
 40
0.6585716995184105
 40
0.8255656451325715
 40
0.9924247446322447
 40
1.0
 40
1.0
 40
1.0
 40
1.0
 10
93.70008776671568
 20
77.84161734067904
 30
0.0
 10
93.80325201050083
 20
77.84161734067905
 30
0.0
 10
94.00960925342807
 20
77.84161734067905
 30
0.0
 10
94.26853415657615
 20
77.84161734067904
 30
0.0
 10
94.48368677023069
 20
77.84161734067904
 30
0.0
 10
94.6460192984792
 20
77.84161734067904
 30
0.0
 10
94.74129730797249
 20
77.84161734067904
 30
0.0
 10
94.78193661091467
 20
77.84161734067904
 30
0.0
 10
94.77091895930411
 20
77.84161734067904
 30
0.0
 10
94.77044048977004
 20
77.84161734067904
 30
0.0
  0
SPLINE
  5
10E
330
1F
100
AcDbEntity
  8
0
  6
Continuous
 62
     7
370
    25
100
AcDbSpline
210
0.0
220
0.0
230
1.0
 70
    24
 71
     3
 72
    13
 73
     9
 74
     0
 42
0.00000001
 43
0.00000001
 40
0.0
 40
0.0
 40
0.0
 40
0.0
 40
0.1584540730871392
 40
0.3246164265555321
 40
0.4906741937996869
 40
0.6604030504345446
 40
0.8302270010289559
 40
1.0
 40
1.0
 40
1.0
 40
1.0
 10
94.77044048977004
 20
53.84161734067904
 30
0.0
 10
94.76509389199977
 20
53.84161734067905
 30
0.0
 10
94.75414060169554
 20
53.84161734067904
 30
0.0
 10
94.65681222137944
 20
53.84161734067904
 30
0.0
 10
94.50198098355794
 20
53.84161734067905
 30
0.0
 10
94.28590708802241
 20
53.84161734067905
 30
0.0
 10
94.02038278526463
 20
53.84161734067905
 30
0.0
 10
93.80684209333188
 20
53.84161734067905
 30
0.0
 10
93.70008776671568
 20
53.84161734067905
 30
0.0
  0
LINE
  5
10F
330
1F
100
AcDbEntity
  8
0
  6
Continuous
 62
     7
370
    25
100
AcDbLine
 10
94.9162221037
 20
54.0916173407
 30
0.0
 11
94.9162221037
 21
77.5916173407
 31
0.0
  0
SPLINE
  5
110
330
1F
100
AcDbEntity
  8
0
  6
Continuous
 62
     7
370
    25
100
AcDbSpline
210
0.0
220
0.0
230
1.0
 70
     8
 71
     3
 72
    16
 73
    12
 74
     0
 42
0.00000001
 43
0.00000001
 40
0.0
 40
0.0
 40
0.0
 40
0.0
 40
0.2499999999999999
 40
0.2499999999999999
 40
0.4999999999999999
 40
0.4999999999999999
 40
0.6249999999999999
 40
0.6249999999999999
 40
0.7499999999999998
 40
0.7499999999999998
 40
1.0
 40
1.0
 40
1.0
 40
1.0
 10
90.13235644075918
 20
65.84161734067901
 30
0.0
 10
89.80579436077518
 20
66.821303580631
 30
0.0
 10
89.53664808050068
 20
67.8081324312876
 30
0.0
 10
89.16379311776478
 20
69.80237081532344
 30
0.0
 10
89.06131432255187
 20
70.80993334850187
 30
0.0
 10
89.06018867091824
 20
72.34025988688211
 30
0.0
 10
89.08524073786768
 20
72.85276939706874
 30
0.0
 10
89.18293068125577
 20
73.866567190092
 30
0.0
 10
89.25546940652545
 20
74.37006720129003
 30
0.0
 10
89.53557482257007
 20
75.8716031102165
 30
0.0
 10
89.80538726451687
 20
76.8607098119517
 30
0.0
 10
90.13235644075931
 20
77.84161734067906
 30
0.0
  0
LINE
  5
111
330
1F
100
AcDbEntity
  8
0
  6
Continuous
 62
     7
370
    25
100
AcDbLine
 10
90.1323564408
 20
77.8416173407
 30
0.0
 11
93.7000877667
 21
77.8416173407
 31
0.0
  0
LINE
  5
112
330
1F
100
AcDbEntity
  8
0
  6
Continuous
 62
     7
370
    25
100
AcDbLine
 10
90.1323564408
 20
65.8416173407
 30
0.0
 11
93.7000877667
 21
65.8416173407
 31
0.0
  0
SPLINE
  5
113
330
1F
100
AcDbEntity
  8
0
  6
Continuous
 62
     7
370
    25
100
AcDbSpline
210
0.0
220
0.0
230
1.0
 70
    24
 71
     3
 72
    13
 73
     9
 74
     0
 42
0.00000001
 43
0.00000001
 40
0.0
 40
0.0
 40
0.0
 40
0.0
 40
0.1584540730871392
 40
0.3246164265555321
 40
0.4906741937996869
 40
0.6604030504345446
 40
0.8302270010289557
 40
1.0
 40
1.0
 40
1.0
 40
1.0
 10
89.06200371770511
 20
53.84161734067904
 30
0.0
 10
89.06735031547537
 20
53.84161734067905
 30
0.0
 10
89.07830360577962
 20
53.84161734067904
 30
0.0
 10
89.17563198609571
 20
53.84161734067904
 30
0.0
 10
89.3304632239172
 20
53.84161734067905
 30
0.0
 10
89.54653711945274
 20
53.84161734067905
 30
0.0
 10
89.81206142221052
 20
53.84161734067905
 30
0.0
 10
90.02560211414325
 20
53.84161734067905
 30
0.0
 10
90.13235644075947
 20
53.84161734067905
 30
0.0
  0
SPLINE
  5
114
330
1F
100
AcDbEntity
  8
0
  6
Continuous
 62
     7
370
    25
100
AcDbSpline
210
0.0
220
0.0
230
1.0
 70
    24
 71
     3
 72
    14
 73
    10
 74
     0
 42
0.00000001
 43
0.00000001
 40
0.0
 40
0.0
 40
0.0
 40
0.0
 40
0.1638914286381826
 40
0.3278285393495351
 40
0.4916818515520734
 40
0.6585716995184105
 40
0.8255656451325715
 40
0.9924247446322447
 40
1.0
 40
1.0
 40
1.0
 40
1.0
 10
90.13235644075947
 20
77.84161734067904
 30
0.0
 10
90.02919219697434
 20
77.84161734067905
 30
0.0
 10
89.82283495404708
 20
77.84161734067905
 30
0.0
 10
89.563910050899
 20
77.84161734067904
 30
0.0
 10
89.34875743724444
 20
77.84161734067904
 30
0.0
 10
89.18642490899596
 20
77.84161734067904
 30
0.0
 10
89.09114689950268
 20
77.84161734067904
 30
0.0
 10
89.05050759656048
 20
77.84161734067904
 30
0.0
 10
89.06152524817102
 20
77.84161734067904
 30
0.0
 10
89.06200371770512
 20
77.84161734067904
 30
0.0
  0
SPLINE
  5
115
330
1F
100
AcDbEntity
  8
0
  6
Continuous
 62
     7
370
    25
100
AcDbSpline
210
0.0
220
0.0
230
1.0
 70
     8
 71
     3
 72
    16
 73
    12
 74
     0
 42
0.00000001
 43
0.00000001
 40
0.0
 40
0.0
 40
0.0
 40
0.0
 40
0.2500000000000002
 40
0.2500000000000002
 40
0.5000000000000004
 40
0.5000000000000004
 40
0.6250000000000003
 40
0.6250000000000003
 40
0.7500000000000002
 40
0.7500000000000002
 40
1.0
 40
1.0
 40
1.0
 40
1.0
 10
90.13235644075918
 20
53.84161734067901
 30
0.0
 10
89.80579436077518
 20
54.82130358063099
 30
0.0
 10
89.53664808050068
 20
55.8081324312876
 30
0.0
 10
89.16379311776478
 20
57.80237081532344
 30
0.0
 10
89.06131432255187
 20
58.80993334850186
 30
0.0
 10
89.06018867091824
 20
60.34025988688211
 30
0.0
 10
89.08524073786766
 20
60.85276939706873
 30
0.0
 10
89.18293068125577
 20
61.866567190092
 30
0.0
 10
89.25546940652546
 20
62.37006720129003
 30
0.0
 10
89.53557482257007
 20
63.8716031102165
 30
0.0
 10
89.80538726451687
 20
64.86070981195171
 30
0.0
 10
90.13235644075932
 20
65.84161734067908
 30
0.0
  0
LINE
  5
116
330
1F
100
AcDbEntity
  8
0
  6
Continuous
 62
     7
370
    25
100
AcDbLine
 10
88.9162221037
 20
54.0916173407
 30
0.0
 11
88.9162221037
 21
77.5916173407
 31
0.0
  0
LINE
  5
117
330
1F
100
AcDbEntity
  8
0
  6
Continuous
 62
     7
370
    25
100
AcDbLine
 10
90.1323564408
 20
53.8416173407
 30
0.0
 11
93.7000877667
 21
53.8416173407
 31
0.0
  0
LINE
  5
118
330
1F
100
AcDbEntity
  8
0
  6
Continuous
 62
     7
370
    25
100
AcDbLine
 10
73.4181575876
 20
76.2314590746
 30
0.0
 11
73.4181575876
 21
55.4517756068
 31
0.0
  0
LINE
  5
119
330
1F
100
AcDbEntity
  8
0
  6
Continuous
 62
     7
370
    25
100
AcDbLine
 10
71.9162221037
 20
65.8416173407
 30
0.0
 11
71.9162221037
 21
74.7295235907
 31
0.0
  0
LINE
  5
11A
330
1F
100
AcDbEntity
  8
0
  6
Continuous
 62
     7
370
    25
100
AcDbLine
 10
71.9162221037
 20
56.9537110907
 30
0.0
 11
71.9162221037
 21
65.8416173407
 31
0.0
  0
LINE
  5
11B
330
1F
100
AcDbEntity
  8
0
  6
Continuous
 62
     7
370
    18
100
AcDbLine
 10
72.103516457
 20
74.9168179439
 30
0.0
 11
87.5162221037
 21
75.3984649954
 31
0.0
  0
LINE
  5
11C
330
1F
100
AcDbEntity
  8
0
  6
Continuous
 62
     7
370
    18
100
AcDbLine
 10
72.103516457
 20
56.7664167375
 30
0.0
 11
87.5162221037
 21
56.284769686
 31
0.0
  0
LINE
  5
11D
330
1F
100
AcDbEntity
  8
0
  6
Continuous
 62
     7
370
    25
100
AcDbLine
 10
87.5162221037
 20
55.0112110907
 30
0.0
 11
87.5162221037
 21
76.6720235907
 31
0.0
  0
LINE
  5
11E
330
1F
100
AcDbEntity
  8
FORMAT
  6
CENTERX2
370
    18
100
AcDbLine
 10
95.7962869038
 20
65.8416173407
 30
0.0
 11
70.9162221037
 21
65.8416173407
 31
0.0
  0
ENDSEC
  0
SECTION
  2
OBJECTS
  0
DICTIONARY
  5
C
330
0
100
AcDbDictionary
281
     1
  3
ACAD_GROUP
350
D
  3
ACAD_LAYOUT
350
1A
  3
ACAD_MLINESTYLE
350
17
  3
ACAD_PLOTSETTINGS
350
19
  3
ACAD_PLOTSTYLENAME
350
E
  3
ACAD_SCALELIST
350
47
  3
DWGPROPS
350
11F
  0
DICTIONARY
  5
D
102
{ACAD_REACTORS
330
C
102
}
330
C
100
AcDbDictionary
281
     1
  0
DICTIONARY
  5
1A
102
{ACAD_REACTORS
330
C
102
}
330
C
100
AcDbDictionary
281
     1
  3
Layout1
350
1E
  3
Layout2
350
26
  3
Model
350
22
  0
DICTIONARY
  5
17
102
{ACAD_REACTORS
330
C
102
}
330
C
100
AcDbDictionary
281
     1
  3
Standard
350
18
  0
DICTIONARY
  5
19
102
{ACAD_REACTORS
330
C
102
}
330
C
100
AcDbDictionary
281
     1
  0
ACDBDICTIONARYWDFLT
  5
E
102
{ACAD_REACTORS
330
C
102
}
330
C
100
AcDbDictionary
281
     1
  3
Normal
350
F
100
AcDbDictionaryWithDefault
340
F
  0
DICTIONARY
  5
47
102
{ACAD_REACTORS
330
C
102
}
330
C
100
AcDbDictionary
281
     1
  3
A0
350
48
  3
A1
350
49
  3
A2
350
4A
  3
A3
350
4B
  3
A4
350
4C
  3
A5
350
4D
  3
A6
350
4E
  3
A7
350
4F
  3
A8
350
50
  3
A9
350
51
  3
B0
350
52
  3
B1
350
53
  3
B2
350
54
  3
B3
350
55
  3
B4
350
56
  3
B5
350
57
  3
B6
350
58
  0
XRECORD
  5
11F
102
{ACAD_REACTORS
330
C
102
}
330
C
100
AcDbXrecord
280
     1
  1
DWGPROPS COOKIE
  2

  3

  4

  6

  7

  8
user28
  9

300
=
301
=
302
=
303
=
304
=
305
=
306
=
307
=
308
=
309
=
 40
0.0
 41
2460398.304663356
 42
2460398.304663854
  1

 90
        0
  0
LAYOUT
  5
1E
102
{ACAD_REACTORS
330
1A
102
}
330
1A
100
AcDbPlotSettings
  1

  2
none_device
  4

  6

 40
0.0
 41
0.0
 42
0.0
 43
0.0
 44
0.0
 45
0.0
 46
0.0
 47
0.0
 48
0.0
 49
0.0
140
0.0
141
0.0
142
1.0
143
1.0
 70
   688
 72
     1
 73
     0
 74
     5
  7

 75
    16
147
1.0
148
0.0
149
0.0
100
AcDbLayout
  1
Layout1
 70
     1
 71
     1
 10
0.0
 20
0.0
 11
420.0
 21
297.0
 12
0.0
 22
0.0
 32
0.0
 14
1.0000000000E+20
 24
1.0000000000E+20
 34
1.0000000000E+20
 15
-1.0000000000E+20
 25
-1.0000000000E+20
 35
-1.0000000000E+20
146
0.0
 13
0.0
 23
0.0
 33
0.0
 16
1.0
 26
0.0
 36
0.0
 17
0.0
 27
1.0
 37
0.0
 76
     0
330
1B
  0
LAYOUT
  5
26
102
{ACAD_REACTORS
330
1A
102
}
330
1A
100
AcDbPlotSettings
  1

  2
none_device
  4

  6

 40
0.0
 41
0.0
 42
0.0
 43
0.0
 44
0.0
 45
0.0
 46
0.0
 47
0.0
 48
0.0
 49
0.0
140
0.0
141
0.0
142
1.0
143
1.0
 70
   688
 72
     1
 73
     0
 74
     5
  7

 75
    16
147
1.0
148
0.0
149
0.0
100
AcDbLayout
  1
Layout2
 70
     1
 71
     2
 10
0.0
 20
0.0
 11
0.0
 21
0.0
 12
0.0
 22
0.0
 32
0.0
 14
0.0
 24
0.0
 34
0.0
 15
0.0
 25
0.0
 35
0.0
146
0.0
 13
0.0
 23
0.0
 33
0.0
 16
1.0
 26
0.0
 36
0.0
 17
0.0
 27
1.0
 37
0.0
 76
     0
330
23
  0
LAYOUT
  5
22
102
{ACAD_REACTORS
330
1A
102
}
330
1A
100
AcDbPlotSettings
  1

  2
none_device
  4
Letter_(8.50_x_11.00_Inches)
  6

 40
6.35
 41
6.35
 42
6.35000508
 43
6.35000508
 44
215.9
 45
279.4
 46
0.0
 47
0.0
 48
0.0
 49
0.0
140
0.0
141
0.0
142
1.0
143
1.0
 70
  1712
 72
     1
 73
     0
 74
     0
  7

 75
     0
147
1.0
148
0.0
149
0.0
100
AcDbLayout
  1
Model
 70
     1
 71
     0
 10
0.0
 20
0.0
 11
148.5
 21
105.0
 12
0.0
 22
0.0
 32
0.0
 14
0.0
 24
0.0
 34
0.0
 15
148.5
 25
105.0
 35
0.0
146
0.0
 13
0.0
 23
0.0
 33
0.0
 16
1.0
 26
0.0
 36
0.0
 17
0.0
 27
1.0
 37
0.0
 76
     0
330
1F
331
29
  0
MLINESTYLE
  5
18
102
{ACAD_REACTORS
330
17
102
}
330
17
100
AcDbMlineStyle
  2
Standard
 70
     0
  3

 62
   256
 51
90.0
 52
90.0
 71
     2
 49
0.5
 62
   256
  6
BYLAYER
 49
-0.5
 62
   256
  6
BYLAYER
  0
ACDBPLACEHOLDER
  5
F
102
{ACAD_REACTORS
330
E
102
}
330
E
  0
SCALE
  5
48
102
{ACAD_REACTORS
330
47
102
}
330
47
100
AcDbScale
 70
     0
300
1:1
140
1.0
141
1.0
290
     1
  0
SCALE
  5
49
102
{ACAD_REACTORS
330
47
102
}
330
47
100
AcDbScale
 70
     0
300
1:2
140
1.0
141
2.0
290
     0
  0
SCALE
  5
4A
102
{ACAD_REACTORS
330
47
102
}
330
47
100
AcDbScale
 70
     0
300
1:4
140
1.0
141
4.0
290
     0
  0
SCALE
  5
4B
102
{ACAD_REACTORS
330
47
102
}
330
47
100
AcDbScale
 70
     0
300
1:5
140
1.0
141
5.0
290
     0
  0
SCALE
  5
4C
102
{ACAD_REACTORS
330
47
102
}
330
47
100
AcDbScale
 70
     0
300
1:8
140
1.0
141
8.0
290
     0
  0
SCALE
  5
4D
102
{ACAD_REACTORS
330
47
102
}
330
47
100
AcDbScale
 70
     0
300
1:10
140
1.0
141
10.0
290
     0
  0
SCALE
  5
4E
102
{ACAD_REACTORS
330
47
102
}
330
47
100
AcDbScale
 70
     0
300
1:16
140
1.0
141
16.0
290
     0
  0
SCALE
  5
4F
102
{ACAD_REACTORS
330
47
102
}
330
47
100
AcDbScale
 70
     0
300
1:20
140
1.0
141
20.0
290
     0
  0
SCALE
  5
50
102
{ACAD_REACTORS
330
47
102
}
330
47
100
AcDbScale
 70
     0
300
1:30
140
1.0
141
30.0
290
     0
  0
SCALE
  5
51
102
{ACAD_REACTORS
330
47
102
}
330
47
100
AcDbScale
 70
     0
300
1:40
140
1.0
141
40.0
290
     0
  0
SCALE
  5
52
102
{ACAD_REACTORS
330
47
102
}
330
47
100
AcDbScale
 70
     0
300
1:50
140
1.0
141
50.0
290
     0
  0
SCALE
  5
53
102
{ACAD_REACTORS
330
47
102
}
330
47
100
AcDbScale
 70
     0
300
1:100
140
1.0
141
100.0
290
     0
  0
SCALE
  5
54
102
{ACAD_REACTORS
330
47
102
}
330
47
100
AcDbScale
 70
     0
300
2:1
140
2.0
141
1.0
290
     0
  0
SCALE
  5
55
102
{ACAD_REACTORS
330
47
102
}
330
47
100
AcDbScale
 70
     0
300
4:1
140
4.0
141
1.0
290
     0
  0
SCALE
  5
56
102
{ACAD_REACTORS
330
47
102
}
330
47
100
AcDbScale
 70
     0
300
8:1
140
8.0
141
1.0
290
     0
  0
SCALE
  5
57
102
{ACAD_REACTORS
330
47
102
}
330
47
100
AcDbScale
 70
     0
300
10:1
140
10.0
141
1.0
290
     0
  0
SCALE
  5
58
102
{ACAD_REACTORS
330
47
102
}
330
47
100
AcDbScale
 70
     0
300
100:1
140
100.0
141
1.0
290
     0
  0
ENDSEC
  0
EOF
