  0
SECTION
  2
HEADER
  9
$ACADVER
  1
AC1015
  9
$ACADMAINTVER
 70
     6
  9
$DWGCODEPAGE
  3
DOS932
  9
$INSBASE
 10
0.0
 20
0.0
 30
0.0
  9
$EXTMIN
 10
0.0
 20
0.0
 30
0.0
  9
$EXTMAX
 10
148.5
 20
105.0
 30
0.0
  9
$LIMMIN
 10
0.0
 20
0.0
  9
$LIMMAX
 10
148.5
 20
105.0
  9
$ORTHOMODE
 70
     0
  9
$REGENMODE
 70
     1
  9
$FILLMODE
 70
     1
  9
$QTEXTMODE
 70
     0
  9
$MIRRTEXT
 70
     1
  9
$LTSCALE
 40
0.5
  9
$ATTMODE
 70
     1
  9
$TEXTSIZE
 40
1.7638888889
  9
$TRACEWID
 40
1.0
  9
$TEXTSTYLE
  7
Standard
  9
$CLAYER
  8
0
  9
$CELTYPE
  6
ByLayer
  9
$CECOLOR
 62
   256
  9
$CELTSCALE
 40
1.0
  9
$DISPSILH
 70
     0
  9
$DIMSCALE
 40
1.0
  9
$DIMASZ
 40
1.3642578125
  9
$DIMEXO
 40
0.5
  9
$DIMDLI
 40
3.75
  9
$DIMRND
 40
0.0
  9
$DIMDLE
 40
0.0
  9
$DIMEXE
 40
0.5
  9
$DIMTP
 40
0.0
  9
$DIMTM
 40
0.0
  9
$DIMTXT
 40
1.7638888889
  9
$DIMCEN
 40
2.5
  9
$DIMTSZ
 40
0.0
  9
$DIMTOL
 70
     0
  9
$DIMLIM
 70
     0
  9
$DIMTIH
 70
     1
  9
$DIMTOH
 70
     1
  9
$DIMSE1
 70
     0
  9
$DIMSE2
 70
     0
  9
$DIMTAD
 70
     1
  9
$DIMZIN
 70
     0
  9
$DIMBLK
  1

  9
$DIMASO
 70
     1
  9
$DIMSHO
 70
     1
  9
$DIMPOST
  1

  9
$DIMAPOST
  1

  9
$DIMALT
 70
     0
  9
$DIMALTD
 70
     3
  9
$DIMALTF
 40
0.0393700787
  9
$DIMLFAC
 40
1.0
  9
$DIMTOFL
 70
     1
  9
$DIMTVP
 40
0.0
  9
$DIMTIX
 70
     0
  9
$DIMSOXD
 70
     0
  9
$DIMSAH
 70
     0
  9
$DIMBLK1
  1

  9
$DIMBLK2
  1

  9
$DIMSTYLE
  2
ISO-25
  9
$DIMCLRD
 70
     0
  9
$DIMCLRE
 70
     0
  9
$DIMCLRT
 70
     0
  9
$DIMTFAC
 40
1.0
  9
$DIMGAP
 40
0.762
  9
$DIMJUST
 70
     0
  9
$DIMSD1
 70
     0
  9
$DIMSD2
 70
     0
  9
$DIMTOLJ
 70
     0
  9
$DIMTZIN
 70
     0
  9
$DIMALTZ
 70
     0
  9
$DIMALTTZ
 70
     0
  9
$DIMUPT
 70
     0
  9
$DIMDEC
 70
     2
  9
$DIMTDEC
 70
     2
  9
$DIMALTU
 70
     2
  9
$DIMALTTD
 70
     3
  9
$DIMTXSTY
  7
Standard
  9
$DIMAUNIT
 70
     0
  9
$DIMADEC
 70
     2
  9
$DIMALTRND
 40
0.0
  9
$DIMAZIN
 70
     0
  9
$DIMDSEP
 70
    44
  9
$DIMATFIT
 70
     3
  9
$DIMFRAC
 70
     0
  9
$DIMLDRBLK
  1

  9
$DIMLUNIT
 70
     2
  9
$DIMLWD
 70
    -2
  9
$DIMLWE
 70
    -2
  9
$DIMTMOVE
 70
     0
  9
$LUNITS
 70
     2
  9
$LUPREC
 70
     2
  9
$SKETCHINC
 40
1.0
  9
$FILLETRAD
 40
0.0
  9
$AUNITS
 70
     0
  9
$AUPREC
 70
     2
  9
$MENU
  1
.
  9
$ELEVATION
 40
0.0
  9
$PELEVATION
 40
0.0
  9
$THICKNESS
 40
0.0
  9
$LIMCHECK
 70
     0
  9
$CHAMFERA
 40
0.0
  9
$CHAMFERB
 40
0.0
  9
$CHAMFERC
 40
0.0
  9
$CHAMFERD
 40
0.0
  9
$SKPOLY
 70
     0
  9
$TDCREATE
 40
2460398.678767893
  9
$TDUCREATE
 40
2460398.303767893
  9
$TDUPDATE
 40
2460398.678768426
  9
$TDUUPDATE
 40
2460398.303768426
  9
$TDINDWG
 40
0.0000000116
  9
$TDUSRTIMER
 40
0.0000000116
  9
$USRTIMER
 70
     1
  9
$ANGBASE
 50
0.0
  9
$ANGDIR
 70
     0
  9
$PDMODE
 70
     0
  9
$PDSIZE
 40
-1.0
  9
$PLINEWID
 40
0.0
  9
$SPLFRAME
 70
     0
  9
$SPLINETYPE
 70
     6
  9
$SPLINESEGS
 70
     8
  9
$HANDSEED
  5
125
  9
$SURFTAB1
 70
     6
  9
$SURFTAB2
 70
     6
  9
$SURFTYPE
 70
     6
  9
$SURFU
 70
     6
  9
$SURFV
 70
     6
  9
$UCSBASE
  2

  9
$UCSNAME
  2

  9
$UCSORG
 10
0.0
 20
0.0
 30
0.0
  9
$UCSXDIR
 10
1.0
 20
0.0
 30
0.0
  9
$UCSYDIR
 10
0.0
 20
1.0
 30
0.0
  9
$UCSORTHOREF
  2

  9
$UCSORTHOVIEW
 70
     0
  9
$UCSORGTOP
 10
0.0
 20
0.0
 30
0.0
  9
$UCSORGBOTTOM
 10
0.0
 20
0.0
 30
0.0
  9
$UCSORGLEFT
 10
0.0
 20
0.0
 30
0.0
  9
$UCSORGRIGHT
 10
0.0
 20
0.0
 30
0.0
  9
$UCSORGFRONT
 10
0.0
 20
0.0
 30
0.0
  9
$UCSORGBACK
 10
0.0
 20
0.0
 30
0.0
  9
$PUCSBASE
  2

  9
$PUCSNAME
  2

  9
$PUCSORG
 10
0.0
 20
0.0
 30
0.0
  9
$PUCSXDIR
 10
1.0
 20
0.0
 30
0.0
  9
$PUCSYDIR
 10
0.0
 20
1.0
 30
0.0
  9
$PUCSORTHOREF
  2

  9
$PUCSORTHOVIEW
 70
     0
  9
$PUCSORGTOP
 10
0.0
 20
0.0
 30
0.0
  9
$PUCSORGBOTTOM
 10
0.0
 20
0.0
 30
0.0
  9
$PUCSORGLEFT
 10
0.0
 20
0.0
 30
0.0
  9
$PUCSORGRIGHT
 10
0.0
 20
0.0
 30
0.0
  9
$PUCSORGFRONT
 10
0.0
 20
0.0
 30
0.0
  9
$PUCSORGBACK
 10
0.0
 20
0.0
 30
0.0
  9
$USERI1
 70
     0
  9
$USERI2
 70
     0
  9
$USERI3
 70
     0
  9
$USERI4
 70
     0
  9
$USERI5
 70
     0
  9
$USERR1
 40
0.0
  9
$USERR2
 40
0.0
  9
$USERR3
 40
0.0
  9
$USERR4
 40
0.0
  9
$USERR5
 40
0.0
  9
$WORLDVIEW
 70
     1
  9
$SHADEDGE
 70
     3
  9
$SHADEDIF
 70
    70
  9
$TILEMODE
 70
     1
  9
$MAXACTVP
 70
    64
  9
$PINSBASE
 10
0.0
 20
0.0
 30
0.0
  9
$PLIMCHECK
 70
     0
  9
$PEXTMIN
 10
1.0000000000E+20
 20
1.0000000000E+20
 30
1.0000000000E+20
  9
$PEXTMAX
 10
-1.0000000000E+20
 20
-1.0000000000E+20
 30
-1.0000000000E+20
  9
$PLIMMIN
 10
0.0
 20
0.0
  9
$PLIMMAX
 10
420.0
 20
297.0
  9
$UNITMODE
 70
     0
  9
$VISRETAIN
 70
     1
  9
$PLINEGEN
 70
     0
  9
$PSLTSCALE
 70
     1
  9
$TREEDEPTH
 70
  3020
  9
$CMLSTYLE
  2
Standard
  9
$CMLJUST
 70
     0
  9
$CMLSCALE
 40
20.0
  9
$PROXYGRAPHICS
 70
     1
  9
$MEASUREMENT
 70
     1
  9
$CELWEIGHT
370
    -1
  9
$ENDCAPS
280
     0
  9
$JOINSTYLE
280
     0
  9
$LWDISPLAY
290
     1
  9
$INSUNITS
 70
     4
  9
$HYPERLINKBASE
  1

  9
$STYLESHEET
  1

  9
$XEDIT
290
     1
  9
$CEPSNTYPE
380
     0
  9
$PSTYLEMODE
290
     1
  9
$FINGERPRINTGUID
  2
{5571912a-8df5-424d-9e2a-0a0bed92d39a}
  9
$VERSIONGUID
  2
{FAEB1C32-E019-11D5-929B-00C0DF256EC4}
  9
$EXTNAMES
290
     1
  9
$PSVPSCALE
 40
0.0
  9
$OLESTARTUP
290
     0
  0
ENDSEC
  0
SECTION
  2
CLASSES
  0
CLASS
  1
ACDBDICTIONARYWDFLT
  2
AcDbDictionaryWithDefault
  3
ObjectDBX Classes
 90
        0
280
     0
281
     0
  0
CLASS
  1
VISUALSTYLE
  2
AcDbVisualStyle
  3
ObjectDBX Classes
 90
     4095
280
     0
281
     0
  0
CLASS
  1
MATERIAL
  2
AcDbMaterial
  3
ObjectDBX Classes
 90
     1153
280
     0
281
     0
  0
CLASS
  1
SCALE
  2
AcDbScale
  3
ObjectDBX Classes
 90
     1153
280
     0
281
     0
  0
CLASS
  1
TABLESTYLE
  2
AcDbTableStyle
  3
ObjectDBX Classes
 90
     4095
280
     0
281
     0
  0
CLASS
  1
MLEADERSTYLE
  2
AcDbMLeaderStyle
  3
ACDB_MLEADERSTYLE_CLASS
 90
     4095
280
     0
281
     0
  0
CLASS
  1
SUN
  2
AcDbSun
  3
SCENEOE
 90
     1153
280
     0
281
     0
  0
CLASS
  1
ACDBPLACEHOLDER
  2
AcDbPlaceHolder
  3
ObjectDBX Classes
 90
        0
280
     0
281
     0
  0
CLASS
  1
LAYOUT
  2
AcDbLayout
  3
ObjectDBX Classes
 90
        0
280
     0
281
     0
  0
ENDSEC
  0
SECTION
  2
TABLES
  0
TABLE
  2
VPORT
  5
8
330
0
100
AcDbSymbolTable
 70
     1
  0
VPORT
  5
29
330
8
100
AcDbSymbolTableRecord
100
AcDbViewportTableRecord
  2
*Active
 70
     0
 10
0.0
 20
0.0
 11
1.0
 21
1.0
 12
74.25
 22
52.5
 13
0.0
 23
0.0
 14
10.0
 24
10.0
 15
10.0
 25
10.0
 16
0.0
 26
0.0
 36
1.0
 17
0.0
 27
0.0
 37
0.0
 40
105.0
 41
1.4142857143
 42
50.0
 43
0.0
 44
0.0
 50
0.0
 51
0.0
 71
     0
 72
  2000
 73
     1
 74
     3
 75
     0
 76
     0
 77
     0
 78
     0
281
     0
 65
     1
110
0.0
120
0.0
130
0.0
111
1.0
121
0.0
131
0.0
112
0.0
122
1.0
132
0.0
 79
     0
146
0.0
  0
ENDTAB
  0
TABLE
  2
LTYPE
  5
5
330
0
100
AcDbSymbolTable
 70
     6
  0
LTYPE
  5
14
330
5
100
AcDbSymbolTableRecord
100
AcDbLinetypeTableRecord
  2
ByBlock
 70
     0
  3

 72
    65
 73
     0
 40
0.0
  0
LTYPE
  5
15
330
5
100
AcDbSymbolTableRecord
100
AcDbLinetypeTableRecord
  2
ByLayer
 70
     0
  3

 72
    65
 73
     0
 40
0.0
  0
LTYPE
  5
16
330
5
100
AcDbSymbolTableRecord
100
AcDbLinetypeTableRecord
  2
Continuous
 70
     0
  3
Solid line
 72
    65
 73
     0
 40
0.0
  0
LTYPE
  5
5E
330
5
100
AcDbSymbolTableRecord
100
AcDbLinetypeTableRecord
  2
HIDDEN
 70
     0
  3
Hidden __ __ __ __ __ __ __ __ __ __ __ __ __ __
 72
    65
 73
     2
 40
1.905
 49
1.27
 74
     0
 49
-0.635
 74
     0
  0
LTYPE
  5
5F
330
5
100
AcDbSymbolTableRecord
100
AcDbLinetypeTableRecord
  2
PHANTOM
 70
     0
  3
Phantom ______  __  __  ______  __  __  ______
 72
    65
 73
     6
 40
12.7
 49
6.35
 74
     0
 49
-1.27
 74
     0
 49
1.27
 74
     0
 49
-1.27
 74
     0
 49
1.27
 74
     0
 49
-1.27
 74
     0
  0
LTYPE
  5
60
330
5
100
AcDbSymbolTableRecord
100
AcDbLinetypeTableRecord
  2
CENTER
 70
     0
  3
Center ____ _ ____ _ ____ _ ____ _ ____ _ ____
 72
    65
 73
     4
 40
10.16
 49
6.35
 74
     0
 49
-1.27
 74
     0
 49
1.27
 74
     0
 49
-1.27
 74
     0
  0
LTYPE
  5
61
330
5
100
AcDbSymbolTableRecord
100
AcDbLinetypeTableRecord
  2
CENTERX2
 70
     0
  3
Center (2x) ________  __  ________  __  _____
 72
    65
 73
     4
 40
20.32
 49
12.7
 74
     0
 49
-2.54
 74
     0
 49
2.54
 74
     0
 49
-2.54
 74
     0
  0
LTYPE
  5
62
330
5
100
AcDbSymbolTableRecord
100
AcDbLinetypeTableRecord
  2
DOT2
 70
     0
  3
Dot (.5x) ........................................
 72
    65
 73
     2
 40
0.635
 49
0.0
 74
     0
 49
-0.635
 74
     0
  0
ENDTAB
  0
TABLE
  2
LAYER
  5
2
330
0
100
AcDbSymbolTable
 70
     2
  0
LAYER
  5
10
330
2
100
AcDbSymbolTableRecord
100
AcDbLayerTableRecord
  2
0
 70
     0
 62
     7
  6
Continuous
370
    -3
390
F
  0
LAYER
  5
63
330
2
100
AcDbSymbolTableRecord
100
AcDbLayerTableRecord
  2
FORMAT
 70
     0
 62
     7
  6
Continuous
370
    -3
390
F
  0
ENDTAB
  0
TABLE
  2
STYLE
  5
3
330
0
100
AcDbSymbolTable
 70
     2
  0
STYLE
  5
11
330
3
100
AcDbSymbolTableRecord
100
AcDbTextStyleTableRecord
  2
Standard
 70
     0
 40
0.0
 41
1.0
 50
0.0
 71
     0
 42
1.7638888889
  3
txt
  4
bigfont
  0
STYLE
  5
64
330
3
100
AcDbSymbolTableRecord
100
AcDbTextStyleTableRecord
  2
SLDTEXTSTYLE0
 70
     0
 40
0.0
 41
0.7
 50
0.0
 71
     0
 42
1.7638888889
  3
TXT
  4
bigfont
  0
ENDTAB
  0
TABLE
  2
VIEW
  5
6
330
0
100
AcDbSymbolTable
 70
     0
  0
ENDTAB
  0
TABLE
  2
UCS
  5
7
330
0
100
AcDbSymbolTable
 70
     0
  0
ENDTAB
  0
TABLE
  2
APPID
  5
9
330
0
100
AcDbSymbolTable
 70
     1
  0
APPID
  5
12
330
9
100
AcDbSymbolTableRecord
100
AcDbRegAppTableRecord
  2
ACAD
 70
     0
  0
ENDTAB
  0
TABLE
  2
DIMSTYLE
  5
A
330
0
100
AcDbSymbolTable
 70
     1
100
AcDbDimStyleTable
  0
DIMSTYLE
105
27
330
A
100
AcDbSymbolTableRecord
100
AcDbDimStyleTableRecord
  2
ISO-25
 70
     0
 41
2.5
 42
0.625
 43
3.75
 44
1.25
 73
     0
 74
     0
 77
     1
 78
     8
140
2.5
141
2.5
143
0.0393700787
147
0.625
171
     3
172
     1
178
     0
271
     2
272
     2
274
     3
278
    44
283
     0
284
     8
340
11
  0
ENDTAB
  0
TABLE
  2
BLOCK_RECORD
  5
1
330
0
100
AcDbSymbolTable
 70
     2
  0
BLOCK_RECORD
  5
1F
330
1
100
AcDbSymbolTableRecord
100
AcDbBlockTableRecord
  2
*Model_Space
340
22
  0
BLOCK_RECORD
  5
1B
330
1
100
AcDbSymbolTableRecord
100
AcDbBlockTableRecord
  2
*Paper_Space
340
1E
  0
BLOCK_RECORD
  5
23
330
1
100
AcDbSymbolTableRecord
100
AcDbBlockTableRecord
  2
*Paper_Space0
340
26
  0
BLOCK_RECORD
  5
FB
330
1
100
AcDbSymbolTableRecord
100
AcDbBlockTableRecord
  2
SW_CENTERMARKSYMBOL_0
340
0
102
{BLKREFS
331
106
102
}
  0
ENDTAB
  0
ENDSEC
  0
SECTION
  2
BLOCKS
  0
BLOCK
  5
20
330
1F
100
AcDbEntity
  8
0
100
AcDbBlockBegin
  2
*Model_Space
 70
     0
 10
0.0
 20
0.0
 30
0.0
  3
*Model_Space
  1

  0
ENDBLK
  5
21
330
1F
100
AcDbEntity
  8
0
100
AcDbBlockEnd
  0
BLOCK
  5
1C
330
1B
100
AcDbEntity
 67
     1
  8
0
100
AcDbBlockBegin
  2
*Paper_Space
 70
     0
 10
0.0
 20
0.0
 30
0.0
  3
*Paper_Space
  1

  0
ENDBLK
  5
1D
330
1B
100
AcDbEntity
 67
     1
  8
0
100
AcDbBlockEnd
  0
BLOCK
  5
24
330
23
100
AcDbEntity
  8
0
100
AcDbBlockBegin
  2
*Paper_Space0
 70
     0
 10
0.0
 20
0.0
 30
0.0
  3
*Paper_Space0
  1

  0
ENDBLK
  5
25
330
23
100
AcDbEntity
  8
0
100
AcDbBlockEnd
  0
BLOCK
  5
FC
330
FB
100
AcDbEntity
  8
0
100
AcDbBlockBegin
  2
SW_CENTERMARKSYMBOL_0
 70
     0
 10
0.0
 20
0.0
 30
0.0
  3
SW_CENTERMARKSYMBOL_0
  1

  0
LINE
  5
FE
330
FB
100
AcDbEntity
  8
FORMAT
 62
     0
100
AcDbLine
 10
0.0
 20
0.0
 30
0.0
 11
0.0
 21
2.5
 31
0.0
  0
LINE
  5
FF
330
FB
100
AcDbEntity
  8
FORMAT
 62
     0
100
AcDbLine
 10
0.0
 20
0.0
 30
0.0
 11
-2.5
 21
0.0
 31
0.0
  0
LINE
  5
100
330
FB
100
AcDbEntity
  8
FORMAT
 62
     0
100
AcDbLine
 10
0.0
 20
0.0
 30
0.0
 11
0.0
 21
-2.5
 31
0.0
  0
LINE
  5
101
330
FB
100
AcDbEntity
  8
FORMAT
 62
     0
100
AcDbLine
 10
0.0
 20
0.0
 30
0.0
 11
2.5
 21
0.0
 31
0.0
  0
LINE
  5
102
330
FB
100
AcDbEntity
  8
FORMAT
 62
     0
100
AcDbLine
 10
0.0
 20
5.0
 30
0.0
 11
0.0
 21
11.75
 31
0.0
  0
LINE
  5
103
330
FB
100
AcDbEntity
  8
FORMAT
 62
     0
100
AcDbLine
 10
-5.0
 20
0.0
 30
0.0
 11
-11.75
 21
0.0
 31
0.0
  0
LINE
  5
104
330
FB
100
AcDbEntity
  8
FORMAT
 62
     0
100
AcDbLine
 10
0.0
 20
-5.0
 30
0.0
 11
0.0
 21
-11.75
 31
0.0
  0
LINE
  5
105
330
FB
100
AcDbEntity
  8
FORMAT
 62
     0
100
AcDbLine
 10
5.0
 20
0.0
 30
0.0
 11
11.75
 21
0.0
 31
0.0
  0
ENDBLK
  5
FD
330
FB
100
AcDbEntity
  8
0
100
AcDbBlockEnd
  0
ENDSEC
  0
SECTION
  2
ENTITIES
  0
MTEXT
  5
65
330
1F
100
AcDbEntity
  8
FORMAT
100
AcDbMText
 10
100.0661043969
 20
53.2076453558
 30
0.0
 40
2.1166666667
 41
0.0
 71
     1
 72
     1
  1
5NB-7432
  7
SLDTEXTSTYLE0
 73
     1
 44
1.0
  0
LINE
  5
66
330
1F
100
AcDbEntity
  8
0
  6
Continuous
 62
     7
370
    25
100
AcDbLine
 10
86.1957288906
 20
46.3224615316
 30
0.0
 11
85.2028855473
 21
44.602806417
 31
0.0
  0
LINE
  5
67
330
1F
100
AcDbEntity
  8
0
  6
Continuous
 62
     7
370
    25
100
AcDbLine
 10
85.2028855473
 20
26.102806417
 30
0.0
 11
86.1957288906
 21
24.3831513024
 31
0.0
  0
LINE
  5
68
330
1F
100
AcDbEntity
  8
0
  6
Continuous
 62
     7
370
    25
100
AcDbLine
 10
90.2100422039
 20
24.3831513024
 30
0.0
 11
91.2028855473
 21
26.102806417
 31
0.0
  0
LINE
  5
69
330
1F
100
AcDbEntity
  8
0
  6
Continuous
 62
     7
370
    25
100
AcDbLine
 10
91.2028855473
 20
44.602806417
 30
0.0
 11
90.2100422039
 21
46.3224615316
 31
0.0
  0
LINE
  5
6A
330
1F
100
AcDbEntity
  8
0
  6
Continuous
 62
     7
370
    25
100
AcDbLine
 10
85.2028855473
 20
44.127306417
 30
0.0
 11
72.2041758698
 21
43.7210967396
 31
0.0
  0
LINE
  5
6B
330
1F
100
AcDbEntity
  8
0
  6
Continuous
 62
     7
370
    25
100
AcDbLine
 10
72.2041758698
 20
26.9845160944
 30
0.0
 11
85.2028855473
 21
26.578306417
 31
0.0
  0
LINE
  5
6C
330
1F
100
AcDbEntity
  8
0
  6
Continuous
 62
     7
370
    25
100
AcDbLine
 10
72.2041758698
 20
43.7210967396
 30
0.0
 11
71.2028855473
 21
42.719806417
 31
0.0
  0
LINE
  5
6D
330
1F
100
AcDbEntity
  8
0
  6
Continuous
 62
     7
370
    25
100
AcDbLine
 10
71.2028855473
 20
27.985806417
 30
0.0
 11
72.2041758698
 21
26.9845160944
 31
0.0
  0
SPLINE
  5
6E
330
1F
100
AcDbEntity
  8
0
  6
Continuous
 62
     7
370
    25
100
AcDbSpline
210
0.0
220
0.0
230
1.0
 70
     8
 71
     3
 72
    16
 73
    12
 74
     0
 42
0.00000001
 43
0.00000001
 40
0.0
 40
0.0
 40
0.0
 40
0.0
 40
0.2499999999999999
 40
0.2499999999999999
 40
0.4999999999999998
 40
0.4999999999999998
 40
0.6249999999999998
 40
0.6249999999999998
 40
0.7499999999999997
 40
0.7499999999999997
 40
1.0
 40
1.0
 40
1.0
 40
1.0
 10
86.19572889059052
 20
40.8376339743255
 30
0.0
 10
85.93720061510818
 20
41.28541808265408
 30
0.0
 10
85.72412646836553
 20
41.73646690459092
 30
0.0
 10
85.42894958157864
 20
42.64797148564715
 30
0.0
 10
85.34782050343605
 20
43.10849717740738
 30
0.0
 10
85.34692942718895
 20
43.80796227997905
 30
0.0
 10
85.36676234390559
 20
44.04221441207656
 30
0.0
 10
85.44410024453761
 20
44.50558983269036
 30
0.0
 10
85.501526741802
 20
44.73572401756421
 30
0.0
 10
85.7232768597695
 20
45.42202934795053
 30
0.0
 10
85.93687834440016
 20
45.87411923405803
 30
0.0
 10
86.1957288905907
 20
46.32246153162698
 30
0.0
  0
LINE
  5
6F
330
1F
100
AcDbEntity
  8
0
  6
Continuous
 62
     7
370
    25
100
AcDbLine
 10
86.1957288906
 20
46.3224615316
 30
0.0
 11
90.2100422039
 21
46.3224615316
 31
0.0
  0
SPLINE
  5
70
330
1F
100
AcDbEntity
  8
0
  6
Continuous
 62
     7
370
    25
100
AcDbSpline
210
0.0
220
0.0
230
1.0
 70
     8
 71
     3
 72
    16
 73
    12
 74
     0
 42
0.00000001
 43
0.00000001
 40
0.0
 40
0.0
 40
0.0
 40
0.0
 40
0.2499999999999999
 40
0.2499999999999999
 40
0.4999999999999998
 40
0.4999999999999998
 40
0.6249999999999998
 40
0.6249999999999998
 40
0.7499999999999997
 40
0.7499999999999997
 40
1.0
 40
1.0
 40
1.0
 40
1.0
 10
90.21004220393267
 20
40.8376339743255
 30
0.0
 10
90.468570479415
 20
41.28541808265408
 30
0.0
 10
90.68164462615766
 20
41.73646690459092
 30
0.0
 10
90.97682151294454
 20
42.64797148564715
 30
0.0
 10
91.05795059108713
 20
43.10849717740738
 30
0.0
 10
91.05884166733422
 20
43.80796227997905
 30
0.0
 10
91.03900875061757
 20
44.04221441207656
 30
0.0
 10
90.96167084998557
 20
44.50558983269036
 30
0.0
 10
90.90424435272118
 20
44.73572401756421
 30
0.0
 10
90.68249423475368
 20
45.42202934795053
 30
0.0
 10
90.46889275012302
 20
45.87411923405803
 30
0.0
 10
90.21004220393247
 20
46.32246153162698
 30
0.0
  0
LINE
  5
71
330
1F
100
AcDbEntity
  8
0
  6
Continuous
 62
     7
370
    25
100
AcDbLine
 10
86.1957288906
 20
40.8376339743
 30
0.0
 11
90.2100422039
 21
40.8376339743
 31
0.0
  0
SPLINE
  5
72
330
1F
100
AcDbEntity
  8
0
  6
Continuous
 62
     7
370
    25
100
AcDbSpline
210
0.0
220
0.0
230
1.0
 70
     8
 71
     3
 72
    14
 73
    10
 74
     0
 42
0.00000001
 43
0.00000001
 40
0.0
 40
0.0
 40
0.0
 40
0.0
 40
0.25
 40
0.25
 40
0.5
 40
0.5
 40
0.75
 40
0.75
 40
1.0
 40
1.0
 40
1.0
 40
1.0
 10
86.19572889059087
 20
29.86797885972262
 30
0.0
 10
85.93798438235615
 20
30.76083202699147
 30
0.0
 10
85.72482830200622
 20
31.6619333877242
 30
0.0
 10
85.42891306986424
 20
33.48825759417721
 30
0.0
 10
85.34714431158606
 20
34.4145891188962
 30
0.0
 10
85.34730203344262
 20
36.29378578006698
 30
0.0
 10
85.42906793676684
 20
37.21853618623476
 30
0.0
 10
85.72491458851329
 20
39.0439866625351
 30
0.0
 10
85.93800898082213
 20
39.94486601864241
 30
0.0
 10
86.19572889059087
 20
40.83763397432552
 30
0.0
  0
SPLINE
  5
73
330
1F
100
AcDbEntity
  8
0
  6
Continuous
 62
     7
370
    25
100
AcDbSpline
210
0.0
220
0.0
230
1.0
 70
     8
 71
     3
 72
    14
 73
    10
 74
     0
 42
0.00000001
 43
0.00000001
 40
0.0
 40
0.0
 40
0.0
 40
0.0
 40
0.25
 40
0.25
 40
0.5
 40
0.5
 40
0.75
 40
0.75
 40
1.0
 40
1.0
 40
1.0
 40
1.0
 10
90.21004220393229
 20
29.86797885972262
 30
0.0
 10
90.46778671216704
 20
30.76083202699147
 30
0.0
 10
90.68094279251696
 20
31.6619333877242
 30
0.0
 10
90.97685802465894
 20
33.48825759417721
 30
0.0
 10
91.05862678293711
 20
34.4145891188962
 30
0.0
 10
91.05846906108054
 20
36.29378578006698
 30
0.0
 10
90.97670315775635
 20
37.21853618623476
 30
0.0
 10
90.6808565060099
 20
39.0439866625351
 30
0.0
 10
90.46776211370106
 20
39.94486601864241
 30
0.0
 10
90.21004220393229
 20
40.83763397432552
 30
0.0
  0
LINE
  5
74
330
1F
100
AcDbEntity
  8
0
  6
Continuous
 62
     7
370
    25
100
AcDbLine
 10
86.1957288906
 20
29.8679788597
 30
0.0
 11
90.2100422039
 21
29.8679788597
 31
0.0
  0
LINE
  5
75
330
1F
100
AcDbEntity
  8
0
  6
Continuous
 62
     7
370
    25
100
AcDbLine
 10
88.510607555
 20
31.8005683373
 30
0.0
 11
88.510607555
 21
32.0003752871
 31
0.0
  0
SPLINE
  5
76
330
1F
100
AcDbEntity
  8
0
  6
Continuous
 62
     7
370
    25
100
AcDbSpline
210
0.0
220
0.0
230
1.0
 70
     8
 71
     3
 72
    15
 73
    11
 74
     0
 42
0.00000001
 43
0.00000001
 40
0.0
 40
0.0
 40
0.0
 40
0.0
 40
0.1046424622149466
 40
0.2111208971546078
 40
0.3233806047009372
 40
0.4420520864308682
 40
0.5671630372768656
 40
0.701971043008228
 40
0.8453718683440633
 40
1.0
 40
1.0
 40
1.0
 40
1.0
 10
88.81466160903764
 20
31.70500849170004
 30
0.0
 10
88.80628015919788
 20
31.7127612396999
 30
0.0
 10
88.78937020532088
 20
31.72840275919875
 30
0.0
 10
88.75975471024682
 20
31.74777422525268
 30
0.0
 10
88.72677061426285
 20
31.76413315557089
 30
0.0
 10
88.6903216645555
 20
31.77763100099
 30
0.0
 10
88.65029853261598
 20
31.78786760892819
 30
0.0
 10
88.60691622335713
 20
31.79508543191967
 30
0.0
 10
88.55993261909138
 20
31.79967362928293
 30
0.0
 10
88.52745704811664
 20
31.80026270408563
 30
0.0
 10
88.5106075549836
 20
31.80056833725989
 30
0.0
  0
SPLINE
  5
77
330
1F
100
AcDbEntity
  8
0
  6
Continuous
 62
     7
370
    25
100
AcDbSpline
210
0.0
220
0.0
230
1.0
 70
     8
 71
     3
 72
    11
 73
     7
 74
     0
 42
0.00000001
 43
0.00000001
 40
0.0
 40
0.0
 40
0.0
 40
0.0
 40
0.2497828004743467
 40
0.4924940338313421
 40
0.7395338078652255
 40
1.0
 40
1.0
 40
1.0
 40
1.0
 10
88.8667851611612
 20
31.58338687007842
 30
0.0
 10
88.86619185648217
 20
31.59472218709521
 30
0.0
 10
88.86502204409274
 20
31.61707190850018
 30
0.0
 10
88.85487337938058
 20
31.64933554399909
 30
0.0
 10
88.83823103551042
 20
31.67929276497235
 30
0.0
 10
88.82265543888914
 20
31.69628672054425
 30
0.0
 10
88.81466160903764
 20
31.70500849170004
 30
0.0
  0
SPLINE
  5
78
330
1F
100
AcDbEntity
  8
0
  6
Continuous
 62
     7
370
    25
100
AcDbSpline
210
0.0
220
0.0
230
1.0
 70
     8
 71
     3
 72
    11
 73
     7
 74
     0
 42
0.00000001
 43
0.00000001
 40
0.0
 40
0.0
 40
0.0
 40
0.0
 40
0.2490517621318992
 40
0.4918163964483705
 40
0.7399854914835424
 40
1.0
 40
1.0
 40
1.0
 40
1.0
 10
88.81466160903764
 20
31.45307798976954
 30
0.0
 10
88.82268723696168
 20
31.46199995168974
 30
0.0
 10
88.83853589175958
 20
31.47961864719018
 30
0.0
 10
88.85514948819191
 20
31.51143559569962
 30
0.0
 10
88.86504682143288
 20
31.54643458160804
 30
0.0
 10
88.86619677967082
 20
31.57087950905495
 30
0.0
 10
88.8667851611612
 20
31.58338687007842
 30
0.0
  0
SPLINE
  5
79
330
1F
100
AcDbEntity
  8
0
  6
Continuous
 62
     7
370
    25
100
AcDbSpline
210
0.0
220
0.0
230
1.0
 70
     8
 71
     3
 72
    15
 73
    11
 74
     0
 42
0.00000001
 43
0.00000001
 40
0.0
 40
0.0
 40
0.0
 40
0.0
 40
0.1322900133483152
 40
0.2607898618052656
 40
0.3858441649046994
 40
0.5080904451166512
 40
0.6294055086180669
 40
0.7510893117646916
 40
0.8732553966668101
 40
1.0
 40
1.0
 40
1.0
 40
1.0
 10
88.64091643529248
 20
31.38357992027147
 30
0.0
 10
88.64940778078994
 20
31.38368664718588
 30
0.0
 10
88.66614719114129
 20
31.38389704324342
 30
0.0
 10
88.69059289400788
 20
31.38791731743886
 30
0.0
 10
88.71426690479122
 20
31.39259008644504
 30
0.0
 10
88.73650731587462
 20
31.40071427825102
 30
0.0
 10
88.75802516480866
 20
31.41007163272285
 30
0.0
 10
88.7777799223636
 20
31.42271144006885
 30
0.0
 10
88.79725770146655
 20
31.43638577618339
 30
0.0
 10
88.80878959974866
 20
31.44744610320435
 30
0.0
 10
88.81466160903764
 20
31.45307798976954
 30
0.0
  0
SPLINE
  5
7A
330
1F
100
AcDbEntity
  8
0
  6
Continuous
 62
     7
370
    25
100
AcDbSpline
210
0.0
220
0.0
230
1.0
 70
     8
 71
     3
 72
    15
 73
    11
 74
     0
 42
0.00000001
 43
0.00000001
 40
0.0
 40
0.0
 40
0.0
 40
0.0
 40
0.1414377028612576
 40
0.2759868619651537
 40
0.4050827468357279
 40
0.5293092515363205
 40
0.6494060973408677
 40
0.7665008015291713
 40
0.8835214776401928
 40
1.0
 40
1.0
 40
1.0
 40
1.0
 10
88.31080060517664
 20
31.53126331795487
 30
0.0
 10
88.32368739507797
 20
31.51944540540477
 30
0.0
 10
88.34883334013874
 20
31.49638515673202
 30
0.0
 10
88.38905655481683
 20
31.46647651476066
 30
0.0
 10
88.42956552744887
 20
31.44076250794534
 30
0.0
 10
88.47093567426788
 20
31.42017020089542
 30
0.0
 10
88.51259314468892
 20
31.4038945454144
 30
0.0
 10
88.55483195263568
 20
31.39222095759604
 30
0.0
 10
88.59764689747806
 20
31.38481011721822
 30
0.0
 10
88.62651559910252
 20
31.38398935068387
 30
0.0
 10
88.64091643529248
 20
31.38357992027147
 30
0.0
  0
SPLINE
  5
7B
330
1F
100
AcDbEntity
  8
0
  6
Continuous
 62
     7
370
    25
100
AcDbSpline
210
0.0
220
0.0
230
1.0
 70
     8
 71
     3
 72
    15
 73
    11
 74
     0
 42
0.00000001
 43
0.00000001
 40
0.0
 40
0.0
 40
0.0
 40
0.0
 40
0.1476613860734705
 40
0.2888924423695142
 40
0.424106550057424
 40
0.551995553230679
 40
0.6738679309355682
 40
0.7893162665477799
 40
0.8978915155028955
 40
1.0
 40
1.0
 40
1.0
 40
1.0
 10
87.91987396425002
 20
31.88744092413247
 30
0.0
 10
87.9389442727725
 20
31.86972276923303
 30
0.0
 10
87.97625441967213
 20
31.83505804625234
 30
0.0
 10
88.03136802639455
 20
31.7845377077455
 30
0.0
 10
88.08399557562932
 20
31.73646438515022
 30
0.0
 10
88.1340085741048
 20
31.69058914514607
 30
0.0
 10
88.18152610467783
 20
31.64714761442634
 30
0.0
 10
88.22686391687907
 20
31.60637073026625
 30
0.0
 10
88.26974400079939
 20
31.568072672691
 30
0.0
 10
88.2973980094246
 20
31.54327943348378
 30
0.0
 10
88.31080060517664
 20
31.53126331795487
 30
0.0
  0
SPLINE
  5
7C
330
1F
100
AcDbEntity
  8
0
  6
Continuous
 62
     7
370
    25
100
AcDbSpline
210
0.0
220
0.0
230
1.0
 70
     8
 71
     3
 72
    15
 73
    11
 74
     0
 42
0.00000001
 43
0.00000001
 40
0.0
 40
0.0
 40
0.0
 40
0.0
 40
0.0824284987423308
 40
0.1761528009252875
 40
0.2809817587265287
 40
0.3985256681357573
 40
0.5291842754648531
 40
0.6726050610319612
 40
0.829398919453103
 40
1.0
 40
1.0
 40
1.0
 40
1.0
 10
87.67663072100676
 20
32.03512432181587
 30
0.0
 10
87.68429581596249
 20
32.03325141542026
 30
0.0
 10
87.70067641207199
 20
32.02924894403607
 30
0.0
 10
87.72570506014375
 20
32.01926202891814
 30
0.0
 10
87.75283002039532
 20
32.00589666552084
 30
0.0
 10
87.78212155204564
 20
31.98905870487854
 30
0.0
 10
87.81352056254399
 20
31.96863228417551
 30
0.0
 10
87.84745790911454
 20
31.94524254923996
 30
0.0
 10
87.88308828366483
 20
31.9176865172676
 30
0.0
 10
87.90727210276806
 20
31.8978023139196
 30
0.0
 10
87.91987396425002
 20
31.88744092413247
 30
0.0
  0
LINE
  5
7D
330
1F
100
AcDbEntity
  8
0
  6
Continuous
 62
     7
370
    25
100
AcDbLine
 10
87.529590824
 20
32.0351243218
 30
0.0
 11
87.676630721
 21
32.0351243218
 31
0.0
  0
LINE
  5
7E
330
1F
100
AcDbEntity
  8
0
  6
Continuous
 62
     7
370
    25
100
AcDbLine
 10
87.529590824
 20
31.1490239357
 30
0.0
 11
87.529590824
 21
32.0351243218
 31
0.0
  0
LINE
  5
7F
330
1F
100
AcDbEntity
  8
0
  6
Continuous
 62
     7
370
    25
100
AcDbLine
 10
87.6940052384
 20
31.1490239357
 30
0.0
 11
87.529590824
 21
31.1490239357
 31
0.0
  0
LINE
  5
80
330
1F
100
AcDbEntity
  8
0
  6
Continuous
 62
     7
370
    25
100
AcDbLine
 10
87.6940052384
 20
31.8005683373
 30
0.0
 11
87.6940052384
 21
31.1490239357
 31
0.0
  0
SPLINE
  5
81
330
1F
100
AcDbEntity
  8
0
  6
Continuous
 62
     7
370
    25
100
AcDbSpline
210
0.0
220
0.0
230
1.0
 70
     8
 71
     3
 72
     9
 73
     5
 74
     0
 42
0.00000001
 43
0.00000001
 40
0.0
 40
0.0
 40
0.0
 40
0.0
 40
0.5155288090837097
 40
1.0
 40
1.0
 40
1.0
 40
1.0
 10
87.83300137737741
 20
31.69632123301278
 30
0.0
 10
87.81021815658315
 20
31.71570902865572
 30
0.0
 10
87.76602427179373
 20
31.75331661779785
 30
0.0
 10
87.71750933000628
 20
31.78514729241867
 30
0.0
 10
87.69400523838128
 20
31.80056833725989
 30
0.0
  0
LINE
  5
82
330
1F
100
AcDbEntity
  8
0
  6
Continuous
 62
     7
370
    25
100
AcDbLine
 10
87.9893720337
 20
31.557325094
 30
0.0
 11
87.8330013774
 21
31.696321233
 31
0.0
  0
SPLINE
  5
83
330
1F
100
AcDbEntity
  8
0
  6
Continuous
 62
     7
370
    25
100
AcDbSpline
210
0.0
220
0.0
230
1.0
 70
     8
 71
     3
 72
     9
 73
     5
 74
     0
 42
0.00000001
 43
0.00000001
 40
0.0
 40
0.0
 40
0.0
 40
0.0
 40
0.5004988252029454
 40
1.0
 40
1.0
 40
1.0
 40
1.0
 10
88.27605157042761
 20
31.30539459208615
 30
0.0
 10
88.22724914435256
 20
31.34631563763289
 30
0.0
 10
88.12974157067288
 20
31.42807616030776
 30
0.0
 10
88.0361307490983
 20
31.51427078014617
 30
0.0
 10
87.98937203374807
 20
31.55732509401665
 30
0.0
  0
SPLINE
  5
84
330
1F
100
AcDbEntity
  8
0
  6
Continuous
 62
     7
370
    25
100
AcDbSpline
210
0.0
220
0.0
230
1.0
 70
     8
 71
     3
 72
    15
 73
    11
 74
     0
 42
0.00000001
 43
0.00000001
 40
0.0
 40
0.0
 40
0.0
 40
0.0
 40
0.1293972986426973
 40
0.2563931032053937
 40
0.3803289534191742
 40
0.5027804241113404
 40
0.6257089540099045
 40
0.7486563126058704
 40
0.8729651434356746
 40
1.0
 40
1.0
 40
1.0
 40
1.0
 10
88.64091643529248
 20
31.17508571177726
 30
0.0
 10
88.62384600913984
 20
31.17543035261664
 30
0.0
 10
88.5900219681419
 20
31.17611323808046
 30
0.0
 10
88.54015652487537
 20
31.18234782383882
 30
0.0
 10
88.49196571883957
 20
31.19271804127369
 30
0.0
 10
88.44531820597281
 20
31.20692200338942
 30
0.0
 10
88.40021521628886
 20
31.22517972259547
 30
0.0
 10
88.35700148601128
 20
31.24800761668418
 30
0.0
 10
88.31510827173813
 20
31.27427924431742
 30
0.0
 10
88.28916426544713
 20
31.29494808605703
 30
0.0
 10
88.27605157042761
 20
31.30539459208615
 30
0.0
  0
SPLINE
  5
85
330
1F
100
AcDbEntity
  8
0
  6
Continuous
 62
     7
370
    25
100
AcDbSpline
210
0.0
220
0.0
230
1.0
 70
     8
 71
     3
 72
    15
 73
    11
 74
     0
 42
0.00000001
 43
0.00000001
 40
0.0
 40
0.0
 40
0.0
 40
0.0
 40
0.1270527522076904
 40
0.2522753243044989
 40
0.3739697899787153
 40
0.4948832629277703
 40
0.6176556772794565
 40
0.7419399124466165
 40
0.8684128160693884
 40
1.0
 40
1.0
 40
1.0
 40
1.0
 10
88.91890871328475
 20
31.28802007471162
 30
0.0
 10
88.90942600252899
 20
31.27902939752436
 30
0.0
 10
88.89059717836246
 20
31.26117755280851
 30
0.0
 10
88.85970842457657
 20
31.2381536862247
 30
0.0
 10
88.82727717323452
 20
31.21860104880091
 30
0.0
 10
88.79314540118877
 20
31.2028057667427
 30
0.0
 10
88.75745479472677
 20
31.19004866063324
 30
0.0
 10
88.71993081769475
 20
31.18169306879728
 30
0.0
 10
88.68100198160792
 20
31.17576080142938
 30
0.0
 10
88.6544536638117
 20
31.17531369527086
 30
0.0
 10
88.64091643529248
 20
31.17508571177726
 30
0.0
  0
SPLINE
  5
86
330
1F
100
AcDbEntity
  8
0
  6
Continuous
 62
     7
370
    25
100
AcDbSpline
210
0.0
220
0.0
230
1.0
 70
     8
 71
     3
 72
    15
 73
    11
 74
     0
 42
0.00000001
 43
0.00000001
 40
0.0
 40
0.0
 40
0.0
 40
0.0
 40
0.1401156952848879
 40
0.2734369515897462
 40
0.4007170918852061
 40
0.5244111544238717
 40
0.6451326608364115
 40
0.7627629456192493
 40
0.8809824433211494
 40
1.0
 40
1.0
 40
1.0
 40
1.0
 10
89.03184307621912
 20
31.59207412876568
 30
0.0
 10
89.03161605003132
 20
31.57650237550245
 30
0.0
 10
89.03117300652647
 20
31.54611396873225
 30
0.0
 10
89.02534627775462
 20
31.50192332093323
 30
0.0
 10
89.01697572071565
 20
31.460013677134
 30
0.0
 10
89.00415606175847
 20
31.42069974636899
 30
0.0
 10
88.98863579910663
 20
31.38353927135627
 30
0.0
 10
88.96903474968306
 20
31.34902806446706
 30
0.0
 10
88.94584444721845
 20
31.31703650532673
 30
0.0
 10
88.92790740450339
 20
31.29771388517229
 30
0.0
 10
88.91890871328475
 20
31.28802007471162
 30
0.0
  0
SPLINE
  5
87
330
1F
100
AcDbEntity
  8
0
  6
Continuous
 62
     7
370
    25
100
AcDbSpline
210
0.0
220
0.0
230
1.0
 70
     8
 71
     3
 72
    15
 73
    11
 74
     0
 42
0.00000001
 43
0.00000001
 40
0.0
 40
0.0
 40
0.0
 40
0.0
 40
0.1305450777958563
 40
0.2575006610529005
 40
0.3807062916981832
 40
0.5030034727056797
 40
0.6241056847467471
 40
0.7465907263580781
 40
0.87229503688128
 40
1.0
 40
1.0
 40
1.0
 40
1.0
 10
88.91890871328475
 20
31.8613791480707
 30
0.0
 10
88.9278722724117
 20
31.85187485358859
 30
0.0
 10
88.94555292678449
 20
31.833127596677
 30
0.0
 10
88.96877587093414
 20
31.80285262253271
 30
0.0
 10
88.98833728915646
 20
31.77105227292818
 30
0.0
 10
89.00390501595335
 20
31.73780008116387
 30
0.0
 10
89.01690137363936
 20
31.70350325099424
 30
0.0
 10
89.02526550651638
 20
31.66745708920705
 30
0.0
 10
89.03111753780495
 20
31.63023249624194
 30
0.0
 10
89.03159996051393
 20
31.6048603551545
 30
0.0
 10
89.03184307621912
 20
31.59207412876568
 30
0.0
  0
SPLINE
  5
88
330
1F
100
AcDbEntity
  8
0
  6
Continuous
 62
     7
370
    25
100
AcDbSpline
210
0.0
220
0.0
230
1.0
 70
     8
 71
     3
 72
    15
 73
    11
 74
     0
 42
0.00000001
 43
0.00000001
 40
0.0
 40
0.0
 40
0.0
 40
0.0
 40
0.1476270724396857
 40
0.2864810592714895
 40
0.4181894659268067
 40
0.5428808841137348
 40
0.6619178330920029
 40
0.7770087505932002
 40
0.8893050437597241
 40
1.0
 40
1.0
 40
1.0
 40
1.0
 10
88.5106075549836
 20
32.00037528706683
 30
0.0
 10
88.53239473511069
 20
31.9999391802531
 30
0.0
 10
88.57467434100002
 20
31.9990928832976
 30
0.0
 10
88.63613770392179
 20
31.99266857745198
 30
0.0
 10
88.6934952122379
 20
31.98176676064224
 30
0.0
 10
88.74694204900102
 20
31.96683512756564
 30
0.0
 10
88.79616016898709
 20
31.94702963086049
 30
0.0
 10
88.84150530713067
 20
31.92325847507946
 30
0.0
 10
88.88283215217704
 20
31.89497131039715
 30
0.0
 10
88.90694090255259
 20
31.87252280002818
 30
0.0
 10
88.91890871328475
 20
31.8613791480707
 30
0.0
  0
LINE
  5
89
330
1F
100
AcDbEntity
  8
0
  6
Continuous
 62
     7
370
    25
100
AcDbLine
 10
88.5887928832
 20
32.9212247079
 30
0.0
 11
88.5887928832
 21
33.112344399
 31
0.0
  0
SPLINE
  5
8A
330
1F
100
AcDbEntity
  8
0
  6
Continuous
 62
     7
370
    25
100
AcDbSpline
210
0.0
220
0.0
230
1.0
 70
     8
 71
     3
 72
    15
 73
    11
 74
     0
 42
0.00000001
 43
0.00000001
 40
0.0
 40
0.0
 40
0.0
 40
0.0
 40
0.1017738366845019
 40
0.2081280746103127
 40
0.3195222361320721
 40
0.4377158324105372
 40
0.5640612668215815
 40
0.7002741501736233
 40
0.8452618826189009
 40
1.0
 40
1.0
 40
1.0
 40
1.0
 10
88.81466160903764
 20
32.84303937973093
 30
0.0
 10
88.80858498437402
 20
32.84868651203701
 30
0.0
 10
88.79615825239092
 20
32.86023492970723
 30
0.0
 10
88.77430917898361
 20
32.87454781329183
 30
0.0
 10
88.7499728058673
 20
32.88704403003691
 30
0.0
 10
88.72317518991018
 20
32.89820655833763
 30
0.0
 10
88.69329157721862
 20
32.90657682874559
 30
0.0
 10
88.66089749490702
 20
32.91381028730918
 30
0.0
 10
88.62567500080539
 20
32.91841863732688
 30
0.0
 10
88.60135068721918
 20
32.9202692832587
 30
0.0
 10
88.58879288316892
 20
32.92122470791626
 30
0.0
  0
SPLINE
  5
8B
330
1F
100
AcDbEntity
  8
0
  6
Continuous
 62
     7
370
    25
100
AcDbSpline
210
0.0
220
0.0
230
1.0
 70
     8
 71
     3
 72
    11
 73
     7
 74
     0
 42
0.00000001
 43
0.00000001
 40
0.0
 40
0.0
 40
0.0
 40
0.0
 40
0.2450868805219034
 40
0.4875552456976425
 40
0.7346288455311495
 40
1.0
 40
1.0
 40
1.0
 40
1.0
 10
88.87547241984846
 20
32.70404324073479
 30
0.0
 10
88.87471699286836
 20
32.71678373761863
 30
0.0
 10
88.87321420991196
 20
32.74212861154776
 30
0.0
 10
88.86144083099515
 20
32.77879702226178
 30
0.0
 10
88.84202240230567
 20
32.81320073946107
 30
0.0
 10
88.82399642106044
 20
32.83285918885684
 30
0.0
 10
88.81466160903764
 20
32.84303937973093
 30
0.0
  0
SPLINE
  5
8C
330
1F
100
AcDbEntity
  8
0
  6
Continuous
 62
     7
370
    25
100
AcDbSpline
210
0.0
220
0.0
230
1.0
 70
     8
 71
     3
 72
    11
 73
     7
 74
     0
 42
0.00000001
 43
0.00000001
 40
0.0
 40
0.0
 40
0.0
 40
0.0
 40
0.2388203430261955
 40
0.4777994110081039
 40
0.7288233729769951
 40
1.0
 40
1.0
 40
1.0
 40
1.0
 10
88.8233488677249
 20
32.56504710173865
 30
0.0
 10
88.8314062172728
 20
32.57417156962538
 30
0.0
 10
88.8475262714503
 20
32.59242656970953
 30
0.0
 10
88.86400859196232
 20
32.62601533127092
 30
0.0
 10
88.87381809589314
 20
32.66369247845395
 30
0.0
 10
88.87490697130626
 20
32.69025133520455
 30
0.0
 10
88.87547241984846
 20
32.70404324073479
 30
0.0
  0
SPLINE
  5
8D
330
1F
100
AcDbEntity
  8
0
  6
Continuous
 62
     7
370
    25
100
AcDbSpline
210
0.0
220
0.0
230
1.0
 70
     8
 71
     3
 72
    15
 73
    11
 74
     0
 42
0.00000001
 43
0.00000001
 40
0.0
 40
0.0
 40
0.0
 40
0.0
 40
0.1380420997033151
 40
0.2691721599589615
 40
0.3953313456434694
 40
0.5186017941434373
 40
0.6392985515224091
 40
0.7600805617867294
 40
0.8784957553092646
 40
0.9999999999999999
 40
0.9999999999999999
 40
0.9999999999999999
 40
0.9999999999999999
 10
88.64091643529248
 20
32.49554903224058
 30
0.0
 10
88.65015768544824
 20
32.49564841445554
 30
0.0
 10
88.6681774581878
 20
32.49584220262246
 30
0.0
 10
88.6943457657822
 20
32.49985212467687
 30
0.0
 10
88.71938786295645
 20
32.50457200521529
 30
0.0
 10
88.74284760861664
 20
32.51260625692557
 30
0.0
 10
88.76538414547083
 20
32.52205472295559
 30
0.0
 10
88.78602893115887
 20
32.53450073550391
 30
0.0
 10
88.80589872739331
 20
32.54827572266689
 30
0.0
 10
88.81748243942751
 20
32.55940886096217
 30
0.0
 10
88.8233488677249
 20
32.56504710173865
 30
0.0
  0
SPLINE
  5
8E
330
1F
100
AcDbEntity
  8
0
  6
Continuous
 62
     7
370
    25
100
AcDbSpline
210
0.0
220
0.0
230
1.0
 70
     8
 71
     3
 72
    15
 73
    11
 74
     0
 42
0.00000001
 43
0.00000001
 40
0.0
 40
0.0
 40
0.0
 40
0.0
 40
0.1133059292696167
 40
0.2263015370273189
 40
0.3429947497841053
 40
0.4612849748553938
 40
0.5864354642724738
 40
0.7160226876888957
 40
0.8547540019702783
 40
1.0
 40
1.0
 40
1.0
 40
1.0
 10
88.44110948548553
 20
32.56504710173865
 30
0.0
 10
88.44706753559336
 20
32.55938425906434
 30
0.0
 10
88.45896731794174
 20
32.54807408307089
 30
0.0
 10
88.47981840308293
 20
32.53443400187497
 30
0.0
 10
88.5017606351178
 20
32.52198243743105
 30
0.0
 10
88.52608734611628
 20
32.51242990535837
 30
0.0
 10
88.55197217424696
 20
32.50455810196834
 30
0.0
 10
88.58009002316045
 20
32.49977341644357
 30
0.0
 10
88.60981276117131
 20
32.4958606247688
 30
0.0
 10
88.63039118169772
 20
32.49565447285075
 30
0.0
 10
88.64091643529248
 20
32.49554903224058
 30
0.0
  0
SPLINE
  5
8F
330
1F
100
AcDbEntity
  8
0
  6
Continuous
 62
     7
370
    25
100
AcDbSpline
210
0.0
220
0.0
230
1.0
 70
     8
 71
     3
 72
    11
 73
     7
 74
     0
 42
0.00000001
 43
0.00000001
 40
0.0
 40
0.0
 40
0.0
 40
0.0
 40
0.2322932923175283
 40
0.4682186081034752
 40
0.7217939329173698
 40
1.0
 40
1.0
 40
1.0
 40
1.0
 10
88.37161141598746
 20
32.71273049942205
 30
0.0
 10
88.37253002175056
 20
32.69975374146724
 30
0.0
 10
88.37438159614389
 20
32.67359732736384
 30
0.0
 10
88.38818811930695
 20
32.63528092445402
 30
0.0
 10
88.41053867100524
 20
32.59844006182124
 30
0.0
 10
88.43060934011935
 20
32.57651656832093
 30
0.0
 10
88.44110948548553
 20
32.56504710173865
 30
0.0
  0
LINE
  5
90
330
1F
100
AcDbEntity
  8
0
  6
Continuous
 62
     7
370
    25
100
AcDbLine
 10
88.371611416
 20
32.7648540515
 30
0.0
 11
88.371611416
 21
32.7127304994
 31
0.0
  0
LINE
  5
91
330
1F
100
AcDbEntity
  8
0
  6
Continuous
 62
     7
370
    25
100
AcDbLine
 10
88.2239280183
 20
32.7648540515
 30
0.0
 11
88.371611416
 21
32.7648540515
 31
0.0
  0
LINE
  5
92
330
1F
100
AcDbEntity
  8
0
  6
Continuous
 62
     7
370
    25
100
AcDbLine
 10
88.2239280183
 20
32.695355982
 30
0.0
 11
88.2239280183
 21
32.7648540515
 31
0.0
  0
SPLINE
  5
93
330
1F
100
AcDbEntity
  8
0
  6
Continuous
 62
     7
370
    25
100
AcDbSpline
210
0.0
220
0.0
230
1.0
 70
     8
 71
     3
 72
    11
 73
     7
 74
     0
 42
0.00000001
 43
0.00000001
 40
0.0
 40
0.0
 40
0.0
 40
0.0
 40
0.2676320905605546
 40
0.5177929452577176
 40
0.757031548782954
 40
1.0
 40
1.0
 40
1.0
 40
1.0
 10
88.15442994880598
 20
32.53898532567688
 30
0.0
 10
88.16516537499706
 20
32.5504848718823
 30
0.0
 10
88.1859354102138
 20
32.57273326476509
 30
0.0
 10
88.20732688058436
 20
32.61191395061989
 30
0.0
 10
88.22182437358738
 20
32.65273143195247
 30
0.0
 10
88.2232231967891
 20
32.68107472070415
 30
0.0
 10
88.22392801830406
 20
32.69535598204753
 30
0.0
  0
SPLINE
  5
94
330
1F
100
AcDbEntity
  8
0
  6
Continuous
 62
     7
370
    25
100
AcDbSpline
210
0.0
220
0.0
230
1.0
 70
     8
 71
     3
 72
    15
 73
    11
 74
     0
 42
0.00000001
 43
0.00000001
 40
0.0
 40
0.0
 40
0.0
 40
0.0
 40
0.1417962611116214
 40
0.2768819513476974
 40
0.4055805706087831
 40
0.5298229690785609
 40
0.6485572024501445
 40
0.7672114666371225
 40
0.8821786188665546
 40
1.0
 40
1.0
 40
1.0
 40
1.0
 10
87.96331025768629
 20
32.46948725617881
 30
0.0
 10
87.97319353420767
 20
32.4695888512088
 30
0.0
 10
87.99249235681056
 20
32.469787233239
 30
0.0
 10
88.02048898342342
 20
32.47376668976246
 30
0.0
 10
88.04712632798093
 20
32.47848484157095
 30
0.0
 10
88.07181732798463
 20
32.48641391086708
 30
0.0
 10
88.09515014055867
 20
32.49600919285502
 30
0.0
 10
88.11640618236271
 20
32.50834258424357
 30
0.0
 10
88.13664375567869
 20
32.52221365899106
 30
0.0
 10
88.14845295342532
 20
32.53334925877993
 30
0.0
 10
88.15442994880598
 20
32.53898532567688
 30
0.0
  0
SPLINE
  5
95
330
1F
100
AcDbEntity
  8
0
  6
Continuous
 62
     7
370
    25
100
AcDbSpline
210
0.0
220
0.0
230
1.0
 70
     8
 71
     3
 72
    15
 73
    11
 74
     0
 42
0.00000001
 43
0.00000001
 40
0.0
 40
0.0
 40
0.0
 40
0.0
 40
0.1062344532908182
 40
0.2134351374465935
 40
0.3266362515327415
 40
0.4454478074346344
 40
0.570912586560857
 40
0.7047818913259154
 40
0.8472638984122983
 40
0.9999999999999999
 40
0.9999999999999999
 40
0.9999999999999999
 40
0.9999999999999999
 10
87.74612879050484
 20
32.53898532567688
 30
0.0
 10
87.75218981011324
 20
32.53331296668037
 30
0.0
 10
87.7643669759301
 20
32.52191665705988
 30
0.0
 10
87.78595822753347
 20
32.5082306410346
 30
0.0
 10
87.8093078558255
 20
32.49570090832773
 30
0.0
 10
87.8356634415152
 20
32.48641965671334
 30
0.0
 10
87.86407094690487
 20
32.47836452093481
 30
0.0
 10
87.89510455117215
 20
32.47375197055976
 30
0.0
 10
87.9283524333163
 20
32.46975881711066
 30
0.0
 10
87.95139091036921
 20
32.46957984858474
 30
0.0
 10
87.96331025768629
 20
32.46948725617881
 30
0.0
  0
SPLINE
  5
96
330
1F
100
AcDbEntity
  8
0
  6
Continuous
 62
     7
370
    25
100
AcDbSpline
210
0.0
220
0.0
230
1.0
 70
     8
 71
     3
 72
    15
 73
    11
 74
     0
 42
0.00000001
 43
0.00000001
 40
0.0
 40
0.0
 40
0.0
 40
0.0
 40
0.1380420997033143
 40
0.2691721599589612
 40
0.3953313456434691
 40
0.5186017941434362
 40
0.6392985515224093
 40
0.7600805617867296
 40
0.8784957553092652
 40
0.9999999999999999
 40
0.9999999999999999
 40
0.9999999999999999
 40
0.9999999999999999
 10
87.67663072100676
 20
32.7214177581093
 30
0.0
 10
87.67673010322171
 20
32.71217650795355
 30
0.0
 10
87.67692389138864
 20
32.69415673521398
 30
0.0
 10
87.68093381344305
 20
32.66798842761958
 30
0.0
 10
87.68565369398148
 20
32.64294633044533
 30
0.0
 10
87.69368794569175
 20
32.61948658478514
 30
0.0
 10
87.70313641172177
 20
32.59695004793096
 30
0.0
 10
87.71558242427008
 20
32.57630526224292
 30
0.0
 10
87.72935741143306
 20
32.55643546600847
 30
0.0
 10
87.74049054972835
 20
32.54485175397427
 30
0.0
 10
87.74612879050484
 20
32.53898532567688
 30
0.0
  0
SPLINE
  5
97
330
1F
100
AcDbEntity
  8
0
  6
Continuous
 62
     7
370
    25
100
AcDbSpline
210
0.0
220
0.0
230
1.0
 70
     8
 71
     3
 72
    11
 73
     7
 74
     0
 42
0.00000001
 43
0.00000001
 40
0.0
 40
0.0
 40
0.0
 40
0.0
 40
0.2550921435312746
 40
0.4983791954134768
 40
0.7437399667914605
 40
1.0
 40
1.0
 40
1.0
 40
1.0
 10
87.73744153181758
 20
32.86910115579271
 30
0.0
 10
87.7280712083559
 20
32.85872284291285
 30
0.0
 10
87.70976419896333
 20
32.838446502171
 30
0.0
 10
87.69045147187875
 20
32.80226316217409
 30
0.0
 10
87.67878130570311
 20
32.76289453509499
 30
0.0
 10
87.67735789192628
 20
32.73544217951922
 30
0.0
 10
87.67663072100676
 20
32.7214177581093
 30
0.0
  0
SPLINE
  5
98
330
1F
100
AcDbEntity
  8
0
  6
Continuous
 62
     7
370
    25
100
AcDbSpline
210
0.0
220
0.0
230
1.0
 70
     8
 71
     3
 72
    15
 73
    11
 74
     0
 42
0.00000001
 43
0.00000001
 40
0.0
 40
0.0
 40
0.0
 40
0.0
 40
0.1305521219623389
 40
0.257514555698003
 40
0.380726834475782
 40
0.5030306145961513
 40
0.6251462349433743
 40
0.7476378858044692
 40
0.872288145966387
 40
1.0
 40
1.0
 40
1.0
 40
1.0
 10
87.92856122293726
 20
32.94728648397803
 30
0.0
 10
87.91932736768473
 20
32.94701596058758
 30
0.0
 10
87.90111355317913
 20
32.94648235217392
 30
0.0
 10
87.8743635679156
 20
32.94295857023188
 30
0.0
 10
87.84868644087634
 20
32.93683092875649
 30
0.0
 10
87.82419559711941
 20
32.92799454582529
 30
0.0
 10
87.80053849283061
 20
32.91719515671487
 30
0.0
 10
87.7783267604923
 20
32.90338288193037
 30
0.0
 10
87.75682167199527
 20
32.88777484965205
 30
0.0
 10
87.74395361588651
 20
32.87537586088641
 30
0.0
 10
87.73744153181758
 20
32.86910115579271
 30
0.0
  0
LINE
  5
99
330
1F
100
AcDbEntity
  8
0
  6
Continuous
 62
     7
370
    25
100
AcDbLine
 10
87.9893720337
 20
32.947286484
 30
0.0
 11
87.9285612229
 21
32.947286484
 31
0.0
  0
LINE
  5
9A
330
1F
100
AcDbEntity
  8
0
  6
Continuous
 62
     7
370
    25
100
AcDbLine
 10
87.9893720337
 20
33.1528849396
 30
0.0
 11
87.9893720337
 21
32.947286484
 31
0.0
  0
LINE
  5
9B
330
1F
100
AcDbEntity
  8
0
  6
Continuous
 62
     7
370
    25
100
AcDbLine
 10
87.9198739643
 20
33.1528849396
 30
0.0
 11
87.9893720337
 21
33.1528849396
 31
0.0
  0
SPLINE
  5
9C
330
1F
100
AcDbEntity
  8
0
  6
Continuous
 62
     7
370
    25
100
AcDbSpline
210
0.0
220
0.0
230
1.0
 70
     8
 71
     3
 72
    15
 73
    11
 74
     0
 42
0.00000001
 43
0.00000001
 40
0.0
 40
0.0
 40
0.0
 40
0.0
 40
0.1339120169181253
 40
0.2615284644313489
 40
0.3861887226529779
 40
0.5091929985924206
 40
0.6296768122270383
 40
0.7512559744353479
 40
0.8742965747069023
 40
1.0
 40
1.0
 40
1.0
 40
1.0
 10
87.63319442757046
 20
33.02547181216337
 30
0.0
 10
87.64341491039023
 20
33.03564543189784
 30
0.0
 10
87.66337538323738
 20
33.05551438173594
 30
0.0
 10
87.69593855226731
 20
33.08148555999567
 30
0.0
 10
87.72985744578149
 20
33.10352737295525
 30
0.0
 10
87.76521984841986
 20
33.12156542322211
 30
0.0
 10
87.80201126092074
 20
33.13559108807569
 30
0.0
 10
87.84009991649444
 20
33.14546550325204
 30
0.0
 10
87.87954469039343
 20
33.15189716127406
 30
0.0
 10
87.90633527450397
 20
33.1525533386649
 30
0.0
 10
87.91987396425002
 20
33.15288493957649
 30
0.0
  0
SPLINE
  5
9D
330
1F
100
AcDbEntity
  8
0
  6
Continuous
 62
     7
370
    25
100
AcDbSpline
210
0.0
220
0.0
230
1.0
 70
     8
 71
     3
 72
    15
 73
    11
 74
     0
 42
0.00000001
 43
0.00000001
 40
0.0
 40
0.0
 40
0.0
 40
0.0
 40
0.1330514903197389
 40
0.2614008608137419
 40
0.3859789426424568
 40
0.5084656149022188
 40
0.6295593452611179
 40
0.7509246542250764
 40
0.8741074588764665
 40
0.9999999999999999
 40
0.9999999999999999
 40
0.9999999999999999
 40
0.9999999999999999
 10
87.51157280594884
 20
32.7214177581093
 30
0.0
 10
87.51191808510399
 20
32.73634768825809
 30
0.0
 10
87.51259644104093
 20
32.76567991582956
 30
0.0
 10
87.51869716110657
 20
32.80861227074846
 30
0.0
 10
87.52773214726064
 20
32.8498051865758
 30
0.0
 10
87.5415337715018
 20
32.88880395193911
 30
0.0
 10
87.55849208302266
 20
32.9261376659159
 30
0.0
 10
87.57978968356238
 20
32.96124114694702
 30
0.0
 10
87.60396101306553
 20
32.99516530489653
 30
0.0
 10
87.62337953683893
 20
33.01529663891331
 30
0.0
 10
87.63319442757046
 20
33.02547181216337
 30
0.0
  0
SPLINE
  5
9E
330
1F
100
AcDbEntity
  8
0
  6
Continuous
 62
     7
370
    25
100
AcDbSpline
210
0.0
220
0.0
230
1.0
 70
     8
 71
     3
 72
    15
 73
    11
 74
     0
 42
0.00000001
 43
0.00000001
 40
0.0
 40
0.0
 40
0.0
 40
0.0
 40
0.1158830802717857
 40
0.2315534497979609
 40
0.3480625771524276
 40
0.4678553783950312
 40
0.592590819753905
 40
0.7213115030172622
 40
0.8571441704632073
 40
1.0
 40
1.0
 40
1.0
 40
1.0
 10
87.63319442757046
 20
32.38261466930622
 30
0.0
 10
87.62334542352562
 20
32.39298295586612
 30
0.0
 10
87.60366549390768
 20
32.41370049733818
 30
0.0
 10
87.57955222955037
 20
32.44933408484656
 30
0.0
 10
87.55819324248493
 20
32.48714239445314
 30
0.0
 10
87.54130797333855
 20
32.52839981505201
 30
0.0
 10
87.52766735926787
 20
32.57239353847331
 30
0.0
 10
87.51859350980331
 20
32.61955754808026
 30
0.0
 10
87.51258093350428
 20
32.66946011960312
 30
0.0
 10
87.51191444712191
 20
32.70380999759013
 30
0.0
 10
87.51157280594884
 20
32.7214177581093
 30
0.0
  0
SPLINE
  5
9F
330
1F
100
AcDbEntity
  8
0
  6
Continuous
 62
     7
370
    25
100
AcDbSpline
210
0.0
220
0.0
230
1.0
 70
     8
 71
     3
 72
    15
 73
    11
 74
     0
 42
0.00000001
 43
0.00000001
 40
0.0
 40
0.0
 40
0.0
 40
0.0
 40
0.1354658418109469
 40
0.2653728839126842
 40
0.3915266279918201
 40
0.5146179992444258
 40
0.6353652389705204
 40
0.7554358763572422
 40
0.8764282152102189
 40
1.0
 40
1.0
 40
1.0
 40
1.0
 10
87.94593574031178
 20
32.26099304768459
 30
0.0
 10
87.93036268855262
 20
32.2613339866739
 30
0.0
 10
87.89985562048729
 20
32.26200187432455
 30
0.0
 10
87.85521606307532
 20
32.26812643916254
 30
0.0
 10
87.81251816703065
 20
32.27710594975728
 30
0.0
 10
87.77221963217622
 20
32.2908943563621
 30
0.0
 10
87.73390869600522
 20
32.30783887759987
 30
0.0
 10
87.69812886013777
 20
32.32911818832181
 30
0.0
 10
87.66383620856088
 20
32.35337973330418
 30
0.0
 10
87.64347992126828
 20
32.37280140975388
 30
0.0
 10
87.63319442757046
 20
32.38261466930622
 30
0.0
  0
SPLINE
  5
A0
330
1F
100
AcDbEntity
  8
0
  6
Continuous
 62
     7
370
    25
100
AcDbSpline
210
0.0
220
0.0
230
1.0
 70
     8
 71
     3
 72
    15
 73
    11
 74
     0
 42
0.00000001
 43
0.00000001
 40
0.0
 40
0.0
 40
0.0
 40
0.0
 40
0.1195027114365311
 40
0.2380939422658881
 40
0.3566476293726342
 40
0.4775806195769139
 40
0.6003630199241493
 40
0.7278327340041406
 40
0.8606471500295814
 40
1.0
 40
1.0
 40
1.0
 40
1.0
 10
88.22392801830406
 20
32.3652401519317
 30
0.0
 10
88.21509450232685
 20
32.35688553666365
 30
0.0
 10
88.19749484606969
 20
32.34024002911512
 30
0.0
 10
88.16800132766244
 20
32.31893825852858
 30
0.0
 10
88.13611619336537
 20
32.30126793454392
 30
0.0
 10
88.10238947785335
 20
32.28629194738086
 30
0.0
 10
88.06625375874232
 20
32.27519333454568
 30
0.0
 10
88.02821120974023
 20
32.26666501705119
 30
0.0
 10
87.98777773432454
 20
32.26189081742069
 30
0.0
 10
87.96010467370749
 20
32.26129705899896
 30
0.0
 10
87.94593574031178
 20
32.26099304768459
 30
0.0
  0
SPLINE
  5
A1
330
1F
100
AcDbEntity
  8
0
  6
Continuous
 62
     7
370
    25
100
AcDbSpline
210
0.0
220
0.0
230
1.0
 70
     8
 71
     3
 72
    11
 73
     7
 74
     0
 42
0.00000001
 43
0.00000001
 40
0.0
 40
0.0
 40
0.0
 40
0.0
 40
0.25703747753725
 40
0.507341915909806
 40
0.7523129875772129
 40
1.0
 40
1.0
 40
1.0
 40
1.0
 10
88.31080060517664
 20
32.5129235496151
 30
0.0
 10
88.30612409862118
 20
32.49883273649976
 30
0.0
 10
88.29689358555224
 20
32.47102021596321
 30
0.0
 10
88.27689325139782
 20
32.43234856039951
 30
0.0
 10
88.25303087269715
 20
32.39657475800612
 30
0.0
 10
88.23366455750929
 20
32.37572333740909
 30
0.0
 10
88.22392801830406
 20
32.3652401519317
 30
0.0
  0
SPLINE
  5
A2
330
1F
100
AcDbEntity
  8
0
  6
Continuous
 62
     7
370
    25
100
AcDbSpline
210
0.0
220
0.0
230
1.0
 70
     8
 71
     3
 72
    11
 73
     7
 74
     0
 42
0.00000001
 43
0.00000001
 40
0.0
 40
0.0
 40
0.0
 40
0.0
 40
0.2731656445547231
 40
0.5274113090719859
 40
0.7672619830757345
 40
1.0
 40
1.0
 40
1.0
 40
1.0
 10
88.38029867467472
 20
32.38261466930622
 30
0.0
 10
88.37094318535229
 20
32.39263614257489
 30
0.0
 10
88.3528801859638
 20
32.4119849825217
 30
0.0
 10
88.3322395878974
 20
32.4445995451387
 30
0.0
 10
88.31728273466082
 20
32.47808618957047
 30
0.0
 10
88.31293952597008
 20
32.50142819859351
 30
0.0
 10
88.31080060517664
 20
32.5129235496151
 30
0.0
  0
SPLINE
  5
A3
330
1F
100
AcDbEntity
  8
0
  6
Continuous
 62
     7
370
    25
100
AcDbSpline
210
0.0
220
0.0
230
1.0
 70
     8
 71
     3
 72
    15
 73
    11
 74
     0
 42
0.00000001
 43
0.00000001
 40
0.0
 40
0.0
 40
0.0
 40
0.0
 40
0.1495888260512937
 40
0.2896239650819631
 40
0.4219290861937187
 40
0.5465682968532922
 40
0.6661289243466406
 40
0.7799971355270188
 40
0.8908038749321935
 40
0.9999999999999999
 40
0.9999999999999999
 40
0.9999999999999999
 40
0.9999999999999999
 10
88.64091643529248
 20
32.29574208243363
 30
0.0
 10
88.62685296445822
 20
32.2959348120916
 30
0.0
 10
88.59962420484196
 20
32.29630796247459
 30
0.0
 10
88.56018144778787
 20
32.3007224292772
 30
0.0
 10
88.52337300730396
 20
32.30712819205686
 30
0.0
 10
88.48941274801128
 20
32.31716449184086
 30
0.0
 10
88.45765366558905
 20
32.32851743817028
 30
0.0
 10
88.42920121218944
 20
32.34408589944863
 30
0.0
 10
88.4030896791145
 20
32.36163728349383
 30
0.0
 10
88.3878585076338
 20
32.37565641816468
 30
0.0
 10
88.38029867467472
 20
32.38261466930622
 30
0.0
  0
SPLINE
  5
A4
330
1F
100
AcDbEntity
  8
0
  6
Continuous
 62
     7
370
    25
100
AcDbSpline
210
0.0
220
0.0
230
1.0
 70
     8
 71
     3
 72
    15
 73
    11
 74
     0
 42
0.00000001
 43
0.00000001
 40
0.0
 40
0.0
 40
0.0
 40
0.0
 40
0.1195027114365305
 40
0.2380939422658883
 40
0.3566476293726336
 40
0.4775806195769134
 40
0.6003630199241492
 40
0.7278327340041408
 40
0.8606471500295815
 40
1.0
 40
1.0
 40
1.0
 40
1.0
 10
88.91890871328475
 20
32.39998918668073
 30
0.0
 10
88.91007519730755
 20
32.39163457141267
 30
0.0
 10
88.89247554105039
 20
32.37498906386414
 30
0.0
 10
88.86298202264312
 20
32.35368729327762
 30
0.0
 10
88.83109688834607
 20
32.33601696929296
 30
0.0
 10
88.79737017283405
 20
32.3210409821299
 30
0.0
 10
88.761234453723
 20
32.30994236929472
 30
0.0
 10
88.72319190472093
 20
32.30141405180022
 30
0.0
 10
88.68275842930522
 20
32.29663985216973
 30
0.0
 10
88.65508536868819
 20
32.296046093748
 30
0.0
 10
88.64091643529248
 20
32.29574208243363
 30
0.0
  0
SPLINE
  5
A5
330
1F
100
AcDbEntity
  8
0
  6
Continuous
 62
     7
370
    25
100
AcDbSpline
210
0.0
220
0.0
230
1.0
 70
     8
 71
     3
 72
    15
 73
    11
 74
     0
 42
0.00000001
 43
0.00000001
 40
0.0
 40
0.0
 40
0.0
 40
0.0
 40
0.1401156952848863
 40
0.2734369515897456
 40
0.4007170918852052
 40
0.5244111544238704
 40
0.6451326608364113
 40
0.7627629456192477
 40
0.8809824433211495
 40
1.0
 40
1.0
 40
1.0
 40
1.0
 10
89.03184307621912
 20
32.70404324073479
 30
0.0
 10
89.03161605003132
 20
32.68847148747156
 30
0.0
 10
89.03117300652647
 20
32.65808308070136
 30
0.0
 10
89.02534627775462
 20
32.61389243290234
 30
0.0
 10
89.01697572071565
 20
32.57198278910312
 30
0.0
 10
89.00415606175847
 20
32.5326688583381
 30
0.0
 10
88.98863579910663
 20
32.49550838332538
 30
0.0
 10
88.96903474968306
 20
32.46099717643618
 30
0.0
 10
88.94584444721845
 20
32.42900561729584
 30
0.0
 10
88.92790740450339
 20
32.40968299714141
 30
0.0
 10
88.91890871328475
 20
32.39998918668073
 30
0.0
  0
SPLINE
  5
A6
330
1F
100
AcDbEntity
  8
0
  6
Continuous
 62
     7
370
    25
100
AcDbSpline
210
0.0
220
0.0
230
1.0
 70
     8
 71
     3
 72
    15
 73
    11
 74
     0
 42
0.00000001
 43
0.00000001
 40
0.0
 40
0.0
 40
0.0
 40
0.0
 40
0.1270527522076899
 40
0.2522753243044994
 40
0.3739697899787149
 40
0.4948832629277696
 40
0.617655677279457
 40
0.7419399124466166
 40
0.8684128160693878
 40
1.0
 40
1.0
 40
1.0
 40
1.0
 10
88.91890871328475
 20
32.98203551872707
 30
0.0
 10
88.92789939047202
 20
32.97255280797131
 30
0.0
 10
88.94575123518787
 20
32.95372398380477
 30
0.0
 10
88.96877510177167
 20
32.92283523001888
 30
0.0
 10
88.98832773919546
 20
32.89040397867684
 30
0.0
 10
89.00412302125369
 20
32.85627220663108
 30
0.0
 10
89.01688012736312
 20
32.82058160016908
 30
0.0
 10
89.0252357191991
 20
32.78305762313707
 30
0.0
 10
89.03116798656698
 20
32.74412878705023
 30
0.0
 10
89.03161509272552
 20
32.71758046925401
 30
0.0
 10
89.03184307621912
 20
32.70404324073479
 30
0.0
  0
SPLINE
  5
A7
330
1F
100
AcDbEntity
  8
0
  6
Continuous
 62
     7
370
    25
100
AcDbSpline
210
0.0
220
0.0
230
1.0
 70
     8
 71
     3
 72
    15
 73
    11
 74
     0
 42
0.00000001
 43
0.00000001
 40
0.0
 40
0.0
 40
0.0
 40
0.0
 40
0.1342207616992959
 40
0.2632543584014018
 40
0.3882486178889518
 40
0.5110181775835605
 40
0.6322369822528031
 40
0.7532951172272376
 40
0.875061809911707
 40
1.0
 40
1.0
 40
1.0
 40
1.0
 10
88.58879288316892
 20
33.11234439903595
 30
0.0
 10
88.60511398559602
 20
33.11201048306327
 30
0.0
 10
88.6371254366819
 20
33.11135555580735
 30
0.0
 10
88.6840112056256
 20
33.10512044077681
 30
0.0
 10
88.72867317637836
 20
33.09472922322323
 30
0.0
 10
88.77134039313675
 20
33.08067260062109
 30
0.0
 10
88.81181276726264
 20
33.06223995364778
 30
0.0
 10
88.84985417526545
 20
33.03951224633504
 30
0.0
 10
88.88603273035395
 20
33.01307193793571
 30
0.0
 10
88.90785653417879
 20
32.99246927715259
 30
0.0
 10
88.91890871328475
 20
32.98203551872707
 30
0.0
  0
LINE
  5
A8
330
1F
100
AcDbEntity
  8
0
  6
Continuous
 62
     7
370
    25
100
AcDbLine
 10
88.0849318793
 20
34.2938115805
 30
0.0
 11
89.0318430762
 21
33.7117652485
 31
0.0
  0
LINE
  5
A9
330
1F
100
AcDbEntity
  8
0
  6
Continuous
 62
     7
370
    25
100
AcDbLine
 10
87.9118302062
 20
34.2938115805
 30
0.0
 11
88.0849318793
 21
34.2938115805
 31
0.0
  0
LINE
  5
AA
330
1F
100
AcDbEntity
  8
0
  6
Continuous
 62
     7
370
    25
100
AcDbLine
 10
87.9118302062
 20
33.7175567542
 30
0.0
 11
87.9118302062
 21
34.2938115805
 31
0.0
  0
LINE
  5
AB
330
1F
100
AcDbEntity
  8
0
  6
Continuous
 62
     7
370
    25
100
AcDbLine
 10
87.5289473233
 20
33.7175567542
 30
0.0
 11
87.9118302062
 21
33.7175567542
 31
0.0
  0
LINE
  5
AC
330
1F
100
AcDbEntity
  8
0
  6
Continuous
 62
     7
370
    25
100
AcDbLine
 10
87.5289473233
 20
33.5119582986
 30
0.0
 11
87.5289473233
 21
33.7175567542
 31
0.0
  0
LINE
  5
AD
330
1F
100
AcDbEntity
  8
0
  6
Continuous
 62
     7
370
    25
100
AcDbLine
 10
87.9118302062
 20
33.5119582986
 30
0.0
 11
87.5289473233
 21
33.5119582986
 31
0.0
  0
LINE
  5
AE
330
1F
100
AcDbEntity
  8
0
  6
Continuous
 62
     7
370
    25
100
AcDbLine
 10
87.9118302062
 20
33.3295258662
 30
0.0
 11
87.9118302062
 21
33.5119582986
 31
0.0
  0
LINE
  5
AF
330
1F
100
AcDbEntity
  8
0
  6
Continuous
 62
     7
370
    25
100
AcDbLine
 10
88.0762446206
 20
33.3295258662
 30
0.0
 11
87.9118302062
 21
33.3295258662
 31
0.0
  0
LINE
  5
B0
330
1F
100
AcDbEntity
  8
0
  6
Continuous
 62
     7
370
    25
100
AcDbLine
 10
88.0762446206
 20
33.5119582986
 30
0.0
 11
88.0762446206
 21
33.3295258662
 31
0.0
  0
LINE
  5
B1
330
1F
100
AcDbEntity
  8
0
  6
Continuous
 62
     7
370
    25
100
AcDbLine
 10
89.0318430762
 20
33.5119582986
 30
0.0
 11
88.0762446206
 21
33.5119582986
 31
0.0
  0
LINE
  5
B2
330
1F
100
AcDbEntity
  8
0
  6
Continuous
 62
     7
370
    25
100
AcDbLine
 10
89.0318430762
 20
33.7117652485
 30
0.0
 11
89.0318430762
 21
33.5119582986
 31
0.0
  0
LINE
  5
B3
330
1F
100
AcDbEntity
  8
0
  6
Continuous
 62
     7
370
    25
100
AcDbLine
 10
88.8500541444
 20
35.336282623
 30
0.0
 11
89.0144685588
 21
35.336282623
 31
0.0
  0
LINE
  5
B4
330
1F
100
AcDbEntity
  8
0
  6
Continuous
 62
     7
370
    25
100
AcDbLine
 10
88.8500541444
 20
34.7021127388
 30
0.0
 11
88.8500541444
 21
35.336282623
 31
0.0
  0
LINE
  5
B5
330
1F
100
AcDbEntity
  8
0
  6
Continuous
 62
     7
370
    25
100
AcDbLine
 10
87.5289473233
 20
35.1191011558
 30
0.0
 11
88.8500541444
 21
34.7021127388
 31
0.0
  0
LINE
  5
B6
330
1F
100
AcDbEntity
  8
0
  6
Continuous
 62
     7
370
    25
100
AcDbLine
 10
87.5289473233
 20
34.9279814647
 30
0.0
 11
87.5289473233
 21
35.1191011558
 31
0.0
  0
LINE
  5
B7
330
1F
100
AcDbEntity
  8
0
  6
Continuous
 62
     7
370
    25
100
AcDbLine
 10
88.8233488677
 20
34.5109930477
 30
0.0
 11
87.5289473233
 21
34.9279814647
 31
0.0
  0
LINE
  5
B8
330
1F
100
AcDbEntity
  8
0
  6
Continuous
 62
     7
370
    25
100
AcDbLine
 10
89.0144685588
 20
34.5109930477
 30
0.0
 11
88.8233488677
 21
34.5109930477
 31
0.0
  0
LINE
  5
B9
330
1F
100
AcDbEntity
  8
0
  6
Continuous
 62
     7
370
    25
100
AcDbLine
 10
89.0144685588
 20
35.336282623
 30
0.0
 11
89.0144685588
 21
34.5109930477
 31
0.0
  0
LINE
  5
BA
330
1F
100
AcDbEntity
  8
0
  6
Continuous
 62
     7
370
    25
100
AcDbLine
 10
88.2191017635
 20
36.5351243218
 30
0.0
 11
88.3629241573
 21
36.5351243218
 31
0.0
  0
LINE
  5
BB
330
1F
100
AcDbEntity
  8
0
  6
Continuous
 62
     7
370
    25
100
AcDbLine
 10
88.2191017635
 20
35.5447768315
 30
0.0
 11
88.2191017635
 21
36.5351243218
 31
0.0
  0
LINE
  5
BC
330
1F
100
AcDbEntity
  8
0
  6
Continuous
 62
     7
370
    25
100
AcDbLine
 10
88.3629241573
 20
35.5447768315
 30
0.0
 11
88.2191017635
 21
35.5447768315
 31
0.0
  0
LINE
  5
BD
330
1F
100
AcDbEntity
  8
0
  6
Continuous
 62
     7
370
    25
100
AcDbLine
 10
88.3629241573
 20
36.5351243218
 30
0.0
 11
88.3629241573
 21
35.5447768315
 31
0.0
  0
LINE
  5
BE
330
1F
100
AcDbEntity
  8
0
  6
Continuous
 62
     7
370
    25
100
AcDbLine
 10
87.529590824
 20
37.8748926616
 30
0.0
 11
89.0144685588
 21
37.8748926616
 31
0.0
  0
LINE
  5
BF
330
1F
100
AcDbEntity
  8
0
  6
Continuous
 62
     7
370
    25
100
AcDbLine
 10
87.529590824
 20
37.1828077195
 30
0.0
 11
87.529590824
 21
37.8748926616
 31
0.0
  0
SPLINE
  5
C0
330
1F
100
AcDbEntity
  8
0
  6
Continuous
 62
     7
370
    25
100
AcDbSpline
210
0.0
220
0.0
230
1.0
 70
     8
 71
     3
 72
    15
 73
    11
 74
     0
 42
0.00000001
 43
0.00000001
 40
0.0
 40
0.0
 40
0.0
 40
0.0
 40
0.1086277469152499
 40
0.2195300404679357
 40
0.3340583594962497
 40
0.4525037346025803
 40
0.578166032102879
 40
0.7098017975268055
 40
0.8504665399585418
 40
1.0
 40
1.0
 40
1.0
 40
1.0
 10
87.63319442757046
 20
36.87006640675796
 30
0.0
 10
87.6249324172133
 20
36.87910928164108
 30
0.0
 10
87.60823539900608
 20
36.89738437935241
 30
0.0
 10
87.58689683931374
 20
36.92856143149859
 30
0.0
 10
87.56933791826037
 20
36.96318811906127
 30
0.0
 10
87.55480546337759
 20
37.00094807788867
 30
0.0
 10
87.54320632553559
 20
37.04173223062596
 30
0.0
 10
87.5353232903694
 20
37.08592492840025
 30
0.0
 10
87.53043889700956
 20
37.13325459806057
 30
0.0
 10
87.52987921642811
 20
37.16595687536807
 30
0.0
 10
87.52959082396686
 20
37.18280771949927
 30
0.0
  0
SPLINE
  5
C1
330
1F
100
AcDbEntity
  8
0
  6
Continuous
 62
     7
370
    25
100
AcDbSpline
210
0.0
220
0.0
230
1.0
 70
     8
 71
     3
 72
    15
 73
    11
 74
     0
 42
0.00000001
 43
0.00000001
 40
0.0
 40
0.0
 40
0.0
 40
0.0
 40
0.1319114978615549
 40
0.25855939557945
 40
0.3829282045992126
 40
0.5051155152535458
 40
0.6266776175559878
 40
0.7489849223246643
 40
0.8728415720964469
 40
0.9999999999999999
 40
0.9999999999999999
 40
0.9999999999999999
 40
0.9999999999999999
 10
87.95462299899903
 20
36.73975752644908
 30
0.0
 10
87.93894365761145
 20
36.74008660626432
 30
0.0
 10
87.90821061994619
 20
36.7407316347835
 30
0.0
 10
87.86305027965808
 20
36.74705409125057
 30
0.0
 10
87.81986996635183
 20
36.75736022790693
 30
0.0
 10
87.77840501584821
 20
36.77149743208619
 30
0.0
 10
87.73891129193115
 20
36.78993536979733
 30
0.0
 10
87.70154559134548
 20
36.81268257766021
 30
0.0
 10
87.6657366495515
 20
36.83903109299268
 30
0.0
 10
87.64413654204054
 20
36.85963098055896
 30
0.0
 10
87.63319442757046
 20
36.87006640675796
 30
0.0
  0
SPLINE
  5
C2
330
1F
100
AcDbEntity
  8
0
  6
Continuous
 62
     7
370
    25
100
AcDbSpline
210
0.0
220
0.0
230
1.0
 70
     8
 71
     3
 72
    15
 73
    11
 74
     0
 42
0.00000001
 43
0.00000001
 40
0.0
 40
0.0
 40
0.0
 40
0.0
 40
0.126381288958891
 40
0.2491049464973162
 40
0.3706105362999222
 40
0.4913917559424304
 40
0.6138158455532662
 40
0.7388355742356971
 40
0.8671181754268789
 40
1.0
 40
1.0
 40
1.0
 40
1.0
 10
88.2152407596168
 20
36.84400463069618
 30
0.0
 10
88.20637633999188
 20
36.83569046643405
 30
0.0
 10
88.18890404805224
 20
36.81930276014659
 30
0.0
 10
88.16040210073484
 20
36.79775081477498
 30
0.0
 10
88.1299116231196
 20
36.78028961033748
 30
0.0
 10
88.0982734085199
 20
36.76502652781882
 30
0.0
 10
88.0645360634971
 20
36.75406104026825
 30
0.0
 10
88.02941499338276
 20
36.74547567134077
 30
0.0
 10
87.9925079832138
 20
36.74067126483607
 30
0.0
 10
87.96739872220938
 20
36.74006566089761
 30
0.0
 10
87.95462299899903
 20
36.73975752644908
 30
0.0
  0
SPLINE
  5
C3
330
1F
100
AcDbEntity
  8
0
  6
Continuous
 62
     7
370
    25
100
AcDbSpline
210
0.0
220
0.0
230
1.0
 70
     8
 71
     3
 72
    11
 73
     7
 74
     0
 42
0.00000001
 43
0.00000001
 40
0.0
 40
0.0
 40
0.0
 40
0.0
 40
0.2758864184465409
 40
0.5310076877713107
 40
0.7722766677115254
 40
1.0
 40
1.0
 40
1.0
 40
1.0
 10
88.31080060517664
 20
37.0090625457541
 30
0.0
 10
88.30483511494766
 20
36.99239372312214
 30
0.0
 10
88.29335313917387
 20
36.9603106904977
 30
0.0
 10
88.27079873219228
 20
36.91611218523445
 30
0.0
 10
88.24535656751634
 20
36.87707547272218
 30
0.0
 10
88.2250841902666
 20
36.85481392198598
 30
0.0
 10
88.2152407596168
 20
36.84400463069618
 30
0.0
  0
SPLINE
  5
C4
330
1F
100
AcDbEntity
  8
0
  6
Continuous
 62
     7
370
    25
100
AcDbSpline
210
0.0
220
0.0
230
1.0
 70
     8
 71
     3
 72
    11
 73
     7
 74
     0
 42
0.00000001
 43
0.00000001
 40
0.0
 40
0.0
 40
0.0
 40
0.0
 40
0.2409277974217346
 40
0.485486417242414
 40
0.7380410464993911
 40
1.0
 40
1.0
 40
1.0
 40
1.0
 10
88.38898593336198
 20
36.87875366544521
 30
0.0
 10
88.38059724404366
 20
36.88778043468147
 30
0.0
 10
88.36369344644912
 20
36.90597000808346
 30
0.0
 10
88.34239762422975
 20
36.93726529270753
 30
0.0
 10
88.32471606271811
 20
36.97188762725341
 30
0.0
 10
88.31549527050583
 20
36.9965208236813
 30
0.0
 10
88.31080060517664
 20
37.0090625457541
 30
0.0
  0
SPLINE
  5
C5
330
1F
100
AcDbEntity
  8
0
  6
Continuous
 62
     7
370
    25
100
AcDbSpline
210
0.0
220
0.0
230
1.0
 70
     8
 71
     3
 72
    15
 73
    11
 74
     0
 42
0.00000001
 43
0.00000001
 40
0.0
 40
0.0
 40
0.0
 40
0.0
 40
0.131207293287142
 40
0.2585055422472042
 40
0.3817646425439866
 40
0.5033692670500668
 40
0.6250492974901228
 40
0.7476118725723034
 40
0.8722462138971593
 40
1.0
 40
1.0
 40
1.0
 40
1.0
 10
88.62354191791796
 20
36.78319381988537
 30
0.0
 10
88.61215866742143
 20
36.78351828102515
 30
0.0
 10
88.58973130634703
 20
36.78415753667
 30
0.0
 10
88.55686374156497
 20
36.78874389310774
 30
0.0
 10
88.52540901381191
 20
36.79617639758241
 30
0.0
 10
88.49524964348369
 20
36.80643806666086
 30
0.0
 10
88.46652856269408
 20
36.8200952659155
 30
0.0
 10
88.43910101921738
 20
36.83663144682762
 30
0.0
 10
88.41273770849594
 20
36.85583118331252
 30
0.0
 10
88.39696816076712
 20
36.87105013743346
 30
0.0
 10
88.38898593336198
 20
36.87875366544521
 30
0.0
  0
SPLINE
  5
C6
330
1F
100
AcDbEntity
  8
0
  6
Continuous
 62
     7
370
    25
100
AcDbSpline
210
0.0
220
0.0
230
1.0
 70
     8
 71
     3
 72
    15
 73
    11
 74
     0
 42
0.00000001
 43
0.00000001
 40
0.0
 40
0.0
 40
0.0
 40
0.0
 40
0.1195027114365312
 40
0.2380939422658885
 40
0.3566476293726336
 40
0.4775806195769139
 40
0.6003630199241489
 40
0.7278327340041405
 40
0.8606471500295809
 40
1.0
 40
1.0
 40
1.0
 40
1.0
 10
88.90153419591023
 20
36.88744092413247
 30
0.0
 10
88.89270067993303
 20
36.87908630886441
 30
0.0
 10
88.87510102367587
 20
36.86244080131588
 30
0.0
 10
88.84560750526862
 20
36.84113903072937
 30
0.0
 10
88.81372237097155
 20
36.8234687067447
 30
0.0
 10
88.77999565545953
 20
36.80849271958164
 30
0.0
 10
88.7438599363485
 20
36.79739410674646
 30
0.0
 10
88.70581738734641
 20
36.78886578925196
 30
0.0
 10
88.66538391193072
 20
36.78409158962147
 30
0.0
 10
88.63771085131367
 20
36.78349783119973
 30
0.0
 10
88.62354191791796
 20
36.78319381988537
 30
0.0
  0
SPLINE
  5
C7
330
1F
100
AcDbEntity
  8
0
  6
Continuous
 62
     7
370
    25
100
AcDbSpline
210
0.0
220
0.0
230
1.0
 70
     8
 71
     3
 72
    15
 73
    11
 74
     0
 42
0.00000001
 43
0.00000001
 40
0.0
 40
0.0
 40
0.0
 40
0.0
 40
0.1342477572737638
 40
0.2634617725756842
 40
0.3884666271730294
 40
0.5118790511869575
 40
0.6324080741525892
 40
0.753552524823548
 40
0.8755084805282747
 40
1.0
 40
1.0
 40
1.0
 40
1.0
 10
89.0144685588446
 20
37.17412046081201
 30
0.0
 10
89.01423593057514
 20
37.15994170804707
 30
0.0
 10
89.01377939664512
 20
37.13211584777035
 30
0.0
 10
89.00793361241229
 20
37.09145778419754
 30
0.0
 10
88.999489690912
 20
37.05246067633968
 30
0.0
 10
88.98683341246884
 20
37.01554881544353
 30
0.0
 10
88.97091824243736
 20
36.98041024609957
 30
0.0
 10
88.95170130538129
 20
36.94709984125506
 30
0.0
 10
88.92825351698427
 20
36.91606940200253
 30
0.0
 10
88.91050151648788
 20
36.89704898034017
 30
0.0
 10
88.90153419591023
 20
36.88744092413247
 30
0.0
  0
LINE
  5
C8
330
1F
100
AcDbEntity
  8
0
  6
Continuous
 62
     7
370
    25
100
AcDbLine
 10
89.0144685588
 20
37.8748926616
 30
0.0
 11
89.0144685588
 21
37.1741204608
 31
0.0
  0
LINE
  5
C9
330
1F
100
AcDbEntity
  8
0
  6
Continuous
 62
     7
370
    25
100
AcDbLine
 10
87.5289473233
 20
39.2870548237
 30
0.0
 11
89.0144685588
 21
39.2870548237
 31
0.0
  0
LINE
  5
CA
330
1F
100
AcDbEntity
  8
0
  6
Continuous
 62
     7
370
    25
100
AcDbLine
 10
89.0144685588
 20
38.169294206
 30
0.0
 11
87.5289473233
 21
38.169294206
 31
0.0
  0
LINE
  5
CB
330
1F
100
AcDbEntity
  8
0
  6
Continuous
 62
     7
370
    25
100
AcDbLine
 10
89.0144685588
 20
39.0640818508
 30
0.0
 11
87.8416886361
 21
38.3748926616
 31
0.0
  0
LINE
  5
CC
330
1F
100
AcDbEntity
  8
0
  6
Continuous
 62
     7
370
    25
100
AcDbLine
 10
89.0144685588
 20
39.2870548237
 30
0.0
 11
89.0144685588
 21
39.0640818508
 31
0.0
  0
LINE
  5
CD
330
1F
100
AcDbEntity
  8
0
  6
Continuous
 62
     7
370
    25
100
AcDbLine
 10
87.5289473233
 20
39.0814563681
 30
0.0
 11
87.5289473233
 21
39.2870548237
 31
0.0
  0
LINE
  5
CE
330
1F
100
AcDbEntity
  8
0
  6
Continuous
 62
     7
370
    25
100
AcDbLine
 10
88.7017272461
 20
39.0814563681
 30
0.0
 11
87.5289473233
 21
39.0814563681
 31
0.0
  0
LINE
  5
CF
330
1F
100
AcDbEntity
  8
0
  6
Continuous
 62
     7
370
    25
100
AcDbLine
 10
87.5289473233
 20
38.3864756732
 30
0.0
 11
88.7017272461
 21
39.0814563681
 31
0.0
  0
LINE
  5
D0
330
1F
100
AcDbEntity
  8
0
  6
Continuous
 62
     7
370
    25
100
AcDbLine
 10
87.5289473233
 20
38.169294206
 30
0.0
 11
87.5289473233
 21
38.3864756732
 31
0.0
  0
LINE
  5
D1
330
1F
100
AcDbEntity
  8
0
  6
Continuous
 62
     7
370
    25
100
AcDbLine
 10
89.0144685588
 20
38.3748926616
 30
0.0
 11
89.0144685588
 21
38.169294206
 31
0.0
  0
LINE
  5
D2
330
1F
100
AcDbEntity
  8
0
  6
Continuous
 62
     7
370
    25
100
AcDbLine
 10
87.8416886361
 20
38.3748926616
 30
0.0
 11
89.0144685588
 21
38.3748926616
 31
0.0
  0
SPLINE
  5
D3
330
1F
100
AcDbEntity
  8
0
  6
Continuous
 62
     7
370
    25
100
AcDbSpline
210
0.0
220
0.0
230
1.0
 70
     8
 71
     3
 72
    16
 73
    12
 74
     0
 42
0.00000001
 43
0.00000001
 40
0.0
 40
0.0
 40
0.0
 40
0.0
 40
0.25
 40
0.25
 40
0.5
 40
0.5
 40
0.625
 40
0.625
 40
0.75
 40
0.75
 40
1.0
 40
1.0
 40
1.0
 40
1.0
 10
86.19572889059052
 20
24.38315130242115
 30
0.0
 10
85.93720061510817
 20
24.83093541074974
 30
0.0
 10
85.72412646836551
 20
25.28198423268658
 30
0.0
 10
85.42894958157864
 20
26.19348881374281
 30
0.0
 10
85.34782050343604
 20
26.65401450550304
 30
0.0
 10
85.34692942718895
 20
27.35347960807471
 30
0.0
 10
85.36676234390559
 20
27.58773174017223
 30
0.0
 10
85.44410024453761
 20
28.05110716078601
 30
0.0
 10
85.50152674180198
 20
28.28124134565987
 30
0.0
 10
85.7232768597695
 20
28.96754667604619
 30
0.0
 10
85.93687834440016
 20
29.41963656215368
 30
0.0
 10
86.19572889059069
 20
29.86797885972264
 30
0.0
  0
LINE
  5
D4
330
1F
100
AcDbEntity
  8
0
  6
Continuous
 62
     7
370
    25
100
AcDbLine
 10
85.2028855473
 20
35.352806417
 30
0.0
 11
85.2028855473
 21
44.602806417
 31
0.0
  0
LINE
  5
D5
330
1F
100
AcDbEntity
  8
0
  6
Continuous
 62
     7
370
    25
100
AcDbLine
 10
85.2028855473
 20
26.102806417
 30
0.0
 11
85.2028855473
 21
35.352806417
 31
0.0
  0
SPLINE
  5
D6
330
1F
100
AcDbEntity
  8
0
  6
Continuous
 62
     7
370
    25
100
AcDbSpline
210
0.0
220
0.0
230
1.0
 70
     8
 71
     3
 72
    16
 73
    12
 74
     0
 42
0.00000001
 43
0.00000001
 40
0.0
 40
0.0
 40
0.0
 40
0.0
 40
0.25
 40
0.25
 40
0.5
 40
0.5
 40
0.625
 40
0.625
 40
0.75
 40
0.75
 40
1.0
 40
1.0
 40
1.0
 40
1.0
 10
90.21004220393267
 20
24.38315130242115
 30
0.0
 10
90.468570479415
 20
24.83093541074974
 30
0.0
 10
90.68164462615766
 20
25.28198423268658
 30
0.0
 10
90.97682151294454
 20
26.19348881374281
 30
0.0
 10
91.05795059108713
 20
26.65401450550304
 30
0.0
 10
91.05884166733422
 20
27.35347960807471
 30
0.0
 10
91.03900875061757
 20
27.58773174017223
 30
0.0
 10
90.96167084998557
 20
28.05110716078601
 30
0.0
 10
90.9042443527212
 20
28.28124134565987
 30
0.0
 10
90.68249423475369
 20
28.96754667604619
 30
0.0
 10
90.46889275012302
 20
29.41963656215368
 30
0.0
 10
90.21004220393249
 20
29.86797885972264
 30
0.0
  0
LINE
  5
D7
330
1F
100
AcDbEntity
  8
0
  6
Continuous
 62
     7
370
    25
100
AcDbLine
 10
91.2028855473
 20
35.352806417
 30
0.0
 11
91.2028855473
 21
44.602806417
 31
0.0
  0
LINE
  5
D8
330
1F
100
AcDbEntity
  8
0
  6
Continuous
 62
     7
370
    25
100
AcDbLine
 10
91.2028855473
 20
26.102806417
 30
0.0
 11
91.2028855473
 21
35.352806417
 31
0.0
  0
SPLINE
  5
D9
330
1F
100
AcDbEntity
  8
0
  6
Continuous
 62
     7
370
    25
100
AcDbSpline
210
0.0
220
0.0
230
1.0
 70
     8
 71
     3
 72
    15
 73
    11
 74
     0
 42
0.00000001
 43
0.00000001
 40
0.0
 40
0.0
 40
0.0
 40
0.0
 40
0.1193556939378552
 40
0.239066380521236
 40
0.3573840708360857
 40
0.4787728926029033
 40
0.6013911634438115
 40
0.7292416297469759
 40
0.860804851468179
 40
1.0
 40
1.0
 40
1.0
 40
1.0
 10
88.14574269011872
 20
37.01774980444136
 30
0.0
 10
88.15201615790072
 20
37.02437078667191
 30
0.0
 10
88.16458175227228
 20
37.03763244353244
 30
0.0
 10
88.18048366622422
 20
37.05990040893325
 30
0.0
 10
88.19423333916484
 20
37.08368986237269
 30
0.0
 10
88.20541181823056
 20
37.10904928015508
 30
0.0
 10
88.21424188227077
 20
37.13608371744783
 30
0.0
 10
88.22022289692904
 20
37.16467781377038
 30
0.0
 10
88.2238096000555
 20
37.19494299379191
 30
0.0
 10
88.22431281787904
 20
37.21561610072295
 30
0.0
 10
88.22457151894756
 20
37.22624401293556
 30
0.0
  0
SPLINE
  5
DA
330
1F
100
AcDbEntity
  8
0
  6
Continuous
 62
     7
370
    25
100
AcDbSpline
210
0.0
220
0.0
230
1.0
 70
     8
 71
     3
 72
    15
 73
    11
 74
     0
 42
0.00000001
 43
0.00000001
 40
0.0
 40
0.0
 40
0.0
 40
0.0
 40
0.1452459980297227
 40
0.2839773123111053
 40
0.4135645357275268
 40
0.5387150251446066
 40
0.6570052502158957
 40
0.7736984629726812
 40
0.8866940707303832
 40
0.9999999999999999
 40
0.9999999999999999
 40
0.9999999999999999
 40
0.9999999999999999
 10
87.69400523838128
 20
37.22624401293556
 30
0.0
 10
87.69411067899144
 20
37.21571875934081
 30
0.0
 10
87.6943168309095
 20
37.19514033881441
 30
0.0
 10
87.69822962258428
 20
37.16541760080354
 30
0.0
 10
87.70301430810903
 20
37.13729975189004
 30
0.0
 10
87.71088611149906
 20
37.11141492375937
 30
0.0
 10
87.72043864357175
 20
37.0870882127609
 30
0.0
 10
87.73289020801568
 20
37.06514598072602
 30
0.0
 10
87.74653028921159
 20
37.04429489558483
 30
0.0
 10
87.75784046520504
 20
37.03239511323645
 30
0.0
 10
87.76350330787935
 20
37.02643706312862
 30
0.0
  0
LINE
  5
DB
330
1F
100
AcDbEntity
  8
0
  6
Continuous
 62
     7
370
    25
100
AcDbLine
 10
87.6940052384
 20
37.669294206
 30
0.0
 11
87.6940052384
 21
37.2262440129
 31
0.0
  0
LINE
  5
DC
330
1F
100
AcDbEntity
  8
0
  6
Continuous
 62
     7
370
    25
100
AcDbLine
 10
88.2245715189
 20
37.669294206
 30
0.0
 11
87.6940052384
 21
37.669294206
 31
0.0
  0
LINE
  5
DD
330
1F
100
AcDbEntity
  8
0
  6
Continuous
 62
     7
370
    25
100
AcDbLine
 10
88.2245715189
 20
37.2262440129
 30
0.0
 11
88.2245715189
 21
37.669294206
 31
0.0
  0
SPLINE
  5
DE
330
1F
100
AcDbEntity
  8
0
  6
Continuous
 62
     7
370
    25
100
AcDbSpline
210
0.0
220
0.0
230
1.0
 70
     8
 71
     3
 72
    15
 73
    11
 74
     0
 42
0.00000001
 43
0.00000001
 40
0.0
 40
0.0
 40
0.0
 40
0.0
 40
0.1417962611116216
 40
0.2768819513476978
 40
0.4055805706087828
 40
0.5298229690785617
 40
0.6485572024501447
 40
0.7672114666371234
 40
0.8821786188665558
 40
1.0
 40
1.0
 40
1.0
 40
1.0
 10
87.95462299899903
 20
36.94825173494329
 30
0.0
 10
87.9645062755204
 20
36.94835332997328
 30
0.0
 10
87.9838050981233
 20
36.94855171200348
 30
0.0
 10
88.01180172473616
 20
36.95253116852694
 30
0.0
 10
88.03843906929367
 20
36.95724932033544
 30
0.0
 10
88.06313006929737
 20
36.96517838963157
 30
0.0
 10
88.08646288187141
 20
36.9747736716195
 30
0.0
 10
88.10771892367545
 20
36.98710706300805
 30
0.0
 10
88.12795649699143
 20
37.00097813775554
 30
0.0
 10
88.13976569473806
 20
37.01211373754441
 30
0.0
 10
88.14574269011872
 20
37.01774980444136
 30
0.0
  0
SPLINE
  5
DF
330
1F
100
AcDbEntity
  8
0
  6
Continuous
 62
     7
370
    25
100
AcDbSpline
210
0.0
220
0.0
230
1.0
 70
     8
 71
     3
 72
    15
 73
    11
 74
     0
 42
0.00000001
 43
0.00000001
 40
0.0
 40
0.0
 40
0.0
 40
0.0
 40
0.1277118540336135
 40
0.2523621141955307
 40
0.3748537650566257
 40
0.4969693854038487
 40
0.6192731655242183
 40
0.742485444301997
 40
0.8694478780376612
 40
1.0
 40
1.0
 40
1.0
 40
1.0
 10
87.76350330787935
 20
37.02643706312862
 30
0.0
 10
87.77001539194829
 20
37.0201623580349
 30
0.0
 10
87.78288344805704
 20
37.00776336926927
 30
0.0
 10
87.80438853655409
 20
36.99215533699095
 30
0.0
 10
87.82660026889239
 20
36.97834306220645
 30
0.0
 10
87.8502573731812
 20
36.96754367309604
 30
0.0
 10
87.87474821693812
 20
36.95870729016483
 30
0.0
 10
87.90042534397737
 20
36.95257964868944
 30
0.0
 10
87.92717532924091
 20
36.94905586674741
 30
0.0
 10
87.94538914374651
 20
36.94852225833374
 30
0.0
 10
87.95462299899903
 20
36.94825173494329
 30
0.0
  0
LINE
  5
E0
330
1F
100
AcDbEntity
  8
0
  6
Continuous
 62
     7
370
    25
100
AcDbLine
 10
88.7104145048
 20
33.7175567542
 30
0.0
 11
88.0762446206
 21
34.1026918894
 31
0.0
  0
LINE
  5
E1
330
1F
100
AcDbEntity
  8
0
  6
Continuous
 62
     7
370
    25
100
AcDbLine
 10
88.0762446206
 20
33.7175567542
 30
0.0
 11
88.7104145048
 21
33.7175567542
 31
0.0
  0
LINE
  5
E2
330
1F
100
AcDbEntity
  8
0
  6
Continuous
 62
     7
370
    25
100
AcDbLine
 10
88.0762446206
 20
34.1026918894
 30
0.0
 11
88.0762446206
 21
33.7175567542
 31
0.0
  0
LINE
  5
E3
330
1F
100
AcDbEntity
  8
0
  6
Continuous
 62
     7
370
    25
100
AcDbLine
 10
88.8500541444
 20
37.669294206
 30
0.0
 11
88.3889859334
 21
37.669294206
 31
0.0
  0
LINE
  5
E4
330
1F
100
AcDbEntity
  8
0
  6
Continuous
 62
     7
370
    25
100
AcDbLine
 10
88.8500541444
 20
37.1828077195
 30
0.0
 11
88.8500541444
 21
37.669294206
 31
0.0
  0
SPLINE
  5
E5
330
1F
100
AcDbEntity
  8
0
  6
Continuous
 62
     7
370
    25
100
AcDbSpline
210
0.0
220
0.0
230
1.0
 70
     8
 71
     3
 72
    11
 73
     7
 74
     0
 42
0.00000001
 43
0.00000001
 40
0.0
 40
0.0
 40
0.0
 40
0.0
 40
0.2499695538886856
 40
0.4922399851273396
 40
0.7405148106355957
 40
1.0
 40
1.0
 40
1.0
 40
1.0
 10
88.79728709166312
 20
37.05249883919038
 30
0.0
 10
88.80544972838875
 20
37.0614013352956
 30
0.0
 10
88.8215235906568
 20
37.07893212847522
 30
0.0
 10
88.83799339328445
 20
37.11092304444401
 30
0.0
 10
88.84842229715854
 20
37.14579322094441
 30
0.0
 10
88.84950224759726
 20
37.17028927804967
 30
0.0
 10
88.85005414443019
 20
37.18280771949927
 30
0.0
  0
SPLINE
  5
E6
330
1F
100
AcDbEntity
  8
0
  6
Continuous
 62
     7
370
    25
100
AcDbSpline
210
0.0
220
0.0
230
1.0
 70
     8
 71
     3
 72
    11
 73
     7
 74
     0
 42
0.00000001
 43
0.00000001
 40
0.0
 40
0.0
 40
0.0
 40
0.0
 40
0.2516095171558488
 40
0.4964930798665573
 40
0.7426069856111285
 40
1.0
 40
1.0
 40
1.0
 40
1.0
 10
88.63222917660521
 20
36.98300076969232
 30
0.0
 10
88.64765730765937
 20
36.9838915326923
 30
0.0
 10
88.67810114933218
 20
36.9856492470677
 30
0.0
 10
88.72203981368483
 20
36.99894901142823
 30
0.0
 10
88.76256447140928
 20
37.0212269790367
 30
0.0
 10
88.78554131605043
 20
37.04192036758681
 30
0.0
 10
88.79728709166312
 20
37.05249883919038
 30
0.0
  0
SPLINE
  5
E7
330
1F
100
AcDbEntity
  8
0
  6
Continuous
 62
     7
370
    25
100
AcDbSpline
210
0.0
220
0.0
230
1.0
 70
     8
 71
     3
 72
    15
 73
    11
 74
     0
 42
0.00000001
 43
0.00000001
 40
0.0
 40
0.0
 40
0.0
 40
0.0
 40
0.121504244690735
 40
0.2399194382132703
 40
0.3607014484775896
 40
0.4813982058565623
 40
0.6046686543565304
 40
0.7308278400410382
 40
0.8619579002966858
 40
1.0
 40
1.0
 40
1.0
 40
1.0
 10
88.44979674417277
 20
37.05249883919038
 30
0.0
 10
88.45566317247018
 20
37.0468605984139
 30
0.0
 10
88.46724688450439
 20
37.03572746011863
 30
0.0
 10
88.48711668073884
 20
37.02195247295565
 30
0.0
 10
88.50776146642686
 20
37.00950646040732
 30
0.0
 10
88.53029800328105
 20
37.00005799437731
 30
0.0
 10
88.55375774894124
 20
36.99202374266703
 30
0.0
 10
88.57879984611549
 20
36.98730386212861
 30
0.0
 10
88.6049681537099
 20
36.98329394007419
 30
0.0
 10
88.62298792644945
 20
36.98310015190727
 30
0.0
 10
88.63222917660521
 20
36.98300076969232
 30
0.0
  0
SPLINE
  5
E8
330
1F
100
AcDbEntity
  8
0
  6
Continuous
 62
     7
370
    25
100
AcDbSpline
210
0.0
220
0.0
230
1.0
 70
     8
 71
     3
 72
    11
 73
     7
 74
     0
 42
0.00000001
 43
0.00000001
 40
0.0
 40
0.0
 40
0.0
 40
0.0
 40
0.2562600332085385
 40
0.5016208045865215
 40
0.744907856468725
 40
1.0
 40
1.0
 40
1.0
 40
1.0
 10
88.38898593336198
 20
37.20018223687379
 30
0.0
 10
88.3897131042815
 20
37.18615781546387
 30
0.0
 10
88.39113651805833
 20
37.1587054598881
 30
0.0
 10
88.40280668423395
 20
37.119336832809
 30
0.0
 10
88.42211941131855
 20
37.08315349281209
 30
0.0
 10
88.4404264207111
 20
37.06287715207024
 30
0.0
 10
88.44979674417277
 20
37.05249883919038
 30
0.0
  0
LINE
  5
E9
330
1F
100
AcDbEntity
  8
0
  6
Continuous
 62
     7
370
    25
100
AcDbLine
 10
88.3889859334
 20
37.669294206
 30
0.0
 11
88.3889859334
 21
37.2001822369
 31
0.0
  0
LINE
  5
EA
330
1F
100
AcDbEntity
  8
0
  6
Continuous
 62
     7
370
    25
100
AcDbLine
 10
86.1957288906
 20
24.3831513024
 30
0.0
 11
90.2100422039
 21
24.3831513024
 31
0.0
  0
LINE
  5
EB
330
1F
100
AcDbEntity
  8
0
  6
Continuous
 62
     7
370
    25
100
AcDbLine
 10
72.2041758698
 20
43.7210967396
 30
0.0
 11
72.2041758698
 21
26.9845160944
 31
0.0
  0
LINE
  5
EC
330
1F
100
AcDbEntity
  8
0
  6
Continuous
 62
     7
370
    25
100
AcDbLine
 10
71.2028855473
 20
27.985806417
 30
0.0
 11
71.2028855473
 21
42.719806417
 31
0.0
  0
LINE
  5
ED
330
1F
100
AcDbEntity
  8
0
  6
Continuous
 62
     7
370
    18
100
AcDbLine
 10
71.2028855473
 20
42.6747980314
 30
0.0
 11
82.9028855473
 21
43.0404230314
 31
0.0
  0
LINE
  5
EE
330
1F
100
AcDbEntity
  8
0
  6
Continuous
 62
     7
370
    18
100
AcDbLine
 10
71.2028855473
 20
28.0308148027
 30
0.0
 11
82.9028855473
 21
27.6651898027
 31
0.0
  0
LINE
  5
EF
330
1F
100
AcDbEntity
  8
0
  6
Continuous
 62
     7
370
    25
100
AcDbLine
 10
82.9028855473
 20
26.650181417
 30
0.0
 11
82.9028855473
 21
44.055431417
 31
0.0
  0
LINE
  5
F0
330
1F
100
AcDbEntity
  8
FORMAT
  6
CENTERX2
370
    18
100
AcDbLine
 10
91.7983368774
 20
35.352806417
 30
0.0
 11
70.2028855473
 21
35.352806417
 31
0.0
  0
SPLINE
  5
F1
330
1F
100
AcDbEntity
  8
0
  6
Continuous
 62
     7
370
    25
100
AcDbSpline
210
0.0
220
0.0
230
1.0
 70
    24
 71
     3
 72
    16
 73
    12
 74
     0
 42
0.00000001
 43
0.00000001
 40
0.0
 40
0.0
 40
0.0
 40
0.0
 40
0.2499999999999999
 40
0.2499999999999999
 40
0.4999999999999998
 40
0.4999999999999998
 40
0.6249999999999998
 40
0.6249999999999998
 40
0.7499999999999997
 40
0.7499999999999997
 40
1.0
 40
1.0
 40
1.0
 40
1.0
 10
97.23785234864718
 20
40.83763397432549
 30
0.0
 10
98.0134371750942
 20
41.28541808265408
 30
0.0
 10
98.7946766513829
 20
41.73646690459091
 30
0.0
 10
100.3734488971041
 20
42.64797148564714
 30
0.0
 10
101.1711027934236
 20
43.10849717740737
 30
0.0
 10
102.3826118891991
 20
43.80796227997904
 30
0.0
 10
102.7883484837733
 20
44.04221441207656
 30
0.0
 10
103.590938255255
 20
44.50558983269035
 30
0.0
 10
103.989542356015
 20
44.7357240175642
 30
0.0
 10
105.1782580577494
 20
45.42202934795053
 30
0.0
 10
105.9613007100756
 20
45.87411923405801
 30
0.0
 10
106.7378523486472
 20
46.32246153162697
 30
0.0
  0
SPLINE
  5
F2
330
1F
100
AcDbEntity
  8
0
  6
Continuous
 62
     7
370
    25
100
AcDbSpline
210
0.0
220
0.0
230
1.0
 70
    24
 71
     3
 72
    16
 73
    12
 74
     0
 42
0.00000001
 43
0.00000001
 40
0.0
 40
0.0
 40
0.0
 40
0.0
 40
0.2500000000000001
 40
0.2500000000000001
 40
0.5000000000000002
 40
0.5000000000000002
 40
0.6250000000000001
 40
0.6250000000000001
 40
0.7500000000000001
 40
0.7500000000000001
 40
1.0
 40
1.0
 40
1.0
 40
1.0
 10
106.7378523486472
 20
46.32246153162698
 30
0.0
 10
107.5134371750942
 20
45.8746774232984
 30
0.0
 10
108.2946766513829
 20
45.42362860136156
 30
0.0
 10
109.8734488971041
 20
44.51212402030534
 30
0.0
 10
110.6711027934236
 20
44.0515983285451
 30
0.0
 10
111.8826118891991
 20
43.35213322597343
 30
0.0
 10
112.2883484837733
 20
43.11788109387592
 30
0.0
 10
113.090938255255
 20
42.65450567326213
 30
0.0
 10
113.489542356015
 20
42.42437148838827
 30
0.0
 10
114.6782580577494
 20
41.73806615800195
 30
0.0
 10
115.4613007100756
 20
41.28597627189446
 30
0.0
 10
116.2378523486473
 20
40.8376339743255
 30
0.0
  0
SPLINE
  5
F3
330
1F
100
AcDbEntity
  8
0
  6
Continuous
 62
     7
370
    25
100
AcDbSpline
210
0.0
220
0.0
230
1.0
 70
    24
 71
     3
 72
    14
 73
    10
 74
     0
 42
0.00000001
 43
0.00000001
 40
0.0
 40
0.0
 40
0.0
 40
0.0
 40
0.25
 40
0.25
 40
0.5
 40
0.5
 40
0.75
 40
0.75
 40
1.0
 40
1.0
 40
1.0
 40
1.0
 10
116.2378523486472
 20
40.83763397432551
 30
0.0
 10
116.2378523486472
 20
39.94478080705668
 30
0.0
 10
116.2378523486472
 20
39.04367944632395
 30
0.0
 10
116.2378523486472
 20
37.21735523987093
 30
0.0
 10
116.2378523486472
 20
36.29102371515194
 30
0.0
 10
116.2378523486472
 20
34.41182705398115
 30
0.0
 10
116.2378523486472
 20
33.48707664781338
 30
0.0
 10
116.2378523486472
 20
31.66162617151305
 30
0.0
 10
116.2378523486472
 20
30.76074681540574
 30
0.0
 10
116.2378523486472
 20
29.86797885972262
 30
0.0
  0
SPLINE
  5
F4
330
1F
100
AcDbEntity
  8
0
  6
Continuous
 62
     7
370
    25
100
AcDbSpline
210
0.0
220
0.0
230
1.0
 70
    24
 71
     3
 72
    16
 73
    12
 74
     0
 42
0.00000001
 43
0.00000001
 40
0.0
 40
0.0
 40
0.0
 40
0.0
 40
0.2500000000000002
 40
0.2500000000000002
 40
0.5000000000000001
 40
0.5000000000000001
 40
0.6250000000000001
 40
0.6250000000000001
 40
0.75
 40
0.75
 40
1.0
 40
1.0
 40
1.0
 40
1.0
 10
116.2378523486473
 20
29.86797885972265
 30
0.0
 10
115.4622675222002
 20
29.42019475139407
 30
0.0
 10
114.6810280459115
 20
28.96914592945722
 30
0.0
 10
113.1022558001904
 20
28.057641348401
 30
0.0
 10
112.3046019038708
 20
27.59711565664077
 30
0.0
 10
111.0930928080953
 20
26.8976505540691
 30
0.0
 10
110.6873562135211
 20
26.66339842197158
 30
0.0
 10
109.8847664420394
 20
26.20002300135778
 30
0.0
 10
109.4861623412795
 20
25.96988881648393
 30
0.0
 10
108.297446639545
 20
25.28358348609761
 30
0.0
 10
107.5144039872188
 20
24.83149359999012
 30
0.0
 10
106.7378523486472
 20
24.38315130242116
 30
0.0
  0
SPLINE
  5
F5
330
1F
100
AcDbEntity
  8
0
  6
Continuous
 62
     7
370
    25
100
AcDbSpline
210
0.0
220
0.0
230
1.0
 70
    24
 71
     3
 72
    16
 73
    12
 74
     0
 42
0.00000001
 43
0.00000001
 40
0.0
 40
0.0
 40
0.0
 40
0.0
 40
0.25
 40
0.25
 40
0.5
 40
0.5
 40
0.625
 40
0.625
 40
0.75
 40
0.75
 40
1.0
 40
1.0
 40
1.0
 40
1.0
 10
106.7378523486473
 20
24.38315130242115
 30
0.0
 10
105.9622675222002
 20
24.83093541074973
 30
0.0
 10
105.1810280459115
 20
25.28198423268657
 30
0.0
 10
103.6022558001904
 20
26.1934888137428
 30
0.0
 10
102.8046019038708
 20
26.65401450550303
 30
0.0
 10
101.5930928080953
 20
27.3534796080747
 30
0.0
 10
101.1873562135211
 20
27.58773174017222
 30
0.0
 10
100.3847664420394
 20
28.05110716078601
 30
0.0
 10
99.98616234127945
 20
28.28124134565986
 30
0.0
 10
98.797446639545
 20
28.96754667604618
 30
0.0
 10
98.01440398721881
 20
29.41963656215367
 30
0.0
 10
97.2378523486472
 20
29.86797885972263
 30
0.0
  0
SPLINE
  5
F6
330
1F
100
AcDbEntity
  8
0
  6
Continuous
 62
     7
370
    25
100
AcDbSpline
210
0.0
220
0.0
230
1.0
 70
    24
 71
     3
 72
    14
 73
    10
 74
     0
 42
0.00000001
 43
0.00000001
 40
0.0
 40
0.0
 40
0.0
 40
0.0
 40
0.25
 40
0.25
 40
0.5
 40
0.5
 40
0.75
 40
0.75
 40
1.0
 40
1.0
 40
1.0
 40
1.0
 10
97.23785234864722
 20
29.86797885972262
 30
0.0
 10
97.23785234864722
 20
30.76083202699146
 30
0.0
 10
97.23785234864722
 20
31.66193338772419
 30
0.0
 10
97.23785234864722
 20
33.48825759417721
 30
0.0
 10
97.23785234864722
 20
34.4145891188962
 30
0.0
 10
97.23785234864722
 20
36.29378578006698
 30
0.0
 10
97.23785234864722
 20
37.21853618623475
 30
0.0
 10
97.23785234864722
 20
39.04398666253509
 30
0.0
 10
97.23785234864722
 20
39.9448660186424
 30
0.0
 10
97.23785234864722
 20
40.83763397432552
 30
0.0
  0
CIRCLE
  5
F7
330
1F
100
AcDbEntity
  8
0
  6
Continuous
 62
     7
370
    25
100
AcDbCircle
 10
106.7378523486
 20
35.352806417
 30
0.0
 40
9.25
  0
CIRCLE
  5
F8
330
1F
100
AcDbEntity
  8
0
  6
Continuous
 62
     7
370
    25
100
AcDbCircle
 10
106.7378523486
 20
35.352806417
 30
0.0
 40
6.78396450000001
  0
CIRCLE
  5
F9
330
1F
100
AcDbEntity
  8
0
  6
Continuous
 62
     7
370
    25
100
AcDbCircle
 10
106.7378523486
 20
35.352806417
 30
0.0
 40
5.782708676364123
  0
CIRCLE
  5
FA
330
1F
100
AcDbEntity
  8
0
  6
Continuous
 62
     7
370
    25
100
AcDbCircle
 10
106.7378523486
 20
35.352806417
 30
0.0
 40
5.649999999999991
  0
INSERT
  5
106
330
1F
100
AcDbEntity
  8
FORMAT
100
AcDbBlockReference
  2
SW_CENTERMARKSYMBOL_0
 10
106.7378523486
 20
35.352806417
 30
0.0
  0
ARC
  5
107
330
1F
100
AcDbEntity
  8
0
  6
Continuous
 62
     7
370
    18
100
AcDbCircle
 10
106.7378523486
 20
35.352806417
 30
0.0
 40
6.667882669382369
100
AcDbArc
 50
75.0
 51
345.0
  0
LINE
  5
108
330
1F
100
AcDbEntity
  8
0
  6
Continuous
 62
     7
370
    25
100
AcDbLine
 10
91.05854798
 20
51.5849544292
 30
0.0
 11
91.2028855473
 21
51.8349544292
 31
0.0
  0
LINE
  5
109
330
1F
100
AcDbEntity
  8
0
  6
Continuous
 62
     7
370
    25
100
AcDbLine
 10
91.2028855473
 20
70.3349544292
 30
0.0
 11
91.05854798
 21
70.5849544292
 31
0.0
  0
LINE
  5
10A
330
1F
100
AcDbEntity
  8
0
  6
Continuous
 62
     7
370
    25
100
AcDbLine
 10
85.3472231146
 20
70.5849544292
 30
0.0
 11
85.2028855473
 21
70.3349544292
 31
0.0
  0
LINE
  5
10B
330
1F
100
AcDbEntity
  8
0
  6
Continuous
 62
     7
370
    25
100
AcDbLine
 10
85.2028855473
 20
51.8349544292
 30
0.0
 11
85.3472231146
 21
51.5849544292
 31
0.0
  0
LINE
  5
10C
330
1F
100
AcDbEntity
  8
0
  6
Continuous
 62
     7
370
    25
100
AcDbLine
 10
85.2028855473
 20
69.8594544292
 30
0.0
 11
72.2041758698
 21
69.4532447518
 31
0.0
  0
LINE
  5
10D
330
1F
100
AcDbEntity
  8
0
  6
Continuous
 62
     7
370
    25
100
AcDbLine
 10
72.2041758698
 20
52.7166641067
 30
0.0
 11
85.2028855473
 21
52.3104544292
 31
0.0
  0
LINE
  5
10E
330
1F
100
AcDbEntity
  8
0
  6
Continuous
 62
     7
370
    25
100
AcDbLine
 10
72.2041758698
 20
69.4532447518
 30
0.0
 11
71.2028855473
 21
68.4519544292
 31
0.0
  0
LINE
  5
10F
330
1F
100
AcDbEntity
  8
0
  6
Continuous
 62
     7
370
    25
100
AcDbLine
 10
71.2028855473
 20
53.7179544292
 30
0.0
 11
72.2041758698
 21
52.7166641067
 31
0.0
  0
SPLINE
  5
110
330
1F
100
AcDbEntity
  8
0
  6
Continuous
 62
     7
370
    25
100
AcDbSpline
210
0.0
220
0.0
230
1.0
 70
     8
 71
     3
 72
    16
 73
    12
 74
     0
 42
0.00000001
 43
0.00000001
 40
0.0
 40
0.0
 40
0.0
 40
0.0
 40
0.2499999999999999
 40
0.2499999999999999
 40
0.4999999999999998
 40
0.4999999999999998
 40
0.6249999999999998
 40
0.6249999999999998
 40
0.7499999999999997
 40
0.7499999999999997
 40
1.0
 40
1.0
 40
1.0
 40
1.0
 10
90.21004220393267
 20
51.5849544292312
 30
0.0
 10
90.468570479415
 20
52.36053925567823
 30
0.0
 10
90.68164462615766
 20
53.14177873196693
 30
0.0
 10
90.97682151294454
 20
54.7205509776881
 30
0.0
 10
91.05795059108713
 20
55.51820487400762
 30
0.0
 10
91.05884166733422
 20
56.72971396978313
 30
0.0
 10
91.03900875061757
 20
57.13545056435736
 30
0.0
 10
90.96167084998557
 20
57.93804033583905
 30
0.0
 10
90.90424435272118
 20
58.33664443659901
 30
0.0
 10
90.68249423475368
 20
59.52536013833347
 30
0.0
 10
90.46889275012302
 20
60.30840279065966
 30
0.0
 10
90.21004220393247
 20
61.08495442923127
 30
0.0
  0
SPLINE
  5
111
330
1F
100
AcDbEntity
  8
0
  6
Continuous
 62
     7
370
    25
100
AcDbSpline
210
0.0
220
0.0
230
1.0
 70
     8
 71
     3
 72
    16
 73
    12
 74
     0
 42
0.00000001
 43
0.00000001
 40
0.0
 40
0.0
 40
0.0
 40
0.0
 40
0.2500000000000001
 40
0.2500000000000001
 40
0.5000000000000002
 40
0.5000000000000002
 40
0.6250000000000001
 40
0.6250000000000001
 40
0.7500000000000001
 40
0.7500000000000001
 40
1.0
 40
1.0
 40
1.0
 40
1.0
 10
90.21004220393267
 20
61.0849544292312
 30
0.0
 10
90.468570479415
 20
61.86053925567823
 30
0.0
 10
90.68164462615766
 20
62.64177873196693
 30
0.0
 10
90.97682151294454
 20
64.22055097768809
 30
0.0
 10
91.05795059108713
 20
65.01820487400761
 30
0.0
 10
91.05884166733422
 20
66.22971396978312
 30
0.0
 10
91.03900875061757
 20
66.63545056435737
 30
0.0
 10
90.96167084998557
 20
67.43804033583905
 30
0.0
 10
90.90424435272118
 20
67.836644436599
 30
0.0
 10
90.68249423475368
 20
69.02536013833347
 30
0.0
 10
90.46889275012302
 20
69.80840279065967
 30
0.0
 10
90.21004220393247
 20
70.58495442923126
 30
0.0
  0
SPLINE
  5
112
330
1F
100
AcDbEntity
  8
0
  6
Continuous
 62
     7
370
    25
100
AcDbSpline
210
0.0
220
0.0
230
1.0
 70
    24
 71
     3
 72
    14
 73
    10
 74
     0
 42
0.00000001
 43
0.00000001
 40
0.0
 40
0.0
 40
0.0
 40
0.0
 40
0.1638447891801702
 40
0.3277352202176382
 40
0.4915419381379111
 40
0.6583821333503933
 40
0.8253263126700616
 40
0.9921357754170704
 40
1.0
 40
1.0
 40
1.0
 40
1.0
 10
90.21004220393229
 20
70.58495442923125
 30
0.0
 10
90.29169142010859
 20
70.58495442923125
 30
0.0
 10
90.45501259729116
 20
70.58495442923126
 30
0.0
 10
90.65995130918392
 20
70.58495442923125
 30
0.0
 10
90.83026003597516
 20
70.58495442923125
 30
0.0
 10
90.9587777937804
 20
70.58495442923126
 30
0.0
 10
91.03426154136613
 20
70.58495442923125
 30
0.0
 10
91.06647415263478
 20
70.58495442923125
 30
0.0
 10
91.05775546122965
 20
70.58495442923125
 30
0.0
 10
91.05736292501926
 20
70.58495442923125
 30
0.0
  0
SPLINE
  5
113
330
1F
100
AcDbEntity
  8
0
  6
Continuous
 62
     7
370
    25
100
AcDbSpline
210
0.0
220
0.0
230
1.0
 70
    24
 71
     3
 72
    13
 73
     9
 74
     0
 42
0.00000001
 43
0.00000001
 40
0.0
 40
0.0
 40
0.0
 40
0.0
 40
0.1582113922128841
 40
0.3244201401798706
 40
0.49052419332543
 40
0.6603029985295997
 40
0.8301769983408035
 40
1.0
 40
1.0
 40
1.0
 40
1.0
 10
91.05736292501926
 20
51.58495442923125
 30
0.0
 10
91.0531610507796
 20
51.58495442923125
 30
0.0
 10
91.04454490366919
 20
51.58495442923125
 30
0.0
 10
90.96756767231574
 20
51.58495442923125
 30
0.0
 10
90.84501101310642
 20
51.58495442923125
 30
0.0
 10
90.67393283364676
 20
51.58495442923125
 30
0.0
 10
90.4636813363663
 20
51.58495442923125
 30
0.0
 10
90.29458011911444
 20
51.58495442923125
 30
0.0
 10
90.21004220393229
 20
51.58495442923125
 30
0.0
  0
LINE
  5
114
330
1F
100
AcDbEntity
  8
0
  6
Continuous
 62
     7
370
    25
100
AcDbLine
 10
91.2028855473
 20
51.8349544292
 30
0.0
 11
91.2028855473
 21
70.3349544292
 31
0.0
  0
SPLINE
  5
115
330
1F
100
AcDbEntity
  8
0
  6
Continuous
 62
     7
370
    25
100
AcDbSpline
210
0.0
220
0.0
230
1.0
 70
     8
 71
     3
 72
    16
 73
    12
 74
     0
 42
0.00000001
 43
0.00000001
 40
0.0
 40
0.0
 40
0.0
 40
0.0
 40
0.2500000000000001
 40
0.2500000000000001
 40
0.5000000000000002
 40
0.5000000000000002
 40
0.6250000000000001
 40
0.6250000000000001
 40
0.7500000000000001
 40
0.7500000000000001
 40
1.0
 40
1.0
 40
1.0
 40
1.0
 10
86.19572889059052
 20
61.0849544292312
 30
0.0
 10
85.93720061510818
 20
61.86053925567823
 30
0.0
 10
85.72412646836553
 20
62.64177873196693
 30
0.0
 10
85.42894958157864
 20
64.22055097768809
 30
0.0
 10
85.34782050343605
 20
65.01820487400761
 30
0.0
 10
85.34692942718895
 20
66.22971396978312
 30
0.0
 10
85.36676234390559
 20
66.63545056435737
 30
0.0
 10
85.44410024453761
 20
67.43804033583905
 30
0.0
 10
85.501526741802
 20
67.836644436599
 30
0.0
 10
85.7232768597695
 20
69.02536013833347
 30
0.0
 10
85.93687834440016
 20
69.80840279065967
 30
0.0
 10
86.1957288905907
 20
70.58495442923126
 30
0.0
  0
LINE
  5
116
330
1F
100
AcDbEntity
  8
0
  6
Continuous
 62
     7
370
    25
100
AcDbLine
 10
86.1957288906
 20
70.5849544292
 30
0.0
 11
90.2100422039
 21
70.5849544292
 31
0.0
  0
LINE
  5
117
330
1F
100
AcDbEntity
  8
0
  6
Continuous
 62
     7
370
    25
100
AcDbLine
 10
86.1957288906
 20
61.0849544292
 30
0.0
 11
90.2100422039
 21
61.0849544292
 31
0.0
  0
SPLINE
  5
118
330
1F
100
AcDbEntity
  8
0
  6
Continuous
 62
     7
370
    25
100
AcDbSpline
210
0.0
220
0.0
230
1.0
 70
    24
 71
     3
 72
    13
 73
     9
 74
     0
 42
0.00000001
 43
0.00000001
 40
0.0
 40
0.0
 40
0.0
 40
0.0
 40
0.1582113922128841
 40
0.3244201401798706
 40
0.49052419332543
 40
0.6603029985295997
 40
0.8301769983408035
 40
1.0
 40
1.0
 40
1.0
 40
1.0
 10
85.34840816950391
 20
51.58495442923125
 30
0.0
 10
85.35261004374357
 20
51.58495442923125
 30
0.0
 10
85.36122619085398
 20
51.58495442923125
 30
0.0
 10
85.43820342220744
 20
51.58495442923125
 30
0.0
 10
85.56076008141675
 20
51.58495442923125
 30
0.0
 10
85.73183826087642
 20
51.58495442923125
 30
0.0
 10
85.94208975815687
 20
51.58495442923125
 30
0.0
 10
86.11119097540873
 20
51.58495442923125
 30
0.0
 10
86.19572889059087
 20
51.58495442923125
 30
0.0
  0
SPLINE
  5
119
330
1F
100
AcDbEntity
  8
0
  6
Continuous
 62
     7
370
    25
100
AcDbSpline
210
0.0
220
0.0
230
1.0
 70
    24
 71
     3
 72
    14
 73
    10
 74
     0
 42
0.00000001
 43
0.00000001
 40
0.0
 40
0.0
 40
0.0
 40
0.0
 40
0.1638447891801702
 40
0.3277352202176382
 40
0.4915419381379111
 40
0.6583821333503933
 40
0.8253263126700616
 40
0.9921357754170704
 40
1.0
 40
1.0
 40
1.0
 40
1.0
 10
86.19572889059087
 20
70.58495442923125
 30
0.0
 10
86.11407967441458
 20
70.58495442923125
 30
0.0
 10
85.950758497232
 20
70.58495442923126
 30
0.0
 10
85.74581978533925
 20
70.58495442923125
 30
0.0
 10
85.57551105854802
 20
70.58495442923125
 30
0.0
 10
85.44699330074278
 20
70.58495442923126
 30
0.0
 10
85.37150955315703
 20
70.58495442923125
 30
0.0
 10
85.33929694188838
 20
70.58495442923125
 30
0.0
 10
85.34801563329353
 20
70.58495442923125
 30
0.0
 10
85.34840816950393
 20
70.58495442923125
 30
0.0
  0
SPLINE
  5
11A
330
1F
100
AcDbEntity
  8
0
  6
Continuous
 62
     7
370
    25
100
AcDbSpline
210
0.0
220
0.0
230
1.0
 70
     8
 71
     3
 72
    16
 73
    12
 74
     0
 42
0.00000001
 43
0.00000001
 40
0.0
 40
0.0
 40
0.0
 40
0.0
 40
0.2499999999999999
 40
0.2499999999999999
 40
0.4999999999999998
 40
0.4999999999999998
 40
0.6249999999999998
 40
0.6249999999999998
 40
0.7499999999999997
 40
0.7499999999999997
 40
1.0
 40
1.0
 40
1.0
 40
1.0
 10
86.19572889059052
 20
51.5849544292312
 30
0.0
 10
85.93720061510818
 20
52.36053925567823
 30
0.0
 10
85.72412646836553
 20
53.14177873196693
 30
0.0
 10
85.42894958157864
 20
54.7205509776881
 30
0.0
 10
85.34782050343605
 20
55.51820487400762
 30
0.0
 10
85.34692942718895
 20
56.72971396978313
 30
0.0
 10
85.36676234390559
 20
57.13545056435736
 30
0.0
 10
85.44410024453761
 20
57.93804033583905
 30
0.0
 10
85.501526741802
 20
58.33664443659901
 30
0.0
 10
85.7232768597695
 20
59.52536013833347
 30
0.0
 10
85.93687834440016
 20
60.30840279065966
 30
0.0
 10
86.1957288905907
 20
61.08495442923127
 30
0.0
  0
LINE
  5
11B
330
1F
100
AcDbEntity
  8
0
  6
Continuous
 62
     7
370
    25
100
AcDbLine
 10
85.2028855473
 20
51.8349544292
 30
0.0
 11
85.2028855473
 21
70.3349544292
 31
0.0
  0
LINE
  5
11C
330
1F
100
AcDbEntity
  8
0
  6
Continuous
 62
     7
370
    25
100
AcDbLine
 10
86.1957288906
 20
51.5849544292
 30
0.0
 11
90.2100422039
 21
51.5849544292
 31
0.0
  0
LINE
  5
11D
330
1F
100
AcDbEntity
  8
0
  6
Continuous
 62
     7
370
    25
100
AcDbLine
 10
72.2041758698
 20
69.4532447518
 30
0.0
 11
72.2041758698
 21
52.7166641067
 31
0.0
  0
LINE
  5
11E
330
1F
100
AcDbEntity
  8
0
  6
Continuous
 62
     7
370
    25
100
AcDbLine
 10
71.2028855473
 20
61.0849544292
 30
0.0
 11
71.2028855473
 21
68.4519544292
 31
0.0
  0
LINE
  5
11F
330
1F
100
AcDbEntity
  8
0
  6
Continuous
 62
     7
370
    25
100
AcDbLine
 10
71.2028855473
 20
53.7179544292
 30
0.0
 11
71.2028855473
 21
61.0849544292
 31
0.0
  0
LINE
  5
120
330
1F
100
AcDbEntity
  8
0
  6
Continuous
 62
     7
370
    18
100
AcDbLine
 10
71.2028855473
 20
68.4069460436
 30
0.0
 11
82.9028855473
 21
68.7725710436
 31
0.0
  0
LINE
  5
121
330
1F
100
AcDbEntity
  8
0
  6
Continuous
 62
     7
370
    18
100
AcDbLine
 10
71.2028855473
 20
53.7629628149
 30
0.0
 11
82.9028855473
 21
53.3973378149
 31
0.0
  0
LINE
  5
122
330
1F
100
AcDbEntity
  8
0
  6
Continuous
 62
     7
370
    25
100
AcDbLine
 10
82.9028855473
 20
52.3823294292
 30
0.0
 11
82.9028855473
 21
69.7875794292
 31
0.0
  0
LINE
  5
123
330
1F
100
AcDbEntity
  8
FORMAT
  6
CENTERX2
370
    18
100
AcDbLine
 10
91.8038781712
 20
61.0849544292
 30
0.0
 11
70.2028855473
 21
61.0849544292
 31
0.0
  0
ENDSEC
  0
SECTION
  2
OBJECTS
  0
DICTIONARY
  5
C
330
0
100
AcDbDictionary
281
     1
  3
ACAD_GROUP
350
D
  3
ACAD_LAYOUT
350
1A
  3
ACAD_MLINESTYLE
350
17
  3
ACAD_PLOTSETTINGS
350
19
  3
ACAD_PLOTSTYLENAME
350
E
  3
ACAD_SCALELIST
350
47
  3
DWGPROPS
350
124
  0
DICTIONARY
  5
D
102
{ACAD_REACTORS
330
C
102
}
330
C
100
AcDbDictionary
281
     1
  0
DICTIONARY
  5
1A
102
{ACAD_REACTORS
330
C
102
}
330
C
100
AcDbDictionary
281
     1
  3
Layout1
350
1E
  3
Layout2
350
26
  3
Model
350
22
  0
DICTIONARY
  5
17
102
{ACAD_REACTORS
330
C
102
}
330
C
100
AcDbDictionary
281
     1
  3
Standard
350
18
  0
DICTIONARY
  5
19
102
{ACAD_REACTORS
330
C
102
}
330
C
100
AcDbDictionary
281
     1
  0
ACDBDICTIONARYWDFLT
  5
E
102
{ACAD_REACTORS
330
C
102
}
330
C
100
AcDbDictionary
281
     1
  3
Normal
350
F
100
AcDbDictionaryWithDefault
340
F
  0
DICTIONARY
  5
47
102
{ACAD_REACTORS
330
C
102
}
330
C
100
AcDbDictionary
281
     1
  3
A0
350
48
  3
A1
350
49
  3
A2
350
4A
  3
A3
350
4B
  3
A4
350
4C
  3
A5
350
4D
  3
A6
350
4E
  3
A7
350
4F
  3
A8
350
50
  3
A9
350
51
  3
B0
350
52
  3
B1
350
53
  3
B2
350
54
  3
B3
350
55
  3
B4
350
56
  3
B5
350
57
  3
B6
350
58
  0
XRECORD
  5
124
102
{ACAD_REACTORS
330
C
102
}
330
C
100
AcDbXrecord
280
     1
  1
DWGPROPS COOKIE
  2

  3

  4

  6

  7

  8
user28
  9

300
=
301
=
302
=
303
=
304
=
305
=
306
=
307
=
308
=
309
=
 40
0.0
 41
2460398.303767893
 42
2460398.303768426
  1

 90
        0
  0
LAYOUT
  5
1E
102
{ACAD_REACTORS
330
1A
102
}
330
1A
100
AcDbPlotSettings
  1

  2
none_device
  4

  6

 40
0.0
 41
0.0
 42
0.0
 43
0.0
 44
0.0
 45
0.0
 46
0.0
 47
0.0
 48
0.0
 49
0.0
140
0.0
141
0.0
142
1.0
143
1.0
 70
   688
 72
     1
 73
     0
 74
     5
  7

 75
    16
147
1.0
148
0.0
149
0.0
100
AcDbLayout
  1
Layout1
 70
     1
 71
     1
 10
0.0
 20
0.0
 11
420.0
 21
297.0
 12
0.0
 22
0.0
 32
0.0
 14
1.0000000000E+20
 24
1.0000000000E+20
 34
1.0000000000E+20
 15
-1.0000000000E+20
 25
-1.0000000000E+20
 35
-1.0000000000E+20
146
0.0
 13
0.0
 23
0.0
 33
0.0
 16
1.0
 26
0.0
 36
0.0
 17
0.0
 27
1.0
 37
0.0
 76
     0
330
1B
  0
LAYOUT
  5
26
102
{ACAD_REACTORS
330
1A
102
}
330
1A
100
AcDbPlotSettings
  1

  2
none_device
  4

  6

 40
0.0
 41
0.0
 42
0.0
 43
0.0
 44
0.0
 45
0.0
 46
0.0
 47
0.0
 48
0.0
 49
0.0
140
0.0
141
0.0
142
1.0
143
1.0
 70
   688
 72
     1
 73
     0
 74
     5
  7

 75
    16
147
1.0
148
0.0
149
0.0
100
AcDbLayout
  1
Layout2
 70
     1
 71
     2
 10
0.0
 20
0.0
 11
0.0
 21
0.0
 12
0.0
 22
0.0
 32
0.0
 14
0.0
 24
0.0
 34
0.0
 15
0.0
 25
0.0
 35
0.0
146
0.0
 13
0.0
 23
0.0
 33
0.0
 16
1.0
 26
0.0
 36
0.0
 17
0.0
 27
1.0
 37
0.0
 76
     0
330
23
  0
LAYOUT
  5
22
102
{ACAD_REACTORS
330
1A
102
}
330
1A
100
AcDbPlotSettings
  1

  2
none_device
  4
Letter_(8.50_x_11.00_Inches)
  6

 40
6.35
 41
6.35
 42
6.35000508
 43
6.35000508
 44
215.9
 45
279.4
 46
0.0
 47
0.0
 48
0.0
 49
0.0
140
0.0
141
0.0
142
1.0
143
1.0
 70
  1712
 72
     1
 73
     0
 74
     0
  7

 75
     0
147
1.0
148
0.0
149
0.0
100
AcDbLayout
  1
Model
 70
     1
 71
     0
 10
0.0
 20
0.0
 11
148.5
 21
105.0
 12
0.0
 22
0.0
 32
0.0
 14
0.0
 24
0.0
 34
0.0
 15
148.5
 25
105.0
 35
0.0
146
0.0
 13
0.0
 23
0.0
 33
0.0
 16
1.0
 26
0.0
 36
0.0
 17
0.0
 27
1.0
 37
0.0
 76
     0
330
1F
331
29
  0
MLINESTYLE
  5
18
102
{ACAD_REACTORS
330
17
102
}
330
17
100
AcDbMlineStyle
  2
Standard
 70
     0
  3

 62
   256
 51
90.0
 52
90.0
 71
     2
 49
0.5
 62
   256
  6
BYLAYER
 49
-0.5
 62
   256
  6
BYLAYER
  0
ACDBPLACEHOLDER
  5
F
102
{ACAD_REACTORS
330
E
102
}
330
E
  0
SCALE
  5
48
102
{ACAD_REACTORS
330
47
102
}
330
47
100
AcDbScale
 70
     0
300
1:1
140
1.0
141
1.0
290
     1
  0
SCALE
  5
49
102
{ACAD_REACTORS
330
47
102
}
330
47
100
AcDbScale
 70
     0
300
1:2
140
1.0
141
2.0
290
     0
  0
SCALE
  5
4A
102
{ACAD_REACTORS
330
47
102
}
330
47
100
AcDbScale
 70
     0
300
1:4
140
1.0
141
4.0
290
     0
  0
SCALE
  5
4B
102
{ACAD_REACTORS
330
47
102
}
330
47
100
AcDbScale
 70
     0
300
1:5
140
1.0
141
5.0
290
     0
  0
SCALE
  5
4C
102
{ACAD_REACTORS
330
47
102
}
330
47
100
AcDbScale
 70
     0
300
1:8
140
1.0
141
8.0
290
     0
  0
SCALE
  5
4D
102
{ACAD_REACTORS
330
47
102
}
330
47
100
AcDbScale
 70
     0
300
1:10
140
1.0
141
10.0
290
     0
  0
SCALE
  5
4E
102
{ACAD_REACTORS
330
47
102
}
330
47
100
AcDbScale
 70
     0
300
1:16
140
1.0
141
16.0
290
     0
  0
SCALE
  5
4F
102
{ACAD_REACTORS
330
47
102
}
330
47
100
AcDbScale
 70
     0
300
1:20
140
1.0
141
20.0
290
     0
  0
SCALE
  5
50
102
{ACAD_REACTORS
330
47
102
}
330
47
100
AcDbScale
 70
     0
300
1:30
140
1.0
141
30.0
290
     0
  0
SCALE
  5
51
102
{ACAD_REACTORS
330
47
102
}
330
47
100
AcDbScale
 70
     0
300
1:40
140
1.0
141
40.0
290
     0
  0
SCALE
  5
52
102
{ACAD_REACTORS
330
47
102
}
330
47
100
AcDbScale
 70
     0
300
1:50
140
1.0
141
50.0
290
     0
  0
SCALE
  5
53
102
{ACAD_REACTORS
330
47
102
}
330
47
100
AcDbScale
 70
     0
300
1:100
140
1.0
141
100.0
290
     0
  0
SCALE
  5
54
102
{ACAD_REACTORS
330
47
102
}
330
47
100
AcDbScale
 70
     0
300
2:1
140
2.0
141
1.0
290
     0
  0
SCALE
  5
55
102
{ACAD_REACTORS
330
47
102
}
330
47
100
AcDbScale
 70
     0
300
4:1
140
4.0
141
1.0
290
     0
  0
SCALE
  5
56
102
{ACAD_REACTORS
330
47
102
}
330
47
100
AcDbScale
 70
     0
300
8:1
140
8.0
141
1.0
290
     0
  0
SCALE
  5
57
102
{ACAD_REACTORS
330
47
102
}
330
47
100
AcDbScale
 70
     0
300
10:1
140
10.0
141
1.0
290
     0
  0
SCALE
  5
58
102
{ACAD_REACTORS
330
47
102
}
330
47
100
AcDbScale
 70
     0
300
100:1
140
100.0
141
1.0
290
     0
  0
ENDSEC
  0
EOF
