  0
SECTION
  2
HEADER
  9
$ACADVER
  1
AC1015
  9
$ACADMAINTVER
 70
     6
  9
$DWGCODEPAGE
  3
DOS932
  9
$INSBASE
 10
0.0
 20
0.0
 30
0.0
  9
$EXTMIN
 10
0.0
 20
0.0
 30
0.0
  9
$EXTMAX
 10
297.0
 20
210.0
 30
0.0
  9
$LIMMIN
 10
0.0
 20
0.0
  9
$LIMMAX
 10
297.0
 20
210.0
  9
$ORTHOMODE
 70
     0
  9
$REGENMODE
 70
     1
  9
$FILLMODE
 70
     1
  9
$QTEXTMODE
 70
     0
  9
$MIRRTEXT
 70
     1
  9
$LTSCALE
 40
1.0
  9
$ATTMODE
 70
     1
  9
$TEXTSIZE
 40
3.5277777778
  9
$TRACEWID
 40
1.0
  9
$TEXTSTYLE
  7
Standard
  9
$CLAYER
  8
0
  9
$CELTYPE
  6
ByLayer
  9
$CECOLOR
 62
   256
  9
$CELTSCALE
 40
1.0
  9
$DISPSILH
 70
     0
  9
$DIMSCALE
 40
1.0
  9
$DIMASZ
 40
2.728515625
  9
$DIMEXO
 40
1.0
  9
$DIMDLI
 40
3.75
  9
$DIMRND
 40
0.0
  9
$DIMDLE
 40
0.0
  9
$DIMEXE
 40
1.0
  9
$DIMTP
 40
0.0
  9
$DIMTM
 40
0.0
  9
$DIMTXT
 40
3.5277777778
  9
$DIMCEN
 40
2.5
  9
$DIMTSZ
 40
0.0
  9
$DIMTOL
 70
     0
  9
$DIMLIM
 70
     0
  9
$DIMTIH
 70
     1
  9
$DIMTOH
 70
     1
  9
$DIMSE1
 70
     0
  9
$DIMSE2
 70
     0
  9
$DIMTAD
 70
     1
  9
$DIMZIN
 70
     0
  9
$DIMBLK
  1

  9
$DIMASO
 70
     1
  9
$DIMSHO
 70
     1
  9
$DIMPOST
  1

  9
$DIMAPOST
  1

  9
$DIMALT
 70
     0
  9
$DIMALTD
 70
     3
  9
$DIMALTF
 40
0.0393700787
  9
$DIMLFAC
 40
1.0
  9
$DIMTOFL
 70
     1
  9
$DIMTVP
 40
0.0
  9
$DIMTIX
 70
     0
  9
$DIMSOXD
 70
     0
  9
$DIMSAH
 70
     0
  9
$DIMBLK1
  1

  9
$DIMBLK2
  1

  9
$DIMSTYLE
  2
ISO-25
  9
$DIMCLRD
 70
     0
  9
$DIMCLRE
 70
     0
  9
$DIMCLRT
 70
     0
  9
$DIMTFAC
 40
1.0
  9
$DIMGAP
 40
1.524
  9
$DIMJUST
 70
     0
  9
$DIMSD1
 70
     0
  9
$DIMSD2
 70
     0
  9
$DIMTOLJ
 70
     0
  9
$DIMTZIN
 70
     0
  9
$DIMALTZ
 70
     0
  9
$DIMALTTZ
 70
     0
  9
$DIMUPT
 70
     0
  9
$DIMDEC
 70
     2
  9
$DIMTDEC
 70
     2
  9
$DIMALTU
 70
     2
  9
$DIMALTTD
 70
     3
  9
$DIMTXSTY
  7
Standard
  9
$DIMAUNIT
 70
     0
  9
$DIMADEC
 70
     2
  9
$DIMALTRND
 40
0.0
  9
$DIMAZIN
 70
     0
  9
$DIMDSEP
 70
    44
  9
$DIMATFIT
 70
     3
  9
$DIMFRAC
 70
     0
  9
$DIMLDRBLK
  1

  9
$DIMLUNIT
 70
     2
  9
$DIMLWD
 70
    -2
  9
$DIMLWE
 70
    -2
  9
$DIMTMOVE
 70
     0
  9
$LUNITS
 70
     2
  9
$LUPREC
 70
     2
  9
$SKETCHINC
 40
1.0
  9
$FILLETRAD
 40
0.0
  9
$AUNITS
 70
     0
  9
$AUPREC
 70
     2
  9
$MENU
  1
.
  9
$ELEVATION
 40
0.0
  9
$PELEVATION
 40
0.0
  9
$THICKNESS
 40
0.0
  9
$LIMCHECK
 70
     0
  9
$CHAMFERA
 40
0.0
  9
$CHAMFERB
 40
0.0
  9
$CHAMFERC
 40
0.0
  9
$CHAMFERD
 40
0.0
  9
$SKPOLY
 70
     0
  9
$TDCREATE
 40
2460398.676761713
  9
$TDUCREATE
 40
2460398.301761713
  9
$TDUPDATE
 40
2460398.676762442
  9
$TDUUPDATE
 40
2460398.301762442
  9
$TDINDWG
 40
0.0000000116
  9
$TDUSRTIMER
 40
0.0000000116
  9
$USRTIMER
 70
     1
  9
$ANGBASE
 50
0.0
  9
$ANGDIR
 70
     0
  9
$PDMODE
 70
     0
  9
$PDSIZE
 40
-1.0
  9
$PLINEWID
 40
0.0
  9
$SPLFRAME
 70
     0
  9
$SPLINETYPE
 70
     6
  9
$SPLINESEGS
 70
     8
  9
$HANDSEED
  5
142
  9
$SURFTAB1
 70
     6
  9
$SURFTAB2
 70
     6
  9
$SURFTYPE
 70
     6
  9
$SURFU
 70
     6
  9
$SURFV
 70
     6
  9
$UCSBASE
  2

  9
$UCSNAME
  2

  9
$UCSORG
 10
0.0
 20
0.0
 30
0.0
  9
$UCSXDIR
 10
1.0
 20
0.0
 30
0.0
  9
$UCSYDIR
 10
0.0
 20
1.0
 30
0.0
  9
$UCSORTHOREF
  2

  9
$UCSORTHOVIEW
 70
     0
  9
$UCSORGTOP
 10
0.0
 20
0.0
 30
0.0
  9
$UCSORGBOTTOM
 10
0.0
 20
0.0
 30
0.0
  9
$UCSORGLEFT
 10
0.0
 20
0.0
 30
0.0
  9
$UCSORGRIGHT
 10
0.0
 20
0.0
 30
0.0
  9
$UCSORGFRONT
 10
0.0
 20
0.0
 30
0.0
  9
$UCSORGBACK
 10
0.0
 20
0.0
 30
0.0
  9
$PUCSBASE
  2

  9
$PUCSNAME
  2

  9
$PUCSORG
 10
0.0
 20
0.0
 30
0.0
  9
$PUCSXDIR
 10
1.0
 20
0.0
 30
0.0
  9
$PUCSYDIR
 10
0.0
 20
1.0
 30
0.0
  9
$PUCSORTHOREF
  2

  9
$PUCSORTHOVIEW
 70
     0
  9
$PUCSORGTOP
 10
0.0
 20
0.0
 30
0.0
  9
$PUCSORGBOTTOM
 10
0.0
 20
0.0
 30
0.0
  9
$PUCSORGLEFT
 10
0.0
 20
0.0
 30
0.0
  9
$PUCSORGRIGHT
 10
0.0
 20
0.0
 30
0.0
  9
$PUCSORGFRONT
 10
0.0
 20
0.0
 30
0.0
  9
$PUCSORGBACK
 10
0.0
 20
0.0
 30
0.0
  9
$USERI1
 70
     0
  9
$USERI2
 70
     0
  9
$USERI3
 70
     0
  9
$USERI4
 70
     0
  9
$USERI5
 70
     0
  9
$USERR1
 40
0.0
  9
$USERR2
 40
0.0
  9
$USERR3
 40
0.0
  9
$USERR4
 40
0.0
  9
$USERR5
 40
0.0
  9
$WORLDVIEW
 70
     1
  9
$SHADEDGE
 70
     3
  9
$SHADEDIF
 70
    70
  9
$TILEMODE
 70
     1
  9
$MAXACTVP
 70
    64
  9
$PINSBASE
 10
0.0
 20
0.0
 30
0.0
  9
$PLIMCHECK
 70
     0
  9
$PEXTMIN
 10
1.0000000000E+20
 20
1.0000000000E+20
 30
1.0000000000E+20
  9
$PEXTMAX
 10
-1.0000000000E+20
 20
-1.0000000000E+20
 30
-1.0000000000E+20
  9
$PLIMMIN
 10
0.0
 20
0.0
  9
$PLIMMAX
 10
420.0
 20
297.0
  9
$UNITMODE
 70
     0
  9
$VISRETAIN
 70
     1
  9
$PLINEGEN
 70
     0
  9
$PSLTSCALE
 70
     1
  9
$TREEDEPTH
 70
  3020
  9
$CMLSTYLE
  2
Standard
  9
$CMLJUST
 70
     0
  9
$CMLSCALE
 40
20.0
  9
$PROXYGRAPHICS
 70
     1
  9
$MEASUREMENT
 70
     1
  9
$CELWEIGHT
370
    -1
  9
$ENDCAPS
280
     0
  9
$JOINSTYLE
280
     0
  9
$LWDISPLAY
290
     1
  9
$INSUNITS
 70
     4
  9
$HYPERLINKBASE
  1

  9
$STYLESHEET
  1

  9
$XEDIT
290
     1
  9
$CEPSNTYPE
380
     0
  9
$PSTYLEMODE
290
     1
  9
$FINGERPRINTGUID
  2
{a0d93ddf-4cc4-4e7c-a915-934e26765c0f}
  9
$VERSIONGUID
  2
{FAEB1C32-E019-11D5-929B-00C0DF256EC4}
  9
$EXTNAMES
290
     1
  9
$PSVPSCALE
 40
0.0
  9
$OLESTARTUP
290
     0
  0
ENDSEC
  0
SECTION
  2
CLASSES
  0
CLASS
  1
ACDBDICTIONARYWDFLT
  2
AcDbDictionaryWithDefault
  3
ObjectDBX Classes
 90
        0
280
     0
281
     0
  0
CLASS
  1
VISUALSTYLE
  2
AcDbVisualStyle
  3
ObjectDBX Classes
 90
     4095
280
     0
281
     0
  0
CLASS
  1
MATERIAL
  2
AcDbMaterial
  3
ObjectDBX Classes
 90
     1153
280
     0
281
     0
  0
CLASS
  1
SCALE
  2
AcDbScale
  3
ObjectDBX Classes
 90
     1153
280
     0
281
     0
  0
CLASS
  1
TABLESTYLE
  2
AcDbTableStyle
  3
ObjectDBX Classes
 90
     4095
280
     0
281
     0
  0
CLASS
  1
MLEADERSTYLE
  2
AcDbMLeaderStyle
  3
ACDB_MLEADERSTYLE_CLASS
 90
     4095
280
     0
281
     0
  0
CLASS
  1
SUN
  2
AcDbSun
  3
SCENEOE
 90
     1153
280
     0
281
     0
  0
CLASS
  1
ACDBPLACEHOLDER
  2
AcDbPlaceHolder
  3
ObjectDBX Classes
 90
        0
280
     0
281
     0
  0
CLASS
  1
LAYOUT
  2
AcDbLayout
  3
ObjectDBX Classes
 90
        0
280
     0
281
     0
  0
ENDSEC
  0
SECTION
  2
TABLES
  0
TABLE
  2
VPORT
  5
8
330
0
100
AcDbSymbolTable
 70
     1
  0
VPORT
  5
29
330
8
100
AcDbSymbolTableRecord
100
AcDbViewportTableRecord
  2
*Active
 70
     0
 10
0.0
 20
0.0
 11
1.0
 21
1.0
 12
148.5
 22
105.0
 13
0.0
 23
0.0
 14
10.0
 24
10.0
 15
10.0
 25
10.0
 16
0.0
 26
0.0
 36
1.0
 17
0.0
 27
0.0
 37
0.0
 40
210.0
 41
1.4142857143
 42
50.0
 43
0.0
 44
0.0
 50
0.0
 51
0.0
 71
     0
 72
  2000
 73
     1
 74
     3
 75
     0
 76
     0
 77
     0
 78
     0
281
     0
 65
     1
110
0.0
120
0.0
130
0.0
111
1.0
121
0.0
131
0.0
112
0.0
122
1.0
132
0.0
 79
     0
146
0.0
  0
ENDTAB
  0
TABLE
  2
LTYPE
  5
5
330
0
100
AcDbSymbolTable
 70
     6
  0
LTYPE
  5
14
330
5
100
AcDbSymbolTableRecord
100
AcDbLinetypeTableRecord
  2
ByBlock
 70
     0
  3

 72
    65
 73
     0
 40
0.0
  0
LTYPE
  5
15
330
5
100
AcDbSymbolTableRecord
100
AcDbLinetypeTableRecord
  2
ByLayer
 70
     0
  3

 72
    65
 73
     0
 40
0.0
  0
LTYPE
  5
16
330
5
100
AcDbSymbolTableRecord
100
AcDbLinetypeTableRecord
  2
Continuous
 70
     0
  3
Solid line
 72
    65
 73
     0
 40
0.0
  0
LTYPE
  5
5E
330
5
100
AcDbSymbolTableRecord
100
AcDbLinetypeTableRecord
  2
HIDDEN
 70
     0
  3
Hidden __ __ __ __ __ __ __ __ __ __ __ __ __ __
 72
    65
 73
     2
 40
1.905
 49
1.27
 74
     0
 49
-0.635
 74
     0
  0
LTYPE
  5
5F
330
5
100
AcDbSymbolTableRecord
100
AcDbLinetypeTableRecord
  2
PHANTOM
 70
     0
  3
Phantom ______  __  __  ______  __  __  ______
 72
    65
 73
     6
 40
12.7
 49
6.35
 74
     0
 49
-1.27
 74
     0
 49
1.27
 74
     0
 49
-1.27
 74
     0
 49
1.27
 74
     0
 49
-1.27
 74
     0
  0
LTYPE
  5
60
330
5
100
AcDbSymbolTableRecord
100
AcDbLinetypeTableRecord
  2
CENTER
 70
     0
  3
Center ____ _ ____ _ ____ _ ____ _ ____ _ ____
 72
    65
 73
     4
 40
10.16
 49
6.35
 74
     0
 49
-1.27
 74
     0
 49
1.27
 74
     0
 49
-1.27
 74
     0
  0
LTYPE
  5
61
330
5
100
AcDbSymbolTableRecord
100
AcDbLinetypeTableRecord
  2
CENTERX2
 70
     0
  3
Center (2x) ________  __  ________  __  _____
 72
    65
 73
     4
 40
20.32
 49
12.7
 74
     0
 49
-2.54
 74
     0
 49
2.54
 74
     0
 49
-2.54
 74
     0
  0
LTYPE
  5
62
330
5
100
AcDbSymbolTableRecord
100
AcDbLinetypeTableRecord
  2
DOT2
 70
     0
  3
Dot (.5x) ........................................
 72
    65
 73
     2
 40
0.635
 49
0.0
 74
     0
 49
-0.635
 74
     0
  0
ENDTAB
  0
TABLE
  2
LAYER
  5
2
330
0
100
AcDbSymbolTable
 70
     2
  0
LAYER
  5
10
330
2
100
AcDbSymbolTableRecord
100
AcDbLayerTableRecord
  2
0
 70
     0
 62
     7
  6
Continuous
370
    -3
390
F
  0
LAYER
  5
63
330
2
100
AcDbSymbolTableRecord
100
AcDbLayerTableRecord
  2
FORMAT
 70
     0
 62
     7
  6
Continuous
370
    -3
390
F
  0
ENDTAB
  0
TABLE
  2
STYLE
  5
3
330
0
100
AcDbSymbolTable
 70
     2
  0
STYLE
  5
11
330
3
100
AcDbSymbolTableRecord
100
AcDbTextStyleTableRecord
  2
Standard
 70
     0
 40
0.0
 41
1.0
 50
0.0
 71
     0
 42
3.5277777778
  3
txt
  4
bigfont
  0
STYLE
  5
64
330
3
100
AcDbSymbolTableRecord
100
AcDbTextStyleTableRecord
  2
SLDTEXTSTYLE0
 70
     0
 40
0.0
 41
0.7
 50
0.0
 71
     0
 42
3.5277777778
  3
TXT
  4
bigfont
  0
ENDTAB
  0
TABLE
  2
VIEW
  5
6
330
0
100
AcDbSymbolTable
 70
     0
  0
ENDTAB
  0
TABLE
  2
UCS
  5
7
330
0
100
AcDbSymbolTable
 70
     0
  0
ENDTAB
  0
TABLE
  2
APPID
  5
9
330
0
100
AcDbSymbolTable
 70
     1
  0
APPID
  5
12
330
9
100
AcDbSymbolTableRecord
100
AcDbRegAppTableRecord
  2
ACAD
 70
     0
  0
ENDTAB
  0
TABLE
  2
DIMSTYLE
  5
A
330
0
100
AcDbSymbolTable
 70
     1
100
AcDbDimStyleTable
  0
DIMSTYLE
105
27
330
A
100
AcDbSymbolTableRecord
100
AcDbDimStyleTableRecord
  2
ISO-25
 70
     0
 41
2.5
 42
0.625
 43
3.75
 44
1.25
 73
     0
 74
     0
 77
     1
 78
     8
140
2.5
141
2.5
143
0.0393700787
147
0.625
171
     3
172
     1
178
     0
271
     2
272
     2
274
     3
278
    44
283
     0
284
     8
340
11
  0
ENDTAB
  0
TABLE
  2
BLOCK_RECORD
  5
1
330
0
100
AcDbSymbolTable
 70
     2
  0
BLOCK_RECORD
  5
1F
330
1
100
AcDbSymbolTableRecord
100
AcDbBlockTableRecord
  2
*Model_Space
340
22
  0
BLOCK_RECORD
  5
1B
330
1
100
AcDbSymbolTableRecord
100
AcDbBlockTableRecord
  2
*Paper_Space
340
1E
  0
BLOCK_RECORD
  5
23
330
1
100
AcDbSymbolTableRecord
100
AcDbBlockTableRecord
  2
*Paper_Space0
340
26
  0
BLOCK_RECORD
  5
118
330
1
100
AcDbSymbolTableRecord
100
AcDbBlockTableRecord
  2
SW_CENTERMARKSYMBOL_0
340
0
102
{BLKREFS
331
123
102
}
  0
ENDTAB
  0
ENDSEC
  0
SECTION
  2
BLOCKS
  0
BLOCK
  5
20
330
1F
100
AcDbEntity
  8
0
100
AcDbBlockBegin
  2
*Model_Space
 70
     0
 10
0.0
 20
0.0
 30
0.0
  3
*Model_Space
  1

  0
ENDBLK
  5
21
330
1F
100
AcDbEntity
  8
0
100
AcDbBlockEnd
  0
BLOCK
  5
1C
330
1B
100
AcDbEntity
 67
     1
  8
0
100
AcDbBlockBegin
  2
*Paper_Space
 70
     0
 10
0.0
 20
0.0
 30
0.0
  3
*Paper_Space
  1

  0
ENDBLK
  5
1D
330
1B
100
AcDbEntity
 67
     1
  8
0
100
AcDbBlockEnd
  0
BLOCK
  5
24
330
23
100
AcDbEntity
  8
0
100
AcDbBlockBegin
  2
*Paper_Space0
 70
     0
 10
0.0
 20
0.0
 30
0.0
  3
*Paper_Space0
  1

  0
ENDBLK
  5
25
330
23
100
AcDbEntity
  8
0
100
AcDbBlockEnd
  0
BLOCK
  5
119
330
118
100
AcDbEntity
  8
0
100
AcDbBlockBegin
  2
SW_CENTERMARKSYMBOL_0
 70
     0
 10
0.0
 20
0.0
 30
0.0
  3
SW_CENTERMARKSYMBOL_0
  1

  0
LINE
  5
11B
330
118
100
AcDbEntity
  8
FORMAT
 62
     0
100
AcDbLine
 10
0.0
 20
0.0
 30
0.0
 11
0.0
 21
2.5
 31
0.0
  0
LINE
  5
11C
330
118
100
AcDbEntity
  8
FORMAT
 62
     0
100
AcDbLine
 10
0.0
 20
0.0
 30
0.0
 11
-2.5
 21
0.0
 31
0.0
  0
LINE
  5
11D
330
118
100
AcDbEntity
  8
FORMAT
 62
     0
100
AcDbLine
 10
0.0
 20
0.0
 30
0.0
 11
0.0
 21
-2.5
 31
0.0
  0
LINE
  5
11E
330
118
100
AcDbEntity
  8
FORMAT
 62
     0
100
AcDbLine
 10
0.0
 20
0.0
 30
0.0
 11
2.5
 21
0.0
 31
0.0
  0
LINE
  5
11F
330
118
100
AcDbEntity
  8
FORMAT
 62
     0
100
AcDbLine
 10
0.0
 20
5.0
 30
0.0
 11
0.0
 21
21.2326221555
 31
0.0
  0
LINE
  5
120
330
118
100
AcDbEntity
  8
FORMAT
 62
     0
100
AcDbLine
 10
-5.0
 20
0.0
 30
0.0
 11
-19.75
 21
0.0
 31
0.0
  0
LINE
  5
121
330
118
100
AcDbEntity
  8
FORMAT
 62
     0
100
AcDbLine
 10
0.0
 20
-5.0
 30
0.0
 11
0.0
 21
-21.3935410343
 31
0.0
  0
LINE
  5
122
330
118
100
AcDbEntity
  8
FORMAT
 62
     0
100
AcDbLine
 10
5.0
 20
0.0
 30
0.0
 11
19.75
 21
0.0
 31
0.0
  0
ENDBLK
  5
11A
330
118
100
AcDbEntity
  8
0
100
AcDbBlockEnd
  0
ENDSEC
  0
SECTION
  2
ENTITIES
  0
MTEXT
  5
65
330
1F
100
AcDbEntity
  8
FORMAT
100
AcDbMText
 10
176.5572232281
 20
104.0333416849
 30
0.0
 40
4.2333333333
 41
0.0
 71
     1
 72
     1
  1
5NB-7386
  7
SLDTEXTSTYLE0
 73
     1
 44
1.0
  0
LINE
  5
66
330
1F
100
AcDbEntity
  8
0
  6
Continuous
 62
     7
370
    25
100
AcDbLine
 10
149.2738007043
 20
89.3008946301
 30
0.0
 11
147.5664261812
 21
86.3436352084
 31
0.0
  0
LINE
  5
67
330
1F
100
AcDbEntity
  8
0
  6
Continuous
 62
     7
370
    25
100
AcDbLine
 10
147.5664261812
 20
51.8436352084
 30
0.0
 11
149.2738007043
 21
48.8863757868
 31
0.0
  0
LINE
  5
68
330
1F
100
AcDbEntity
  8
0
  6
Continuous
 62
     7
370
    25
100
AcDbLine
 10
156.859051658
 20
48.8863757868
 30
0.0
 11
158.5664261812
 21
51.8436352084
 31
0.0
  0
LINE
  5
69
330
1F
100
AcDbEntity
  8
0
  6
Continuous
 62
     7
370
    25
100
AcDbLine
 10
158.5664261812
 20
86.3436352084
 30
0.0
 11
156.859051658
 21
89.3008946301
 31
0.0
  0
LINE
  5
6A
330
1F
100
AcDbEntity
  8
0
  6
Continuous
 62
     7
370
    25
100
AcDbLine
 10
147.5664261812
 20
86.0809477084
 30
0.0
 11
127.5690068263
 21
85.4560283536
 31
0.0
  0
LINE
  5
6B
330
1F
100
AcDbEntity
  8
0
  6
Continuous
 62
     7
370
    25
100
AcDbLine
 10
127.5690068263
 20
52.7312420633
 30
0.0
 11
147.5664261812
 21
52.1063227084
 31
0.0
  0
LINE
  5
6C
330
1F
100
AcDbEntity
  8
0
  6
Continuous
 62
     7
370
    25
100
AcDbLine
 10
127.5690068263
 20
85.4560283536
 30
0.0
 11
125.5664261812
 21
83.4534477084
 31
0.0
  0
LINE
  5
6D
330
1F
100
AcDbEntity
  8
0
  6
Continuous
 62
     7
370
    25
100
AcDbLine
 10
125.5664261812
 20
54.7338227084
 30
0.0
 11
127.5690068263
 21
52.7312420633
 31
0.0
  0
SPLINE
  5
6E
330
1F
100
AcDbEntity
  8
0
  6
Continuous
 62
     7
370
    25
100
AcDbSpline
210
0.0
220
0.0
230
1.0
 70
     8
 71
     3
 72
    18
 73
    14
 74
     0
 42
0.00000001
 43
0.00000001
 40
0.0
 40
0.0
 40
0.0
 40
0.0
 40
0.2499999999999999
 40
0.2499999999999999
 40
0.4999999999999998
 40
0.4999999999999998
 40
0.5624999999999998
 40
0.5624999999999998
 40
0.6249999999999998
 40
0.6249999999999998
 40
0.7499999999999998
 40
0.7499999999999998
 40
1.0
 40
1.0
 40
1.0
 40
1.0
 10
149.2738007043073
 20
48.88637578678444
 30
0.0
 10
148.7975642544139
 20
49.71124151441601
 30
0.0
 10
148.4050592803662
 20
50.54212099439058
 30
0.0
 10
147.8613125505422
 20
52.22120793320909
 30
0.0
 10
147.7118643777777
 20
53.06954421056399
 30
0.0
 10
147.7104962798821
 20
54.14328335954445
 30
0.0
 10
147.7194209529551
 20
54.3591196407125
 30
0.0
 10
147.7553800893512
 20
54.78883432383039
 30
0.0
 10
147.7823729671272
 20
55.00294517205444
 30
0.0
 10
147.8892212952167
 20
55.64313515693227
 30
0.0
 10
147.9950069220984
 20
56.06706672461451
 30
0.0
 10
148.4034939939123
 20
57.33131391365124
 30
0.0
 10
148.796970541953
 20
58.16411142982376
 30
0.0
 10
149.2738007043074
 20
58.99000549760292
 30
0.0
  0
LINE
  5
6F
330
1F
100
AcDbEntity
  8
0
  6
Continuous
 62
     7
370
    25
100
AcDbLine
 10
149.2738007043
 20
58.9900054976
 30
0.0
 11
156.859051658
 21
58.9900054976
 31
0.0
  0
SPLINE
  5
70
330
1F
100
AcDbEntity
  8
0
  6
Continuous
 62
     7
370
    25
100
AcDbSpline
210
0.0
220
0.0
230
1.0
 70
     8
 71
     3
 72
    18
 73
    14
 74
     0
 42
0.00000001
 43
0.00000001
 40
0.0
 40
0.0
 40
0.0
 40
0.0
 40
0.2499999999999999
 40
0.2499999999999999
 40
0.4999999999999998
 40
0.4999999999999998
 40
0.5624999999999998
 40
0.5624999999999998
 40
0.6249999999999998
 40
0.6249999999999998
 40
0.7499999999999998
 40
0.7499999999999998
 40
1.0
 40
1.0
 40
1.0
 40
1.0
 10
156.8590516580165
 20
48.88637578678444
 30
0.0
 10
157.3352881079099
 20
49.71124151441601
 30
0.0
 10
157.7277930819577
 20
50.54212099439058
 30
0.0
 10
158.2715398117816
 20
52.22120793320909
 30
0.0
 10
158.4209879845461
 20
53.06954421056399
 30
0.0
 10
158.4223560824418
 20
54.14328335954445
 30
0.0
 10
158.4134314093687
 20
54.3591196407125
 30
0.0
 10
158.3774722729726
 20
54.78883432383039
 30
0.0
 10
158.3504793951966
 20
55.00294517205444
 30
0.0
 10
158.2436310671071
 20
55.64313515693227
 30
0.0
 10
158.1378454402254
 20
56.06706672461451
 30
0.0
 10
157.7293583684115
 20
57.33131391365124
 30
0.0
 10
157.3358818203708
 20
58.16411142982376
 30
0.0
 10
156.8590516580164
 20
58.99000549760292
 30
0.0
  0
LINE
  5
71
330
1F
100
AcDbEntity
  8
0
  6
Continuous
 62
     7
370
    25
100
AcDbLine
 10
149.2738007043
 20
48.8863757868
 30
0.0
 11
156.859051658
 21
48.8863757868
 31
0.0
  0
SPLINE
  5
72
330
1F
100
AcDbEntity
  8
0
  6
Continuous
 62
     7
370
    25
100
AcDbSpline
210
0.0
220
0.0
230
1.0
 70
     8
 71
     3
 72
    14
 73
    10
 74
     0
 42
0.00000001
 43
0.00000001
 40
0.0
 40
0.0
 40
0.0
 40
0.0
 40
0.25
 40
0.25
 40
0.5
 40
0.5
 40
0.75
 40
0.75
 40
1.0
 40
1.0
 40
1.0
 40
1.0
 10
149.2738007043075
 20
58.9900054976029
 30
0.0
 10
148.7990034399257
 20
60.63475146801107
 30
0.0
 10
148.406349515849
 20
62.29467659665872
 30
0.0
 10
147.8612491968249
 20
65.6589144827188
 30
0.0
 10
147.7106266833965
 20
67.36513621916862
 30
0.0
 10
147.7109010038536
 20
70.82693799499155
 30
0.0
 10
147.8615247783477
 20
72.5304643267375
 30
0.0
 10
148.406510475347
 20
75.8931793349836
 30
0.0
 10
148.7990552881389
 20
77.55269855631094
 30
0.0
 10
149.2738007043075
 20
79.19726491923981
 30
0.0
  0
LINE
  5
73
330
1F
100
AcDbEntity
  8
0
  6
Continuous
 62
     7
370
    25
100
AcDbLine
 10
149.2738007043
 20
79.1972649192
 30
0.0
 11
156.859051658
 21
79.1972649192
 31
0.0
  0
SPLINE
  5
74
330
1F
100
AcDbEntity
  8
0
  6
Continuous
 62
     7
370
    25
100
AcDbSpline
210
0.0
220
0.0
230
1.0
 70
     8
 71
     3
 72
    14
 73
    10
 74
     0
 42
0.00000001
 43
0.00000001
 40
0.0
 40
0.0
 40
0.0
 40
0.0
 40
0.25
 40
0.25
 40
0.5
 40
0.5
 40
0.75
 40
0.75
 40
1.0
 40
1.0
 40
1.0
 40
1.0
 10
156.8590516580163
 20
58.9900054976029
 30
0.0
 10
157.3338489223981
 20
60.63475146801107
 30
0.0
 10
157.7265028464748
 20
62.29467659665872
 30
0.0
 10
158.271603165499
 20
65.6589144827188
 30
0.0
 10
158.4222256789273
 20
67.36513621916862
 30
0.0
 10
158.4219513584702
 20
70.82693799499155
 30
0.0
 10
158.2713275839761
 20
72.5304643267375
 30
0.0
 10
157.7263418869769
 20
75.8931793349836
 30
0.0
 10
157.3337970741849
 20
77.55269855631094
 30
0.0
 10
156.8590516580163
 20
79.19726491923981
 30
0.0
  0
SPLINE
  5
75
330
1F
100
AcDbEntity
  8
0
  6
Continuous
 62
     7
370
    25
100
AcDbSpline
210
0.0
220
0.0
230
1.0
 70
     8
 71
     3
 72
    23
 73
    19
 74
     0
 42
0.00000001
 43
0.00000001
 40
0.0
 40
0.0
 40
0.0
 40
0.0
 40
0.0441906106282866
 40
0.0897849017527576
 40
0.1375220657281906
 40
0.1870790674012533
 40
0.2386344326447443
 40
0.2928411155263981
 40
0.3496729339480915
 40
0.4094358303820871
 40
0.4719926205430656
 40
0.5377040045925532
 40
0.6060605743707042
 40
0.6781604155713943
 40
0.7535848462545455
 40
0.8324062082865286
 40
0.9141977901571283
 40
1.0
 40
1.0
 40
1.0
 40
1.0
 10
151.8258856406214
 20
62.57113879311368
 30
0.0
 10
151.83849691067
 20
62.58317797948432
 30
0.0
 10
151.864120037986
 20
62.6076387676495
 30
0.0
 10
151.9071895618467
 20
62.6407919632256
 30
0.0
 10
151.9548154513129
 20
62.67095287901211
 30
0.0
 10
152.005732815585
 20
62.70026944782714
 30
0.0
 10
152.0615233514034
 20
62.72568602181423
 30
0.0
 10
152.1208940692307
 20
62.74996647093829
 30
0.0
 10
152.1848393871148
 20
62.77122628834757
 30
0.0
 10
152.2525676626021
 20
62.79143485419183
 30
0.0
 10
152.3249410242922
 20
62.80774005031098
 30
0.0
 10
152.4009876533396
 20
62.82291070654378
 30
0.0
 10
152.4813346436521
 20
62.83550967482346
 30
0.0
 10
152.5658814091592
 20
62.84559732153303
 30
0.0
 10
152.6548156210677
 20
62.85341636362807
 30
0.0
 10
152.747764861111
 20
62.85850759990408
 30
0.0
 10
152.844871761957
 20
62.86243616415689
 30
0.0
 10
152.9109663978654
 20
62.86282937479429
 30
0.0
 10
152.9448045595403
 20
62.86303068500558
 30
0.0
  0
SPLINE
  5
76
330
1F
100
AcDbEntity
  8
0
  6
Continuous
 62
     7
370
    25
100
AcDbSpline
210
0.0
220
0.0
230
1.0
 70
     8
 71
     3
 72
    15
 73
    11
 74
     0
 42
0.00000001
 43
0.00000001
 40
0.0
 40
0.0
 40
0.0
 40
0.0
 40
0.1195040863107422
 40
0.2383815255843719
 40
0.357109077301408
 40
0.4777214423508243
 40
0.6009465942306378
 40
0.7281225224148421
 40
0.8606317931271529
 40
1.0
 40
1.0
 40
1.0
 40
1.0
 10
151.5826423973781
 20
62.03600365797855
 30
0.0
 10
151.5832939196008
 20
62.06007092514894
 30
0.0
 10
151.5845935476402
 20
62.10807925726407
 30
0.0
 10
151.5963701211563
 20
62.179225170709
 30
0.0
 10
151.6159066568022
 20
62.24873424165222
 30
0.0
 10
151.6422842677148
 20
62.31691487274084
 30
0.0
 10
151.6767942891448
 20
62.38332608605749
 30
0.0
 10
151.7194230057708
 20
62.44764061723372
 30
0.0
 10
151.7686548127392
 20
62.51126468223825
 30
0.0
 10
151.8064905243655
 20
62.55084788724846
 30
0.0
 10
151.8258856406214
 20
62.57113879311368
 30
0.0
  0
SPLINE
  5
77
330
1F
100
AcDbEntity
  8
0
  6
Continuous
 62
     7
370
    25
100
AcDbSpline
210
0.0
220
0.0
230
1.0
 70
     8
 71
     3
 72
    15
 73
    11
 74
     0
 42
0.00000001
 43
0.00000001
 40
0.0
 40
0.0
 40
0.0
 40
0.0
 40
0.1171086905579865
 40
0.2333993299620633
 40
0.350616062696232
 40
0.4711822020542312
 40
0.5946445890795224
 40
0.7237659205994506
 40
0.8581711095996146
 40
1.0
 40
1.0
 40
1.0
 40
1.0
 10
151.7772369919727
 20
61.50086852284342
 30
0.0
 10
151.7616446095336
 20
61.51756301075454
 30
0.0
 10
151.7305687636978
 20
61.55083536888569
 30
0.0
 10
151.6906377759869
 20
61.60659117224648
 30
0.0
 10
151.6577011929554
 20
61.6673654566134
 30
0.0
 10
151.6297610443697
 20
61.73214860701322
 30
0.0
 10
151.6090812985328
 20
61.80201424798877
 30
0.0
 10
151.5932463430136
 20
61.87584401535054
 30
0.0
 10
151.5842962727296
 20
61.95450233418045
 30
0.0
 10
151.5832034786575
 20
62.00835413349197
 30
0.0
 10
151.5826423973781
 20
62.03600365797855
 30
0.0
  0
SPLINE
  5
78
330
1F
100
AcDbEntity
  8
0
  6
Continuous
 62
     7
370
    25
100
AcDbSpline
210
0.0
220
0.0
230
1.0
 70
     8
 71
     3
 72
    15
 73
    11
 74
     0
 42
0.00000001
 43
0.00000001
 40
0.0
 40
0.0
 40
0.0
 40
0.0
 40
0.1476270724396861
 40
0.2864810592714898
 40
0.4181894659268072
 40
0.5428808841137347
 40
0.6619178330920032
 40
0.7770087505932002
 40
0.8893050437597243
 40
1.0
 40
1.0
 40
1.0
 40
1.0
 10
152.5393991541349
 20
61.24140906338396
 30
0.0
 10
152.498729751231
 20
61.24222312943627
 30
0.0
 10
152.4198078202376
 20
61.2438028837532
 30
0.0
 10
152.3050762094503
 20
61.25579492133169
 30
0.0
 10
152.1980088605935
 20
61.27614497937654
 30
0.0
 10
152.098241431969
 20
61.30401736111952
 30
0.0
 10
152.0063676079951
 20
61.3409876216358
 30
0.0
 10
151.921723350127
 20
61.38536044576039
 30
0.0
 10
151.8445799060405
 20
61.43816315316738
 30
0.0
 10
151.7995769053394
 20
61.48006703918946
 30
0.0
 10
151.7772369919727
 20
61.50086852284342
 30
0.0
  0
SPLINE
  5
79
330
1F
100
AcDbEntity
  8
0
  6
Continuous
 62
     7
370
    25
100
AcDbSpline
210
0.0
220
0.0
230
1.0
 70
     8
 71
     3
 72
    15
 73
    11
 74
     0
 42
0.00000001
 43
0.00000001
 40
0.0
 40
0.0
 40
0.0
 40
0.0
 40
0.1094376231375985
 40
0.2200197609697444
 40
0.334372192853603
 40
0.4529129170384312
 40
0.5777009796868829
 40
0.7100641746072381
 40
0.8508042784674905
 40
0.9999999999999999
 40
0.9999999999999999
 40
0.9999999999999999
 40
0.9999999999999999
 10
153.2691288838646
 20
61.4846523066272
 30
0.0
 10
153.2479815115377
 20
61.46505177722703
 30
0.0
 10
153.2054656045662
 20
61.42564573321889
 30
0.0
 10
153.1321131055463
 20
61.37647501879569
 30
0.0
 10
153.0520360799393
 20
61.33428363241266
 30
0.0
 10
152.9641849458094
 20
61.29993999859974
 30
0.0
 10
152.8686937907381
 20
61.27381981953149
 30
0.0
 10
152.7656605087906
 20
61.25467709750139
 30
0.0
 10
152.6549751168336
 20
61.24320719880535
 30
0.0
 10
152.5786662923476
 20
61.242019983081
 30
0.0
 10
152.5393991541349
 20
61.24140906338396
 30
0.0
  0
SPLINE
  5
7A
330
1F
100
AcDbEntity
  8
0
  6
Continuous
 62
     7
370
    25
100
AcDbSpline
210
0.0
220
0.0
230
1.0
 70
     8
 71
     3
 72
    15
 73
    11
 74
     0
 42
0.00000001
 43
0.00000001
 40
0.0
 40
0.0
 40
0.0
 40
0.0
 40
0.1328879382642812
 40
0.2611764415433324
 40
0.3862019221938189
 40
0.5075747214113131
 40
0.6293724124715374
 40
0.7508835925619998
 40
0.8736128964297314
 40
1.0
 40
1.0
 40
1.0
 40
1.0
 10
153.4637234784592
 20
61.97113879311369
 30
0.0
 10
153.4631507235634
 20
61.94728988085699
 30
0.0
 10
153.4620250376095
 20
61.90041750011843
 30
0.0
 10
153.4530222432408
 20
61.83153715823658
 30
0.0
 10
153.4371672600822
 20
61.76611580328431
 30
0.0
 10
153.4162656646776
 20
61.70330980316045
 30
0.0
 10
153.3882497816999
 20
61.64404842507194
 30
0.0
 10
153.3554435242715
 20
61.58702925700261
 30
0.0
 10
153.3152457487556
 20
61.53381119272221
 30
0.0
 10
153.2846509144407
 20
61.5011982217682
 30
0.0
 10
153.2691288838646
 20
61.4846523066272
 30
0.0
  0
SPLINE
  5
7B
330
1F
100
AcDbEntity
  8
0
  6
Continuous
 62
     7
370
    25
100
AcDbSpline
210
0.0
220
0.0
230
1.0
 70
     8
 71
     3
 72
    15
 73
    11
 74
     0
 42
0.00000001
 43
0.00000001
 40
0.0
 40
0.0
 40
0.0
 40
0.0
 40
0.1277118540336127
 40
0.2523621141955308
 40
0.374853765056625
 40
0.4969693854038478
 40
0.6192731655242179
 40
0.7424854443019955
 40
0.8694478780376611
 40
1.0
 40
1.0
 40
1.0
 40
1.0
 10
153.3177775325133
 20
62.32789554987045
 30
0.0
 10
153.3294903153549
 20
62.31573965960843
 30
0.0
 10
153.3526350943841
 20
62.29171928820544
 30
0.0
 10
153.3817700879702
 20
62.25157645634427
 30
0.0
 10
153.4075530009013
 20
62.21011455597944
 30
0.0
 10
153.4277118605741
 20
62.16595462797367
 30
0.0
 10
153.4442064420456
 20
62.1202383862941
 30
0.0
 10
153.4556447061331
 20
62.07230774915411
 30
0.0
 10
153.4622224324249
 20
62.02237444332886
 30
0.0
 10
153.4632185014637
 20
61.98837532291842
 30
0.0
 10
153.4637234784592
 20
61.97113879311369
 30
0.0
  0
SPLINE
  5
7C
330
1F
100
AcDbEntity
  8
0
  6
Continuous
 62
     7
370
    25
100
AcDbSpline
210
0.0
220
0.0
230
1.0
 70
     8
 71
     3
 72
    11
 73
     7
 74
     0
 42
0.00000001
 43
0.00000001
 40
0.0
 40
0.0
 40
0.0
 40
0.0
 40
0.2456044615709282
 40
0.49243409604941
 40
0.743540094122341
 40
1.0
 40
1.0
 40
1.0
 40
1.0
 10
153.1069667217025
 20
62.49005771203261
 30
0.0
 10
153.1257762272977
 20
62.47894051825071
 30
0.0
 10
153.1634890677961
 20
62.45665067369504
 30
0.0
 10
153.2169567642356
 20
62.4176370145033
 30
0.0
 10
153.2689039247852
 20
62.375116728395
 30
0.0
 10
153.3013721694004
 20
62.3437462434518
 30
0.0
 10
153.3177775325133
 20
62.32789554987045
 30
0.0
  0
SPLINE
  5
7D
330
1F
100
AcDbEntity
  8
0
  6
Continuous
 62
     7
370
    25
100
AcDbSpline
210
0.0
220
0.0
230
1.0
 70
     8
 71
     3
 72
    15
 73
    11
 74
     0
 42
0.00000001
 43
0.00000001
 40
0.0
 40
0.0
 40
0.0
 40
0.0
 40
0.0964433484801639
 40
0.1980702687146752
 40
0.3069659373397293
 40
0.4243879496894926
 40
0.5513513962467959
 40
0.6889628351337206
 40
0.8385011961339891
 40
1.0
 40
1.0
 40
1.0
 40
1.0
 10
154.0150748298105
 20
62.23059825257315
 30
0.0
 10
153.9920130893739
 20
62.25153182503657
 30
0.0
 10
153.9446501016998
 20
62.29452409343379
 30
0.0
 10
153.8602290011649
 20
62.3471636668119
 30
0.0
 10
153.7639756399508
 20
62.39133197768992
 30
0.0
 10
153.6558858722654
 20
62.42793987007034
 30
0.0
 10
153.5357122574196
 20
62.45561826867142
 30
0.0
 10
153.4036441488469
 20
62.47593359932357
 30
0.0
 10
153.2593318608351
 20
62.48769090392335
 30
0.0
 10
153.1590406152239
 20
62.48924880709432
 30
0.0
 10
153.1069667217025
 20
62.49005771203261
 30
0.0
  0
SPLINE
  5
7E
330
1F
100
AcDbEntity
  8
0
  6
Continuous
 62
     7
370
    25
100
AcDbSpline
210
0.0
220
0.0
230
1.0
 70
     8
 71
     3
 72
    11
 73
     7
 74
     0
 42
0.00000001
 43
0.00000001
 40
0.0
 40
0.0
 40
0.0
 40
0.0
 40
0.2600145085164591
 40
0.5081836035516296
 40
0.7509482378681014
 40
1.0
 40
1.0
 40
1.0
 40
1.0
 10
154.1123721271078
 20
61.9873550093299
 30
0.0
 10
154.1112738149924
 20
62.01070208324039
 30
0.0
 10
154.1091272262817
 20
62.05633261447462
 30
0.0
 10
154.0906522042318
 20
62.12166405483701
 30
0.0
 10
154.0596401575582
 20
62.18105569205463
 30
0.0
 10
154.0300560019354
 20
62.21394392365542
 30
0.0
 10
154.0150748298105
 20
62.23059825257315
 30
0.0
  0
SPLINE
  5
7F
330
1F
100
AcDbEntity
  8
0
  6
Continuous
 62
     7
370
    25
100
AcDbSpline
210
0.0
220
0.0
230
1.0
 70
     8
 71
     3
 72
    11
 73
     7
 74
     0
 42
0.00000001
 43
0.00000001
 40
0.0
 40
0.0
 40
0.0
 40
0.0
 40
0.2490517621318993
 40
0.4918163964483689
 40
0.7399854914835434
 40
1.0
 40
1.0
 40
1.0
 40
1.0
 10
154.0150748298105
 20
61.74411176608666
 30
0.0
 10
154.0300560019354
 20
61.76076609500439
 30
0.0
 10
154.0596401575582
 20
61.79365432660519
 30
0.0
 10
154.0906522042318
 20
61.85304596382281
 30
0.0
 10
154.1091272262817
 20
61.91837740418519
 30
0.0
 10
154.1112738149924
 20
61.96400793541942
 30
0.0
 10
154.1123721271078
 20
61.9873550093299
 30
0.0
  0
SPLINE
  5
80
330
1F
100
AcDbEntity
  8
0
  6
Continuous
 62
     7
370
    25
100
AcDbSpline
210
0.0
220
0.0
230
1.0
 70
     8
 71
     3
 72
    15
 73
    11
 74
     0
 42
0.00000001
 43
0.00000001
 40
0.0
 40
0.0
 40
0.0
 40
0.0
 40
0.1575795759530235
 40
0.3051873770201191
 40
0.440337477275236
 40
0.5671048604317444
 40
0.6842314239145103
 40
0.7956973262442256
 40
0.8993807647161651
 40
1.0
 40
1.0
 40
1.0
 40
1.0
 10
153.6907505054862
 20
61.64681446878937
 30
0.0
 10
153.7089730057983
 20
61.64726133423088
 30
0.0
 10
153.7442648704918
 20
61.64812678707366
 30
0.0
 10
153.7951159679838
 20
61.65187151252535
 30
0.0
 10
153.8418858536998
 20
61.65983457930756
 30
0.0
 10
153.8844096355653
 20
61.67063300129466
 30
0.0
 10
153.9234883495708
 20
61.6836229025757
 30
0.0
 10
153.9582163192452
 20
61.70032281916675
 30
0.0
 10
153.9889698641286
 20
61.720322292796
 30
0.0
 10
154.0064606187416
 20
61.73626162957843
 30
0.0
 10
154.0150748298105
 20
61.74411176608666
 30
0.0
  0
LINE
  5
81
330
1F
100
AcDbEntity
  8
0
  6
Continuous
 62
     7
370
    25
100
AcDbLine
 10
153.6907505055
 20
61.2738414958
 30
0.0
 11
153.6907505055
 21
61.6468144688
 31
0.0
  0
SPLINE
  5
82
330
1F
100
AcDbEntity
  8
0
  6
Continuous
 62
     7
370
    25
100
AcDbSpline
210
0.0
220
0.0
230
1.0
 70
     8
 71
     3
 72
    15
 73
    11
 74
     0
 42
0.00000001
 43
0.00000001
 40
0.0
 40
0.0
 40
0.0
 40
0.0
 40
0.1244915194717256
 40
0.2464474751764524
 40
0.3675919258474112
 40
0.4881209488130426
 40
0.6115333728269715
 40
0.7365382274243166
 40
0.8657522427262366
 40
1.0
 40
1.0
 40
1.0
 40
1.0
 10
154.2258856406214
 20
61.4846523066272
 30
0.0
 10
154.207950602367
 20
61.4679133082156
 30
0.0
 10
154.1724458152639
 20
61.43477624062234
 30
0.0
 10
154.1145223286592
 20
61.39100703561455
 30
0.0
 10
154.0523429062828
 20
61.35513541977657
 30
0.0
 10
153.9867509101741
 20
61.3254271023845
 30
0.0
 10
153.9178487698346
 20
61.30180204929059
 30
0.0
 10
153.8450541684999
 20
61.28604006249005
 30
0.0
 10
153.7691591164973
 20
61.27512793192208
 30
0.0
 10
153.7172175106475
 20
61.27427573525272
 30
0.0
 10
153.6907505054862
 20
61.2738414958164
 30
0.0
  0
SPLINE
  5
83
330
1F
100
AcDbEntity
  8
0
  6
Continuous
 62
     7
370
    25
100
AcDbSpline
210
0.0
220
0.0
230
1.0
 70
     8
 71
     3
 72
    15
 73
    11
 74
     0
 42
0.00000001
 43
0.00000001
 40
0.0
 40
0.0
 40
0.0
 40
0.0
 40
0.1356800108501679
 40
0.2668415897771093
 40
0.3926005974967502
 40
0.5157318537894195
 40
0.6360998884170284
 40
0.7560959929543327
 40
0.8771413117267549
 40
1.0
 40
1.0
 40
1.0
 40
1.0
 10
154.420480235216
 20
61.9873550093299
 30
0.0
 10
154.4198963483608
 20
61.96230861700191
 30
0.0
 10
154.4187480193203
 20
61.91304993029406
 30
0.0
 10
154.4099373676521
 20
61.84094104901994
 30
0.0
 10
154.3937578900942
 20
61.77260761362395
 30
0.0
 10
154.3734272846184
 20
61.70740527589818
 30
0.0
 10
154.3449865447657
 20
61.64647678276899
 30
0.0
 10
154.3121912704282
 20
61.58829641923894
 30
0.0
 10
154.2723743560781
 20
61.53392745010173
 30
0.0
 10
154.2414584965127
 20
61.5011585641311
 30
0.0
 10
154.2258856406214
 20
61.4846523066272
 30
0.0
  0
SPLINE
  5
84
330
1F
100
AcDbEntity
  8
0
  6
Continuous
 62
     7
370
    25
100
AcDbSpline
210
0.0
220
0.0
230
1.0
 70
     8
 71
     3
 72
    15
 73
    11
 74
     0
 42
0.00000001
 43
0.00000001
 40
0.0
 40
0.0
 40
0.0
 40
0.0
 40
0.1263812889588915
 40
0.2491049464973162
 40
0.3706105362999227
 40
0.4913917559424313
 40
0.6138158455532657
 40
0.7388355742356963
 40
0.8671181754268793
 40
1.0
 40
1.0
 40
1.0
 40
1.0
 10
154.2258856406214
 20
62.47384149581639
 30
0.0
 10
154.2414054139107
 20
62.4572945791832
 30
0.0
 10
154.2719957989806
 20
62.42467963422921
 30
0.0
 10
154.3122260970076
 20
62.37147599923674
 30
0.0
 10
154.344820345291
 20
62.31456044102162
 30
0.0
 10
154.3733114326591
 20
62.25550244043553
 30
0.0
 10
154.3937803427535
 20
62.1925260630596
 30
0.0
 10
154.4098063647515
 20
62.1269667321795
 30
0.0
 10
154.4187745902269
 20
62.0580736465308
 30
0.0
 10
154.419905050912
 20
62.0112030259892
 30
0.0
 10
154.420480235216
 20
61.9873550093299
 30
0.0
  0
SPLINE
  5
85
330
1F
100
AcDbEntity
  8
0
  6
Continuous
 62
     7
370
    25
100
AcDbSpline
210
0.0
220
0.0
230
1.0
 70
     8
 71
     3
 72
    23
 73
    19
 74
     0
 42
0.00000001
 43
0.00000001
 40
0.0
 40
0.0
 40
0.0
 40
0.0
 40
0.0796294701120215
 40
0.1566842067799502
 40
0.2308342243899715
 40
0.302527806527298
 40
0.371510107611198
 40
0.4382633308465719
 40
0.5024649722906296
 40
0.5646604536693955
 40
0.624561236764536
 40
0.6823215461207702
 40
0.7385115542781733
 40
0.7932995870703856
 40
0.8467205107566451
 40
0.8985430522702748
 40
0.9498534420925909
 40
1.0
 40
1.0
 40
1.0
 40
1.0
 10
152.9448045595403
 20
62.86303068500558
 30
0.0
 10
152.9812426354564
 20
62.86257386406918
 30
0.0
 10
153.0529406012156
 20
62.86167499301104
 30
0.0
 10
153.1585412161952
 20
62.85789038799311
 30
0.0
 10
153.2602248559204
 20
62.84959210959435
 30
0.0
 10
153.3580870329909
 20
62.83997722864972
 30
0.0
 10
153.4519940033901
 20
62.82587227204917
 30
0.0
 10
153.5419932156161
 20
62.80926637319615
 30
0.0
 10
153.6281482906978
 20
62.78937317901964
 30
0.0
 10
153.7103641948106
 20
62.7666989165106
 30
0.0
 10
153.7885682809382
 20
62.7409129027197
 30
0.0
 10
153.8627359651823
 20
62.71200601689355
 30
0.0
 10
153.9330914390325
 20
62.68010983812044
 30
0.0
 10
154.0000031768918
 20
62.64557878977044
 30
0.0
 10
154.0622540713681
 20
62.60689090106704
 30
0.0
 10
154.1211109786778
 20
62.56597883122004
 30
0.0
 10
154.1756584013796
 20
62.5217301864444
 30
0.0
 10
154.209271755932
 20
62.48968184850214
 30
0.0
 10
154.2258856406214
 20
62.47384149581639
 30
0.0
  0
SPLINE
  5
86
330
1F
100
AcDbEntity
  8
0
  6
Continuous
 62
     7
370
    25
100
AcDbSpline
210
0.0
220
0.0
230
1.0
 70
     8
 71
     3
 72
    15
 73
    11
 74
     0
 42
0.00000001
 43
0.00000001
 40
0.0
 40
0.0
 40
0.0
 40
0.0
 40
0.1277537861028411
 40
0.2523881274276968
 40
0.374950702509877
 40
0.4966307329499332
 40
0.6182353574560139
 40
0.7414944577527958
 40
0.868792706712858
 40
1.0
 40
1.0
 40
1.0
 40
1.0
 10
153.2042640189998
 20
64.71167933365423
 30
0.0
 10
153.2191641768227
 20
64.72605925260952
 30
0.0
 10
153.2486006659165
 20
64.75446796696862
 30
0.0
 10
153.2978121792631
 20
64.79030747507375
 30
0.0
 10
153.3490102604197
 20
64.82117501277638
 30
0.0
 10
153.4026229445603
 20
64.84666845138503
 30
0.0
 10
153.4589204358396
 20
64.86582356699813
 30
0.0
 10
153.5176359276453
 20
64.87969757535086
 30
0.0
 10
153.5789887152385
 20
64.88825877403464
 30
0.0
 10
153.6208531225774
 20
64.88945205123835
 30
0.0
 10
153.6421018568376
 20
64.89005771203261
 30
0.0
  0
SPLINE
  5
87
330
1F
100
AcDbEntity
  8
0
  6
Continuous
 62
     7
370
    25
100
AcDbSpline
210
0.0
220
0.0
230
1.0
 70
     8
 71
     3
 72
    11
 73
     7
 74
     0
 42
0.00000001
 43
0.00000001
 40
0.0
 40
0.0
 40
0.0
 40
0.0
 40
0.2092977806128716
 40
0.4440196881627225
 40
0.705681892579921
 40
1.0
 40
1.0
 40
1.0
 40
1.0
 10
153.0583180730538
 20
64.50086852284342
 30
0.0
 10
153.0647885369521
 20
64.51774951195203
 30
0.0
 10
153.0785154544282
 20
64.55356208243384
 30
0.0
 10
153.1118452000673
 20
64.60480602639235
 30
0.0
 10
153.1534515842899
 20
64.6588064453362
 30
0.0
 10
153.1866760530827
 20
64.69337817247226
 30
0.0
 10
153.2042640189998
 20
64.71167933365423
 30
0.0
  0
LINE
  5
88
330
1F
100
AcDbEntity
  8
0
  6
Continuous
 62
     7
370
    25
100
AcDbLine
 10
153.0258856406
 20
64.5008685228
 30
0.0
 11
153.0583180731
 21
64.5008685228
 31
0.0
  0
SPLINE
  5
89
330
1F
100
AcDbEntity
  8
0
  6
Continuous
 62
     7
370
    25
100
AcDbSpline
210
0.0
220
0.0
230
1.0
 70
     8
 71
     3
 72
    11
 73
     7
 74
     0
 42
0.00000001
 43
0.00000001
 40
0.0
 40
0.0
 40
0.0
 40
0.0
 40
0.2730973471020073
 40
0.5276266715073734
 40
0.7672178540063634
 40
1.0
 40
1.0
 40
1.0
 40
1.0
 10
152.8637234784592
 20
64.77654419851909
 30
0.0
 10
152.8839353111961
 20
64.75501189128718
 30
0.0
 10
152.9229847642399
 20
64.71341126896255
 30
0.0
 10
152.9701233248028
 20
64.6449461498864
 30
0.0
 10
153.005848000837
 20
64.57451884916405
 30
0.0
 10
153.0192709223664
 20
64.52518157384334
 30
0.0
 10
153.0258856406214
 20
64.50086852284342
 30
0.0
  0
SPLINE
  5
8A
330
1F
100
AcDbEntity
  8
0
  6
Continuous
 62
     7
370
    25
100
AcDbSpline
210
0.0
220
0.0
230
1.0
 70
     8
 71
     3
 72
    15
 73
    11
 74
     0
 42
0.00000001
 43
0.00000001
 40
0.0
 40
0.0
 40
0.0
 40
0.0
 40
0.1393528499704187
 40
0.2721672659958592
 40
0.3996369800758508
 40
0.5224193804230856
 40
0.6433523706273657
 40
0.7619060577341116
 40
0.8804972885634686
 40
1.0
 40
1.0
 40
1.0
 40
1.0
 10
152.3448045595403
 20
64.9711387931137
 30
0.0
 10
152.3712532352123
 20
64.97057130532689
 30
0.0
 10
152.4229096150307
 20
64.96946295627298
 30
0.0
 10
152.4983854358067
 20
64.96055111696272
 30
0.0
 10
152.569398193944
 20
64.94463159097299
 30
0.0
 10
152.6368515362846
 20
64.92391418034734
 30
0.0
 10
152.699808071907
 20
64.89595900430963
 30
0.0
 10
152.7593269892615
 20
64.86297439953825
 30
0.0
 10
152.814381556955
 20
64.82321109444341
 30
0.0
 10
152.8472342486351
 20
64.79213948035282
 30
0.0
 10
152.8637234784592
 20
64.77654419851909
 30
0.0
  0
SPLINE
  5
8B
330
1F
100
AcDbEntity
  8
0
  6
Continuous
 62
     7
370
    25
100
AcDbSpline
210
0.0
220
0.0
230
1.0
 70
     8
 71
     3
 72
    15
 73
    11
 74
     0
 42
0.00000001
 43
0.00000001
 40
0.0
 40
0.0
 40
0.0
 40
0.0
 40
0.1290558124453282
 40
0.2537561262749736
 40
0.3764910646921121
 40
0.4992690631939029
 40
0.6208079408516743
 40
0.7437423943369785
 40
0.8704610395548734
 40
1.0
 40
1.0
 40
1.0
 40
1.0
 10
151.7934532081889
 20
64.74411176608666
 30
0.0
 10
151.8124881424733
 20
64.76237666831564
 30
0.0
 10
151.8499156019296
 20
64.79829005143722
 30
0.0
 10
151.9120620315934
 20
64.84388021017304
 30
0.0
 10
151.9766258693954
 20
64.88336518352503
 30
0.0
 10
152.0443391828077
 20
64.91586855723732
 30
0.0
 10
152.1152861291532
 20
64.94067588893893
 30
0.0
 10
152.1891973413786
 20
64.95791883491108
 30
0.0
 10
152.2659829043851
 20
64.96915250307464
 30
0.0
 10
152.3183386026958
 20
64.97047185626302
 30
0.0
 10
152.3448045595403
 20
64.9711387931137
 30
0.0
  0
SPLINE
  5
8C
330
1F
100
AcDbEntity
  8
0
  6
Continuous
 62
     7
370
    25
100
AcDbSpline
210
0.0
220
0.0
230
1.0
 70
     8
 71
     3
 72
    15
 73
    11
 74
     0
 42
0.00000001
 43
0.00000001
 40
0.0
 40
0.0
 40
0.0
 40
0.0
 40
0.1474010611502689
 40
0.2856974574838598
 40
0.4173170259111332
 40
0.5418311731195044
 40
0.6607761138044996
 40
0.7757147634118143
 40
0.8886130455433364
 40
1.0
 40
1.0
 40
1.0
 40
1.0
 10
151.5826423973781
 20
64.12789554987044
 30
0.0
 10
151.5830478351959
 20
64.16076416463261
 30
0.0
 10
151.583833667759
 20
64.22447116643629
 30
0.0
 10
151.5947859149322
 20
64.31693864961339
 30
0.0
 10
151.6101164929542
 20
64.4035994194622
 30
0.0
 10
151.6340068819668
 20
64.48385601890442
 30
0.0
 10
151.663214920611
 20
64.55831821266415
 30
0.0
 10
151.6994062261901
 20
64.62678753186776
 30
0.0
 10
151.7426572293765
 20
64.6891057693171
 30
0.0
 10
151.7765974497153
 20
64.72585898667725
 30
0.0
 10
151.7934532081889
 20
64.74411176608666
 30
0.0
  0
SPLINE
  5
8D
330
1F
100
AcDbEntity
  8
0
  6
Continuous
 62
     7
370
    25
100
AcDbSpline
210
0.0
220
0.0
230
1.0
 70
     8
 71
     3
 72
    15
 73
    11
 74
     0
 42
0.00000001
 43
0.00000001
 40
0.0
 40
0.0
 40
0.0
 40
0.0
 40
0.1113869544566636
 40
0.2242852365881856
 40
0.3392238861955004
 40
0.4581688268804958
 40
0.5826829740888682
 40
0.7143025425161401
 40
0.8525989388497311
 40
1.0
 40
1.0
 40
1.0
 40
1.0
 10
151.7934532081889
 20
63.51167933365423
 30
0.0
 10
151.7765974497153
 20
63.52993211306365
 30
0.0
 10
151.7426572293765
 20
63.56668533042381
 30
0.0
 10
151.6994062261901
 20
63.62900356787314
 30
0.0
 10
151.663214920611
 20
63.69747288707675
 30
0.0
 10
151.6340068819668
 20
63.77193508083646
 30
0.0
 10
151.6101164929542
 20
63.85219168027871
 30
0.0
 10
151.5947859149322
 20
63.93885245012751
 30
0.0
 10
151.583833667759
 20
64.03131993330462
 30
0.0
 10
151.5830478351959
 20
64.0950269351083
 30
0.0
 10
151.5826423973781
 20
64.12789554987044
 30
0.0
  0
SPLINE
  5
8E
330
1F
100
AcDbEntity
  8
0
  6
Continuous
 62
     7
370
    25
100
AcDbSpline
210
0.0
220
0.0
230
1.0
 70
     8
 71
     3
 72
    15
 73
    11
 74
     0
 42
0.00000001
 43
0.00000001
 40
0.0
 40
0.0
 40
0.0
 40
0.0
 40
0.1295508505393024
 40
0.2562811269808873
 40
0.3792268643473062
 40
0.5011046489090122
 40
0.623474378027204
 40
0.7462205820124114
 40
0.8709323418075803
 40
1.0
 40
1.0
 40
1.0
 40
1.0
 10
152.3448045595403
 20
63.28465230662721
 30
0.0
 10
152.3183363919494
 20
63.28531340163455
 30
0.0
 10
152.2659763202782
 20
63.28662119832457
 30
0.0
 10
152.18922269155
 20
63.2979392520397
 30
0.0
 10
152.1151292451547
 20
63.31488830790536
 30
0.0
 10
152.0446342882677
 20
63.34083962346666
 30
0.0
 10
151.9764473651072
 20
63.37223507216419
 30
0.0
 10
151.9120906310067
 20
63.41197484719981
 30
0.0
 10
151.8499081109883
 20
63.45748429611152
 30
0.0
 10
151.8124856170831
 20
63.4934087838277
 30
0.0
 10
151.7934532081889
 20
63.51167933365423
 30
0.0
  0
SPLINE
  5
8F
330
1F
100
AcDbEntity
  8
0
  6
Continuous
 62
     7
370
    25
100
AcDbSpline
210
0.0
220
0.0
230
1.0
 70
     8
 71
     3
 72
    15
 73
    11
 74
     0
 42
0.00000001
 43
0.00000001
 40
0.0
 40
0.0
 40
0.0
 40
0.0
 40
0.1195027114365313
 40
0.2380939422658886
 40
0.3566476293726336
 40
0.4775806195769138
 40
0.6003630199241491
 40
0.7278327340041407
 40
0.8606471500295815
 40
1.0
 40
1.0
 40
1.0
 40
1.0
 10
152.8637234784592
 20
63.47924690122181
 30
0.0
 10
152.8472342486351
 20
63.4636516193881
 30
0.0
 10
152.814381556955
 20
63.4325800052975
 30
0.0
 10
152.7593269892615
 20
63.39281670020267
 30
0.0
 10
152.699808071907
 20
63.35983209543128
 30
0.0
 10
152.6368515362846
 20
63.33187691939357
 30
0.0
 10
152.569398193944
 20
63.31115950876789
 30
0.0
 10
152.4983854358067
 20
63.29523998277818
 30
0.0
 10
152.4229096150307
 20
63.28632814346792
 30
0.0
 10
152.3712532352123
 20
63.28521979441403
 30
0.0
 10
152.3448045595403
 20
63.28465230662721
 30
0.0
  0
SPLINE
  5
90
330
1F
100
AcDbEntity
  8
0
  6
Continuous
 62
     7
370
    25
100
AcDbSpline
210
0.0
220
0.0
230
1.0
 70
     8
 71
     3
 72
    11
 73
     7
 74
     0
 42
0.00000001
 43
0.00000001
 40
0.0
 40
0.0
 40
0.0
 40
0.0
 40
0.2327821459936366
 40
0.4723733284926266
 40
0.7269026528979928
 40
1.0
 40
1.0
 40
1.0
 40
1.0
 10
153.0258856406214
 20
63.75492257689748
 30
0.0
 10
153.0192709223664
 20
63.73060952589757
 30
0.0
 10
153.005848000837
 20
63.68127225057685
 30
0.0
 10
152.9701233248028
 20
63.6108449498545
 30
0.0
 10
152.9229847642399
 20
63.54237983077836
 30
0.0
 10
152.8839353111961
 20
63.50077920845372
 30
0.0
 10
152.8637234784592
 20
63.47924690122181
 30
0.0
  0
LINE
  5
91
330
1F
100
AcDbEntity
  8
0
  6
Continuous
 62
     7
370
    25
100
AcDbLine
 10
153.0583180731
 20
63.7549225769
 30
0.0
 11
153.0258856406
 21
63.7549225769
 31
0.0
  0
SPLINE
  5
92
330
1F
100
AcDbEntity
  8
0
  6
Continuous
 62
     7
370
    25
100
AcDbSpline
210
0.0
220
0.0
230
1.0
 70
     8
 71
     3
 72
    11
 73
     7
 74
     0
 42
0.00000001
 43
0.00000001
 40
0.0
 40
0.0
 40
0.0
 40
0.0
 40
0.2487470629387087
 40
0.4976060858529062
 40
0.7454415990539012
 40
1.0
 40
1.0
 40
1.0
 40
1.0
 10
153.1718315865673
 20
63.56032798230288
 30
0.0
 10
153.1590517967086
 20
63.5742432672381
 30
0.0
 10
153.1334864648629
 20
63.602080100318
 30
0.0
 10
153.101795370621
 20
63.64915739612115
 30
0.0
 10
153.07594660607
 20
63.70018930578046
 30
0.0
 10
153.0642464401202
 20
63.73651611496284
 30
0.0
 10
153.0583180730538
 20
63.75492257689748
 30
0.0
  0
SPLINE
  5
93
330
1F
100
AcDbEntity
  8
0
  6
Continuous
 62
     7
370
    25
100
AcDbSpline
210
0.0
220
0.0
230
1.0
 70
     8
 71
     3
 72
    15
 73
    11
 74
     0
 42
0.00000001
 43
0.00000001
 40
0.0
 40
0.0
 40
0.0
 40
0.0
 40
0.1299113129690337
 40
0.2551436434037571
 40
0.3782673290843514
 40
0.4999523087047293
 40
0.6222158812656394
 40
0.7453234951064163
 40
0.8707452845457335
 40
1.0
 40
1.0
 40
1.0
 40
1.0
 10
153.6421018568376
 20
63.36573338770829
 30
0.0
 10
153.6194527536602
 20
63.36630381237359
 30
0.0
 10
153.574970294262
 20
63.36742411686491
 30
0.0
 10
153.5094764007116
 20
63.37647192255072
 30
0.0
 10
153.4469176219346
 20
63.39248987900607
 30
0.0
 10
153.386237569823
 20
63.41317409914442
 30
0.0
 10
153.3286647377124
 20
63.44135925286108
 30
0.0
 10
153.2728905505925
 20
63.47418447971096
 30
0.0
 10
153.2203706580136
 20
63.51421457776962
 30
0.0
 10
153.1881728048265
 20
63.54480339178853
 30
0.0
 10
153.1718315865673
 20
63.56032798230288
 30
0.0
  0
SPLINE
  5
94
330
1F
100
AcDbEntity
  8
0
  6
Continuous
 62
     7
370
    25
100
AcDbSpline
210
0.0
220
0.0
230
1.0
 70
     8
 71
     3
 72
    15
 73
    11
 74
     0
 42
0.00000001
 43
0.00000001
 40
0.0
 40
0.0
 40
0.0
 40
0.0
 40
0.1190175566788508
 40
0.2372370543807515
 40
0.3548673391635876
 40
0.4755888455761291
 40
0.5992829081147945
 40
0.7265630484102549
 40
0.8598843047151132
 40
1.0
 40
1.0
 40
1.0
 40
1.0
 10
154.2096694244052
 20
63.5765441985191
 30
0.0
 10
154.1915743115452
 20
63.55974664157764
 30
0.0
 10
154.1555054205903
 20
63.52626416184286
 30
0.0
 10
154.0957878435283
 20
63.48297559724228
 30
0.0
 10
154.0313669240018
 20
63.44638697165157
 30
0.0
 10
153.9620007039781
 20
63.41741581470152
 30
0.0
 10
153.8886146998834
 20
63.39348578464809
 30
0.0
 10
153.8103833647915
 20
63.37786074484203
 30
0.0
 10
153.7278941555666
 20
63.36698418446789
 30
0.0
 10
153.6711691295956
 20
63.36615716992551
 30
0.0
 10
153.6421018568376
 20
63.36573338770829
 30
0.0
  0
SPLINE
  5
95
330
1F
100
AcDbEntity
  8
0
  6
Continuous
 62
     7
370
    25
100
AcDbSpline
210
0.0
220
0.0
230
1.0
 70
     8
 71
     3
 72
    15
 73
    11
 74
     0
 42
0.00000001
 43
0.00000001
 40
0.0
 40
0.0
 40
0.0
 40
0.0
 40
0.1367625375912043
 40
0.2685728084152041
 40
0.3952257228126166
 40
0.5183084604466274
 40
0.6384758419271765
 40
0.7582466910205612
 40
0.8786831316695042
 40
1.0
 40
1.0
 40
1.0
 40
1.0
 10
154.420480235216
 20
64.12789554987044
 30
0.0
 10
154.4200446401355
 20
64.10022884809935
 30
0.0
 10
154.4191892231759
 20
64.04589727510336
 30
0.0
 10
154.4083042181173
 20
63.96660939865954
 30
0.0
 10
154.3927150113765
 20
63.8909662646292
 30
0.0
 10
154.368857598564
 20
63.81993407820153
 30
0.0
 10
154.3393692006541
 20
63.75263195533471
 30
0.0
 10
154.3032752284018
 20
63.68918769201362
 30
0.0
 10
154.25992290661
 20
63.63009854431036
 30
0.0
 10
154.2264612058976
 20
63.59443893601867
 30
0.0
 10
154.2096694244052
 20
63.5765441985191
 30
0.0
  0
SPLINE
  5
96
330
1F
100
AcDbEntity
  8
0
  6
Continuous
 62
     7
370
    25
100
AcDbSpline
210
0.0
220
0.0
230
1.0
 70
     8
 71
     3
 72
    15
 73
    11
 74
     0
 42
0.00000001
 43
0.00000001
 40
0.0
 40
0.0
 40
0.0
 40
0.0
 40
0.1171086905579879
 40
0.2333993299620643
 40
0.3506160626962328
 40
0.4711822020542321
 40
0.594644589079523
 40
0.7237659205994509
 40
0.8581711095996133
 40
1.0
 40
1.0
 40
1.0
 40
1.0
 10
154.2258856406214
 20
64.6630306850056
 30
0.0
 10
154.2414780230605
 20
64.64633619709447
 30
0.0
 10
154.2725538688963
 20
64.61306383896331
 30
0.0
 10
154.3124848566072
 20
64.55730803560253
 30
0.0
 10
154.3454214396387
 20
64.49653375123562
 30
0.0
 10
154.3733615882244
 20
64.43175060083578
 30
0.0
 10
154.3940413340613
 20
64.36188495986025
 30
0.0
 10
154.4098762895805
 20
64.28805519249846
 30
0.0
 10
154.4188263598645
 20
64.20939687366855
 30
0.0
 10
154.4199191539366
 20
64.15554507435704
 30
0.0
 10
154.420480235216
 20
64.12789554987044
 30
0.0
  0
SPLINE
  5
97
330
1F
100
AcDbEntity
  8
0
  6
Continuous
 62
     7
370
    25
100
AcDbSpline
210
0.0
220
0.0
230
1.0
 70
     8
 71
     3
 72
    15
 73
    11
 74
     0
 42
0.00000001
 43
0.00000001
 40
0.0
 40
0.0
 40
0.0
 40
0.0
 40
0.135444582493415
 40
0.2662567558803002
 40
0.3914793001254339
 40
0.5142572831105976
 40
0.6353709597957446
 40
0.7562290499621889
 40
0.8764476079351726
 40
1.0
 40
1.0
 40
1.0
 40
1.0
 10
153.6421018568376
 20
64.89005771203261
 30
0.0
 10
153.6711667293002
 20
64.88939863829528
 30
0.0
 10
153.7283024117284
 20
64.88810303213698
 30
0.0
 10
153.8116984670824
 20
64.87695730857028
 30
0.0
 10
153.8911674397864
 20
64.85962645276275
 30
0.0
 10
153.9666802279514
 20
64.83521595911178
 30
0.0
 10
154.0377916293125
 20
64.80221470778874
 30
0.0
 10
154.1051513894805
 20
64.76333435257632
 30
0.0
 10
154.168715906012
 20
64.7173562201762
 30
0.0
 10
154.2066561045285
 20
64.68130354994825
 30
0.0
 10
154.2258856406214
 20
64.6630306850056
 30
0.0
  0
SPLINE
  5
98
330
1F
100
AcDbEntity
  8
0
  6
Continuous
 62
     7
370
    25
100
AcDbSpline
210
0.0
220
0.0
230
1.0
 70
     8
 71
     3
 72
    15
 73
    11
 74
     0
 42
0.00000001
 43
0.00000001
 40
0.0
 40
0.0
 40
0.0
 40
0.0
 40
0.1380420997033136
 40
0.2691721599589609
 40
0.3953313456434691
 40
0.518601794143436
 40
0.6392985515224103
 40
0.7600805617867281
 40
0.878495755309265
 40
1.0
 40
1.0
 40
1.0
 40
1.0
 10
153.6907505054862
 20
65.81438203635693
 30
0.0
 10
153.7080008391103
 20
65.81456754982484
 30
0.0
 10
153.7416377482242
 20
65.81492928773643
 30
0.0
 10
153.7904852557338
 20
65.82241447557134
 30
0.0
 10
153.8372305037923
 20
65.83122491924307
 30
0.0
 10
153.8810220290247
 20
65.84622218910225
 30
0.0
 10
153.9230902311525
 20
65.8638593256916
 30
0.0
 10
153.9616271644368
 20
65.88709188244847
 30
0.0
 10
153.9987174507411
 20
65.91280519181939
 30
0.0
 10
154.0203403798716
 20
65.93358704997055
 30
0.0
 10
154.0312910460268
 20
65.94411176608666
 30
0.0
  0
SPLINE
  5
99
330
1F
100
AcDbEntity
  8
0
  6
Continuous
 62
     7
370
    25
100
AcDbSpline
210
0.0
220
0.0
230
1.0
 70
     8
 71
     3
 72
    15
 73
    11
 74
     0
 42
0.00000001
 43
0.00000001
 40
0.0
 40
0.0
 40
0.0
 40
0.0
 40
0.1133059292696166
 40
0.2263015370273196
 40
0.3429947497841043
 40
0.4612849748553937
 40
0.5864354642724733
 40
0.7160226876888947
 40
0.8547540019702772
 40
1.0
 40
1.0
 40
1.0
 40
1.0
 10
153.3177775325133
 20
65.94411176608666
 30
0.0
 10
153.3288992260479
 20
65.93354112642795
 30
0.0
 10
153.3511121530982
 20
65.91242879790686
 30
0.0
 10
153.3900341786951
 20
65.8869673130078
 30
0.0
 10
153.4309930118269
 20
65.86372439271247
 30
0.0
 10
153.4764028723573
 20
65.84589299951013
 30
0.0
 10
153.5247212182013
 20
65.8311989665154
 30
0.0
 10
153.5772078695065
 20
65.82226755353587
 30
0.0
 10
153.6326903137934
 20
65.81496367574294
 30
0.0
 10
153.6711033654427
 20
65.81457885882924
 30
0.0
 10
153.6907505054862
 20
65.81438203635693
 30
0.0
  0
SPLINE
  5
9A
330
1F
100
AcDbEntity
  8
0
  6
Continuous
 62
     7
370
    25
100
AcDbSpline
210
0.0
220
0.0
230
1.0
 70
     8
 71
     3
 72
    11
 73
     7
 74
     0
 42
0.00000001
 43
0.00000001
 40
0.0
 40
0.0
 40
0.0
 40
0.0
 40
0.2322932923175279
 40
0.4682186081034745
 40
0.7217939329173709
 40
1.0
 40
1.0
 40
1.0
 40
1.0
 10
153.1880478027835
 20
66.21978744176234
 30
0.0
 10
153.1897625335413
 20
66.19556416024669
 30
0.0
 10
153.1932188057422
 20
66.14673885392037
 30
0.0
 10
153.2189909823132
 20
66.07521490182201
 30
0.0
 10
153.2607120121501
 20
66.00644529157415
 30
0.0
 10
153.298177261163
 20
65.96552143704024
 30
0.0
 10
153.3177775325133
 20
65.94411176608666
 30
0.0
  0
LINE
  5
9B
330
1F
100
AcDbEntity
  8
0
  6
Continuous
 62
     7
370
    25
100
AcDbLine
 10
153.1880478028
 20
66.3170847391
 30
0.0
 11
153.1880478028
 21
66.2197874418
 31
0.0
  0
LINE
  5
9C
330
1F
100
AcDbEntity
  8
0
  6
Continuous
 62
     7
370
    25
100
AcDbLine
 10
152.9123721271
 20
66.3170847391
 30
0.0
 11
153.1880478028
 21
66.3170847391
 31
0.0
  0
LINE
  5
9D
330
1F
100
AcDbEntity
  8
0
  6
Continuous
 62
     7
370
    25
100
AcDbLine
 10
152.9123721271
 20
66.1873550093
 30
0.0
 11
152.9123721271
 21
66.3170847391
 31
0.0
  0
SPLINE
  5
9E
330
1F
100
AcDbEntity
  8
0
  6
Continuous
 62
     7
370
    25
100
AcDbSpline
210
0.0
220
0.0
230
1.0
 70
     8
 71
     3
 72
    11
 73
     7
 74
     0
 42
0.00000001
 43
0.00000001
 40
0.0
 40
0.0
 40
0.0
 40
0.0
 40
0.267632090560556
 40
0.5177929452577195
 40
0.757031548782956
 40
0.9999999999999999
 40
0.9999999999999999
 40
0.9999999999999999
 40
0.9999999999999999
 10
152.7826423973781
 20
65.89546311743801
 30
0.0
 10
152.8026818596015
 20
65.91692893702147
 30
0.0
 10
152.841452592006
 20
65.95845927040268
 30
0.0
 10
152.8813833366978
 20
66.03159655066497
 30
0.0
 10
152.9084453236367
 20
66.10778918248579
 30
0.0
 10
152.91105646028
 20
66.16069665482227
 30
0.0
 10
152.9123721271079
 20
66.18735500932992
 30
0.0
  0
SPLINE
  5
9F
330
1F
100
AcDbEntity
  8
0
  6
Continuous
 62
     7
370
    25
100
AcDbSpline
210
0.0
220
0.0
230
1.0
 70
     8
 71
     3
 72
    15
 73
    11
 74
     0
 42
0.00000001
 43
0.00000001
 40
0.0
 40
0.0
 40
0.0
 40
0.0
 40
0.1417962611116214
 40
0.2768819513476978
 40
0.4055805706087828
 40
0.5298229690785617
 40
0.6485572024501448
 40
0.7672114666371237
 40
0.8821786188665558
 40
1.0
 40
1.0
 40
1.0
 40
1.0
 10
152.4258856406214
 20
65.7657333877083
 30
0.0
 10
152.4443344234612
 20
65.76592303176429
 30
0.0
 10
152.48035889232
 20
65.76629334488732
 30
0.0
 10
152.5326192619974
 20
65.77372166373111
 30
0.0
 10
152.5823423051714
 20
65.7825288804403
 30
0.0
 10
152.6284321718449
 20
65.79732980979307
 30
0.0
 10
152.6719867553165
 20
65.81524100283721
 30
0.0
 10
152.7116647000173
 20
65.83826333342918
 30
0.0
 10
152.7494415035405
 20
65.86415600629117
 30
0.0
 10
152.7714853393342
 20
65.88494245923039
 30
0.0
 10
152.7826423973781
 20
65.89546311743801
 30
0.0
  0
SPLINE
  5
A0
330
1F
100
AcDbEntity
  8
0
  6
Continuous
 62
     7
370
    25
100
AcDbSpline
210
0.0
220
0.0
230
1.0
 70
     8
 71
     3
 72
    15
 73
    11
 74
     0
 42
0.00000001
 43
0.00000001
 40
0.0
 40
0.0
 40
0.0
 40
0.0
 40
0.1062344532908167
 40
0.2134351374465921
 40
0.3266362515327413
 40
0.4454478074346337
 40
0.5709125865608569
 40
0.704781891325915
 40
0.8472638984122982
 40
1.0
 40
1.0
 40
1.0
 40
1.0
 10
152.020480235216
 20
65.89546311743801
 30
0.0
 10
152.031794138485
 20
65.88487471397788
 30
0.0
 10
152.0545248480098
 20
65.8636016026863
 30
0.0
 10
152.0948285176694
 20
65.83805437277243
 30
0.0
 10
152.1384144904812
 20
65.81466553838628
 30
0.0
 10
152.1876115837686
 20
65.79734053537275
 30
0.0
 10
152.2406389271627
 20
65.78230428191951
 30
0.0
 10
152.298568321795
 20
65.77369418788608
 30
0.0
 10
152.3606310351307
 20
65.76624030144775
 30
0.0
 10
152.4036361922961
 20
65.76590622686602
 30
0.0
 10
152.4258856406214
 20
65.7657333877083
 30
0.0
  0
SPLINE
  5
A1
330
1F
100
AcDbEntity
  8
0
  6
Continuous
 62
     7
370
    25
100
AcDbSpline
210
0.0
220
0.0
230
1.0
 70
     8
 71
     3
 72
    15
 73
    11
 74
     0
 42
0.00000001
 43
0.00000001
 40
0.0
 40
0.0
 40
0.0
 40
0.0
 40
0.1380420997033148
 40
0.2691721599589608
 40
0.3953313456434691
 40
0.5186017941434373
 40
0.6392985515224101
 40
0.7600805617867286
 40
0.8784957553092648
 40
1.0
 40
1.0
 40
1.0
 40
1.0
 10
151.8907505054862
 20
66.23600365797856
 30
0.0
 10
151.8909360189541
 20
66.21875332435448
 30
0.0
 10
151.8912977568658
 20
66.18511641524063
 30
0.0
 10
151.8987829447006
 20
66.13626890773104
 30
0.0
 10
151.9075933883724
 20
66.08952365967245
 30
0.0
 10
151.9225906582315
 20
66.0457321344401
 30
0.0
 10
151.9402277948209
 20
66.0036639323123
 30
0.0
 10
151.9634603515778
 20
65.96512699902797
 30
0.0
 10
151.9891736609487
 20
65.92803671272367
 30
0.0
 10
152.0099555190999
 20
65.90641378359317
 30
0.0
 10
152.020480235216
 20
65.89546311743801
 30
0.0
  0
SPLINE
  5
A2
330
1F
100
AcDbEntity
  8
0
  6
Continuous
 62
     7
370
    25
100
AcDbSpline
210
0.0
220
0.0
230
1.0
 70
     8
 71
     3
 72
    11
 73
     7
 74
     0
 42
0.00000001
 43
0.00000001
 40
0.0
 40
0.0
 40
0.0
 40
0.0
 40
0.2550921435312736
 40
0.4983791954134775
 40
0.7437399667914601
 40
1.0
 40
1.0
 40
1.0
 40
1.0
 10
152.0042640189997
 20
66.51167933365423
 30
0.0
 10
151.986772748538
 20
66.49230648294517
 30
0.0
 10
151.9525996643385
 20
66.45445731356038
 30
0.0
 10
151.9165492404473
 20
66.38691507889949
 30
0.0
 10
151.8947649302528
 20
66.31342697501849
 30
0.0
 10
151.8921078912027
 20
66.26218257794372
 30
0.0
 10
151.8907505054862
 20
66.23600365797856
 30
0.0
  0
SPLINE
  5
A3
330
1F
100
AcDbEntity
  8
0
  6
Continuous
 62
     7
370
    25
100
AcDbSpline
210
0.0
220
0.0
230
1.0
 70
     8
 71
     3
 72
    15
 73
    11
 74
     0
 42
0.00000001
 43
0.00000001
 40
0.0
 40
0.0
 40
0.0
 40
0.0
 40
0.1305521219623388
 40
0.2575145556980031
 40
0.3807268344757817
 40
0.5030306145961513
 40
0.6251462349433744
 40
0.7476378858044688
 40
0.8722881459663864
 40
0.9999999999999999
 40
0.9999999999999999
 40
0.9999999999999999
 40
0.9999999999999999
 10
152.3610207757565
 20
66.65762527960017
 30
0.0
 10
152.3437842459518
 20
66.65712030260465
 30
0.0
 10
152.3097851255413
 20
66.65612423356583
 30
0.0
 10
152.2598518197161
 20
66.64954650727402
 30
0.0
 10
152.2119211825761
 20
66.63810824318662
 30
0.0
 10
152.1662049408965
 20
66.62161366171505
 30
0.0
 10
152.1220450128908
 20
66.60145480204226
 30
0.0
 10
152.0805831125259
 20
66.5756718891112
 30
0.0
 10
152.0404402806648
 20
66.54653689552501
 30
0.0
 10
152.0164199092618
 20
66.52339211649581
 30
0.0
 10
152.0042640189997
 20
66.51167933365423
 30
0.0
  0
LINE
  5
A4
330
1F
100
AcDbEntity
  8
0
  6
Continuous
 62
     7
370
    25
100
AcDbLine
 10
152.4745342893
 20
66.6576252796
 30
0.0
 11
152.3610207758
 21
66.6576252796
 31
0.0
  0
LINE
  5
A5
330
1F
100
AcDbEntity
  8
0
  6
Continuous
 62
     7
370
    25
100
AcDbLine
 10
152.4745342893
 20
67.0414090634
 30
0.0
 11
152.4745342893
 21
66.6576252796
 31
0.0
  0
LINE
  5
A6
330
1F
100
AcDbEntity
  8
0
  6
Continuous
 62
     7
370
    25
100
AcDbLine
 10
152.3448045595
 20
67.0414090634
 30
0.0
 11
152.4745342893
 21
67.0414090634
 31
0.0
  0
SPLINE
  5
A7
330
1F
100
AcDbEntity
  8
0
  6
Continuous
 62
     7
370
    25
100
AcDbSpline
210
0.0
220
0.0
230
1.0
 70
     8
 71
     3
 72
    15
 73
    11
 74
     0
 42
0.00000001
 43
0.00000001
 40
0.0
 40
0.0
 40
0.0
 40
0.0
 40
0.1339120169181255
 40
0.2615284644313486
 40
0.3861887226529778
 40
0.5091929985924205
 40
0.6296768122270384
 40
0.7512559744353481
 40
0.874296574706902
 40
1.0
 40
1.0
 40
1.0
 40
1.0
 10
151.8096694244052
 20
66.80357122554614
 30
0.0
 10
151.8287476590021
 20
66.82256198238382
 30
0.0
 10
151.8660072083167
 20
66.85965068874827
 30
0.0
 10
151.9267917905059
 20
66.90813022149977
 30
0.0
 10
151.990107058399
 20
66.9492749390243
 30
0.0
 10
152.0561168766574
 20
66.98294596618912
 30
0.0
 10
152.1247941799923
 20
67.00912720724912
 30
0.0
 10
152.1958930037299
 20
67.02755944891167
 30
0.0
 10
152.2695232483413
 20
67.03956521055277
 30
0.0
 10
152.319532338681
 20
67.04079007501568
 30
0.0
 10
152.3448045595403
 20
67.04140906338397
 30
0.0
  0
SPLINE
  5
A8
330
1F
100
AcDbEntity
  8
0
  6
Continuous
 62
     7
370
    25
100
AcDbSpline
210
0.0
220
0.0
230
1.0
 70
     8
 71
     3
 72
    15
 73
    11
 74
     0
 42
0.00000001
 43
0.00000001
 40
0.0
 40
0.0
 40
0.0
 40
0.0
 40
0.133051490319738
 40
0.2614008608137413
 40
0.3859789426424562
 40
0.5084656149022194
 40
0.6295593452611172
 40
0.7509246542250767
 40
0.8741074588764663
 40
1.0
 40
1.0
 40
1.0
 40
1.0
 10
151.5826423973781
 20
66.23600365797856
 30
0.0
 10
151.5832869184677
 20
66.26387286092296
 30
0.0
 10
151.5845531828834
 20
66.31862635238969
 30
0.0
 10
151.5959411936726
 20
66.39876674823832
 30
0.0
 10
151.6128065011601
 20
66.47566019111602
 30
0.0
 10
151.638569533077
 20
66.54845788646085
 30
0.0
 10
151.6702250479159
 20
66.6181474858842
 30
0.0
 10
151.7099805689234
 20
66.68367398380894
 30
0.0
 10
151.7551003839959
 20
66.74699907864805
 30
0.0
 10
151.7913482950396
 20
66.78457756881268
 30
0.0
 10
151.8096694244052
 20
66.80357122554614
 30
0.0
  0
SPLINE
  5
A9
330
1F
100
AcDbEntity
  8
0
  6
Continuous
 62
     7
370
    25
100
AcDbSpline
210
0.0
220
0.0
230
1.0
 70
     8
 71
     3
 72
    15
 73
    11
 74
     0
 42
0.00000001
 43
0.00000001
 40
0.0
 40
0.0
 40
0.0
 40
0.0
 40
0.1158830802717861
 40
0.231553449797961
 40
0.3480625771524274
 40
0.4678553783950309
 40
0.5925908197539049
 40
0.7213115030172624
 40
0.8571441704632068
 40
1.0
 40
1.0
 40
1.0
 40
1.0
 10
151.8096694244052
 20
65.60357122554612
 30
0.0
 10
151.7912846168548
 20
65.62292536045796
 30
0.0
 10
151.7545487482347
 20
65.66159810453911
 30
0.0
 10
151.7095373214343
 20
65.72811413455476
 30
0.0
 10
151.6696672122455
 20
65.79868964582039
 30
0.0
 10
151.6381480431722
 20
65.87570349760493
 30
0.0
 10
151.6126855635736
 20
65.95782511465804
 30
0.0
 10
151.5957477112398
 20
66.04586459925768
 30
0.0
 10
151.5845242354816
 20
66.13901606610034
 30
0.0
 10
151.5832801275678
 20
66.20313583834275
 30
0.0
 10
151.5826423973781
 20
66.23600365797856
 30
0.0
  0
SPLINE
  5
AA
330
1F
100
AcDbEntity
  8
0
  6
Continuous
 62
     7
370
    25
100
AcDbSpline
210
0.0
220
0.0
230
1.0
 70
     8
 71
     3
 72
    15
 73
    11
 74
     0
 42
0.00000001
 43
0.00000001
 40
0.0
 40
0.0
 40
0.0
 40
0.0
 40
0.1354658418109468
 40
0.2653728839126843
 40
0.39152662799182
 40
0.5146179992444259
 40
0.6353652389705198
 40
0.7554358763572423
 40
0.8764282152102185
 40
1.0
 40
1.0
 40
1.0
 40
1.0
 10
152.393453208189
 20
65.3765441985191
 30
0.0
 10
152.3643835115718
 20
65.37718061796579
 30
0.0
 10
152.3074369845166
 20
65.37842734158033
 30
0.0
 10
152.2241098106809
 20
65.38985986261126
 30
0.0
 10
152.1444070713975
 20
65.40662161572143
 30
0.0
 10
152.0691831396692
 20
65.4323599747171
 30
0.0
 10
151.99766939215
 20
65.46398974769428
 30
0.0
 10
151.9308803651975
 20
65.50371112770856
 30
0.0
 10
151.8668674155873
 20
65.548999345009
 30
0.0
 10
151.8288690126411
 20
65.58525314104843
 30
0.0
 10
151.8096694244052
 20
65.60357122554612
 30
0.0
  0
SPLINE
  5
AB
330
1F
100
AcDbEntity
  8
0
  6
Continuous
 62
     7
370
    25
100
AcDbSpline
210
0.0
220
0.0
230
1.0
 70
     8
 71
     3
 72
    15
 73
    11
 74
     0
 42
0.00000001
 43
0.00000001
 40
0.0
 40
0.0
 40
0.0
 40
0.0
 40
0.1195027114365308
 40
0.2380939422658882
 40
0.3566476293726336
 40
0.4775806195769138
 40
0.6003630199241491
 40
0.7278327340041406
 40
0.8606471500295814
 40
0.9999999999999999
 40
0.9999999999999999
 40
0.9999999999999999
 40
0.9999999999999999
 10
152.9123721271079
 20
65.57113879311369
 30
0.0
 10
152.8958828972837
 20
65.55554351127998
 30
0.0
 10
152.8630302056037
 20
65.52447189718939
 30
0.0
 10
152.8079756379101
 20
65.48470859209455
 30
0.0
 10
152.7484567205556
 20
65.45172398732318
 30
0.0
 10
152.6855001849332
 20
65.42376881128546
 30
0.0
 10
152.6180468425926
 20
65.40305140065979
 30
0.0
 10
152.5470340844554
 20
65.38713187467008
 30
0.0
 10
152.4715582636794
 20
65.37822003535982
 30
0.0
 10
152.4199018838609
 20
65.37711168630592
 30
0.0
 10
152.393453208189
 20
65.3765441985191
 30
0.0
  0
SPLINE
  5
AC
330
1F
100
AcDbEntity
  8
0
  6
Continuous
 62
     7
370
    25
100
AcDbSpline
210
0.0
220
0.0
230
1.0
 70
     8
 71
     3
 72
    11
 73
     7
 74
     0
 42
0.00000001
 43
0.00000001
 40
0.0
 40
0.0
 40
0.0
 40
0.0
 40
0.2570374775372481
 40
0.5073419159098044
 40
0.752312987577213
 40
1.0
 40
1.0
 40
1.0
 40
1.0
 10
153.07453428927
 20
65.84681446878938
 30
0.0
 10
153.0658048103665
 20
65.82051161764073
 30
0.0
 10
153.0485745193045
 20
65.76859491263919
 30
0.0
 10
153.0112405622162
 20
65.69640782225359
 30
0.0
 10
152.9666974553083
 20
65.62963005778595
 30
0.0
 10
152.930547000291
 20
65.59070740600481
 30
0.0
 10
152.9123721271079
 20
65.57113879311369
 30
0.0
  0
SPLINE
  5
AD
330
1F
100
AcDbEntity
  8
0
  6
Continuous
 62
     7
370
    25
100
AcDbSpline
210
0.0
220
0.0
230
1.0
 70
     8
 71
     3
 72
    11
 73
     7
 74
     0
 42
0.00000001
 43
0.00000001
 40
0.0
 40
0.0
 40
0.0
 40
0.0
 40
0.2731656445547244
 40
0.5274113090719872
 40
0.7672619830757378
 40
1.0
 40
1.0
 40
1.0
 40
1.0
 10
153.2042640189998
 20
65.60357122554612
 30
0.0
 10
153.1868004389312
 20
65.62227797564763
 30
0.0
 10
153.1530828400727
 20
65.65839581021503
 30
0.0
 10
153.1145537236821
 20
65.71927632710009
 30
0.0
 10
153.0866342643072
 20
65.7817847300394
 30
0.0
 10
153.0785269414178
 20
65.82535648021573
 30
0.0
 10
153.07453428927
 20
65.84681446878938
 30
0.0
  0
SPLINE
  5
AE
330
1F
100
AcDbEntity
  8
0
  6
Continuous
 62
     7
370
    25
100
AcDbSpline
210
0.0
220
0.0
230
1.0
 70
     8
 71
     3
 72
    15
 73
    11
 74
     0
 42
0.00000001
 43
0.00000001
 40
0.0
 40
0.0
 40
0.0
 40
0.0
 40
0.1495888260512938
 40
0.2896239650819631
 40
0.4219290861937196
 40
0.5465682968532924
 40
0.666128924346641
 40
0.7799971355270188
 40
0.8908038749321938
 40
1.0
 40
1.0
 40
1.0
 40
1.0
 10
153.6907505054862
 20
65.44140906338396
 30
0.0
 10
153.6644986932623
 20
65.44176882541218
 30
0.0
 10
153.613671675312
 20
65.44246537279373
 30
0.0
 10
153.5400451954776
 20
65.45070571082529
 30
0.0
 10
153.4713361065743
 20
65.46266313468064
 30
0.0
 10
153.4079436225614
 20
65.48139756094412
 30
0.0
 10
153.3486600020398
 20
65.5025897274257
 30
0.0
 10
153.2955487556939
 20
65.5316508551453
 30
0.0
 10
153.2468072272874
 20
65.56441343869632
 30
0.0
 10
153.21837570719
 20
65.59058249008191
 30
0.0
 10
153.2042640189998
 20
65.60357122554612
 30
0.0
  0
SPLINE
  5
AF
330
1F
100
AcDbEntity
  8
0
  6
Continuous
 62
     7
370
    25
100
AcDbSpline
210
0.0
220
0.0
230
1.0
 70
     8
 71
     3
 72
    15
 73
    11
 74
     0
 42
0.00000001
 43
0.00000001
 40
0.0
 40
0.0
 40
0.0
 40
0.0
 40
0.1195027114365314
 40
0.2380939422658884
 40
0.3566476293726339
 40
0.4775806195769138
 40
0.6003630199241492
 40
0.7278327340041408
 40
0.8606471500295814
 40
1.0
 40
1.0
 40
1.0
 40
1.0
 10
154.2096694244052
 20
65.63600365797856
 30
0.0
 10
154.193180194581
 20
65.62040837614484
 30
0.0
 10
154.160327502901
 20
65.58933676205424
 30
0.0
 10
154.1052729352075
 20
65.54957345695941
 30
0.0
 10
154.0457540178529
 20
65.51658885218802
 30
0.0
 10
153.9827974822305
 20
65.48863367615033
 30
0.0
 10
153.9153441398899
 20
65.46791626552466
 30
0.0
 10
153.8443313817527
 20
65.45199673953493
 30
0.0
 10
153.7688555609767
 20
65.44308490022468
 30
0.0
 10
153.7171991811582
 20
65.44197655117077
 30
0.0
 10
153.6907505054862
 20
65.44140906338396
 30
0.0
  0
SPLINE
  5
B0
330
1F
100
AcDbEntity
  8
0
  6
Continuous
 62
     7
370
    25
100
AcDbSpline
210
0.0
220
0.0
230
1.0
 70
     8
 71
     3
 72
    15
 73
    11
 74
     0
 42
0.00000001
 43
0.00000001
 40
0.0
 40
0.0
 40
0.0
 40
0.0
 40
0.1401156952848868
 40
0.2734369515897451
 40
0.4007170918852049
 40
0.5244111544238702
 40
0.6451326608364114
 40
0.7627629456192485
 40
0.8809824433211496
 40
0.9999999999999999
 40
0.9999999999999999
 40
0.9999999999999999
 40
0.9999999999999999
 10
154.420480235216
 20
66.20357122554613
 30
0.0
 10
154.4200564529988
 20
66.1745039527881
 30
0.0
 10
154.4192294384564
 20
66.11777892681705
 30
0.0
 10
154.4083528780822
 20
66.03528971759222
 30
0.0
 10
154.3927278382762
 20
65.95705838250034
 30
0.0
 10
154.3687978082228
 20
65.88367237840563
 30
0.0
 10
154.3398266512727
 20
65.81430615838188
 30
0.0
 10
154.303238025682
 20
65.74988523885538
 30
0.0
 10
154.2599494610814
 20
65.69016766179342
 30
0.0
 10
154.2264669813466
 20
65.65409877083847
 30
0.0
 10
154.2096694244052
 20
65.63600365797856
 30
0.0
  0
SPLINE
  5
B1
330
1F
100
AcDbEntity
  8
0
  6
Continuous
 62
     7
370
    25
100
AcDbSpline
210
0.0
220
0.0
230
1.0
 70
     8
 71
     3
 72
    15
 73
    11
 74
     0
 42
0.00000001
 43
0.00000001
 40
0.0
 40
0.0
 40
0.0
 40
0.0
 40
0.1270527522076906
 40
0.2522753243044989
 40
0.3739697899787142
 40
0.4948832629277702
 40
0.6176556772794565
 40
0.7419399124466164
 40
0.8684128160693879
 40
1.0
 40
1.0
 40
1.0
 40
1.0
 10
154.2096694244052
 20
66.72249014446504
 30
0.0
 10
154.2264520218214
 20
66.70478908438764
 30
0.0
 10
154.259775465291
 20
66.66964194594343
 30
0.0
 10
154.3027533495808
 20
66.61198293887644
 30
0.0
 10
154.3392516061051
 20
66.55144460303795
 30
0.0
 10
154.3687361326138
 20
66.48773196188587
 30
0.0
 10
154.3925493973515
 20
66.42110949649013
 30
0.0
 10
154.4081465021119
 20
66.35106473936371
 30
0.0
 10
154.4192200678654
 20
66.27839757866828
 30
0.0
 10
154.4200546660279
 20
66.22884071878201
 30
0.0
 10
154.420480235216
 20
66.20357122554613
 30
0.0
  0
LINE
  5
B2
330
1F
100
AcDbEntity
  8
0
  6
Continuous
 62
     7
370
    25
100
AcDbLine
 10
154.0811408959
 20
69.0414090634
 30
0.0
 11
154.3880478028
 21
69.0414090634
 31
0.0
  0
LINE
  5
B3
330
1F
100
AcDbEntity
  8
0
  6
Continuous
 62
     7
370
    25
100
AcDbLine
 10
154.0811408959
 20
67.8576252796
 30
0.0
 11
154.0811408959
 21
69.0414090634
 31
0.0
  0
LINE
  5
B4
330
1F
100
AcDbEntity
  8
0
  6
Continuous
 62
     7
370
    25
100
AcDbLine
 10
151.6150748298
 20
68.636003658
 30
0.0
 11
154.0811408959
 21
67.8576252796
 31
0.0
  0
LINE
  5
B5
330
1F
100
AcDbEntity
  8
0
  6
Continuous
 62
     7
370
    25
100
AcDbLine
 10
151.6150748298
 20
68.2792469012
 30
0.0
 11
151.6150748298
 21
68.636003658
 31
0.0
  0
LINE
  5
B6
330
1F
100
AcDbEntity
  8
0
  6
Continuous
 62
     7
370
    25
100
AcDbLine
 10
154.031291046
 20
67.5008685228
 30
0.0
 11
151.6150748298
 21
68.2792469012
 31
0.0
  0
LINE
  5
B7
330
1F
100
AcDbEntity
  8
0
  6
Continuous
 62
     7
370
    25
100
AcDbLine
 10
154.3880478028
 20
67.5008685228
 30
0.0
 11
154.031291046
 21
67.5008685228
 31
0.0
  0
LINE
  5
B8
330
1F
100
AcDbEntity
  8
0
  6
Continuous
 62
     7
370
    25
100
AcDbLine
 10
154.3880478028
 20
69.0414090634
 30
0.0
 11
154.3880478028
 21
67.5008685228
 31
0.0
  0
LINE
  5
B9
330
1F
100
AcDbEntity
  8
0
  6
Continuous
 62
     7
370
    25
100
AcDbLine
 10
152.9033631181
 20
71.2792469012
 30
0.0
 11
153.1718315866
 21
71.2792469012
 31
0.0
  0
LINE
  5
BA
330
1F
100
AcDbEntity
  8
0
  6
Continuous
 62
     7
370
    25
100
AcDbLine
 10
152.9033631181
 20
69.4305982526
 30
0.0
 11
152.9033631181
 21
71.2792469012
 31
0.0
  0
LINE
  5
BB
330
1F
100
AcDbEntity
  8
0
  6
Continuous
 62
     7
370
    25
100
AcDbLine
 10
153.1718315866
 20
69.4305982526
 30
0.0
 11
152.9033631181
 21
69.4305982526
 31
0.0
  0
LINE
  5
BC
330
1F
100
AcDbEntity
  8
0
  6
Continuous
 62
     7
370
    25
100
AcDbLine
 10
153.1718315866
 20
71.2792469012
 30
0.0
 11
153.1718315866
 21
69.4305982526
 31
0.0
  0
LINE
  5
BD
330
1F
100
AcDbEntity
  8
0
  6
Continuous
 62
     7
370
    25
100
AcDbLine
 10
151.616276031
 20
73.7801478021
 30
0.0
 11
154.3880478028
 21
73.7801478021
 31
0.0
  0
LINE
  5
BE
330
1F
100
AcDbEntity
  8
0
  6
Continuous
 62
     7
370
    25
100
AcDbLine
 10
151.616276031
 20
72.4882559102
 30
0.0
 11
151.616276031
 21
73.7801478021
 31
0.0
  0
SPLINE
  5
BF
330
1F
100
AcDbEntity
  8
0
  6
Continuous
 62
     7
370
    25
100
AcDbSpline
210
0.0
220
0.0
230
1.0
 70
     8
 71
     3
 72
    15
 73
    11
 74
     0
 42
0.00000001
 43
0.00000001
 40
0.0
 40
0.0
 40
0.0
 40
0.0
 40
0.1086277469152493
 40
0.2195300404679355
 40
0.3340583594962494
 40
0.4525037346025799
 40
0.5781660321028788
 40
0.7098017975268056
 40
0.8504665399585418
 40
1.0
 40
1.0
 40
1.0
 40
1.0
 10
151.8096694244052
 20
71.90447212644703
 30
0.0
 10
151.7942470050718
 20
71.92135215956219
 30
0.0
 10
151.7630792377516
 20
71.95546567529001
 30
0.0
 10
151.7232472596593
 20
72.0136628392962
 30
0.0
 10
151.6904706070263
 20
72.07829932274655
 30
0.0
 10
151.6633433579118
 20
72.14878457922435
 30
0.0
 10
151.6416916339401
 20
72.2249149976673
 30
0.0
 10
151.6269766349632
 20
72.30740803351263
 30
0.0
 10
151.6178591006915
 20
72.39575675021189
 30
0.0
 10
151.6168143636061
 20
72.45680100118591
 30
0.0
 10
151.6162760310118
 20
72.4882559102308
 30
0.0
  0
SPLINE
  5
C0
330
1F
100
AcDbEntity
  8
0
  6
Continuous
 62
     7
370
    25
100
AcDbSpline
210
0.0
220
0.0
230
1.0
 70
     8
 71
     3
 72
    15
 73
    11
 74
     0
 42
0.00000001
 43
0.00000001
 40
0.0
 40
0.0
 40
0.0
 40
0.0
 40
0.1319114978615547
 40
0.2585593955794497
 40
0.3829282045992123
 40
0.5051155152535454
 40
0.6266776175559875
 40
0.748984922324664
 40
0.8728415720964469
 40
0.9999999999999999
 40
0.9999999999999999
 40
0.9999999999999999
 40
0.9999999999999999
 10
152.4096694244051
 20
71.66122888320378
 30
0.0
 10
152.3804013204816
 20
71.66184316552558
 30
0.0
 10
152.3230329835065
 20
71.66304721876138
 30
0.0
 10
152.2387336816354
 20
71.67484913749992
 30
0.0
 10
152.1581304301303
 20
71.69408725925845
 30
0.0
 10
152.0807291891902
 20
71.72047670705973
 30
0.0
 10
152.0070075712118
 20
71.75489419078718
 30
0.0
 10
151.9372582634518
 20
71.79735564546456
 30
0.0
 10
151.8704149054364
 20
71.84653954075185
 30
0.0
 10
151.8300947047493
 20
71.8849926642089
 30
0.0
 10
151.8096694244052
 20
71.90447212644703
 30
0.0
  0
SPLINE
  5
C1
330
1F
100
AcDbEntity
  8
0
  6
Continuous
 62
     7
370
    25
100
AcDbSpline
210
0.0
220
0.0
230
1.0
 70
     8
 71
     3
 72
    15
 73
    11
 74
     0
 42
0.00000001
 43
0.00000001
 40
0.0
 40
0.0
 40
0.0
 40
0.0
 40
0.126381288958891
 40
0.2491049464973161
 40
0.3706105362999224
 40
0.4913917559424304
 40
0.6138158455532663
 40
0.738835574235697
 40
0.8671181754268789
 40
1.0
 40
1.0
 40
1.0
 40
1.0
 10
152.8961559108917
 20
71.85582347779838
 30
0.0
 10
152.8796089942585
 20
71.84030370450905
 30
0.0
 10
152.8469940493045
 20
71.80971331943914
 30
0.0
 10
152.793790414312
 20
71.76948302141214
 30
0.0
 10
152.7368748560969
 20
71.73688877312881
 30
0.0
 10
152.6778168555108
 20
71.70839768576062
 30
0.0
 10
152.6148404781349
 20
71.68792877566624
 30
0.0
 10
152.5492811472547
 20
71.67190275366828
 30
0.0
 10
152.480388061606
 20
71.66293452819284
 30
0.0
 10
152.4335174410645
 20
71.66180406750772
 30
0.0
 10
152.4096694244051
 20
71.66122888320378
 30
0.0
  0
SPLINE
  5
C2
330
1F
100
AcDbEntity
  8
0
  6
Continuous
 62
     7
370
    25
100
AcDbSpline
210
0.0
220
0.0
230
1.0
 70
     8
 71
     3
 72
    11
 73
     7
 74
     0
 42
0.00000001
 43
0.00000001
 40
0.0
 40
0.0
 40
0.0
 40
0.0
 40
0.2758864184465418
 40
0.5310076877713108
 40
0.7722766677115257
 40
0.9999999999999999
 40
0.9999999999999999
 40
0.9999999999999999
 40
0.9999999999999999
 10
153.07453428927
 20
72.1639315859065
 30
0.0
 10
153.0633987075092
 20
72.13281645032684
 30
0.0
 10
153.0419656860649
 20
72.07292812276121
 30
0.0
 10
152.9998641263658
 20
71.99042424626982
 30
0.0
 10
152.9523720856374
 20
71.91755571624691
 30
0.0
 10
152.9145303147713
 20
71.87600082153934
 30
0.0
 10
152.8961559108917
 20
71.85582347779838
 30
0.0
  0
SPLINE
  5
C3
330
1F
100
AcDbEntity
  8
0
  6
Continuous
 62
     7
370
    25
100
AcDbSpline
210
0.0
220
0.0
230
1.0
 70
     8
 71
     3
 72
    11
 73
     7
 74
     0
 42
0.00000001
 43
0.00000001
 40
0.0
 40
0.0
 40
0.0
 40
0.0
 40
0.2409277974217338
 40
0.4854864172424147
 40
0.7380410464993905
 40
1.0
 40
1.0
 40
1.0
 40
1.0
 10
153.220480235216
 20
71.92068834266324
 30
0.0
 10
153.2048213484884
 20
71.93753831190426
 30
0.0
 10
153.1732675929786
 20
71.97149218225465
 30
0.0
 10
153.1335153915025
 20
72.02991004688623
 30
0.0
 10
153.1005098100141
 20
72.09453840470522
 30
0.0
 10
153.0832976645512
 20
72.1405203713706
 30
0.0
 10
153.07453428927
 20
72.1639315859065
 30
0.0
  0
SPLINE
  5
C4
330
1F
100
AcDbEntity
  8
0
  6
Continuous
 62
     7
370
    25
100
AcDbSpline
210
0.0
220
0.0
230
1.0
 70
     8
 71
     3
 72
    15
 73
    11
 74
     0
 42
0.00000001
 43
0.00000001
 40
0.0
 40
0.0
 40
0.0
 40
0.0
 40
0.1312072932871422
 40
0.2585055422472045
 40
0.381764642543987
 40
0.5033692670500671
 40
0.6250492974901235
 40
0.7476118725723037
 40
0.87224621389716
 40
1.0
 40
1.0
 40
1.0
 40
1.0
 10
153.6583180730538
 20
71.74230996428487
 30
0.0
 10
153.6370693387936
 20
71.74291562507914
 30
0.0
 10
153.5952049314548
 20
71.74410890228283
 30
0.0
 10
153.5338521438615
 20
71.75267010096661
 30
0.0
 10
153.4751366520559
 20
71.76654410931934
 30
0.0
 10
153.4188391607765
 20
71.78569922493246
 30
0.0
 10
153.3652264766359
 20
71.81119266354109
 30
0.0
 10
153.3140283954794
 20
71.84206020124373
 30
0.0
 10
153.2648168821327
 20
71.87789970934887
 30
0.0
 10
153.2353803930389
 20
71.90630842370796
 30
0.0
 10
153.220480235216
 20
71.92068834266324
 30
0.0
  0
SPLINE
  5
C5
330
1F
100
AcDbEntity
  8
0
  6
Continuous
 62
     7
370
    25
100
AcDbSpline
210
0.0
220
0.0
230
1.0
 70
     8
 71
     3
 72
    15
 73
    11
 74
     0
 42
0.00000001
 43
0.00000001
 40
0.0
 40
0.0
 40
0.0
 40
0.0
 40
0.1195027114365308
 40
0.2380939422658882
 40
0.3566476293726339
 40
0.4775806195769141
 40
0.6003630199241494
 40
0.727832734004141
 40
0.8606471500295815
 40
1.0
 40
1.0
 40
1.0
 40
1.0
 10
154.1772369919727
 20
71.93690455887946
 30
0.0
 10
154.1607477621486
 20
71.92130927704575
 30
0.0
 10
154.1278950704686
 20
71.89023766295516
 30
0.0
 10
154.072840502775
 20
71.85047435786032
 30
0.0
 10
154.0133215854205
 20
71.81748975308894
 30
0.0
 10
153.9503650497981
 20
71.78953457705123
 30
0.0
 10
153.8829117074575
 20
71.76881716642555
 30
0.0
 10
153.8118989493202
 20
71.75289764043583
 30
0.0
 10
153.7364231285443
 20
71.74398580112558
 30
0.0
 10
153.6847667487258
 20
71.74287745207168
 30
0.0
 10
153.6583180730538
 20
71.74230996428487
 30
0.0
  0
SPLINE
  5
C6
330
1F
100
AcDbEntity
  8
0
  6
Continuous
 62
     7
370
    25
100
AcDbSpline
210
0.0
220
0.0
230
1.0
 70
     8
 71
     3
 72
    15
 73
    11
 74
     0
 42
0.00000001
 43
0.00000001
 40
0.0
 40
0.0
 40
0.0
 40
0.0
 40
0.1342477572737632
 40
0.2634617725756835
 40
0.3884666271730293
 40
0.5118790511869571
 40
0.632408074152589
 40
0.7535525248235471
 40
0.8755084805282738
 40
1.0
 40
1.0
 40
1.0
 40
1.0
 10
154.3880478027835
 20
72.4720396940146
 30
0.0
 10
154.3876135633472
 20
72.44557268885337
 30
0.0
 10
154.3867613666778
 20
72.3936310830035
 30
0.0
 10
154.3758492361099
 20
72.31773603100093
 30
0.0
 10
154.3600872493093
 20
72.24494142966626
 30
0.0
 10
154.3364621962155
 20
72.17603928932677
 30
0.0
 10
154.3067538788234
 20
72.11044729321806
 30
0.0
 10
154.2708822629854
 20
72.04826787084163
 30
0.0
 10
154.2271130579776
 20
71.99034438423692
 30
0.0
 10
154.1939759903843
 20
71.95483959713384
 30
0.0
 10
154.1772369919727
 20
71.93690455887946
 30
0.0
  0
LINE
  5
C7
330
1F
100
AcDbEntity
  8
0
  6
Continuous
 62
     7
370
    25
100
AcDbLine
 10
154.3880478028
 20
73.7801478021
 30
0.0
 11
154.3880478028
 21
72.472039694
 31
0.0
  0
LINE
  5
C8
330
1F
100
AcDbEntity
  8
0
  6
Continuous
 62
     7
370
    25
100
AcDbLine
 10
151.6150748298
 20
76.4161838382
 30
0.0
 11
154.3880478028
 21
76.4161838382
 31
0.0
  0
LINE
  5
C9
330
1F
100
AcDbEntity
  8
0
  6
Continuous
 62
     7
370
    25
100
AcDbLine
 10
151.6150748298
 20
76.0324000544
 30
0.0
 11
151.6150748298
 21
76.4161838382
 31
0.0
  0
LINE
  5
CA
330
1F
100
AcDbEntity
  8
0
  6
Continuous
 62
     7
370
    25
100
AcDbLine
 10
153.804264019
 20
76.0324000544
 30
0.0
 11
151.6150748298
 21
76.0324000544
 31
0.0
  0
LINE
  5
CB
330
1F
100
AcDbEntity
  8
0
  6
Continuous
 62
     7
370
    25
100
AcDbLine
 10
151.6150748298
 20
74.7351027571
 30
0.0
 11
153.804264019
 21
76.0324000544
 31
0.0
  0
LINE
  5
CC
330
1F
100
AcDbEntity
  8
0
  6
Continuous
 62
     7
370
    25
100
AcDbLine
 10
151.6150748298
 20
74.3296973517
 30
0.0
 11
151.6150748298
 21
74.7351027571
 31
0.0
  0
LINE
  5
CD
330
1F
100
AcDbEntity
  8
0
  6
Continuous
 62
     7
370
    25
100
AcDbLine
 10
154.3880478028
 20
74.3296973517
 30
0.0
 11
151.6150748298
 21
74.3296973517
 31
0.0
  0
LINE
  5
CE
330
1F
100
AcDbEntity
  8
0
  6
Continuous
 62
     7
370
    25
100
AcDbLine
 10
154.3880478028
 20
74.7134811355
 30
0.0
 11
154.3880478028
 21
74.3296973517
 31
0.0
  0
LINE
  5
CF
330
1F
100
AcDbEntity
  8
0
  6
Continuous
 62
     7
370
    25
100
AcDbLine
 10
152.1988586136
 20
74.7134811355
 30
0.0
 11
154.3880478028
 21
74.7134811355
 31
0.0
  0
LINE
  5
D0
330
1F
100
AcDbEntity
  8
0
  6
Continuous
 62
     7
370
    25
100
AcDbLine
 10
154.3880478028
 20
75.9999676219
 30
0.0
 11
152.1988586136
 21
74.7134811355
 31
0.0
  0
LINE
  5
D1
330
1F
100
AcDbEntity
  8
0
  6
Continuous
 62
     7
370
    25
100
AcDbLine
 10
154.3880478028
 20
76.4161838382
 30
0.0
 11
154.3880478028
 21
75.9999676219
 31
0.0
  0
SPLINE
  5
D2
330
1F
100
AcDbEntity
  8
0
  6
Continuous
 62
     7
370
    25
100
AcDbSpline
210
0.0
220
0.0
230
1.0
 70
     8
 71
     3
 72
    15
 73
    11
 74
     0
 42
0.00000001
 43
0.00000001
 40
0.0
 40
0.0
 40
0.0
 40
0.0
 40
0.1342207616992958
 40
0.2632543584014016
 40
0.3882486178889518
 40
0.5110181775835607
 40
0.6322369822528033
 40
0.7532951172272379
 40
0.8750618099117073
 40
1.0
 40
1.0
 40
1.0
 40
1.0
 10
153.5934532081889
 20
66.96573338770828
 30
0.0
 10
153.6239192660528
 20
66.96511007789262
 30
0.0
 10
153.6836739747465
 20
66.9638875470149
 30
0.0
 10
153.7711940767747
 20
66.95224866562455
 30
0.0
 10
153.8545630888465
 20
66.93285172619122
 30
0.0
 10
153.9342085601289
 20
66.90661269733387
 30
0.0
 10
154.0097569918305
 20
66.8722050896504
 30
0.0
 10
154.0807676201024
 20
66.82978003599993
 30
0.0
 10
154.1483009229343
 20
66.7804247936545
 30
0.0
 10
154.189038690074
 20
66.74196649352601
 30
0.0
 10
154.2096694244052
 20
66.72249014446504
 30
0.0
  0
LINE
  5
D3
330
1F
100
AcDbEntity
  8
0
  6
Continuous
 62
     7
370
    25
100
AcDbLine
 10
153.5934532082
 20
66.608976631
 30
0.0
 11
153.5934532082
 21
66.9657333877
 31
0.0
  0
SPLINE
  5
D4
330
1F
100
AcDbEntity
  8
0
  6
Continuous
 62
     7
370
    25
100
AcDbSpline
210
0.0
220
0.0
230
1.0
 70
     8
 71
     3
 72
    15
 73
    11
 74
     0
 42
0.00000001
 43
0.00000001
 40
0.0
 40
0.0
 40
0.0
 40
0.0
 40
0.1017738366845028
 40
0.2081280746103136
 40
0.3195222361320729
 40
0.4377158324105371
 40
0.5640612668215825
 40
0.7002741501736234
 40
0.8452618826189012
 40
1.0
 40
1.0
 40
1.0
 40
1.0
 10
154.0150748298105
 20
66.46303068500559
 30
0.0
 10
154.0037317971051
 20
66.47357199864359
 30
0.0
 10
153.9805352307367
 20
66.49512904496133
 30
0.0
 10
153.9397502937097
 20
66.52184642765259
 30
0.0
 10
153.8943223972259
 20
66.54517269891008
 30
0.0
 10
153.8443001807726
 20
66.56600941840475
 30
0.0
 10
153.7885174370817
 20
66.58163392316628
 30
0.0
 10
153.7280484834334
 20
66.59513637915164
 30
0.0
 10
153.662299827777
 20
66.60373863251802
 30
0.0
 10
153.6168944424161
 20
66.60719317159077
 30
0.0
 10
153.5934532081889
 20
66.60897663095153
 30
0.0
  0
SPLINE
  5
D5
330
1F
100
AcDbEntity
  8
0
  6
Continuous
 62
     7
370
    25
100
AcDbSpline
210
0.0
220
0.0
230
1.0
 70
     8
 71
     3
 72
    11
 73
     7
 74
     0
 42
0.00000001
 43
0.00000001
 40
0.0
 40
0.0
 40
0.0
 40
0.0
 40
0.2450868805219029
 40
0.487555245697644
 40
0.7346288455311497
 40
1.0
 40
1.0
 40
1.0
 40
1.0
 10
154.1285883433241
 20
66.20357122554613
 30
0.0
 10
154.1271782129612
 20
66.22735348639596
 30
0.0
 10
154.1243730181093
 20
66.27466391773032
 30
0.0
 10
154.1023960441312
 20
66.34311161772985
 30
0.0
 10
154.0661483105775
 20
66.40733188983519
 30
0.0
 10
154.0324998122531
 20
66.44402766204063
 30
0.0
 10
154.0150748298105
 20
66.46303068500559
 30
0.0
  0
SPLINE
  5
D6
330
1F
100
AcDbEntity
  8
0
  6
Continuous
 62
     7
370
    25
100
AcDbSpline
210
0.0
220
0.0
230
1.0
 70
     8
 71
     3
 72
    11
 73
     7
 74
     0
 42
0.00000001
 43
0.00000001
 40
0.0
 40
0.0
 40
0.0
 40
0.0
 40
0.238820343026198
 40
0.4777994110081067
 40
0.7288233729769948
 40
1.0
 40
1.0
 40
1.0
 40
1.0
 10
154.0312910460268
 20
65.94411176608666
 30
0.0
 10
154.0463314318495
 20
65.96114410614189
 30
0.0
 10
154.0764221996475
 20
65.99522010629897
 30
0.0
 10
154.1071891979366
 20
66.05791912788024
 30
0.0
 10
154.1255002719408
 20
66.12824980262188
 30
0.0
 10
154.1275328393787
 20
66.177826335223
 30
0.0
 10
154.1285883433241
 20
66.20357122554613
 30
0.0
  0
SPLINE
  5
D7
330
1F
100
AcDbEntity
  8
0
  6
Continuous
 62
     7
370
    25
100
AcDbSpline
210
0.0
220
0.0
230
1.0
 70
     8
 71
     3
 72
    18
 73
    14
 74
     0
 42
0.00000001
 43
0.00000001
 40
0.0
 40
0.0
 40
0.0
 40
0.0
 40
0.2500000000000004
 40
0.2500000000000004
 40
0.5000000000000009
 40
0.5000000000000009
 40
0.562500000000001
 40
0.562500000000001
 40
0.625000000000001
 40
0.625000000000001
 40
0.7500000000000007
 40
0.7500000000000007
 40
1.0
 40
1.0
 40
1.0
 40
1.0
 10
149.2738007043073
 20
79.19726491923981
 30
0.0
 10
148.7975642544139
 20
80.02213064687139
 30
0.0
 10
148.4050592803662
 20
80.85301012684594
 30
0.0
 10
147.8613125505422
 20
82.53209706566444
 30
0.0
 10
147.7118643777777
 20
83.38043334301936
 30
0.0
 10
147.7104962798821
 20
84.45417249199983
 30
0.0
 10
147.7194209529551
 20
84.67000877316787
 30
0.0
 10
147.7553800893512
 20
85.09972345628576
 30
0.0
 10
147.7823729671272
 20
85.31383430450981
 30
0.0
 10
147.8892212952167
 20
85.95402428938765
 30
0.0
 10
147.9950069220984
 20
86.37795585706988
 30
0.0
 10
148.4034939939123
 20
87.64220304610662
 30
0.0
 10
148.796970541953
 20
88.47500056227912
 30
0.0
 10
149.2738007043074
 20
89.30089463005828
 30
0.0
  0
LINE
  5
D8
330
1F
100
AcDbEntity
  8
0
  6
Continuous
 62
     7
370
    25
100
AcDbLine
 10
147.5664261812
 20
69.0936352084
 30
0.0
 11
147.5664261812
 21
86.3436352084
 31
0.0
  0
LINE
  5
D9
330
1F
100
AcDbEntity
  8
0
  6
Continuous
 62
     7
370
    25
100
AcDbLine
 10
147.5664261812
 20
51.8436352084
 30
0.0
 11
147.5664261812
 21
69.0936352084
 31
0.0
  0
SPLINE
  5
DA
330
1F
100
AcDbEntity
  8
0
  6
Continuous
 62
     7
370
    25
100
AcDbSpline
210
0.0
220
0.0
230
1.0
 70
     8
 71
     3
 72
    18
 73
    14
 74
     0
 42
0.00000001
 43
0.00000001
 40
0.0
 40
0.0
 40
0.0
 40
0.0
 40
0.2500000000000004
 40
0.2500000000000004
 40
0.5000000000000009
 40
0.5000000000000009
 40
0.562500000000001
 40
0.562500000000001
 40
0.625000000000001
 40
0.625000000000001
 40
0.7500000000000007
 40
0.7500000000000007
 40
1.0
 40
1.0
 40
1.0
 40
1.0
 10
156.8590516580165
 20
79.19726491923981
 30
0.0
 10
157.3352881079099
 20
80.02213064687139
 30
0.0
 10
157.7277930819577
 20
80.85301012684594
 30
0.0
 10
158.2715398117816
 20
82.53209706566444
 30
0.0
 10
158.4209879845461
 20
83.38043334301936
 30
0.0
 10
158.4223560824418
 20
84.45417249199983
 30
0.0
 10
158.4134314093687
 20
84.67000877316787
 30
0.0
 10
158.3774722729726
 20
85.09972345628576
 30
0.0
 10
158.3504793951966
 20
85.31383430450981
 30
0.0
 10
158.2436310671071
 20
85.95402428938765
 30
0.0
 10
158.1378454402254
 20
86.37795585706988
 30
0.0
 10
157.7293583684115
 20
87.64220304610662
 30
0.0
 10
157.3358818203708
 20
88.47500056227912
 30
0.0
 10
156.8590516580164
 20
89.30089463005828
 30
0.0
  0
LINE
  5
DB
330
1F
100
AcDbEntity
  8
0
  6
Continuous
 62
     7
370
    25
100
AcDbLine
 10
158.5664261812
 20
69.0936352084
 30
0.0
 11
158.5664261812
 21
86.3436352084
 31
0.0
  0
LINE
  5
DC
330
1F
100
AcDbEntity
  8
0
  6
Continuous
 62
     7
370
    25
100
AcDbLine
 10
158.5664261812
 20
51.8436352084
 30
0.0
 11
158.5664261812
 21
69.0936352084
 31
0.0
  0
SPLINE
  5
DD
330
1F
100
AcDbEntity
  8
0
  6
Continuous
 62
     7
370
    25
100
AcDbSpline
210
0.0
220
0.0
230
1.0
 70
     8
 71
     3
 72
    15
 73
    11
 74
     0
 42
0.00000001
 43
0.00000001
 40
0.0
 40
0.0
 40
0.0
 40
0.0
 40
0.1132779201884345
 40
0.2270870976600617
 40
0.3430442578526535
 40
0.461305241731197
 40
0.5864247941069355
 40
0.7162590429098971
 40
0.8547899065957144
 40
1.0
 40
1.0
 40
1.0
 40
1.0
 10
152.7664261811619
 20
64.46843609041099
 30
0.0
 10
152.7552643095719
 20
64.47894555270513
 30
0.0
 10
152.7328882188068
 20
64.50001376517207
 30
0.0
 10
152.6945414733324
 20
64.52638983297017
 30
0.0
 10
152.6529986108964
 20
64.54863279106632
 30
0.0
 10
152.6078464035764
 20
64.56677779511041
 30
0.0
 10
152.5593918339016
 20
64.58108968956934
 30
0.0
 10
152.507124135686
 20
64.5913016354189
 30
0.0
 10
152.4514542149917
 20
64.59730804239786
 30
0.0
 10
152.4130879231655
 20
64.59787544205209
 30
0.0
 10
152.393453208189
 20
64.59816582014072
 30
0.0
  0
SPLINE
  5
DE
330
1F
100
AcDbEntity
  8
0
  6
Continuous
 62
     7
370
    25
100
AcDbSpline
210
0.0
220
0.0
230
1.0
 70
     8
 71
     3
 72
    15
 73
    11
 74
     0
 42
0.00000001
 43
0.00000001
 40
0.0
 40
0.0
 40
0.0
 40
0.0
 40
0.1380048591553925
 40
0.2688933811355692
 40
0.3953545540747321
 40
0.5185917470747131
 40
0.6392559432757057
 40
0.7592039617243772
 40
0.8785285343285423
 40
1.0
 40
1.0
 40
1.0
 40
1.0
 10
152.8961559108917
 20
64.12789554987044
 30
0.0
 10
152.8958779335021
 20
64.1451320192506
 30
0.0
 10
152.8953363128619
 20
64.17871614490262
 30
0.0
 10
152.8891374644304
 20
64.22777257374733
 30
0.0
 10
152.8790541831814
 20
64.27427579889175
 30
0.0
 10
152.8644371153797
 20
64.3182133955035
 30
0.0
 10
152.8465005319826
 20
64.36001859179505
 30
0.0
 10
152.824237570333
 20
64.39915259882092
 30
0.0
 10
152.7976305018628
 20
64.43565088772216
 30
0.0
 10
152.7768892630821
 20
64.45744292491986
 30
0.0
 10
152.7664261811619
 20
64.46843609041099
 30
0.0
  0
SPLINE
  5
DF
330
1F
100
AcDbEntity
  8
0
  6
Continuous
 62
     7
370
    25
100
AcDbSpline
210
0.0
220
0.0
230
1.0
 70
     8
 71
     3
 72
    15
 73
    11
 74
     0
 42
0.00000001
 43
0.00000001
 40
0.0
 40
0.0
 40
0.0
 40
0.0
 40
0.1134144342832912
 40
0.2282264330862562
 40
0.344019211495891
 40
0.4638726679659601
 40
0.5878409254964376
 40
0.718082757109054
 40
0.8551689049579075
 40
1.0
 40
1.0
 40
1.0
 40
1.0
 10
152.7826423973781
 20
63.80357122554613
 30
0.0
 10
152.7916566192497
 20
63.81340536797944
 30
0.0
 10
152.8097961419464
 20
63.83319483538016
 30
0.0
 10
152.8333774162603
 20
63.86624513911941
 30
0.0
 10
152.8523852863892
 20
63.90287760428777
 30
0.0
 10
152.8690230230045
 20
63.94183973298677
 30
0.0
 10
152.8805834661972
 20
63.98437014683076
 30
0.0
 10
152.88976455918
 20
64.02947189800612
 30
0.0
 10
152.8951789285027
 20
64.07771522643951
 30
0.0
 10
152.8958243397603
 20
64.11086520541201
 30
0.0
 10
152.8961559108917
 20
64.12789554987044
 30
0.0
  0
SPLINE
  5
E0
330
1F
100
AcDbEntity
  8
0
  6
Continuous
 62
     7
370
    25
100
AcDbSpline
210
0.0
220
0.0
230
1.0
 70
     8
 71
     3
 72
    15
 73
    11
 74
     0
 42
0.00000001
 43
0.00000001
 40
0.0
 40
0.0
 40
0.0
 40
0.0
 40
0.139381020281687
 40
0.2711199225959094
 40
0.3991411117306077
 40
0.5232616219685348
 40
0.6429586939517115
 40
0.7614343776763255
 40
0.8804849265728254
 40
1.0
 40
1.0
 40
1.0
 40
1.0
 10
152.393453208189
 20
63.65762527960018
 30
0.0
 10
152.4132917429151
 20
63.65810928269722
 30
0.0
 10
152.4518810859152
 20
63.65905075149933
 30
0.0
 10
152.5083793391037
 20
63.66573077567777
 30
0.0
 10
152.5619299936347
 20
63.67698919184572
 30
0.0
 10
152.6123583798834
 20
63.69328380356079
 30
0.0
 10
152.6598531982549
 20
63.71365691724718
 30
0.0
 10
152.70374958357
 20
63.73942634924605
 30
0.0
 10
152.7457154313093
 20
63.76834063262073
 30
0.0
 10
152.7703174407035
 20
63.79181246013284
 30
0.0
 10
152.7826423973781
 20
63.80357122554613
 30
0.0
  0
SPLINE
  5
E1
330
1F
100
AcDbEntity
  8
0
  6
Continuous
 62
     7
370
    25
100
AcDbSpline
210
0.0
220
0.0
230
1.0
 70
     8
 71
     3
 72
    15
 73
    11
 74
     0
 42
0.00000001
 43
0.00000001
 40
0.0
 40
0.0
 40
0.0
 40
0.0
 40
0.1195207678016606
 40
0.2385769889400699
 40
0.3570583175167624
 40
0.4780520139443315
 40
0.6008398709279141
 40
0.7288671597165909
 40
0.860612338817688
 40
1.0
 40
1.0
 40
1.0
 40
1.0
 10
152.0042640189997
 20
63.80357122554613
 30
0.0
 10
152.0165881766392
 20
63.79181051168388
 30
0.0
 10
152.0411885910686
 20
63.76833479484696
 30
0.0
 10
152.083166346229
 20
63.73944954774324
 30
0.0
 10
152.1271760366498
 20
63.71347648599298
 30
0.0
 10
152.174854254457
 20
63.69356040818691
 30
0.0
 10
152.2251290996575
 20
63.6768521905196
 30
0.0
 10
152.2785365966951
 20
63.66575810916647
 30
0.0
 10
152.3350227588274
 20
63.65904336746157
 30
0.0
 10
152.3736138002927
 20
63.65810677552948
 30
0.0
 10
152.393453208189
 20
63.65762527960018
 30
0.0
  0
SPLINE
  5
E2
330
1F
100
AcDbEntity
  8
0
  6
Continuous
 62
     7
370
    25
100
AcDbSpline
210
0.0
220
0.0
230
1.0
 70
     8
 71
     3
 72
    15
 73
    11
 74
     0
 42
0.00000001
 43
0.00000001
 40
0.0
 40
0.0
 40
0.0
 40
0.0
 40
0.1322900133483145
 40
0.2607898618052655
 40
0.3858441649046984
 40
0.50809044511665
 40
0.6294055086180658
 40
0.7510893117646917
 40
0.8732553966668103
 40
1.0
 40
1.0
 40
1.0
 40
1.0
 10
151.87453428927
 20
64.12789554987044
 30
0.0
 10
151.8747335128436
 20
64.11204503827518
 30
0.0
 10
151.875126252151
 20
64.08079813895263
 30
0.0
 10
151.8826307639825
 20
64.03516616026837
 30
0.0
 10
151.8913532661274
 20
63.9909746734728
 30
0.0
 10
151.9065184241652
 20
63.94945923945043
 30
0.0
 10
151.9239854858459
 20
63.90929258810691
 30
0.0
 10
151.9475797928918
 20
63.87241704067102
 30
0.0
 10
151.9731052203056
 20
63.83605851967887
 30
0.0
 10
151.9937511640781
 20
63.81453230955224
 30
0.0
 10
152.0042640189997
 20
63.80357122554613
 30
0.0
  0
SPLINE
  5
E3
330
1F
100
AcDbEntity
  8
0
  6
Continuous
 62
     7
370
    25
100
AcDbSpline
210
0.0
220
0.0
230
1.0
 70
     8
 71
     3
 72
    15
 73
    11
 74
     0
 42
0.00000001
 43
0.00000001
 40
0.0
 40
0.0
 40
0.0
 40
0.0
 40
0.1267446033331897
 40
0.2489106882353082
 40
0.3705944913819342
 40
0.4919095548833499
 40
0.6141558350953016
 40
0.7392101381947345
 40
0.8677099866516855
 40
1.0
 40
1.0
 40
1.0
 40
1.0
 10
152.0042640189997
 20
64.45221987419478
 30
0.0
 10
151.993751164078
 20
64.44125879018867
 30
0.0
 10
151.9731052203056
 20
64.41973258006203
 30
0.0
 10
151.9475797928918
 20
64.38337405906988
 30
0.0
 10
151.9239854858459
 20
64.34649851163398
 30
0.0
 10
151.9065184241652
 20
64.30633186029047
 30
0.0
 10
151.8913532661274
 20
64.2648164262681
 30
0.0
 10
151.8826307639825
 20
64.22062493947253
 30
0.0
 10
151.875126252151
 20
64.17499296078826
 30
0.0
 10
151.8747335128436
 20
64.14374606146572
 30
0.0
 10
151.87453428927
 20
64.12789554987044
 30
0.0
  0
SPLINE
  5
E4
330
1F
100
AcDbEntity
  8
0
  6
Continuous
 62
     7
370
    25
100
AcDbSpline
210
0.0
220
0.0
230
1.0
 70
     8
 71
     3
 72
    15
 73
    11
 74
     0
 42
0.00000001
 43
0.00000001
 40
0.0
 40
0.0
 40
0.0
 40
0.0
 40
0.139387661182312
 40
0.2711328402834091
 40
0.3991601290720859
 40
0.5219479860556683
 40
0.6429416824832374
 40
0.7614230110599288
 40
0.880479232198338
 40
1.0
 40
1.0
 40
1.0
 40
1.0
 10
152.393453208189
 20
64.59816582014072
 30
0.0
 10
152.3736138002927
 20
64.59768432421143
 30
0.0
 10
152.3350227588274
 20
64.59674773227933
 30
0.0
 10
152.2785365966951
 20
64.59003299057443
 30
0.0
 10
152.2251290996575
 20
64.57893890922129
 30
0.0
 10
152.174854254457
 20
64.56223069155398
 30
0.0
 10
152.1271760366498
 20
64.54231461374792
 30
0.0
 10
152.083166346229
 20
64.51634155199764
 30
0.0
 10
152.0411885910686
 20
64.48745630489394
 30
0.0
 10
152.0165881766392
 20
64.46398058805703
 30
0.0
 10
152.0042640189997
 20
64.45221987419478
 30
0.0
  0
SPLINE
  5
E5
330
1F
100
AcDbEntity
  8
0
  6
Continuous
 62
     7
370
    25
100
AcDbSpline
210
0.0
220
0.0
230
1.0
 70
     8
 71
     3
 72
    11
 73
     7
 74
     0
 42
0.00000001
 43
0.00000001
 40
0.0
 40
0.0
 40
0.0
 40
0.0
 40
0.2562600332085401
 40
0.5016208045865216
 40
0.7449078564687257
 40
1.0
 40
1.0
 40
1.0
 40
1.0
 10
153.1718315865673
 20
62.00357122554612
 30
0.0
 10
153.1704742008509
 20
62.02975014551129
 30
0.0
 10
153.1678171618008
 20
62.08099454258606
 30
0.0
 10
153.1460328516063
 20
62.15448264646705
 30
0.0
 10
153.1099824277151
 20
62.22202488112795
 30
0.0
 10
153.0758093435156
 20
62.25987405051274
 30
0.0
 10
153.0583180730538
 20
62.2792469012218
 30
0.0
  0
SPLINE
  5
E6
330
1F
100
AcDbEntity
  8
0
  6
Continuous
 62
     7
370
    25
100
AcDbSpline
210
0.0
220
0.0
230
1.0
 70
     8
 71
     3
 72
    11
 73
     7
 74
     0
 42
0.00000001
 43
0.00000001
 40
0.0
 40
0.0
 40
0.0
 40
0.0
 40
0.2912484084677865
 40
0.5474762715832003
 40
0.7812177661650684
 40
1.0
 40
1.0
 40
1.0
 40
1.0
 10
153.0583180730538
 20
61.77654419851909
 30
0.0
 10
153.0755835271216
 20
61.79504351561687
 30
0.0
 10
153.1080383874586
 20
61.82981773877849
 30
0.0
 10
153.1445351593311
 20
61.8872997403339
 30
0.0
 10
153.167161123755
 20
61.94528618749412
 30
0.0
 10
153.1703094575463
 20
61.98457581728042
 30
0.0
 10
153.1718315865673
 20
62.00357122554612
 30
0.0
  0
SPLINE
  5
E7
330
1F
100
AcDbEntity
  8
0
  6
Continuous
 62
     7
370
    25
100
AcDbSpline
210
0.0
220
0.0
230
1.0
 70
     8
 71
     3
 72
    15
 73
    11
 74
     0
 42
0.00000001
 43
0.00000001
 40
0.0
 40
0.0
 40
0.0
 40
0.0
 40
0.1621938662364102
 40
0.3128358862094928
 40
0.4514937848199703
 40
0.5789754992164104
 40
0.6959713973784585
 40
0.8040446570061017
 40
0.904279252498922
 40
1.0
 40
1.0
 40
1.0
 40
1.0
 10
152.5393991541349
 20
61.63059825257315
 30
0.0
 10
152.5692410444719
 20
61.63108249661905
 30
0.0
 10
152.6267994122842
 20
61.63201649565831
 30
0.0
 10
152.7096750495276
 20
61.63846332114758
 30
0.0
 10
152.7856300318092
 20
61.64958338710445
 30
0.0
 10
152.854288633256
 20
61.6658364790609
 30
0.0
 10
152.9161297054222
 20
61.68584951852328
 30
0.0
 10
152.9704211778353
 20
61.71126557276159
 30
0.0
 10
153.0184593390202
 20
61.74045538954476
 30
0.0
 10
153.0452374403229
 20
61.76470076025309
 30
0.0
 10
153.0583180730538
 20
61.77654419851909
 30
0.0
  0
SPLINE
  5
E8
330
1F
100
AcDbEntity
  8
0
  6
Continuous
 62
     7
370
    25
100
AcDbSpline
210
0.0
220
0.0
230
1.0
 70
     8
 71
     3
 72
    15
 73
    11
 74
     0
 42
0.00000001
 43
0.00000001
 40
0.0
 40
0.0
 40
0.0
 40
0.0
 40
0.0889385933316049
 40
0.1846881048742351
 40
0.2906390975243629
 40
0.4070025892724368
 40
0.5351860897525823
 40
0.676801748829307
 40
0.8315571904058217
 40
1.0
 40
1.0
 40
1.0
 40
1.0
 10
151.9718315865673
 20
61.77654419851909
 30
0.0
 10
151.9850826854079
 20
61.76464863643644
 30
0.0
 10
152.0125996523477
 20
61.73994655002872
 30
0.0
 10
152.06328247371
 20
61.71092979574561
 30
0.0
 10
152.1216740004709
 20
61.68569847568652
 30
0.0
 10
152.1889179378552
 20
61.66574373437576
 30
0.0
 10
152.2643737206864
 20
61.64946494673206
 30
0.0
 10
152.3485343879698
 20
61.63845176458602
 30
0.0
 10
152.441198565933
 20
61.63199000724751
 30
0.0
 10
152.5057543178903
 20
61.63107508635764
 30
0.0
 10
152.5393991541349
 20
61.63059825257315
 30
0.0
  0
SPLINE
  5
E9
330
1F
100
AcDbEntity
  8
0
  6
Continuous
 62
     7
370
    25
100
AcDbSpline
210
0.0
220
0.0
230
1.0
 70
     8
 71
     3
 72
    11
 73
     7
 74
     0
 42
0.00000001
 43
0.00000001
 40
0.0
 40
0.0
 40
0.0
 40
0.0
 40
0.2601257123120344
 40
0.5090133886864473
 40
0.750841722653232
 40
1.0
 40
1.0
 40
1.0
 40
1.0
 10
151.87453428927
 20
62.01978744176234
 30
0.0
 10
151.8755515697723
 20
61.99641351153401
 30
0.0
 10
151.8775421818927
 20
61.95067545924117
 30
0.0
 10
151.8971642677361
 20
61.88576128680265
 30
0.0
 10
151.9271093271587
 20
61.82591297231371
 30
0.0
 10
151.9567765327744
 20
61.79316342918845
 30
0.0
 10
151.9718315865673
 20
61.77654419851909
 30
0.0
  0
SPLINE
  5
EA
330
1F
100
AcDbEntity
  8
0
  6
Continuous
 62
     7
370
    25
100
AcDbSpline
210
0.0
220
0.0
230
1.0
 70
     8
 71
     3
 72
    11
 73
     7
 74
     0
 42
0.00000001
 43
0.00000001
 40
0.0
 40
0.0
 40
0.0
 40
0.0
 40
0.2767994473675437
 40
0.5300473798609826
 40
0.7673216447737525
 40
1.0
 40
1.0
 40
1.0
 40
1.0
 10
151.9880478027835
 20
62.26303068500558
 30
0.0
 10
151.9706561706184
 20
62.24441162810251
 30
0.0
 10
151.9373526754407
 20
62.20875771903293
 30
0.0
 10
151.901483183987
 20
62.14758577245327
 30
0.0
 10
151.8788828098519
 20
62.08440346893864
 30
0.0
 10
151.8759743149053
 20
62.04118523299524
 30
0.0
 10
151.87453428927
 20
62.01978744176234
 30
0.0
  0
SPLINE
  5
EB
330
1F
100
AcDbEntity
  8
0
  6
Continuous
 62
     7
370
    25
100
AcDbSpline
210
0.0
220
0.0
230
1.0
 70
     8
 71
     3
 72
    15
 73
    11
 74
     0
 42
0.00000001
 43
0.00000001
 40
0.0
 40
0.0
 40
0.0
 40
0.0
 40
0.1493997748286759
 40
0.2899387608175545
 40
0.4216321191698547
 40
0.5469260282951608
 40
0.6656128117813251
 40
0.7800387407312266
 40
0.890841885928036
 40
1.0
 40
1.0
 40
1.0
 40
1.0
 10
152.5718315865673
 20
62.45762527960018
 30
0.0
 10
152.5403829204103
 20
62.45705822900837
 30
0.0
 10
152.4793507849511
 20
62.455957759171
 30
0.0
 10
152.3908803676503
 20
62.44722724840618
 30
0.0
 10
152.3086992123915
 20
62.43115623538326
 30
0.0
 10
152.2320992546535
 20
62.41095938251063
 30
0.0
 10
152.1620223841381
 20
62.3826251062178
 30
0.0
 10
152.0972379550324
 20
62.35009080444701
 30
0.0
 10
152.038859289553
 20
62.31022023548802
 30
0.0
 10
152.004900308343
 20
62.27868191295452
 30
0.0
 10
151.9880478027835
 20
62.26303068500558
 30
0.0
  0
SPLINE
  5
EC
330
1F
100
AcDbEntity
  8
0
  6
Continuous
 62
     7
370
    25
100
AcDbSpline
210
0.0
220
0.0
230
1.0
 70
     8
 71
     3
 72
    15
 73
    11
 74
     0
 42
0.00000001
 43
0.00000001
 40
0.0
 40
0.0
 40
0.0
 40
0.0
 40
0.1182864595995973
 40
0.2347934213738278
 40
0.3525293820747457
 40
0.4728657235109872
 40
0.5967540177287657
 40
0.7246940143624927
 40
0.8588073979132679
 40
1.0
 40
1.0
 40
1.0
 40
1.0
 10
153.0583180730538
 20
62.2792469012218
 30
0.0
 10
153.0430226499928
 20
62.29364130898954
 30
0.0
 10
153.0126619077403
 20
62.32221357550149
 30
0.0
 10
152.9613943713356
 20
62.3583622947047
 30
0.0
 10
152.906449076357
 20
62.38914506780255
 30
0.0
 10
152.8473392879593
 20
62.41457769006671
 30
0.0
 10
152.7839766626864
 20
62.43352614408847
 30
0.0
 10
152.7168608593203
 20
62.44735153532856
 30
0.0
 10
152.6457229846357
 20
62.45587997311519
 30
0.0
 10
152.5968806961504
 20
62.45703362245819
 30
0.0
 10
152.5718315865673
 20
62.45762527960018
 30
0.0
  0
SPLINE
  5
ED
330
1F
100
AcDbEntity
  8
0
  6
Continuous
 62
     7
370
    25
100
AcDbSpline
210
0.0
220
0.0
230
1.0
 70
     8
 71
     3
 72
    11
 73
     7
 74
     0
 42
0.00000001
 43
0.00000001
 40
0.0
 40
0.0
 40
0.0
 40
0.0
 40
0.2562600332085403
 40
0.5016208045865221
 40
0.7449078564687265
 40
1.0
 40
1.0
 40
1.0
 40
1.0
 10
154.1285883433241
 20
64.12789554987044
 30
0.0
 10
154.1272309576076
 20
64.15407446983562
 30
0.0
 10
154.1245739185576
 20
64.20531886691039
 30
0.0
 10
154.1027896083631
 20
64.27880697079138
 30
0.0
 10
154.0667391844718
 20
64.34634920545227
 30
0.0
 10
154.0325661002724
 20
64.38419837483707
 30
0.0
 10
154.0150748298105
 20
64.40357122554613
 30
0.0
  0
SPLINE
  5
EE
330
1F
100
AcDbEntity
  8
0
  6
Continuous
 62
     7
370
    25
100
AcDbSpline
210
0.0
220
0.0
230
1.0
 70
     8
 71
     3
 72
    11
 73
     7
 74
     0
 42
0.00000001
 43
0.00000001
 40
0.0
 40
0.0
 40
0.0
 40
0.0
 40
0.2550921435312736
 40
0.4983791954134779
 40
0.7437399667914598
 40
1.0
 40
1.0
 40
1.0
 40
1.0
 10
154.0150748298105
 20
63.85221987419477
 30
0.0
 10
154.0325661002724
 20
63.87159272490383
 30
0.0
 10
154.0667391844718
 20
63.90944189428863
 30
0.0
 10
154.1027896083631
 20
63.97698412894952
 30
0.0
 10
154.1245739185576
 20
64.05047223283051
 30
0.0
 10
154.1272309576076
 20
64.10171662990528
 30
0.0
 10
154.1285883433241
 20
64.12789554987044
 30
0.0
  0
SPLINE
  5
EF
330
1F
100
AcDbEntity
  8
0
  6
Continuous
 62
     7
370
    25
100
AcDbSpline
210
0.0
220
0.0
230
1.0
 70
     8
 71
     3
 72
    15
 73
    11
 74
     0
 42
0.00000001
 43
0.00000001
 40
0.0
 40
0.0
 40
0.0
 40
0.0
 40
0.1452459980297219
 40
0.2839773123111043
 40
0.4135645357275259
 40
0.5387150251446061
 40
0.6570052502158951
 40
0.7736984629726803
 40
0.8866940707303816
 40
1.0
 40
1.0
 40
1.0
 40
1.0
 10
153.6421018568376
 20
63.72249014446504
 30
0.0
 10
153.6617489968812
 20
63.72268696693735
 30
0.0
 10
153.7001620485304
 20
63.72307178385106
 30
0.0
 10
153.7556444928174
 20
63.73037566164397
 30
0.0
 10
153.8081311441226
 20
63.73930707462351
 30
0.0
 10
153.8564494899665
 20
63.75400110761824
 30
0.0
 10
153.901859350497
 20
63.77183250082059
 30
0.0
 10
153.9428181836287
 20
63.79507542111591
 30
0.0
 10
153.9817402092256
 20
63.82053690601496
 30
0.0
 10
154.0039531362759
 20
63.84164923453606
 30
0.0
 10
154.0150748298105
 20
63.85221987419477
 30
0.0
  0
SPLINE
  5
F0
330
1F
100
AcDbEntity
  8
0
  6
Continuous
 62
     7
370
    25
100
AcDbSpline
210
0.0
220
0.0
230
1.0
 70
     8
 71
     3
 72
    11
 73
     7
 74
     0
 42
0.00000001
 43
0.00000001
 40
0.0
 40
0.0
 40
0.0
 40
0.0
 40
0.2901378045003187
 40
0.5465424887398723
 40
0.7801595488425203
 40
1.0
 40
1.0
 40
1.0
 40
1.0
 10
153.1718315865673
 20
64.14411176608667
 30
0.0
 10
153.1727068771417
 20
64.11353450484238
 30
0.0
 10
153.1743556918824
 20
64.05593507381307
 30
0.0
 10
153.1938304245902
 20
63.97594622548147
 30
0.0
 10
153.2224336780912
 20
63.90597947688322
 30
0.0
 10
153.2538822981372
 20
63.86977307644514
 30
0.0
 10
153.2691288838646
 20
63.85221987419477
 30
0.0
  0
SPLINE
  5
F1
330
1F
100
AcDbEntity
  8
0
  6
Continuous
 62
     7
370
    25
100
AcDbSpline
210
0.0
220
0.0
230
1.0
 70
     8
 71
     3
 72
    11
 73
     7
 74
     0
 42
0.00000001
 43
0.00000001
 40
0.0
 40
0.0
 40
0.0
 40
0.0
 40
0.2653711544688497
 40
0.5124447543023558
 40
0.7549131194780968
 40
1.0
 40
1.0
 40
1.0
 40
1.0
 10
153.2853451000808
 20
64.40357122554613
 30
0.0
 10
153.2679201176383
 20
64.38456820258116
 30
0.0
 10
153.2342716193139
 20
64.34787243037572
 30
0.0
 10
153.1980238857601
 20
64.28365215827039
 30
0.0
 10
153.1760469117821
 20
64.21520445827086
 30
0.0
 10
153.1732417169301
 20
64.1678940269365
 30
0.0
 10
153.1718315865673
 20
64.14411176608667
 30
0.0
  0
SPLINE
  5
F2
330
1F
100
AcDbEntity
  8
0
  6
Continuous
 62
     7
370
    25
100
AcDbSpline
210
0.0
220
0.0
230
1.0
 70
     8
 71
     3
 72
    15
 73
    11
 74
     0
 42
0.00000001
 43
0.00000001
 40
0.0
 40
0.0
 40
0.0
 40
0.0
 40
0.1417662078038669
 40
0.2766387327414357
 40
0.4056138818208849
 40
0.5283604514395147
 40
0.6484896893007587
 40
0.7663666155685062
 40
0.8822035907677853
 40
1.0
 40
1.0
 40
1.0
 40
1.0
 10
153.6421018568376
 20
64.53330095527586
 30
0.0
 10
153.6236652649802
 20
64.53302098175199
 30
0.0
 10
153.5876885996909
 20
64.53247464901132
 30
0.0
 10
153.535243206243
 20
64.52630326351141
 30
0.0
 10
153.4858944047726
 20
64.51638175599281
 30
0.0
 10
153.4398105591167
 20
64.50155503124178
 30
0.0
 10
153.3963423282333
 20
64.48378543347162
 30
0.0
 10
153.3559550268762
 20
64.46154754836222
 30
0.0
 10
153.3187534372787
 20
64.43477918897389
 30
0.0
 10
153.2965433030542
 20
64.41403188112378
 30
0.0
 10
153.2853451000808
 20
64.40357122554613
 30
0.0
  0
SPLINE
  5
F3
330
1F
100
AcDbEntity
  8
0
  6
Continuous
 62
     7
370
    25
100
AcDbSpline
210
0.0
220
0.0
230
1.0
 70
     8
 71
     3
 72
    15
 73
    11
 74
     0
 42
0.00000001
 43
0.00000001
 40
0.0
 40
0.0
 40
0.0
 40
0.0
 40
0.1133059292696176
 40
0.2263015370273199
 40
0.3429947497841047
 40
0.461284974855394
 40
0.5864354642724737
 40
0.7160226876888958
 40
0.8547540019702782
 40
1.0
 40
1.0
 40
1.0
 40
1.0
 10
153.2691288838646
 20
63.85221987419477
 30
0.0
 10
153.2802505773992
 20
63.84164923453606
 30
0.0
 10
153.3024635044496
 20
63.82053690601496
 30
0.0
 10
153.3413855300464
 20
63.79507542111591
 30
0.0
 10
153.3823443631782
 20
63.77183250082058
 30
0.0
 10
153.4277542237087
 20
63.75400110761824
 30
0.0
 10
153.4760725695526
 20
63.73930707462351
 30
0.0
 10
153.5285592208578
 20
63.73037566164398
 30
0.0
 10
153.5840416651448
 20
63.72307178385106
 30
0.0
 10
153.622454716794
 20
63.72268696693735
 30
0.0
 10
153.6421018568376
 20
63.72249014446504
 30
0.0
  0
SPLINE
  5
F4
330
1F
100
AcDbEntity
  8
0
  6
Continuous
 62
     7
370
    25
100
AcDbSpline
210
0.0
220
0.0
230
1.0
 70
     8
 71
     3
 72
    15
 73
    11
 74
     0
 42
0.00000001
 43
0.00000001
 40
0.0
 40
0.0
 40
0.0
 40
0.0
 40
0.1132779201884367
 40
0.2270870976600617
 40
0.3430442578526539
 40
0.4613052417311969
 40
0.5864247941069359
 40
0.7162590429098973
 40
0.8547899065957145
 40
1.0
 40
1.0
 40
1.0
 40
1.0
 10
154.0150748298105
 20
64.40357122554613
 30
0.0
 10
154.0039129582206
 20
64.41408068784027
 30
0.0
 10
153.9815368674554
 20
64.43514890030721
 30
0.0
 10
153.9431901219811
 20
64.46152496810531
 30
0.0
 10
153.9016472595451
 20
64.48376792620145
 30
0.0
 10
153.856495052225
 20
64.50191293024555
 30
0.0
 10
153.8080404825503
 20
64.51622482470448
 30
0.0
 10
153.7557727843347
 20
64.52643677055404
 30
0.0
 10
153.7001028636404
 20
64.53244317753298
 30
0.0
 10
153.6617365718142
 20
64.53301057718721
 30
0.0
 10
153.6421018568376
 20
64.53330095527586
 30
0.0
  0
LINE
  5
F5
330
1F
100
AcDbEntity
  8
0
  6
Continuous
 62
     7
370
    25
100
AcDbLine
 10
154.0811408959
 20
72.4882559102
 30
0.0
 11
154.0811408959
 21
73.3963640183
 31
0.0
  0
SPLINE
  5
F6
330
1F
100
AcDbEntity
  8
0
  6
Continuous
 62
     7
370
    25
100
AcDbSpline
210
0.0
220
0.0
230
1.0
 70
     8
 71
     3
 72
    11
 73
     7
 74
     0
 42
0.00000001
 43
0.00000001
 40
0.0
 40
0.0
 40
0.0
 40
0.0
 40
0.2499695538886857
 40
0.4922399851273409
 40
0.7405148106355979
 40
1.0
 40
1.0
 40
1.0
 40
1.0
 10
153.9826423973781
 20
72.24501266698758
 30
0.0
 10
153.997879319266
 20
72.26163065971728
 30
0.0
 10
154.0278838621663
 20
72.29435480698591
 30
0.0
 10
154.0586274937379
 20
72.35407118346099
 30
0.0
 10
154.0780947809695
 20
72.41916217959508
 30
0.0
 10
154.0801106884551
 20
72.46488815285821
 30
0.0
 10
154.0811408958766
 20
72.4882559102308
 30
0.0
  0
SPLINE
  5
F7
330
1F
100
AcDbEntity
  8
0
  6
Continuous
 62
     7
370
    25
100
AcDbSpline
210
0.0
220
0.0
230
1.0
 70
     8
 71
     3
 72
    11
 73
     7
 74
     0
 42
0.00000001
 43
0.00000001
 40
0.0
 40
0.0
 40
0.0
 40
0.0
 40
0.2516095171558484
 40
0.4964930798665572
 40
0.7426069856111286
 40
1.0
 40
1.0
 40
1.0
 40
1.0
 10
153.67453428927
 20
72.11528293725785
 30
0.0
 10
153.7033334672378
 20
72.1169456948578
 30
0.0
 10
153.7601619716937
 20
72.12022676169187
 30
0.0
 10
153.8421808118186
 20
72.14505298849822
 30
0.0
 10
153.9178268395709
 20
72.18663852803401
 30
0.0
 10
153.9607169495678
 20
72.22526618666089
 30
0.0
 10
153.9826423973781
 20
72.24501266698758
 30
0.0
  0
SPLINE
  5
F8
330
1F
100
AcDbEntity
  8
0
  6
Continuous
 62
     7
370
    25
100
AcDbSpline
210
0.0
220
0.0
230
1.0
 70
     8
 71
     3
 72
    15
 73
    11
 74
     0
 42
0.00000001
 43
0.00000001
 40
0.0
 40
0.0
 40
0.0
 40
0.0
 40
0.1215042446907349
 40
0.2399194382132706
 40
0.3607014484775895
 40
0.4813982058565628
 40
0.6046686543565299
 40
0.730827840041038
 40
0.8619579002966853
 40
1.0
 40
1.0
 40
1.0
 40
1.0
 10
153.3339937487295
 20
72.24501266698758
 30
0.0
 10
153.3449444148847
 20
72.23448795087147
 30
0.0
 10
153.3665673440151
 20
72.21370609272027
 30
0.0
 10
153.4036576303194
 20
72.18799278334937
 30
0.0
 10
153.4421945636037
 20
72.16476022659252
 30
0.0
 10
153.4842627657316
 20
72.14712309000315
 30
0.0
 10
153.5280542909639
 20
72.13212582014395
 30
0.0
 10
153.5747995390225
 20
72.12331537647225
 30
0.0
 10
153.6236470465321
 20
72.11583018863733
 30
0.0
 10
153.6572839556459
 20
72.11546845072576
 30
0.0
 10
153.67453428927
 20
72.11528293725785
 30
0.0
  0
LINE
  5
F9
330
1F
100
AcDbEntity
  8
0
  6
Continuous
 62
     7
370
    25
100
AcDbLine
 10
154.0811408959
 20
73.3963640183
 30
0.0
 11
153.2204802352
 21
73.3963640183
 31
0.0
  0
LINE
  5
FA
330
1F
100
AcDbEntity
  8
0
  6
Continuous
 62
     7
370
    25
100
AcDbLine
 10
153.2204802352
 20
73.3963640183
 30
0.0
 11
153.2204802352
 21
72.5206883427
 31
0.0
  0
SPLINE
  5
FB
330
1F
100
AcDbEntity
  8
0
  6
Continuous
 62
     7
370
    25
100
AcDbSpline
210
0.0
220
0.0
230
1.0
 70
     8
 71
     3
 72
    11
 73
     7
 74
     0
 42
0.00000001
 43
0.00000001
 40
0.0
 40
0.0
 40
0.0
 40
0.0
 40
0.2562600332085385
 40
0.5016208045865224
 40
0.7449078564687264
 40
1.0
 40
1.0
 40
1.0
 40
1.0
 10
153.220480235216
 20
72.52068834266325
 30
0.0
 10
153.2218376209324
 20
72.49450942269809
 30
0.0
 10
153.2244946599825
 20
72.4432650256233
 30
0.0
 10
153.246278970177
 20
72.36977692174231
 30
0.0
 10
153.2823293940682
 20
72.30223468708142
 30
0.0
 10
153.3165024782677
 20
72.26438551769662
 30
0.0
 10
153.3339937487295
 20
72.24501266698758
 30
0.0
  0
LINE
  5
FC
330
1F
100
AcDbEntity
  8
0
  6
Continuous
 62
     7
370
    25
100
AcDbLine
 10
149.2738007043
 20
89.3008946301
 30
0.0
 11
156.859051658
 21
89.3008946301
 31
0.0
  0
SPLINE
  5
FD
330
1F
100
AcDbEntity
  8
0
  6
Continuous
 62
     7
370
    25
100
AcDbSpline
210
0.0
220
0.0
230
1.0
 70
     8
 71
     3
 72
    15
 73
    11
 74
     0
 42
0.00000001
 43
0.00000001
 40
0.0
 40
0.0
 40
0.0
 40
0.0
 40
0.1417962611116214
 40
0.2768819513476976
 40
0.4055805706087827
 40
0.5298229690785615
 40
0.6485572024501441
 40
0.7672114666371236
 40
0.8821786188665555
 40
1.0
 40
1.0
 40
1.0
 40
1.0
 10
152.4096694244051
 20
72.05041807239297
 30
0.0
 10
152.4281182072451
 20
72.05060771644897
 30
0.0
 10
152.4641426761038
 20
72.050978029572
 30
0.0
 10
152.5164030457811
 20
72.05840634841579
 30
0.0
 10
152.5661260889551
 20
72.06721356512499
 30
0.0
 10
152.6122159556287
 20
72.08201449447776
 30
0.0
 10
152.6557705391003
 20
72.0999256875219
 30
0.0
 10
152.6954484838011
 20
72.12294801811386
 30
0.0
 10
152.7332252873243
 20
72.14884069097585
 30
0.0
 10
152.755269123118
 20
72.16962714391508
 30
0.0
 10
152.7664261811619
 20
72.1801478021227
 30
0.0
  0
SPLINE
  5
FE
330
1F
100
AcDbEntity
  8
0
  6
Continuous
 62
     7
370
    25
100
AcDbSpline
210
0.0
220
0.0
230
1.0
 70
     8
 71
     3
 72
    15
 73
    11
 74
     0
 42
0.00000001
 43
0.00000001
 40
0.0
 40
0.0
 40
0.0
 40
0.0
 40
0.1277118540336135
 40
0.2523621141955311
 40
0.3748537650566255
 40
0.4969693854038487
 40
0.6192731655242184
 40
0.7424854443019971
 40
0.8694478780376614
 40
1.0
 40
1.0
 40
1.0
 40
1.0
 10
152.0529126676484
 20
72.19636401833893
 30
0.0
 10
152.0650685579104
 20
72.18465123549733
 30
0.0
 10
152.0890889293134
 20
72.16150645646815
 30
0.0
 10
152.1292317611746
 20
72.13237146288195
 30
0.0
 10
152.1706936615394
 20
72.10658854995089
 30
0.0
 10
152.2148535895452
 20
72.08642969027811
 30
0.0
 10
152.2605698312247
 20
72.06993510880653
 30
0.0
 10
152.3085004683647
 20
72.05849684471913
 30
0.0
 10
152.35843377419
 20
72.05191911842734
 30
0.0
 10
152.3924328946004
 20
72.0509230493885
 30
0.0
 10
152.4096694244051
 20
72.05041807239297
 30
0.0
  0
SPLINE
  5
FF
330
1F
100
AcDbEntity
  8
0
  6
Continuous
 62
     7
370
    25
100
AcDbSpline
210
0.0
220
0.0
230
1.0
 70
     8
 71
     3
 72
    15
 73
    11
 74
     0
 42
0.00000001
 43
0.00000001
 40
0.0
 40
0.0
 40
0.0
 40
0.0
 40
0.1452459980297209
 40
0.2839773123111048
 40
0.4135645357275263
 40
0.5387150251446059
 40
0.6570052502158956
 40
0.7736984629726806
 40
0.8866940707303833
 40
1.0
 40
1.0
 40
1.0
 40
1.0
 10
151.9231829379187
 20
72.56933699131189
 30
0.0
 10
151.923379760391
 20
72.54968985126835
 30
0.0
 10
151.9237645773047
 20
72.51127679961907
 30
0.0
 10
151.9310684550976
 20
72.45579435533212
 30
0.0
 10
151.9399998680771
 20
72.40330770402691
 30
0.0
 10
151.9546939010719
 20
72.354989358183
 30
0.0
 10
151.9725252942742
 20
72.30957949765252
 30
0.0
 10
151.9957682145695
 20
72.26862066452074
 30
0.0
 10
152.0212296994686
 20
72.22969863892385
 30
0.0
 10
152.0423420279897
 20
72.20748571187355
 30
0.0
 10
152.0529126676484
 20
72.19636401833893
 30
0.0
  0
LINE
  5
100
330
1F
100
AcDbEntity
  8
0
  6
Continuous
 62
     7
370
    25
100
AcDbLine
 10
151.9231829379
 20
73.3963640183
 30
0.0
 11
151.9231829379
 21
72.5693369913
 31
0.0
  0
LINE
  5
101
330
1F
100
AcDbEntity
  8
0
  6
Continuous
 62
     7
370
    25
100
AcDbLine
 10
152.9135733283
 20
72.5693369913
 30
0.0
 11
152.9135733283
 21
73.3963640183
 31
0.0
  0
LINE
  5
102
330
1F
100
AcDbEntity
  8
0
  6
Continuous
 62
     7
370
    25
100
AcDbLine
 10
152.9135733283
 20
73.3963640183
 30
0.0
 11
151.9231829379
 21
73.3963640183
 31
0.0
  0
SPLINE
  5
103
330
1F
100
AcDbEntity
  8
0
  6
Continuous
 62
     7
370
    25
100
AcDbSpline
210
0.0
220
0.0
230
1.0
 70
     8
 71
     3
 72
    15
 73
    11
 74
     0
 42
0.00000001
 43
0.00000001
 40
0.0
 40
0.0
 40
0.0
 40
0.0
 40
0.1193556939378544
 40
0.2390663805212357
 40
0.3573840708360866
 40
0.4787728926029031
 40
0.601391163443813
 40
0.7292416297469775
 40
0.8608048514681805
 40
1.0
 40
1.0
 40
1.0
 40
1.0
 10
152.7664261811619
 20
72.1801478021227
 30
0.0
 10
152.778136654355
 20
72.19250696895307
 30
0.0
 10
152.8015924305152
 20
72.2172620617594
 30
0.0
 10
152.8312760032255
 20
72.25882893050759
 30
0.0
 10
152.8569420593813
 20
72.30323591026118
 30
0.0
 10
152.8778085536373
 20
72.35057349012165
 30
0.0
 10
152.8942913398457
 20
72.40103777306813
 30
0.0
 10
152.9054559005412
 20
72.4544134195369
 30
0.0
 10
152.9121510797106
 20
72.51090842224374
 30
0.0
 10
152.9130904196479
 20
72.54949822184835
 30
0.0
 10
152.9135733283091
 20
72.56933699131189
 30
0.0
  0
LINE
  5
104
330
1F
100
AcDbEntity
  8
0
  6
Continuous
 62
     7
370
    25
100
AcDbLine
 10
127.5690068263
 20
85.4560283536
 30
0.0
 11
127.5690068263
 21
52.7312420633
 31
0.0
  0
LINE
  5
105
330
1F
100
AcDbEntity
  8
0
  6
Continuous
 62
     7
370
    25
100
AcDbLine
 10
125.5664261812
 20
54.7338227084
 30
0.0
 11
125.5664261812
 21
83.4534477084
 31
0.0
  0
LINE
  5
106
330
1F
100
AcDbEntity
  8
0
  6
Continuous
 62
     7
370
    18
100
AcDbLine
 10
125.9630147409
 20
83.8500362682
 30
0.0
 11
145.2664261812
 21
84.4532678757
 31
0.0
  0
LINE
  5
107
330
1F
100
AcDbEntity
  8
0
  6
Continuous
 62
     7
370
    18
100
AcDbLine
 10
125.9630147409
 20
54.3372341487
 30
0.0
 11
145.2664261812
 21
53.7340025411
 31
0.0
  0
LINE
  5
108
330
1F
100
AcDbEntity
  8
0
  6
Continuous
 62
     7
370
    25
100
AcDbLine
 10
145.2664261812
 20
52.1781977084
 30
0.0
 11
145.2664261812
 21
86.0090727084
 31
0.0
  0
LINE
  5
109
330
1F
100
AcDbEntity
  8
FORMAT
  6
CENTERX2
370
    18
100
AcDbLine
 10
160.4156030688
 20
69.0936352084
 30
0.0
 11
123.5664261812
 21
69.0936352084
 31
0.0
  0
SPLINE
  5
10A
330
1F
100
AcDbEntity
  8
0
  6
Continuous
 62
     7
370
    25
100
AcDbSpline
210
0.0
220
0.0
230
1.0
 70
    24
 71
     3
 72
    18
 73
    14
 74
     0
 42
0.00000001
 43
0.00000001
 40
0.0
 40
0.0
 40
0.0
 40
0.0
 40
0.2500000000000004
 40
0.2500000000000004
 40
0.5000000000000009
 40
0.5000000000000009
 40
0.562500000000001
 40
0.562500000000001
 40
0.625000000000001
 40
0.625000000000001
 40
0.7500000000000007
 40
0.7500000000000007
 40
1.0
 40
1.0
 40
1.0
 40
1.0
 10
172.0383056997335
 20
79.19726491923981
 30
0.0
 10
173.4670150494137
 20
80.02213064687139
 30
0.0
 10
174.9061405236961
 20
80.85301012684594
 30
0.0
 10
177.814404412055
 20
82.53209706566444
 30
0.0
 10
179.2837659463376
 20
83.38043334301936
 30
0.0
 10
181.1435367064475
 20
84.45417249199983
 30
0.0
 10
181.5173761115472
 20
84.67000877316787
 30
0.0
 10
182.2616637754658
 20
85.09972345628576
 30
0.0
 10
182.6325146430415
 20
85.31383430450981
 30
0.0
 10
183.7413562233467
 20
85.95402428938765
 30
0.0
 10
184.4756272375046
 20
86.37795585706988
 30
0.0
 10
186.6653676022424
 20
87.64220304610662
 30
0.0
 10
188.1078152126703
 20
88.47500056227912
 30
0.0
 10
189.5383056997336
 20
89.30089463005828
 30
0.0
  0
SPLINE
  5
10B
330
1F
100
AcDbEntity
  8
0
  6
Continuous
 62
     7
370
    25
100
AcDbSpline
210
0.0
220
0.0
230
1.0
 70
    24
 71
     3
 72
    18
 73
    14
 74
     0
 42
0.00000001
 43
0.00000001
 40
0.0
 40
0.0
 40
0.0
 40
0.0
 40
0.2499999999999996
 40
0.2499999999999996
 40
0.4999999999999991
 40
0.4999999999999991
 40
0.5624999999999991
 40
0.5624999999999991
 40
0.6249999999999991
 40
0.6249999999999991
 40
0.7499999999999994
 40
0.7499999999999994
 40
1.0
 40
1.0
 40
1.0
 40
1.0
 10
189.5383056997335
 20
89.3008946300583
 30
0.0
 10
190.9670150494137
 20
88.47602890242672
 30
0.0
 10
192.406140523696
 20
87.64514942245215
 30
0.0
 10
195.314404412055
 20
85.96606248363365
 30
0.0
 10
196.7837659463375
 20
85.11772620627873
 30
0.0
 10
198.6435367064475
 20
84.04398705729828
 30
0.0
 10
199.0173761115472
 20
83.82815077613023
 30
0.0
 10
199.7616637754658
 20
83.39843609301234
 30
0.0
 10
200.1325146430415
 20
83.18432524478828
 30
0.0
 10
201.2413562233467
 20
82.54413525991045
 30
0.0
 10
201.9756272375046
 20
82.12020369222822
 30
0.0
 10
204.1653676022424
 20
80.85595650319148
 30
0.0
 10
205.6078152126703
 20
80.02315898701897
 30
0.0
 10
207.0383056997336
 20
79.19726491923981
 30
0.0
  0
SPLINE
  5
10C
330
1F
100
AcDbEntity
  8
0
  6
Continuous
 62
     7
370
    25
100
AcDbSpline
210
0.0
220
0.0
230
1.0
 70
    24
 71
     3
 72
    14
 73
    10
 74
     0
 42
0.00000001
 43
0.00000001
 40
0.0
 40
0.0
 40
0.0
 40
0.0
 40
0.25
 40
0.25
 40
0.4999999999999999
 40
0.4999999999999999
 40
0.75
 40
0.75
 40
1.0
 40
1.0
 40
1.0
 40
1.0
 10
207.0383056997335
 20
79.19726491923983
 30
0.0
 10
207.0383056997335
 20
77.55251894883165
 30
0.0
 10
207.0383056997335
 20
75.89259382018402
 30
0.0
 10
207.0383056997335
 20
72.52835593412394
 30
0.0
 10
207.0383056997335
 20
70.82213419767409
 30
0.0
 10
207.0383056997335
 20
67.36033242185115
 30
0.0
 10
207.0383056997335
 20
65.65680609010522
 30
0.0
 10
207.0383056997335
 20
62.29409108185911
 30
0.0
 10
207.0383056997335
 20
60.63457186053179
 30
0.0
 10
207.0383056997335
 20
58.9900054976029
 30
0.0
  0
SPLINE
  5
10D
330
1F
100
AcDbEntity
  8
0
  6
Continuous
 62
     7
370
    25
100
AcDbSpline
210
0.0
220
0.0
230
1.0
 70
    24
 71
     3
 72
    18
 73
    14
 74
     0
 42
0.00000001
 43
0.00000001
 40
0.0
 40
0.0
 40
0.0
 40
0.0
 40
0.2500000000000003
 40
0.2500000000000003
 40
0.5000000000000007
 40
0.5000000000000007
 40
0.5625000000000008
 40
0.5625000000000008
 40
0.6250000000000009
 40
0.6250000000000009
 40
0.7500000000000006
 40
0.7500000000000006
 40
1.0
 40
1.0
 40
1.0
 40
1.0
 10
207.0383056997336
 20
58.99000549760292
 30
0.0
 10
205.6095963500534
 20
58.16513976997135
 30
0.0
 10
204.1704708757711
 20
57.33426028999679
 30
0.0
 10
201.2622069874121
 20
55.65517335117828
 30
0.0
 10
199.7928454531296
 20
54.80683707382336
 30
0.0
 10
197.9330746930196
 20
53.7330979248429
 30
0.0
 10
197.5592352879199
 20
53.51726164367486
 30
0.0
 10
196.8149476240013
 20
53.08754696055696
 30
0.0
 10
196.4440967564256
 20
52.87343611233293
 30
0.0
 10
195.3352551761204
 20
52.23324612745508
 30
0.0
 10
194.6009841619625
 20
51.80931455977285
 30
0.0
 10
192.4112437972247
 20
50.54506737073611
 30
0.0
 10
190.9687961867968
 20
49.7122698545636
 30
0.0
 10
189.5383056997335
 20
48.88637578678446
 30
0.0
  0
SPLINE
  5
10E
330
1F
100
AcDbEntity
  8
0
  6
Continuous
 62
     7
370
    25
100
AcDbSpline
210
0.0
220
0.0
230
1.0
 70
    24
 71
     3
 72
    18
 73
    14
 74
     0
 42
0.00000001
 43
0.00000001
 40
0.0
 40
0.0
 40
0.0
 40
0.0
 40
0.2499999999999999
 40
0.2499999999999999
 40
0.4999999999999998
 40
0.4999999999999998
 40
0.5624999999999998
 40
0.5624999999999998
 40
0.6249999999999998
 40
0.6249999999999998
 40
0.7499999999999998
 40
0.7499999999999998
 40
1.0
 40
1.0
 40
1.0
 40
1.0
 10
189.5383056997336
 20
48.88637578678444
 30
0.0
 10
188.1095963500534
 20
49.71124151441601
 30
0.0
 10
186.6704708757711
 20
50.54212099439058
 30
0.0
 10
183.7622069874121
 20
52.22120793320909
 30
0.0
 10
182.2928454531296
 20
53.06954421056399
 30
0.0
 10
180.4330746930197
 20
54.14328335954445
 30
0.0
 10
180.0592352879199
 20
54.3591196407125
 30
0.0
 10
179.3149476240013
 20
54.78883432383039
 30
0.0
 10
178.9440967564256
 20
55.00294517205444
 30
0.0
 10
177.8352551761204
 20
55.64313515693227
 30
0.0
 10
177.1009841619625
 20
56.06706672461451
 30
0.0
 10
174.9112437972247
 20
57.33131391365124
 30
0.0
 10
173.4687961867968
 20
58.16411142982376
 30
0.0
 10
172.0383056997335
 20
58.99000549760292
 30
0.0
  0
SPLINE
  5
10F
330
1F
100
AcDbEntity
  8
0
  6
Continuous
 62
     7
370
    25
100
AcDbSpline
210
0.0
220
0.0
230
1.0
 70
    24
 71
     3
 72
    14
 73
    10
 74
     0
 42
0.00000001
 43
0.00000001
 40
0.0
 40
0.0
 40
0.0
 40
0.0
 40
0.25
 40
0.25
 40
0.5
 40
0.5
 40
0.75
 40
0.75
 40
1.0
 40
1.0
 40
1.0
 40
1.0
 10
172.0383056997335
 20
58.9900054976029
 30
0.0
 10
172.0383056997335
 20
60.63475146801107
 30
0.0
 10
172.0383056997335
 20
62.29467659665872
 30
0.0
 10
172.0383056997335
 20
65.6589144827188
 30
0.0
 10
172.0383056997335
 20
67.36513621916862
 30
0.0
 10
172.0383056997335
 20
70.82693799499155
 30
0.0
 10
172.0383056997335
 20
72.5304643267375
 30
0.0
 10
172.0383056997335
 20
75.8931793349836
 30
0.0
 10
172.0383056997335
 20
77.55269855631094
 30
0.0
 10
172.0383056997335
 20
79.19726491923981
 30
0.0
  0
CIRCLE
  5
110
330
1F
100
AcDbEntity
  8
0
  6
Continuous
 62
     7
370
    25
100
AcDbCircle
 10
189.5383056997
 20
69.0936352084
 30
0.0
 40
17.25000000000003
  0
CIRCLE
  5
111
330
1F
100
AcDbEntity
  8
0
  6
Continuous
 62
     7
370
    25
100
AcDbCircle
 10
189.5383056997
 20
69.0936352084
 30
0.0
 40
15.75000000000003
  0
CIRCLE
  5
112
330
1F
100
AcDbEntity
  8
0
  6
Continuous
 62
     7
370
    25
100
AcDbCircle
 10
189.5383056997
 20
69.0936352084
 30
0.0
 40
15.50000000000003
  0
CIRCLE
  5
113
330
1F
100
AcDbEntity
  8
0
  6
Continuous
 62
     7
370
    25
100
AcDbCircle
 10
189.5383056997
 20
69.0936352084
 30
0.0
 40
15.25000000000003
  0
CIRCLE
  5
114
330
1F
100
AcDbEntity
  8
0
  6
Continuous
 62
     7
370
    25
100
AcDbCircle
 10
189.5383056997
 20
69.0936352084
 30
0.0
 40
13.88422330000003
  0
CIRCLE
  5
115
330
1F
100
AcDbEntity
  8
0
  6
Continuous
 62
     7
370
    25
100
AcDbCircle
 10
189.5383056997
 20
69.0936352084
 30
0.0
 40
12.38431400713739
  0
CIRCLE
  5
116
330
1F
100
AcDbEntity
  8
0
  6
Continuous
 62
     7
370
    25
100
AcDbCircle
 10
189.5383056997
 20
69.0936352084
 30
0.0
 40
11.86033785575989
  0
CIRCLE
  5
117
330
1F
100
AcDbEntity
  8
0
  6
Continuous
 62
     7
370
    25
100
AcDbCircle
 10
189.5383056997
 20
69.0936352084
 30
0.0
 40
11.5
  0
INSERT
  5
123
330
1F
100
AcDbEntity
  8
FORMAT
100
AcDbBlockReference
  2
SW_CENTERMARKSYMBOL_0
 10
189.5383056997
 20
69.0936352084
 30
0.0
  0
ARC
  5
124
330
1F
100
AcDbEntity
  8
0
  6
Continuous
 62
     7
370
    18
100
AcDbCircle
 10
189.5383056997
 20
69.0936352084
 30
0.0
 40
13.36379127495858
100
AcDbArc
 50
75.0
 51
345.0
  0
LINE
  5
125
330
1F
100
AcDbEntity
  8
0
  6
Continuous
 62
     7
370
    25
100
AcDbLine
 10
158.4220886139
 20
101.8949644996
 30
0.0
 11
158.5664261812
 21
102.1449644996
 31
0.0
  0
LINE
  5
126
330
1F
100
AcDbEntity
  8
0
  6
Continuous
 62
     7
370
    25
100
AcDbLine
 10
158.5664261812
 20
136.6449644996
 30
0.0
 11
158.4220886139
 21
136.8949644996
 31
0.0
  0
LINE
  5
127
330
1F
100
AcDbEntity
  8
0
  6
Continuous
 62
     7
370
    25
100
AcDbLine
 10
147.7107637485
 20
136.8949644996
 30
0.0
 11
147.5664261812
 21
136.6449644996
 31
0.0
  0
LINE
  5
128
330
1F
100
AcDbEntity
  8
0
  6
Continuous
 62
     7
370
    25
100
AcDbLine
 10
147.5664261812
 20
102.1449644996
 30
0.0
 11
147.7107637485
 21
101.8949644996
 31
0.0
  0
LINE
  5
129
330
1F
100
AcDbEntity
  8
0
  6
Continuous
 62
     7
370
    25
100
AcDbLine
 10
147.5664261812
 20
136.3822769996
 30
0.0
 11
127.5690068263
 21
135.7573576448
 31
0.0
  0
LINE
  5
12A
330
1F
100
AcDbEntity
  8
0
  6
Continuous
 62
     7
370
    25
100
AcDbLine
 10
127.5690068263
 20
103.0325713545
 30
0.0
 11
147.5664261812
 21
102.4076519996
 31
0.0
  0
LINE
  5
12B
330
1F
100
AcDbEntity
  8
0
  6
Continuous
 62
     7
370
    25
100
AcDbLine
 10
127.5690068263
 20
135.7573576448
 30
0.0
 11
125.5664261812
 21
133.7547769996
 31
0.0
  0
LINE
  5
12C
330
1F
100
AcDbEntity
  8
0
  6
Continuous
 62
     7
370
    25
100
AcDbLine
 10
125.5664261812
 20
105.0351519996
 30
0.0
 11
127.5690068263
 21
103.0325713545
 31
0.0
  0
SPLINE
  5
12D
330
1F
100
AcDbEntity
  8
0
  6
Continuous
 62
     7
370
    25
100
AcDbSpline
210
0.0
220
0.0
230
1.0
 70
     8
 71
     3
 72
    18
 73
    14
 74
     0
 42
0.00000001
 43
0.00000001
 40
0.0
 40
0.0
 40
0.0
 40
0.0
 40
0.2500000000000004
 40
0.2500000000000004
 40
0.5000000000000009
 40
0.5000000000000009
 40
0.562500000000001
 40
0.562500000000001
 40
0.625000000000001
 40
0.625000000000001
 40
0.7500000000000007
 40
0.7500000000000007
 40
1.0
 40
1.0
 40
1.0
 40
1.0
 10
156.8590516580165
 20
101.8949644996231
 30
0.0
 10
157.3352881079099
 20
103.3236738493033
 30
0.0
 10
157.7277930819577
 20
104.7627993235856
 30
0.0
 10
158.2715398117816
 20
107.6710632119446
 30
0.0
 10
158.4209879845461
 20
109.1404247462271
 30
0.0
 10
158.4223560824418
 20
111.000195506337
 30
0.0
 10
158.4134314093687
 20
111.3740349114368
 30
0.0
 10
158.3774722729726
 20
112.1183225753554
 30
0.0
 10
158.3504793951966
 20
112.4891734429311
 30
0.0
 10
158.2436310671071
 20
113.5980150232363
 30
0.0
 10
158.1378454402254
 20
114.3322860373942
 30
0.0
 10
157.7293583684115
 20
116.522026402132
 30
0.0
 10
157.3358818203708
 20
117.9644740125599
 30
0.0
 10
156.8590516580164
 20
119.3949644996232
 30
0.0
  0
SPLINE
  5
12E
330
1F
100
AcDbEntity
  8
0
  6
Continuous
 62
     7
370
    25
100
AcDbSpline
210
0.0
220
0.0
230
1.0
 70
     8
 71
     3
 72
    18
 73
    14
 74
     0
 42
0.00000001
 43
0.00000001
 40
0.0
 40
0.0
 40
0.0
 40
0.0
 40
0.2499999999999996
 40
0.2499999999999996
 40
0.4999999999999991
 40
0.4999999999999991
 40
0.5624999999999991
 40
0.5624999999999991
 40
0.6249999999999991
 40
0.6249999999999991
 40
0.7499999999999994
 40
0.7499999999999994
 40
1.0
 40
1.0
 40
1.0
 40
1.0
 10
156.8590516580165
 20
119.3949644996231
 30
0.0
 10
157.3352881079099
 20
120.8236738493033
 30
0.0
 10
157.7277930819577
 20
122.2627993235856
 30
0.0
 10
158.2715398117816
 20
125.1710632119446
 30
0.0
 10
158.4209879845461
 20
126.6404247462271
 30
0.0
 10
158.4223560824418
 20
128.500195506337
 30
0.0
 10
158.4134314093687
 20
128.8740349114368
 30
0.0
 10
158.3774722729726
 20
129.6183225753554
 30
0.0
 10
158.3504793951966
 20
129.9891734429311
 30
0.0
 10
158.2436310671071
 20
131.0980150232363
 30
0.0
 10
158.1378454402254
 20
131.8322860373942
 30
0.0
 10
157.7293583684115
 20
134.022026402132
 30
0.0
 10
157.3358818203708
 20
135.4644740125599
 30
0.0
 10
156.8590516580164
 20
136.8949644996231
 30
0.0
  0
SPLINE
  5
12F
330
1F
100
AcDbEntity
  8
0
  6
Continuous
 62
     7
370
    25
100
AcDbSpline
210
0.0
220
0.0
230
1.0
 70
    24
 71
     3
 72
    14
 73
    10
 74
     0
 42
0.00000001
 43
0.00000001
 40
0.0
 40
0.0
 40
0.0
 40
0.0
 40
0.1639469055449046
 40
0.3279395409926725
 40
0.4918482763620393
 40
0.6587971852996386
 40
0.8258503269467583
 40
0.9927684684310456
 40
1.0
 40
1.0
 40
1.0
 40
1.0
 10
156.8590516580163
 20
136.8949644996231
 30
0.0
 10
157.0095487041771
 20
136.8949644996231
 30
0.0
 10
157.3105847748164
 20
136.8949644996231
 30
0.0
 10
157.6882787815004
 20
136.8949644996231
 30
0.0
 10
158.0020876589133
 20
136.8949644996231
 30
0.0
 10
158.2388127040386
 20
136.8949644996231
 30
0.0
 10
158.377638449469
 20
136.8949644996231
 30
0.0
 10
158.4368172882218
 20
136.8949644996232
 30
0.0
 10
158.4207422384049
 20
136.8949644996231
 30
0.0
 10
158.4200747250632
 20
136.8949644996231
 30
0.0
  0
SPLINE
  5
130
330
1F
100
AcDbEntity
  8
0
  6
Continuous
 62
     7
370
    25
100
AcDbSpline
210
0.0
220
0.0
230
1.0
 70
    24
 71
     3
 72
    13
 73
     9
 74
     0
 42
0.00000001
 43
0.00000001
 40
0.0
 40
0.0
 40
0.0
 40
0.0
 40
0.1587427395074892
 40
0.3248499032264132
 40
0.4908526096830553
 40
0.6605220556109567
 40
0.8302864759863259
 40
1.0
 40
1.0
 40
1.0
 40
1.0
 10
158.4200747250632
 20
101.8949644996231
 30
0.0
 10
158.4122098827038
 20
101.8949644996231
 30
0.0
 10
158.3961153306804
 20
101.8949644996231
 30
0.0
 10
158.2540150668468
 20
101.8949644996232
 30
0.0
 10
158.0281800569167
 20
101.8949644996231
 30
0.0
 10
157.7131154083424
 20
101.8949644996231
 30
0.0
 10
157.3259904488446
 20
101.8949644996231
 30
0.0
 10
157.0146823639642
 20
101.8949644996231
 30
0.0
 10
156.8590516580163
 20
101.8949644996231
 30
0.0
  0
LINE
  5
131
330
1F
100
AcDbEntity
  8
0
  6
Continuous
 62
     7
370
    25
100
AcDbLine
 10
158.5664261812
 20
102.1449644996
 30
0.0
 11
158.5664261812
 21
136.6449644996
 31
0.0
  0
SPLINE
  5
132
330
1F
100
AcDbEntity
  8
0
  6
Continuous
 62
     7
370
    25
100
AcDbSpline
210
0.0
220
0.0
230
1.0
 70
    24
 71
     3
 72
    13
 73
     9
 74
     0
 42
0.00000001
 43
0.00000001
 40
0.0
 40
0.0
 40
0.0
 40
0.0
 40
0.1587427395074892
 40
0.3248499032264132
 40
0.4908526096830553
 40
0.6605220556109567
 40
0.8302864759863259
 40
1.0
 40
1.0
 40
1.0
 40
1.0
 10
147.7127776372606
 20
101.8949644996231
 30
0.0
 10
147.72064247962
 20
101.8949644996231
 30
0.0
 10
147.7367370316434
 20
101.8949644996231
 30
0.0
 10
147.878837295477
 20
101.8949644996232
 30
0.0
 10
148.1046723054071
 20
101.8949644996231
 30
0.0
 10
148.4197369539814
 20
101.8949644996231
 30
0.0
 10
148.8068619134792
 20
101.8949644996231
 30
0.0
 10
149.1181699983596
 20
101.8949644996231
 30
0.0
 10
149.2738007043075
 20
101.8949644996231
 30
0.0
  0
SPLINE
  5
133
330
1F
100
AcDbEntity
  8
0
  6
Continuous
 62
     7
370
    25
100
AcDbSpline
210
0.0
220
0.0
230
1.0
 70
    24
 71
     3
 72
    14
 73
    10
 74
     0
 42
0.00000001
 43
0.00000001
 40
0.0
 40
0.0
 40
0.0
 40
0.0
 40
0.1639469055449046
 40
0.3279395409926725
 40
0.4918482763620393
 40
0.6587971852996386
 40
0.8258503269467583
 40
0.9927684684310456
 40
1.0
 40
1.0
 40
1.0
 40
1.0
 10
149.2738007043075
 20
136.8949644996231
 30
0.0
 10
149.1233036581467
 20
136.8949644996231
 30
0.0
 10
148.8222675875074
 20
136.8949644996231
 30
0.0
 10
148.4445735808234
 20
136.8949644996231
 30
0.0
 10
148.1307647034106
 20
136.8949644996231
 30
0.0
 10
147.8940396582853
 20
136.8949644996231
 30
0.0
 10
147.7552139128548
 20
136.8949644996231
 30
0.0
 10
147.696035074102
 20
136.8949644996232
 30
0.0
 10
147.7121101239189
 20
136.8949644996231
 30
0.0
 10
147.7127776372606
 20
136.8949644996231
 30
0.0
  0
SPLINE
  5
134
330
1F
100
AcDbEntity
  8
0
  6
Continuous
 62
     7
370
    25
100
AcDbSpline
210
0.0
220
0.0
230
1.0
 70
     8
 71
     3
 72
    18
 73
    14
 74
     0
 42
0.00000001
 43
0.00000001
 40
0.0
 40
0.0
 40
0.0
 40
0.0
 40
0.2499999999999996
 40
0.2499999999999996
 40
0.4999999999999991
 40
0.4999999999999991
 40
0.5624999999999991
 40
0.5624999999999991
 40
0.6249999999999991
 40
0.6249999999999991
 40
0.7499999999999994
 40
0.7499999999999994
 40
1.0
 40
1.0
 40
1.0
 40
1.0
 10
149.2738007043073
 20
119.3949644996231
 30
0.0
 10
148.7975642544139
 20
120.8236738493033
 30
0.0
 10
148.4050592803662
 20
122.2627993235856
 30
0.0
 10
147.8613125505422
 20
125.1710632119446
 30
0.0
 10
147.7118643777777
 20
126.6404247462271
 30
0.0
 10
147.7104962798821
 20
128.500195506337
 30
0.0
 10
147.7194209529551
 20
128.8740349114368
 30
0.0
 10
147.7553800893512
 20
129.6183225753554
 30
0.0
 10
147.7823729671272
 20
129.9891734429311
 30
0.0
 10
147.8892212952167
 20
131.0980150232363
 30
0.0
 10
147.9950069220984
 20
131.8322860373942
 30
0.0
 10
148.4034939939123
 20
134.022026402132
 30
0.0
 10
148.796970541953
 20
135.4644740125599
 30
0.0
 10
149.2738007043074
 20
136.8949644996231
 30
0.0
  0
SPLINE
  5
135
330
1F
100
AcDbEntity
  8
0
  6
Continuous
 62
     7
370
    25
100
AcDbSpline
210
0.0
220
0.0
230
1.0
 70
     8
 71
     3
 72
    18
 73
    14
 74
     0
 42
0.00000001
 43
0.00000001
 40
0.0
 40
0.0
 40
0.0
 40
0.0
 40
0.2500000000000004
 40
0.2500000000000004
 40
0.5000000000000009
 40
0.5000000000000009
 40
0.562500000000001
 40
0.562500000000001
 40
0.625000000000001
 40
0.625000000000001
 40
0.7500000000000007
 40
0.7500000000000007
 40
1.0
 40
1.0
 40
1.0
 40
1.0
 10
149.2738007043073
 20
101.8949644996231
 30
0.0
 10
148.7975642544139
 20
103.3236738493033
 30
0.0
 10
148.4050592803662
 20
104.7627993235856
 30
0.0
 10
147.8613125505422
 20
107.6710632119446
 30
0.0
 10
147.7118643777777
 20
109.1404247462271
 30
0.0
 10
147.7104962798821
 20
111.000195506337
 30
0.0
 10
147.7194209529551
 20
111.3740349114368
 30
0.0
 10
147.7553800893512
 20
112.1183225753554
 30
0.0
 10
147.7823729671272
 20
112.4891734429311
 30
0.0
 10
147.8892212952167
 20
113.5980150232363
 30
0.0
 10
147.9950069220984
 20
114.3322860373942
 30
0.0
 10
148.4034939939123
 20
116.522026402132
 30
0.0
 10
148.796970541953
 20
117.9644740125599
 30
0.0
 10
149.2738007043074
 20
119.3949644996232
 30
0.0
  0
LINE
  5
136
330
1F
100
AcDbEntity
  8
0
  6
Continuous
 62
     7
370
    25
100
AcDbLine
 10
147.5664261812
 20
102.1449644996
 30
0.0
 11
147.5664261812
 21
136.6449644996
 31
0.0
  0
LINE
  5
137
330
1F
100
AcDbEntity
  8
0
  6
Continuous
 62
     7
370
    25
100
AcDbLine
 10
149.2738007043
 20
136.8949644996
 30
0.0
 11
156.859051658
 21
136.8949644996
 31
0.0
  0
LINE
  5
138
330
1F
100
AcDbEntity
  8
0
  6
Continuous
 62
     7
370
    25
100
AcDbLine
 10
149.2738007043
 20
119.3949644996
 30
0.0
 11
156.859051658
 21
119.3949644996
 31
0.0
  0
LINE
  5
139
330
1F
100
AcDbEntity
  8
0
  6
Continuous
 62
     7
370
    25
100
AcDbLine
 10
149.2738007043
 20
101.8949644996
 30
0.0
 11
156.859051658
 21
101.8949644996
 31
0.0
  0
LINE
  5
13A
330
1F
100
AcDbEntity
  8
0
  6
Continuous
 62
     7
370
    25
100
AcDbLine
 10
127.5690068263
 20
135.7573576448
 30
0.0
 11
127.5690068263
 21
103.0325713545
 31
0.0
  0
LINE
  5
13B
330
1F
100
AcDbEntity
  8
0
  6
Continuous
 62
     7
370
    25
100
AcDbLine
 10
125.5664261812
 20
119.3949644996
 30
0.0
 11
125.5664261812
 21
133.7547769996
 31
0.0
  0
LINE
  5
13C
330
1F
100
AcDbEntity
  8
0
  6
Continuous
 62
     7
370
    25
100
AcDbLine
 10
125.5664261812
 20
105.0351519996
 30
0.0
 11
125.5664261812
 21
119.3949644996
 31
0.0
  0
LINE
  5
13D
330
1F
100
AcDbEntity
  8
0
  6
Continuous
 62
     7
370
    18
100
AcDbLine
 10
125.9630147409
 20
134.1513655594
 30
0.0
 11
145.2664261812
 21
134.7545971669
 31
0.0
  0
LINE
  5
13E
330
1F
100
AcDbEntity
  8
0
  6
Continuous
 62
     7
370
    18
100
AcDbLine
 10
125.9630147409
 20
104.6385634399
 30
0.0
 11
145.2664261812
 21
104.0353318323
 31
0.0
  0
LINE
  5
13F
330
1F
100
AcDbEntity
  8
0
  6
Continuous
 62
     7
370
    25
100
AcDbLine
 10
145.2664261812
 20
102.4795269996
 30
0.0
 11
145.2664261812
 21
136.3104019996
 31
0.0
  0
LINE
  5
140
330
1F
100
AcDbEntity
  8
FORMAT
  6
CENTERX2
370
    18
100
AcDbLine
 10
159.7754230832
 20
119.3949644996
 30
0.0
 11
123.5664261812
 21
119.3949644996
 31
0.0
  0
ENDSEC
  0
SECTION
  2
OBJECTS
  0
DICTIONARY
  5
C
330
0
100
AcDbDictionary
281
     1
  3
ACAD_GROUP
350
D
  3
ACAD_LAYOUT
350
1A
  3
ACAD_MLINESTYLE
350
17
  3
ACAD_PLOTSETTINGS
350
19
  3
ACAD_PLOTSTYLENAME
350
E
  3
ACAD_SCALELIST
350
47
  3
DWGPROPS
350
141
  0
DICTIONARY
  5
D
102
{ACAD_REACTORS
330
C
102
}
330
C
100
AcDbDictionary
281
     1
  0
DICTIONARY
  5
1A
102
{ACAD_REACTORS
330
C
102
}
330
C
100
AcDbDictionary
281
     1
  3
Layout1
350
1E
  3
Layout2
350
26
  3
Model
350
22
  0
DICTIONARY
  5
17
102
{ACAD_REACTORS
330
C
102
}
330
C
100
AcDbDictionary
281
     1
  3
Standard
350
18
  0
DICTIONARY
  5
19
102
{ACAD_REACTORS
330
C
102
}
330
C
100
AcDbDictionary
281
     1
  0
ACDBDICTIONARYWDFLT
  5
E
102
{ACAD_REACTORS
330
C
102
}
330
C
100
AcDbDictionary
281
     1
  3
Normal
350
F
100
AcDbDictionaryWithDefault
340
F
  0
DICTIONARY
  5
47
102
{ACAD_REACTORS
330
C
102
}
330
C
100
AcDbDictionary
281
     1
  3
A0
350
48
  3
A1
350
49
  3
A2
350
4A
  3
A3
350
4B
  3
A4
350
4C
  3
A5
350
4D
  3
A6
350
4E
  3
A7
350
4F
  3
A8
350
50
  3
A9
350
51
  3
B0
350
52
  3
B1
350
53
  3
B2
350
54
  3
B3
350
55
  3
B4
350
56
  3
B5
350
57
  3
B6
350
58
  0
XRECORD
  5
141
102
{ACAD_REACTORS
330
C
102
}
330
C
100
AcDbXrecord
280
     1
  1
DWGPROPS COOKIE
  2

  3

  4

  6

  7

  8
user28
  9

300
=
301
=
302
=
303
=
304
=
305
=
306
=
307
=
308
=
309
=
 40
0.0
 41
2460398.301761713
 42
2460398.301762442
  1

 90
        0
  0
LAYOUT
  5
1E
102
{ACAD_REACTORS
330
1A
102
}
330
1A
100
AcDbPlotSettings
  1

  2
none_device
  4

  6

 40
0.0
 41
0.0
 42
0.0
 43
0.0
 44
0.0
 45
0.0
 46
0.0
 47
0.0
 48
0.0
 49
0.0
140
0.0
141
0.0
142
1.0
143
1.0
 70
   688
 72
     1
 73
     0
 74
     5
  7

 75
    16
147
1.0
148
0.0
149
0.0
100
AcDbLayout
  1
Layout1
 70
     1
 71
     1
 10
0.0
 20
0.0
 11
420.0
 21
297.0
 12
0.0
 22
0.0
 32
0.0
 14
1.0000000000E+20
 24
1.0000000000E+20
 34
1.0000000000E+20
 15
-1.0000000000E+20
 25
-1.0000000000E+20
 35
-1.0000000000E+20
146
0.0
 13
0.0
 23
0.0
 33
0.0
 16
1.0
 26
0.0
 36
0.0
 17
0.0
 27
1.0
 37
0.0
 76
     0
330
1B
  0
LAYOUT
  5
26
102
{ACAD_REACTORS
330
1A
102
}
330
1A
100
AcDbPlotSettings
  1

  2
none_device
  4

  6

 40
0.0
 41
0.0
 42
0.0
 43
0.0
 44
0.0
 45
0.0
 46
0.0
 47
0.0
 48
0.0
 49
0.0
140
0.0
141
0.0
142
1.0
143
1.0
 70
   688
 72
     1
 73
     0
 74
     5
  7

 75
    16
147
1.0
148
0.0
149
0.0
100
AcDbLayout
  1
Layout2
 70
     1
 71
     2
 10
0.0
 20
0.0
 11
0.0
 21
0.0
 12
0.0
 22
0.0
 32
0.0
 14
0.0
 24
0.0
 34
0.0
 15
0.0
 25
0.0
 35
0.0
146
0.0
 13
0.0
 23
0.0
 33
0.0
 16
1.0
 26
0.0
 36
0.0
 17
0.0
 27
1.0
 37
0.0
 76
     0
330
23
  0
LAYOUT
  5
22
102
{ACAD_REACTORS
330
1A
102
}
330
1A
100
AcDbPlotSettings
  1

  2
none_device
  4
Letter_(8.50_x_11.00_Inches)
  6

 40
6.35
 41
6.35
 42
6.35000508
 43
6.35000508
 44
215.9
 45
279.4
 46
0.0
 47
0.0
 48
0.0
 49
0.0
140
0.0
141
0.0
142
1.0
143
1.0
 70
  1712
 72
     1
 73
     0
 74
     0
  7

 75
     0
147
1.0
148
0.0
149
0.0
100
AcDbLayout
  1
Model
 70
     1
 71
     0
 10
0.0
 20
0.0
 11
297.0
 21
210.0
 12
0.0
 22
0.0
 32
0.0
 14
0.0
 24
0.0
 34
0.0
 15
297.0
 25
210.0
 35
0.0
146
0.0
 13
0.0
 23
0.0
 33
0.0
 16
1.0
 26
0.0
 36
0.0
 17
0.0
 27
1.0
 37
0.0
 76
     0
330
1F
331
29
  0
MLINESTYLE
  5
18
102
{ACAD_REACTORS
330
17
102
}
330
17
100
AcDbMlineStyle
  2
Standard
 70
     0
  3

 62
   256
 51
90.0
 52
90.0
 71
     2
 49
0.5
 62
   256
  6
BYLAYER
 49
-0.5
 62
   256
  6
BYLAYER
  0
ACDBPLACEHOLDER
  5
F
102
{ACAD_REACTORS
330
E
102
}
330
E
  0
SCALE
  5
48
102
{ACAD_REACTORS
330
47
102
}
330
47
100
AcDbScale
 70
     0
300
1:1
140
1.0
141
1.0
290
     1
  0
SCALE
  5
49
102
{ACAD_REACTORS
330
47
102
}
330
47
100
AcDbScale
 70
     0
300
1:2
140
1.0
141
2.0
290
     0
  0
SCALE
  5
4A
102
{ACAD_REACTORS
330
47
102
}
330
47
100
AcDbScale
 70
     0
300
1:4
140
1.0
141
4.0
290
     0
  0
SCALE
  5
4B
102
{ACAD_REACTORS
330
47
102
}
330
47
100
AcDbScale
 70
     0
300
1:5
140
1.0
141
5.0
290
     0
  0
SCALE
  5
4C
102
{ACAD_REACTORS
330
47
102
}
330
47
100
AcDbScale
 70
     0
300
1:8
140
1.0
141
8.0
290
     0
  0
SCALE
  5
4D
102
{ACAD_REACTORS
330
47
102
}
330
47
100
AcDbScale
 70
     0
300
1:10
140
1.0
141
10.0
290
     0
  0
SCALE
  5
4E
102
{ACAD_REACTORS
330
47
102
}
330
47
100
AcDbScale
 70
     0
300
1:16
140
1.0
141
16.0
290
     0
  0
SCALE
  5
4F
102
{ACAD_REACTORS
330
47
102
}
330
47
100
AcDbScale
 70
     0
300
1:20
140
1.0
141
20.0
290
     0
  0
SCALE
  5
50
102
{ACAD_REACTORS
330
47
102
}
330
47
100
AcDbScale
 70
     0
300
1:30
140
1.0
141
30.0
290
     0
  0
SCALE
  5
51
102
{ACAD_REACTORS
330
47
102
}
330
47
100
AcDbScale
 70
     0
300
1:40
140
1.0
141
40.0
290
     0
  0
SCALE
  5
52
102
{ACAD_REACTORS
330
47
102
}
330
47
100
AcDbScale
 70
     0
300
1:50
140
1.0
141
50.0
290
     0
  0
SCALE
  5
53
102
{ACAD_REACTORS
330
47
102
}
330
47
100
AcDbScale
 70
     0
300
1:100
140
1.0
141
100.0
290
     0
  0
SCALE
  5
54
102
{ACAD_REACTORS
330
47
102
}
330
47
100
AcDbScale
 70
     0
300
2:1
140
2.0
141
1.0
290
     0
  0
SCALE
  5
55
102
{ACAD_REACTORS
330
47
102
}
330
47
100
AcDbScale
 70
     0
300
4:1
140
4.0
141
1.0
290
     0
  0
SCALE
  5
56
102
{ACAD_REACTORS
330
47
102
}
330
47
100
AcDbScale
 70
     0
300
8:1
140
8.0
141
1.0
290
     0
  0
SCALE
  5
57
102
{ACAD_REACTORS
330
47
102
}
330
47
100
AcDbScale
 70
     0
300
10:1
140
10.0
141
1.0
290
     0
  0
SCALE
  5
58
102
{ACAD_REACTORS
330
47
102
}
330
47
100
AcDbScale
 70
     0
300
100:1
140
100.0
141
1.0
290
     0
  0
ENDSEC
  0
EOF
