  0
SECTION
  2
HEADER
  9
$ACADVER
  1
AC1015
  9
$ACADMAINTVER
 70
     6
  9
$DWGCODEPAGE
  3
DOS932
  9
$INSBASE
 10
0.0
 20
0.0
 30
0.0
  9
$EXTMIN
 10
0.0
 20
0.0
 30
0.0
  9
$EXTMAX
 10
297.0
 20
210.0
 30
0.0
  9
$LIMMIN
 10
0.0
 20
0.0
  9
$LIMMAX
 10
297.0
 20
210.0
  9
$ORTHOMODE
 70
     0
  9
$REGENMODE
 70
     1
  9
$FILLMODE
 70
     1
  9
$QTEXTMODE
 70
     0
  9
$MIRRTEXT
 70
     1
  9
$LTSCALE
 40
1.0
  9
$ATTMODE
 70
     1
  9
$TEXTSIZE
 40
3.5277777778
  9
$TRACEWID
 40
1.0
  9
$TEXTSTYLE
  7
Standard
  9
$CLAYER
  8
0
  9
$CELTYPE
  6
ByLayer
  9
$CECOLOR
 62
   256
  9
$CELTSCALE
 40
1.0
  9
$DISPSILH
 70
     0
  9
$DIMSCALE
 40
1.0
  9
$DIMASZ
 40
2.728515625
  9
$DIMEXO
 40
1.0
  9
$DIMDLI
 40
3.75
  9
$DIMRND
 40
0.0
  9
$DIMDLE
 40
0.0
  9
$DIMEXE
 40
1.0
  9
$DIMTP
 40
0.0
  9
$DIMTM
 40
0.0
  9
$DIMTXT
 40
3.5277777778
  9
$DIMCEN
 40
2.5
  9
$DIMTSZ
 40
0.0
  9
$DIMTOL
 70
     0
  9
$DIMLIM
 70
     0
  9
$DIMTIH
 70
     1
  9
$DIMTOH
 70
     1
  9
$DIMSE1
 70
     0
  9
$DIMSE2
 70
     0
  9
$DIMTAD
 70
     1
  9
$DIMZIN
 70
     0
  9
$DIMBLK
  1

  9
$DIMASO
 70
     1
  9
$DIMSHO
 70
     1
  9
$DIMPOST
  1

  9
$DIMAPOST
  1

  9
$DIMALT
 70
     0
  9
$DIMALTD
 70
     3
  9
$DIMALTF
 40
0.0393700787
  9
$DIMLFAC
 40
1.0
  9
$DIMTOFL
 70
     1
  9
$DIMTVP
 40
0.0
  9
$DIMTIX
 70
     0
  9
$DIMSOXD
 70
     0
  9
$DIMSAH
 70
     0
  9
$DIMBLK1
  1

  9
$DIMBLK2
  1

  9
$DIMSTYLE
  2
ISO-25
  9
$DIMCLRD
 70
     0
  9
$DIMCLRE
 70
     0
  9
$DIMCLRT
 70
     0
  9
$DIMTFAC
 40
1.0
  9
$DIMGAP
 40
1.524
  9
$DIMJUST
 70
     0
  9
$DIMSD1
 70
     0
  9
$DIMSD2
 70
     0
  9
$DIMTOLJ
 70
     0
  9
$DIMTZIN
 70
     0
  9
$DIMALTZ
 70
     0
  9
$DIMALTTZ
 70
     0
  9
$DIMUPT
 70
     0
  9
$DIMDEC
 70
     2
  9
$DIMTDEC
 70
     2
  9
$DIMALTU
 70
     2
  9
$DIMALTTD
 70
     3
  9
$DIMTXSTY
  7
Standard
  9
$DIMAUNIT
 70
     0
  9
$DIMADEC
 70
     2
  9
$DIMALTRND
 40
0.0
  9
$DIMAZIN
 70
     0
  9
$DIMDSEP
 70
    44
  9
$DIMATFIT
 70
     3
  9
$DIMFRAC
 70
     0
  9
$DIMLDRBLK
  1

  9
$DIMLUNIT
 70
     2
  9
$DIMLWD
 70
    -2
  9
$DIMLWE
 70
    -2
  9
$DIMTMOVE
 70
     0
  9
$LUNITS
 70
     2
  9
$LUPREC
 70
     2
  9
$SKETCHINC
 40
1.0
  9
$FILLETRAD
 40
0.0
  9
$AUNITS
 70
     0
  9
$AUPREC
 70
     2
  9
$MENU
  1
.
  9
$ELEVATION
 40
0.0
  9
$PELEVATION
 40
0.0
  9
$THICKNESS
 40
0.0
  9
$LIMCHECK
 70
     0
  9
$CHAMFERA
 40
0.0
  9
$CHAMFERB
 40
0.0
  9
$CHAMFERC
 40
0.0
  9
$CHAMFERD
 40
0.0
  9
$SKPOLY
 70
     0
  9
$TDCREATE
 40
2460398.67541331
  9
$TDUCREATE
 40
2460398.30041331
  9
$TDUPDATE
 40
2460398.675413889
  9
$TDUUPDATE
 40
2460398.300413889
  9
$TDINDWG
 40
0.0000000116
  9
$TDUSRTIMER
 40
0.0000000116
  9
$USRTIMER
 70
     1
  9
$ANGBASE
 50
0.0
  9
$ANGDIR
 70
     0
  9
$PDMODE
 70
     0
  9
$PDSIZE
 40
-1.0
  9
$PLINEWID
 40
0.0
  9
$SPLFRAME
 70
     0
  9
$SPLINETYPE
 70
     6
  9
$SPLINESEGS
 70
     8
  9
$HANDSEED
  5
12F
  9
$SURFTAB1
 70
     6
  9
$SURFTAB2
 70
     6
  9
$SURFTYPE
 70
     6
  9
$SURFU
 70
     6
  9
$SURFV
 70
     6
  9
$UCSBASE
  2

  9
$UCSNAME
  2

  9
$UCSORG
 10
0.0
 20
0.0
 30
0.0
  9
$UCSXDIR
 10
1.0
 20
0.0
 30
0.0
  9
$UCSYDIR
 10
0.0
 20
1.0
 30
0.0
  9
$UCSORTHOREF
  2

  9
$UCSORTHOVIEW
 70
     0
  9
$UCSORGTOP
 10
0.0
 20
0.0
 30
0.0
  9
$UCSORGBOTTOM
 10
0.0
 20
0.0
 30
0.0
  9
$UCSORGLEFT
 10
0.0
 20
0.0
 30
0.0
  9
$UCSORGRIGHT
 10
0.0
 20
0.0
 30
0.0
  9
$UCSORGFRONT
 10
0.0
 20
0.0
 30
0.0
  9
$UCSORGBACK
 10
0.0
 20
0.0
 30
0.0
  9
$PUCSBASE
  2

  9
$PUCSNAME
  2

  9
$PUCSORG
 10
0.0
 20
0.0
 30
0.0
  9
$PUCSXDIR
 10
1.0
 20
0.0
 30
0.0
  9
$PUCSYDIR
 10
0.0
 20
1.0
 30
0.0
  9
$PUCSORTHOREF
  2

  9
$PUCSORTHOVIEW
 70
     0
  9
$PUCSORGTOP
 10
0.0
 20
0.0
 30
0.0
  9
$PUCSORGBOTTOM
 10
0.0
 20
0.0
 30
0.0
  9
$PUCSORGLEFT
 10
0.0
 20
0.0
 30
0.0
  9
$PUCSORGRIGHT
 10
0.0
 20
0.0
 30
0.0
  9
$PUCSORGFRONT
 10
0.0
 20
0.0
 30
0.0
  9
$PUCSORGBACK
 10
0.0
 20
0.0
 30
0.0
  9
$USERI1
 70
     0
  9
$USERI2
 70
     0
  9
$USERI3
 70
     0
  9
$USERI4
 70
     0
  9
$USERI5
 70
     0
  9
$USERR1
 40
0.0
  9
$USERR2
 40
0.0
  9
$USERR3
 40
0.0
  9
$USERR4
 40
0.0
  9
$USERR5
 40
0.0
  9
$WORLDVIEW
 70
     1
  9
$SHADEDGE
 70
     3
  9
$SHADEDIF
 70
    70
  9
$TILEMODE
 70
     1
  9
$MAXACTVP
 70
    64
  9
$PINSBASE
 10
0.0
 20
0.0
 30
0.0
  9
$PLIMCHECK
 70
     0
  9
$PEXTMIN
 10
1.0000000000E+20
 20
1.0000000000E+20
 30
1.0000000000E+20
  9
$PEXTMAX
 10
-1.0000000000E+20
 20
-1.0000000000E+20
 30
-1.0000000000E+20
  9
$PLIMMIN
 10
0.0
 20
0.0
  9
$PLIMMAX
 10
420.0
 20
297.0
  9
$UNITMODE
 70
     0
  9
$VISRETAIN
 70
     1
  9
$PLINEGEN
 70
     0
  9
$PSLTSCALE
 70
     1
  9
$TREEDEPTH
 70
  3020
  9
$CMLSTYLE
  2
Standard
  9
$CMLJUST
 70
     0
  9
$CMLSCALE
 40
20.0
  9
$PROXYGRAPHICS
 70
     1
  9
$MEASUREMENT
 70
     1
  9
$CELWEIGHT
370
    -1
  9
$ENDCAPS
280
     0
  9
$JOINSTYLE
280
     0
  9
$LWDISPLAY
290
     1
  9
$INSUNITS
 70
     4
  9
$HYPERLINKBASE
  1

  9
$STYLESHEET
  1

  9
$XEDIT
290
     1
  9
$CEPSNTYPE
380
     0
  9
$PSTYLEMODE
290
     1
  9
$FINGERPRINTGUID
  2
{f9188a62-ebdb-4c0c-965c-a6c876e41dcc}
  9
$VERSIONGUID
  2
{FAEB1C32-E019-11D5-929B-00C0DF256EC4}
  9
$EXTNAMES
290
     1
  9
$PSVPSCALE
 40
0.0
  9
$OLESTARTUP
290
     0
  0
ENDSEC
  0
SECTION
  2
CLASSES
  0
CLASS
  1
ACDBDICTIONARYWDFLT
  2
AcDbDictionaryWithDefault
  3
ObjectDBX Classes
 90
        0
280
     0
281
     0
  0
CLASS
  1
VISUALSTYLE
  2
AcDbVisualStyle
  3
ObjectDBX Classes
 90
     4095
280
     0
281
     0
  0
CLASS
  1
MATERIAL
  2
AcDbMaterial
  3
ObjectDBX Classes
 90
     1153
280
     0
281
     0
  0
CLASS
  1
SCALE
  2
AcDbScale
  3
ObjectDBX Classes
 90
     1153
280
     0
281
     0
  0
CLASS
  1
TABLESTYLE
  2
AcDbTableStyle
  3
ObjectDBX Classes
 90
     4095
280
     0
281
     0
  0
CLASS
  1
MLEADERSTYLE
  2
AcDbMLeaderStyle
  3
ACDB_MLEADERSTYLE_CLASS
 90
     4095
280
     0
281
     0
  0
CLASS
  1
SUN
  2
AcDbSun
  3
SCENEOE
 90
     1153
280
     0
281
     0
  0
CLASS
  1
ACDBPLACEHOLDER
  2
AcDbPlaceHolder
  3
ObjectDBX Classes
 90
        0
280
     0
281
     0
  0
CLASS
  1
LAYOUT
  2
AcDbLayout
  3
ObjectDBX Classes
 90
        0
280
     0
281
     0
  0
ENDSEC
  0
SECTION
  2
TABLES
  0
TABLE
  2
VPORT
  5
8
330
0
100
AcDbSymbolTable
 70
     1
  0
VPORT
  5
29
330
8
100
AcDbSymbolTableRecord
100
AcDbViewportTableRecord
  2
*Active
 70
     0
 10
0.0
 20
0.0
 11
1.0
 21
1.0
 12
148.5
 22
105.0
 13
0.0
 23
0.0
 14
10.0
 24
10.0
 15
10.0
 25
10.0
 16
0.0
 26
0.0
 36
1.0
 17
0.0
 27
0.0
 37
0.0
 40
210.0
 41
1.4142857143
 42
50.0
 43
0.0
 44
0.0
 50
0.0
 51
0.0
 71
     0
 72
  2000
 73
     1
 74
     3
 75
     0
 76
     0
 77
     0
 78
     0
281
     0
 65
     1
110
0.0
120
0.0
130
0.0
111
1.0
121
0.0
131
0.0
112
0.0
122
1.0
132
0.0
 79
     0
146
0.0
  0
ENDTAB
  0
TABLE
  2
LTYPE
  5
5
330
0
100
AcDbSymbolTable
 70
     6
  0
LTYPE
  5
14
330
5
100
AcDbSymbolTableRecord
100
AcDbLinetypeTableRecord
  2
ByBlock
 70
     0
  3

 72
    65
 73
     0
 40
0.0
  0
LTYPE
  5
15
330
5
100
AcDbSymbolTableRecord
100
AcDbLinetypeTableRecord
  2
ByLayer
 70
     0
  3

 72
    65
 73
     0
 40
0.0
  0
LTYPE
  5
16
330
5
100
AcDbSymbolTableRecord
100
AcDbLinetypeTableRecord
  2
Continuous
 70
     0
  3
Solid line
 72
    65
 73
     0
 40
0.0
  0
LTYPE
  5
5E
330
5
100
AcDbSymbolTableRecord
100
AcDbLinetypeTableRecord
  2
HIDDEN
 70
     0
  3
Hidden __ __ __ __ __ __ __ __ __ __ __ __ __ __
 72
    65
 73
     2
 40
1.905
 49
1.27
 74
     0
 49
-0.635
 74
     0
  0
LTYPE
  5
5F
330
5
100
AcDbSymbolTableRecord
100
AcDbLinetypeTableRecord
  2
PHANTOM
 70
     0
  3
Phantom ______  __  __  ______  __  __  ______
 72
    65
 73
     6
 40
12.7
 49
6.35
 74
     0
 49
-1.27
 74
     0
 49
1.27
 74
     0
 49
-1.27
 74
     0
 49
1.27
 74
     0
 49
-1.27
 74
     0
  0
LTYPE
  5
60
330
5
100
AcDbSymbolTableRecord
100
AcDbLinetypeTableRecord
  2
CENTER
 70
     0
  3
Center ____ _ ____ _ ____ _ ____ _ ____ _ ____
 72
    65
 73
     4
 40
10.16
 49
6.35
 74
     0
 49
-1.27
 74
     0
 49
1.27
 74
     0
 49
-1.27
 74
     0
  0
LTYPE
  5
61
330
5
100
AcDbSymbolTableRecord
100
AcDbLinetypeTableRecord
  2
CENTERX2
 70
     0
  3
Center (2x) ________  __  ________  __  _____
 72
    65
 73
     4
 40
20.32
 49
12.7
 74
     0
 49
-2.54
 74
     0
 49
2.54
 74
     0
 49
-2.54
 74
     0
  0
LTYPE
  5
62
330
5
100
AcDbSymbolTableRecord
100
AcDbLinetypeTableRecord
  2
DOT2
 70
     0
  3
Dot (.5x) ........................................
 72
    65
 73
     2
 40
0.635
 49
0.0
 74
     0
 49
-0.635
 74
     0
  0
ENDTAB
  0
TABLE
  2
LAYER
  5
2
330
0
100
AcDbSymbolTable
 70
     2
  0
LAYER
  5
10
330
2
100
AcDbSymbolTableRecord
100
AcDbLayerTableRecord
  2
0
 70
     0
 62
     7
  6
Continuous
370
    -3
390
F
  0
LAYER
  5
63
330
2
100
AcDbSymbolTableRecord
100
AcDbLayerTableRecord
  2
FORMAT
 70
     0
 62
     7
  6
Continuous
370
    -3
390
F
  0
ENDTAB
  0
TABLE
  2
STYLE
  5
3
330
0
100
AcDbSymbolTable
 70
     2
  0
STYLE
  5
11
330
3
100
AcDbSymbolTableRecord
100
AcDbTextStyleTableRecord
  2
Standard
 70
     0
 40
0.0
 41
1.0
 50
0.0
 71
     0
 42
3.5277777778
  3
txt
  4
bigfont
  0
STYLE
  5
64
330
3
100
AcDbSymbolTableRecord
100
AcDbTextStyleTableRecord
  2
SLDTEXTSTYLE0
 70
     0
 40
0.0
 41
0.7
 50
0.0
 71
     0
 42
3.5277777778
  3
TXT
  4
bigfont
  0
ENDTAB
  0
TABLE
  2
VIEW
  5
6
330
0
100
AcDbSymbolTable
 70
     0
  0
ENDTAB
  0
TABLE
  2
UCS
  5
7
330
0
100
AcDbSymbolTable
 70
     0
  0
ENDTAB
  0
TABLE
  2
APPID
  5
9
330
0
100
AcDbSymbolTable
 70
     1
  0
APPID
  5
12
330
9
100
AcDbSymbolTableRecord
100
AcDbRegAppTableRecord
  2
ACAD
 70
     0
  0
ENDTAB
  0
TABLE
  2
DIMSTYLE
  5
A
330
0
100
AcDbSymbolTable
 70
     1
100
AcDbDimStyleTable
  0
DIMSTYLE
105
27
330
A
100
AcDbSymbolTableRecord
100
AcDbDimStyleTableRecord
  2
ISO-25
 70
     0
 41
2.5
 42
0.625
 43
3.75
 44
1.25
 73
     0
 74
     0
 77
     1
 78
     8
140
2.5
141
2.5
143
0.0393700787
147
0.625
171
     3
172
     1
178
     0
271
     2
272
     2
274
     3
278
    44
283
     0
284
     8
340
11
  0
ENDTAB
  0
TABLE
  2
BLOCK_RECORD
  5
1
330
0
100
AcDbSymbolTable
 70
     2
  0
BLOCK_RECORD
  5
1F
330
1
100
AcDbSymbolTableRecord
100
AcDbBlockTableRecord
  2
*Model_Space
340
22
  0
BLOCK_RECORD
  5
1B
330
1
100
AcDbSymbolTableRecord
100
AcDbBlockTableRecord
  2
*Paper_Space
340
1E
  0
BLOCK_RECORD
  5
23
330
1
100
AcDbSymbolTableRecord
100
AcDbBlockTableRecord
  2
*Paper_Space0
340
26
  0
BLOCK_RECORD
  5
105
330
1
100
AcDbSymbolTableRecord
100
AcDbBlockTableRecord
  2
SW_CENTERMARKSYMBOL_0
340
0
102
{BLKREFS
331
110
102
}
  0
ENDTAB
  0
ENDSEC
  0
SECTION
  2
BLOCKS
  0
BLOCK
  5
20
330
1F
100
AcDbEntity
  8
0
100
AcDbBlockBegin
  2
*Model_Space
 70
     0
 10
0.0
 20
0.0
 30
0.0
  3
*Model_Space
  1

  0
ENDBLK
  5
21
330
1F
100
AcDbEntity
  8
0
100
AcDbBlockEnd
  0
BLOCK
  5
1C
330
1B
100
AcDbEntity
 67
     1
  8
0
100
AcDbBlockBegin
  2
*Paper_Space
 70
     0
 10
0.0
 20
0.0
 30
0.0
  3
*Paper_Space
  1

  0
ENDBLK
  5
1D
330
1B
100
AcDbEntity
 67
     1
  8
0
100
AcDbBlockEnd
  0
BLOCK
  5
24
330
23
100
AcDbEntity
  8
0
100
AcDbBlockBegin
  2
*Paper_Space0
 70
     0
 10
0.0
 20
0.0
 30
0.0
  3
*Paper_Space0
  1

  0
ENDBLK
  5
25
330
23
100
AcDbEntity
  8
0
100
AcDbBlockEnd
  0
BLOCK
  5
106
330
105
100
AcDbEntity
  8
0
100
AcDbBlockBegin
  2
SW_CENTERMARKSYMBOL_0
 70
     0
 10
0.0
 20
0.0
 30
0.0
  3
SW_CENTERMARKSYMBOL_0
  1

  0
LINE
  5
108
330
105
100
AcDbEntity
  8
FORMAT
 62
     0
100
AcDbLine
 10
0.0
 20
0.0
 30
0.0
 11
0.0
 21
2.5
 31
0.0
  0
LINE
  5
109
330
105
100
AcDbEntity
  8
FORMAT
 62
     0
100
AcDbLine
 10
0.0
 20
0.0
 30
0.0
 11
-2.5
 21
0.0
 31
0.0
  0
LINE
  5
10A
330
105
100
AcDbEntity
  8
FORMAT
 62
     0
100
AcDbLine
 10
0.0
 20
0.0
 30
0.0
 11
0.0
 21
-2.5
 31
0.0
  0
LINE
  5
10B
330
105
100
AcDbEntity
  8
FORMAT
 62
     0
100
AcDbLine
 10
0.0
 20
0.0
 30
0.0
 11
2.5
 21
0.0
 31
0.0
  0
LINE
  5
10C
330
105
100
AcDbEntity
  8
FORMAT
 62
     0
100
AcDbLine
 10
0.0
 20
5.0
 30
0.0
 11
0.0
 21
18.5343585391
 31
0.0
  0
LINE
  5
10D
330
105
100
AcDbEntity
  8
FORMAT
 62
     0
100
AcDbLine
 10
-5.0
 20
0.0
 30
0.0
 11
-17.25
 21
0.0
 31
0.0
  0
LINE
  5
10E
330
105
100
AcDbEntity
  8
FORMAT
 62
     0
100
AcDbLine
 10
0.0
 20
-5.0
 30
0.0
 11
0.0
 21
-18.335826772
 31
0.0
  0
LINE
  5
10F
330
105
100
AcDbEntity
  8
FORMAT
 62
     0
100
AcDbLine
 10
5.0
 20
0.0
 30
0.0
 11
17.25
 21
0.0
 31
0.0
  0
ENDBLK
  5
107
330
105
100
AcDbEntity
  8
0
100
AcDbBlockEnd
  0
ENDSEC
  0
SECTION
  2
ENTITIES
  0
MTEXT
  5
65
330
1F
100
AcDbEntity
  8
FORMAT
100
AcDbMText
 10
164.4534658674
 20
102.9330001067
 30
0.0
 40
4.2333333333
 41
0.0
 71
     1
 72
     1
  1
5NB-7364
  7
SLDTEXTSTYLE0
 73
     1
 44
1.0
  0
LINE
  5
66
330
1F
100
AcDbEntity
  8
0
  6
Continuous
 62
     7
370
    25
100
AcDbLine
 10
142.6550007185
 20
91.1731330344
 30
0.0
 11
141.170917189
 21
88.6026249588
 31
0.0
  0
LINE
  5
67
330
1F
100
AcDbEntity
  8
0
  6
Continuous
 62
     7
370
    25
100
AcDbLine
 10
141.170917189
 20
59.1026249588
 30
0.0
 11
142.6550007185
 21
56.5321168831
 31
0.0
  0
LINE
  5
68
330
1F
100
AcDbEntity
  8
0
  6
Continuous
 62
     7
370
    25
100
AcDbLine
 10
146.6868336596
 20
56.5321168831
 30
0.0
 11
148.170917189
 21
59.1026249588
 31
0.0
  0
LINE
  5
69
330
1F
100
AcDbEntity
  8
0
  6
Continuous
 62
     7
370
    25
100
AcDbLine
 10
148.170917189
 20
88.6026249588
 30
0.0
 11
146.6868336596
 21
91.1731330344
 31
0.0
  0
LINE
  5
6A
330
1F
100
AcDbEntity
  8
0
  6
Continuous
 62
     7
370
    25
100
AcDbLine
 10
141.170917189
 20
87.3378124588
 30
0.0
 11
124.6728526729
 21
86.8222479426
 31
0.0
  0
LINE
  5
6B
330
1F
100
AcDbEntity
  8
0
  6
Continuous
 62
     7
370
    25
100
AcDbLine
 10
124.6728526729
 20
60.8830019749
 30
0.0
 11
141.170917189
 21
60.3674374588
 31
0.0
  0
LINE
  5
6C
330
1F
100
AcDbEntity
  8
0
  6
Continuous
 62
     7
370
    25
100
AcDbLine
 10
124.6728526729
 20
86.8222479426
 30
0.0
 11
123.170917189
 21
85.3203124588
 31
0.0
  0
LINE
  5
6D
330
1F
100
AcDbEntity
  8
0
  6
Continuous
 62
     7
370
    25
100
AcDbLine
 10
123.170917189
 20
62.3849374588
 30
0.0
 11
124.6728526729
 21
60.8830019749
 31
0.0
  0
SPLINE
  5
6E
330
1F
100
AcDbEntity
  8
0
  6
Continuous
 62
     7
370
    25
100
AcDbSpline
210
0.0
220
0.0
230
1.0
 70
     8
 71
     3
 72
    16
 73
    12
 74
     0
 42
0.00000001
 43
0.00000001
 40
0.0
 40
0.0
 40
0.0
 40
0.0
 40
0.2500000000000001
 40
0.2500000000000001
 40
0.5000000000000001
 40
0.5000000000000001
 40
0.625
 40
0.625
 40
0.7499999999999999
 40
0.7499999999999999
 40
1.0
 40
1.0
 40
1.0
 40
1.0
 10
142.6550007184993
 20
82.51287899660385
 30
0.0
 10
142.2467980731108
 20
83.21990671820075
 30
0.0
 10
141.9103652325967
 20
83.93208911753617
 30
0.0
 10
141.4442965787219
 20
85.3713065695495
 30
0.0
 10
141.3161981230259
 20
86.09845203890399
 30
0.0
 10
141.3147909809325
 20
87.20286968136342
 30
0.0
 10
141.3461060281611
 20
87.57274163090105
 30
0.0
 10
141.468218422857
 20
88.30438726931534
 30
0.0
 10
141.5588918217332
 20
88.6677571548705
 30
0.0
 10
141.9090235954702
 20
89.75139751308059
 30
0.0
 10
142.2462891861957
 20
90.46522389485881
 30
0.0
 10
142.6550007184994
 20
91.17313303444826
 30
0.0
  0
LINE
  5
6F
330
1F
100
AcDbEntity
  8
0
  6
Continuous
 62
     7
370
    25
100
AcDbLine
 10
142.6550007185
 20
91.1731330344
 30
0.0
 11
146.6868336596
 21
91.1731330344
 31
0.0
  0
SPLINE
  5
70
330
1F
100
AcDbEntity
  8
0
  6
Continuous
 62
     7
370
    25
100
AcDbSpline
210
0.0
220
0.0
230
1.0
 70
     8
 71
     3
 72
    16
 73
    12
 74
     0
 42
0.00000001
 43
0.00000001
 40
0.0
 40
0.0
 40
0.0
 40
0.0
 40
0.2500000000000001
 40
0.2500000000000001
 40
0.5000000000000001
 40
0.5000000000000001
 40
0.625
 40
0.625
 40
0.7499999999999999
 40
0.7499999999999999
 40
1.0
 40
1.0
 40
1.0
 40
1.0
 10
146.6868336595938
 20
82.51287899660385
 30
0.0
 10
147.0950363049822
 20
83.21990671820075
 30
0.0
 10
147.4314691454964
 20
83.93208911753617
 30
0.0
 10
147.8975377993712
 20
85.3713065695495
 30
0.0
 10
148.0256362550671
 20
86.09845203890399
 30
0.0
 10
148.0270433971606
 20
87.20286968136342
 30
0.0
 10
147.995728349932
 20
87.57274163090105
 30
0.0
 10
147.873615955236
 20
88.30438726931534
 30
0.0
 10
147.7829425563598
 20
88.6677571548705
 30
0.0
 10
147.4328107826229
 20
89.75139751308059
 30
0.0
 10
147.0955451918974
 20
90.46522389485881
 30
0.0
 10
146.6868336595936
 20
91.17313303444826
 30
0.0
  0
LINE
  5
71
330
1F
100
AcDbEntity
  8
0
  6
Continuous
 62
     7
370
    25
100
AcDbLine
 10
142.6550007185
 20
82.5128789966
 30
0.0
 11
146.6868336596
 21
82.5128789966
 31
0.0
  0
SPLINE
  5
72
330
1F
100
AcDbEntity
  8
0
  6
Continuous
 62
     7
370
    25
100
AcDbSpline
210
0.0
220
0.0
230
1.0
 70
     8
 71
     3
 72
    16
 73
    12
 74
     0
 42
0.00000001
 43
0.00000001
 40
0.0
 40
0.0
 40
0.0
 40
0.0
 40
0.25
 40
0.25
 40
0.5
 40
0.5
 40
0.6249999999999999
 40
0.6249999999999999
 40
0.7499999999999998
 40
0.7499999999999998
 40
1.0
 40
1.0
 40
1.0
 40
1.0
 10
142.6550007184993
 20
56.53211688307067
 30
0.0
 10
142.2467980731108
 20
57.23914460466757
 30
0.0
 10
141.9103652325967
 20
57.95132700400298
 30
0.0
 10
141.4442965787219
 20
59.39054445601633
 30
0.0
 10
141.3161981230259
 20
60.1176899253708
 30
0.0
 10
141.3147909809325
 20
61.22210756783025
 30
0.0
 10
141.3461060281611
 20
61.59197951736786
 30
0.0
 10
141.468218422857
 20
62.32362515578217
 30
0.0
 10
141.5588918217332
 20
62.68699504133732
 30
0.0
 10
141.9090235954702
 20
63.77063539954742
 30
0.0
 10
142.2462891861957
 20
64.48446178132562
 30
0.0
 10
142.6550007184994
 20
65.19237092091508
 30
0.0
  0
LINE
  5
73
330
1F
100
AcDbEntity
  8
0
  6
Continuous
 62
     7
370
    25
100
AcDbLine
 10
142.6550007185
 20
65.1923709209
 30
0.0
 11
146.6868336596
 21
65.1923709209
 31
0.0
  0
SPLINE
  5
74
330
1F
100
AcDbEntity
  8
0
  6
Continuous
 62
     7
370
    25
100
AcDbSpline
210
0.0
220
0.0
230
1.0
 70
     8
 71
     3
 72
    16
 73
    12
 74
     0
 42
0.00000001
 43
0.00000001
 40
0.0
 40
0.0
 40
0.0
 40
0.0
 40
0.25
 40
0.25
 40
0.5
 40
0.5
 40
0.6249999999999999
 40
0.6249999999999999
 40
0.7499999999999998
 40
0.7499999999999998
 40
1.0
 40
1.0
 40
1.0
 40
1.0
 10
146.6868336595938
 20
56.53211688307067
 30
0.0
 10
147.0950363049822
 20
57.23914460466757
 30
0.0
 10
147.4314691454964
 20
57.95132700400298
 30
0.0
 10
147.8975377993712
 20
59.39054445601633
 30
0.0
 10
148.0256362550671
 20
60.1176899253708
 30
0.0
 10
148.0270433971606
 20
61.22210756783025
 30
0.0
 10
147.995728349932
 20
61.59197951736786
 30
0.0
 10
147.873615955236
 20
62.32362515578217
 30
0.0
 10
147.7829425563598
 20
62.68699504133732
 30
0.0
 10
147.4328107826229
 20
63.77063539954742
 30
0.0
 10
147.0955451918974
 20
64.48446178132562
 30
0.0
 10
146.6868336595936
 20
65.19237092091508
 30
0.0
  0
LINE
  5
75
330
1F
100
AcDbEntity
  8
0
  6
Continuous
 62
     7
370
    25
100
AcDbLine
 10
142.6550007185
 20
56.5321168831
 30
0.0
 11
146.6868336596
 21
56.5321168831
 31
0.0
  0
SPLINE
  5
76
330
1F
100
AcDbEntity
  8
0
  6
Continuous
 62
     7
370
    25
100
AcDbSpline
210
0.0
220
0.0
230
1.0
 70
     8
 71
     3
 72
    14
 73
    10
 74
     0
 42
0.00000001
 43
0.00000001
 40
0.0
 40
0.0
 40
0.0
 40
0.0
 40
0.2500000000000001
 40
0.2500000000000001
 40
0.5000000000000001
 40
0.5000000000000001
 40
0.75
 40
0.75
 40
1.0
 40
1.0
 40
1.0
 40
1.0
 10
142.6550007184995
 20
65.19237092091507
 30
0.0
 10
142.248032438601
 20
66.60215039662138
 30
0.0
 10
141.9114715929949
 20
68.02494309387012
 30
0.0
 10
141.4442416184088
 20
70.90858291470961
 30
0.0
 10
141.3151359034093
 20
72.37108886263655
 30
0.0
 10
141.315373776248
 20
75.338326624472
 30
0.0
 10
141.44447946783
 20
76.79848550562191
 30
0.0
 10
141.911609216694
 20
79.68080537577669
 30
0.0
 10
142.2480757746611
 20
81.10324964141347
 30
0.0
 10
142.6550007184995
 20
82.51287899660386
 30
0.0
  0
SPLINE
  5
77
330
1F
100
AcDbEntity
  8
0
  6
Continuous
 62
     7
370
    25
100
AcDbSpline
210
0.0
220
0.0
230
1.0
 70
     8
 71
     3
 72
    14
 73
    10
 74
     0
 42
0.00000001
 43
0.00000001
 40
0.0
 40
0.0
 40
0.0
 40
0.0
 40
0.2500000000000001
 40
0.2500000000000001
 40
0.5000000000000001
 40
0.5000000000000001
 40
0.75
 40
0.75
 40
1.0
 40
1.0
 40
1.0
 40
1.0
 10
146.6868336595935
 20
65.19237092091507
 30
0.0
 10
147.093801939492
 20
66.60215039662138
 30
0.0
 10
147.4303627850982
 20
68.02494309387012
 30
0.0
 10
147.8975927596842
 20
70.90858291470961
 30
0.0
 10
148.0266984746837
 20
72.37108886263655
 30
0.0
 10
148.0264606018451
 20
75.338326624472
 30
0.0
 10
147.8973549102631
 20
76.79848550562191
 30
0.0
 10
147.4302251613991
 20
79.68080537577669
 30
0.0
 10
147.0937586034319
 20
81.10324964141347
 30
0.0
 10
146.6868336595935
 20
82.51287899660386
 30
0.0
  0
LINE
  5
78
330
1F
100
AcDbEntity
  8
0
  6
Continuous
 62
     7
370
    25
100
AcDbLine
 10
144.4469789651
 20
69.3891981729
 30
0.0
 11
145.7095272277
 21
68.6131363969
 31
0.0
  0
LINE
  5
79
330
1F
100
AcDbEntity
  8
0
  6
Continuous
 62
     7
370
    25
100
AcDbLine
 10
144.2161767343
 20
69.3891981729
 30
0.0
 11
144.4469789651
 21
69.3891981729
 31
0.0
  0
LINE
  5
7A
330
1F
100
AcDbEntity
  8
0
  6
Continuous
 62
     7
370
    25
100
AcDbLine
 10
144.2161767343
 20
68.6208584046
 30
0.0
 11
144.2161767343
 21
69.3891981729
 31
0.0
  0
LINE
  5
7B
330
1F
100
AcDbEntity
  8
0
  6
Continuous
 62
     7
370
    25
100
AcDbLine
 10
143.7056662238
 20
68.6208584046
 30
0.0
 11
144.2161767343
 21
68.6208584046
 31
0.0
  0
LINE
  5
7C
330
1F
100
AcDbEntity
  8
0
  6
Continuous
 62
     7
370
    25
100
AcDbLine
 10
143.7056662238
 20
68.3467271305
 30
0.0
 11
143.7056662238
 21
68.6208584046
 31
0.0
  0
LINE
  5
7D
330
1F
100
AcDbEntity
  8
0
  6
Continuous
 62
     7
370
    25
100
AcDbLine
 10
144.2161767343
 20
68.3467271305
 30
0.0
 11
143.7056662238
 21
68.3467271305
 31
0.0
  0
LINE
  5
7E
330
1F
100
AcDbEntity
  8
0
  6
Continuous
 62
     7
370
    25
100
AcDbLine
 10
144.2161767343
 20
68.1034838872
 30
0.0
 11
144.2161767343
 21
68.3467271305
 31
0.0
  0
LINE
  5
7F
330
1F
100
AcDbEntity
  8
0
  6
Continuous
 62
     7
370
    25
100
AcDbLine
 10
144.4353959535
 20
68.1034838872
 30
0.0
 11
144.2161767343
 21
68.1034838872
 31
0.0
  0
LINE
  5
80
330
1F
100
AcDbEntity
  8
0
  6
Continuous
 62
     7
370
    25
100
AcDbLine
 10
144.4353959535
 20
68.3467271305
 30
0.0
 11
144.4353959535
 21
68.1034838872
 31
0.0
  0
LINE
  5
81
330
1F
100
AcDbEntity
  8
0
  6
Continuous
 62
     7
370
    25
100
AcDbLine
 10
145.7095272277
 20
68.3467271305
 30
0.0
 11
144.4353959535
 21
68.3467271305
 31
0.0
  0
LINE
  5
82
330
1F
100
AcDbEntity
  8
0
  6
Continuous
 62
     7
370
    25
100
AcDbLine
 10
145.7095272277
 20
68.6131363969
 30
0.0
 11
145.7095272277
 21
68.3467271305
 31
0.0
  0
SPLINE
  5
83
330
1F
100
AcDbEntity
  8
0
  6
Continuous
 62
     7
370
    25
100
AcDbSpline
210
0.0
220
0.0
230
1.0
 70
     8
 71
     3
 72
    15
 73
    11
 74
     0
 42
0.00000001
 43
0.00000001
 40
0.0
 40
0.0
 40
0.0
 40
0.0
 40
0.119504086310743
 40
0.238381525584371
 40
0.3571090773014073
 40
0.4777214423508237
 40
0.6009465942306378
 40
0.7281225224148409
 40
0.8606317931271524
 40
0.9999999999999999
 40
0.9999999999999999
 40
0.9999999999999999
 40
0.9999999999999999
 10
143.6825002006296
 20
70.22317500689987
 30
0.0
 10
143.6829655736457
 20
70.24036591202157
 30
0.0
 10
143.6838938793882
 20
70.2746575778181
 30
0.0
 10
143.6923057176139
 20
70.32547608742162
 30
0.0
 10
143.7062603859325
 20
70.37512542380962
 30
0.0
 10
143.7251015365843
 20
70.42382587458722
 30
0.0
 10
143.7497515518914
 20
70.4712624555277
 30
0.0
 10
143.7802006351957
 20
70.51720140636785
 30
0.0
 10
143.8153662116017
 20
70.56264716708536
 30
0.0
 10
143.8423917199062
 20
70.59092088494981
 30
0.0
 10
143.8562453743747
 20
70.60541438913926
 30
0.0
  0
SPLINE
  5
84
330
1F
100
AcDbEntity
  8
0
  6
Continuous
 62
     7
370
    25
100
AcDbSpline
210
0.0
220
0.0
230
1.0
 70
     8
 71
     3
 72
    15
 73
    11
 74
     0
 42
0.00000001
 43
0.00000001
 40
0.0
 40
0.0
 40
0.0
 40
0.0
 40
0.1171086905579885
 40
0.2333993299620633
 40
0.3506160626962325
 40
0.4711822020542326
 40
0.5946445890795227
 40
0.7237659205994511
 40
0.8581711095996146
 40
1.0
 40
1.0
 40
1.0
 40
1.0
 10
143.8214963396257
 20
69.84093562466049
 30
0.0
 10
143.8103589235977
 20
69.85286025888273
 30
0.0
 10
143.7881618908579
 20
69.87662622897639
 30
0.0
 10
143.7596397567787
 20
69.91645180280554
 30
0.0
 10
143.7361136260419
 20
69.95986200592476
 30
0.0
 10
143.7161563770521
 20
70.00613568478178
 30
0.0
 10
143.7013851300257
 20
70.05603971405003
 30
0.0
 10
143.690074447512
 20
70.10877526216558
 30
0.0
 10
143.6836815401663
 20
70.16495977561551
 30
0.0
 10
143.682900972972
 20
70.20342534655231
 30
0.0
 10
143.6825002006296
 20
70.22317500689987
 30
0.0
  0
SPLINE
  5
85
330
1F
100
AcDbEntity
  8
0
  6
Continuous
 62
     7
370
    25
100
AcDbSpline
210
0.0
220
0.0
230
1.0
 70
     8
 71
     3
 72
    15
 73
    11
 74
     0
 42
0.00000001
 43
0.00000001
 40
0.0
 40
0.0
 40
0.0
 40
0.0
 40
0.1476270724396863
 40
0.2864810592714898
 40
0.4181894659268072
 40
0.542880884113735
 40
0.6619178330920036
 40
0.7770087505932002
 40
0.8893050437597241
 40
1.0
 40
1.0
 40
1.0
 40
1.0
 10
144.3658978840272
 20
69.6556074393323
 30
0.0
 10
144.3368483105245
 20
69.65618891508396
 30
0.0
 10
144.280475502672
 20
69.65731731102461
 30
0.0
 10
144.1985243521096
 20
69.66588305215211
 30
0.0
 10
144.1220476743548
 20
69.68041880789843
 30
0.0
 10
144.0507852253373
 20
69.70032765200055
 30
0.0
 10
143.9851610653559
 20
69.72673498094076
 30
0.0
 10
143.9247008811645
 20
69.75842985531547
 30
0.0
 10
143.8695984211026
 20
69.7961460748919
 30
0.0
 10
143.8374534206019
 20
69.82607742205052
 30
0.0
 10
143.8214963396257
 20
69.84093562466049
 30
0.0
  0
SPLINE
  5
86
330
1F
100
AcDbEntity
  8
0
  6
Continuous
 62
     7
370
    25
100
AcDbSpline
210
0.0
220
0.0
230
1.0
 70
     8
 71
     3
 72
    15
 73
    11
 74
     0
 42
0.00000001
 43
0.00000001
 40
0.0
 40
0.0
 40
0.0
 40
0.0
 40
0.1094376231375986
 40
0.2200197609697446
 40
0.334372192853603
 40
0.4529129170384313
 40
0.5777009796868828
 40
0.7100641746072383
 40
0.8508042784674905
 40
1.0
 40
1.0
 40
1.0
 40
1.0
 10
144.8871334052627
 20
69.82935261307748
 30
0.0
 10
144.8720281393149
 20
69.8153522349345
 30
0.0
 10
144.8416596343353
 20
69.78720506064296
 30
0.0
 10
144.7892649921783
 20
69.75208312176926
 30
0.0
 10
144.7320671167447
 20
69.72194641720995
 30
0.0
 10
144.6693163066518
 20
69.69741525020072
 30
0.0
 10
144.6011083387438
 20
69.67875797943768
 30
0.0
 10
144.5275131373527
 20
69.66508460655903
 30
0.0
 10
144.4484521430978
 20
69.65689182177614
 30
0.0
 10
144.3939458398934
 20
69.65604381054447
 30
0.0
 10
144.3658978840272
 20
69.6556074393323
 30
0.0
  0
SPLINE
  5
87
330
1F
100
AcDbEntity
  8
0
  6
Continuous
 62
     7
370
    25
100
AcDbSpline
210
0.0
220
0.0
230
1.0
 70
     8
 71
     3
 72
    15
 73
    11
 74
     0
 42
0.00000001
 43
0.00000001
 40
0.0
 40
0.0
 40
0.0
 40
0.0
 40
0.1328879382642809
 40
0.2611764415433324
 40
0.3862019221938184
 40
0.5075747214113127
 40
0.6293724124715365
 40
0.7508835925620002
 40
0.8736128964297312
 40
0.9999999999999999
 40
0.9999999999999999
 40
0.9999999999999999
 40
0.9999999999999999
 10
145.0261295442589
 20
70.17684296056783
 30
0.0
 10
145.0257204336191
 20
70.15980802324161
 30
0.0
 10
145.0249163722234
 20
70.1263277512855
 30
0.0
 10
145.0184858048171
 20
70.07712750708417
 30
0.0
 10
145.0071608168468
 20
70.03039796783256
 30
0.0
 10
144.9922311058434
 20
69.98553653917266
 30
0.0
 10
144.9722197608594
 20
69.94320698339514
 30
0.0
 10
144.9487867198391
 20
69.90247900620277
 30
0.0
 10
144.920074023042
 20
69.86446610314533
 30
0.0
 10
144.89822056996
 20
69.84117112389248
 30
0.0
 10
144.8871334052627
 20
69.82935261307748
 30
0.0
  0
SPLINE
  5
88
330
1F
100
AcDbEntity
  8
0
  6
Continuous
 62
     7
370
    25
100
AcDbSpline
210
0.0
220
0.0
230
1.0
 70
     8
 71
     3
 72
    15
 73
    11
 74
     0
 42
0.00000001
 43
0.00000001
 40
0.0
 40
0.0
 40
0.0
 40
0.0
 40
0.127711854033613
 40
0.2523621141955308
 40
0.3748537650566257
 40
0.4969693854038486
 40
0.6192731655242183
 40
0.7424854443019971
 40
0.8694478780376611
 40
0.9999999999999999
 40
0.9999999999999999
 40
0.9999999999999999
 40
0.9999999999999999
 10
144.9218824400118
 20
70.43166921539408
 30
0.0
 10
144.9302487134701
 20
70.4229864366355
 30
0.0
 10
144.9467806984909
 20
70.4058290284905
 30
0.0
 10
144.9675914081953
 20
70.37715557716109
 30
0.0
 10
144.9860077745747
 20
70.34753993404337
 30
0.0
 10
145.0004069600552
 20
70.31599712832495
 30
0.0
 10
145.0121888039635
 20
70.2833426699824
 30
0.0
 10
145.0203589925974
 20
70.2491065005967
 30
0.0
 10
145.0250573685201
 20
70.21343985357866
 30
0.0
 10
145.025768846405
 20
70.18915476757121
 30
0.0
 10
145.0261295442589
 20
70.17684296056783
 30
0.0
  0
SPLINE
  5
89
330
1F
100
AcDbEntity
  8
0
  6
Continuous
 62
     7
370
    25
100
AcDbSpline
210
0.0
220
0.0
230
1.0
 70
     8
 71
     3
 72
    11
 73
     7
 74
     0
 42
0.00000001
 43
0.00000001
 40
0.0
 40
0.0
 40
0.0
 40
0.0
 40
0.2456044615709272
 40
0.4924340960494095
 40
0.7435400941223391
 40
1.0
 40
1.0
 40
1.0
 40
1.0
 10
144.7713032894326
 20
70.5474993312242
 30
0.0
 10
144.7847386505721
 20
70.53955847852285
 30
0.0
 10
144.8116763937852
 20
70.52363716098307
 30
0.0
 10
144.8498676055277
 20
70.4957702615604
 30
0.0
 10
144.886972720206
 20
70.4653986286259
 30
0.0
 10
144.9101643235026
 20
70.44299113938077
 30
0.0
 10
144.9218824400118
 20
70.43166921539408
 30
0.0
  0
SPLINE
  5
8A
330
1F
100
AcDbEntity
  8
0
  6
Continuous
 62
     7
370
    25
100
AcDbSpline
210
0.0
220
0.0
230
1.0
 70
     8
 71
     3
 72
    15
 73
    11
 74
     0
 42
0.00000001
 43
0.00000001
 40
0.0
 40
0.0
 40
0.0
 40
0.0
 40
0.0964433484801641
 40
0.1980702687146756
 40
0.3069659373397293
 40
0.4243879496894927
 40
0.551351396246796
 40
0.6889628351337207
 40
0.8385011961339893
 40
0.9999999999999999
 40
0.9999999999999999
 40
0.9999999999999999
 40
0.9999999999999999
 10
145.4199519380813
 20
70.362171145896
 30
0.0
 10
145.4034792663408
 20
70.3771236976556
 30
0.0
 10
145.3696485608593
 20
70.40783246079647
 30
0.0
 10
145.309347774763
 20
70.44543215606654
 30
0.0
 10
145.2405953738957
 20
70.47698094955085
 30
0.0
 10
145.1633883969776
 20
70.5031294441083
 30
0.0
 10
145.0775501006592
 20
70.52289972882335
 30
0.0
 10
144.983215737393
 20
70.53741067928917
 30
0.0
 10
144.8801355316703
 20
70.54580875400329
 30
0.0
 10
144.8084989276622
 20
70.54692154198257
 30
0.0
 10
144.7713032894326
 20
70.5474993312242
 30
0.0
  0
SPLINE
  5
8B
330
1F
100
AcDbEntity
  8
0
  6
Continuous
 62
     7
370
    25
100
AcDbSpline
210
0.0
220
0.0
230
1.0
 70
     8
 71
     3
 72
    11
 73
     7
 74
     0
 42
0.00000001
 43
0.00000001
 40
0.0
 40
0.0
 40
0.0
 40
0.0
 40
0.2600145085164573
 40
0.5081836035516306
 40
0.7509482378681005
 40
1.0
 40
1.0
 40
1.0
 40
1.0
 10
145.4894500075793
 20
70.18842597215082
 30
0.0
 10
145.4886654989255
 20
70.20510245351547
 30
0.0
 10
145.4871322212749
 20
70.23769569011135
 30
0.0
 10
145.4739357769537
 20
70.2843610046559
 30
0.0
 10
145.4517843150439
 20
70.3267836026685
 30
0.0
 10
145.4306527753133
 20
70.35027519666906
 30
0.0
 10
145.4199519380813
 20
70.362171145896
 30
0.0
  0
SPLINE
  5
8C
330
1F
100
AcDbEntity
  8
0
  6
Continuous
 62
     7
370
    25
100
AcDbSpline
210
0.0
220
0.0
230
1.0
 70
     8
 71
     3
 72
    11
 73
     7
 74
     0
 42
0.00000001
 43
0.00000001
 40
0.0
 40
0.0
 40
0.0
 40
0.0
 40
0.249051762131899
 40
0.4918163964483704
 40
0.739985491483541
 40
1.0
 40
1.0
 40
1.0
 40
1.0
 10
145.4199519380813
 20
70.01468079840566
 30
0.0
 10
145.4306527753133
 20
70.02657674763262
 30
0.0
 10
145.4517843150439
 20
70.05006834163318
 30
0.0
 10
145.4739357769537
 20
70.09249093964577
 30
0.0
 10
145.4871322212749
 20
70.13915625419033
 30
0.0
 10
145.4886654989255
 20
70.17174949078621
 30
0.0
 10
145.4894500075793
 20
70.18842597215082
 30
0.0
  0
SPLINE
  5
8D
330
1F
100
AcDbEntity
  8
0
  6
Continuous
 62
     7
370
    25
100
AcDbSpline
210
0.0
220
0.0
230
1.0
 70
     8
 71
     3
 72
    15
 73
    11
 74
     0
 42
0.00000001
 43
0.00000001
 40
0.0
 40
0.0
 40
0.0
 40
0.0
 40
0.1575795759530234
 40
0.3051873770201198
 40
0.4403374772752366
 40
0.5671048604317458
 40
0.6842314239145105
 40
0.7956973262442272
 40
0.8993807647161663
 40
1.0
 40
1.0
 40
1.0
 40
1.0
 10
145.1882917064211
 20
69.9451827289076
 30
0.0
 10
145.2013077780726
 20
69.94550191850867
 30
0.0
 10
145.2265162528536
 20
69.94612009911066
 30
0.0
 10
145.2628384653479
 20
69.94879490300472
 30
0.0
 10
145.2962455265736
 20
69.95448280784916
 30
0.0
 10
145.3266196564775
 20
69.96219596641137
 30
0.0
 10
145.3545330236243
 20
69.9714744673264
 30
0.0
 10
145.3793387162489
 20
69.98340297917716
 30
0.0
 10
145.4013055340228
 20
69.99768831748376
 30
0.0
 10
145.4137989301749
 20
70.00907355804264
 30
0.0
 10
145.4199519380813
 20
70.01468079840566
 30
0.0
  0
LINE
  5
8E
330
1F
100
AcDbEntity
  8
0
  6
Continuous
 62
     7
370
    25
100
AcDbLine
 10
145.1882917064
 20
69.6787734625
 30
0.0
 11
145.1882917064
 21
69.9451827289
 31
0.0
  0
SPLINE
  5
8F
330
1F
100
AcDbEntity
  8
0
  6
Continuous
 62
     7
370
    25
100
AcDbSpline
210
0.0
220
0.0
230
1.0
 70
     8
 71
     3
 72
    15
 73
    11
 74
     0
 42
0.00000001
 43
0.00000001
 40
0.0
 40
0.0
 40
0.0
 40
0.0
 40
0.1244915194717257
 40
0.2464474751764523
 40
0.3675919258474114
 40
0.4881209488130424
 40
0.6115333728269712
 40
0.7365382274243163
 40
0.8657522427262367
 40
1.0
 40
1.0
 40
1.0
 40
1.0
 10
145.5705310886604
 20
69.82935261307748
 30
0.0
 10
145.5577203470502
 20
69.81739618564062
 30
0.0
 10
145.5323597848337
 20
69.79372685164543
 30
0.0
 10
145.4909858658303
 20
69.76246313378273
 30
0.0
 10
145.4465719927043
 20
69.73684055104131
 30
0.0
 10
145.3997205669124
 20
69.71562032433268
 30
0.0
 10
145.3505047523842
 20
69.69874528640845
 30
0.0
 10
145.2985086085737
 20
69.68748672440809
 30
0.0
 10
145.2442978571433
 20
69.67969234543096
 30
0.0
 10
145.2071967101076
 20
69.67908363352427
 30
0.0
 10
145.1882917064211
 20
69.67877346249833
 30
0.0
  0
SPLINE
  5
90
330
1F
100
AcDbEntity
  8
0
  6
Continuous
 62
     7
370
    25
100
AcDbSpline
210
0.0
220
0.0
230
1.0
 70
     8
 71
     3
 72
    15
 73
    11
 74
     0
 42
0.00000001
 43
0.00000001
 40
0.0
 40
0.0
 40
0.0
 40
0.0
 40
0.1356800108501694
 40
0.26684158977711
 40
0.3926005974967501
 40
0.5157318537894207
 40
0.6360998884170289
 40
0.7560959929543317
 40
0.8771413117267549
 40
0.9999999999999999
 40
0.9999999999999999
 40
0.9999999999999999
 40
0.9999999999999999
 10
145.7095272276566
 20
70.18842597215082
 30
0.0
 10
145.7091101656172
 20
70.17053569191656
 30
0.0
 10
145.7082899305882
 20
70.13535091569668
 30
0.0
 10
145.7019966079681
 20
70.08384457192943
 30
0.0
 10
145.6904398382839
 20
70.03503497521801
 30
0.0
 10
145.6759179772297
 20
69.98846187684246
 30
0.0
 10
145.6556031630492
 20
69.94494152460733
 30
0.0
 10
145.6321779670939
 20
69.90338412208585
 30
0.0
 10
145.6037373139867
 20
69.8645491441307
 30
0.0
 10
145.5816545571543
 20
69.84114279700883
 30
0.0
 10
145.5705310886604
 20
69.82935261307748
 30
0.0
  0
SPLINE
  5
91
330
1F
100
AcDbEntity
  8
0
  6
Continuous
 62
     7
370
    25
100
AcDbSpline
210
0.0
220
0.0
230
1.0
 70
     8
 71
     3
 72
    15
 73
    11
 74
     0
 42
0.00000001
 43
0.00000001
 40
0.0
 40
0.0
 40
0.0
 40
0.0
 40
0.1263812889588913
 40
0.2491049464973158
 40
0.3706105362999229
 40
0.4913917559424307
 40
0.613815845553266
 40
0.7388355742356976
 40
0.8671181754268793
 40
1.0
 40
1.0
 40
1.0
 40
1.0
 10
145.5705310886604
 20
70.53591631964117
 30
0.0
 10
145.5816166410099
 20
70.52409709347461
 30
0.0
 10
145.6034669160599
 20
70.50080070422176
 30
0.0
 10
145.632202843222
 20
70.46279810779856
 30
0.0
 10
145.6554844491387
 20
70.42214413764492
 30
0.0
 10
145.6758352258302
 20
70.379959851512
 30
0.0
 10
145.6904558758977
 20
70.33497672481491
 30
0.0
 10
145.7019030344676
 20
70.28814863132912
 30
0.0
 10
145.7083089098072
 20
70.2389392844372
 30
0.0
 10
145.7091163817252
 20
70.20546026976463
 30
0.0
 10
145.7095272276566
 20
70.18842597215082
 30
0.0
  0
SPLINE
  5
92
330
1F
100
AcDbEntity
  8
0
  6
Continuous
 62
     7
370
    25
100
AcDbSpline
210
0.0
220
0.0
230
1.0
 70
     8
 71
     3
 72
    23
 73
    19
 74
     0
 42
0.00000001
 43
0.00000001
 40
0.0
 40
0.0
 40
0.0
 40
0.0
 40
0.0796294701120215
 40
0.15668420677995
 40
0.2308342243899715
 40
0.302527806527298
 40
0.3715101076111978
 40
0.4382633308465719
 40
0.5024649722906295
 40
0.5646604536693953
 40
0.6245612367645358
 40
0.6823215461207703
 40
0.7385115542781727
 40
0.7932995870703852
 40
0.8467205107566449
 40
0.8985430522702744
 40
0.9498534420925909
 40
1.0
 40
1.0
 40
1.0
 40
1.0
 10
144.6554731736025
 20
70.81390859763347
 30
0.0
 10
144.6815003706855
 20
70.81358229696461
 30
0.0
 10
144.7327132033706
 20
70.8129402462088
 30
0.0
 10
144.8081422140704
 20
70.81023695691027
 30
0.0
 10
144.8807733853025
 20
70.80430961519687
 30
0.0
 10
144.950674940353
 20
70.79744184309357
 30
0.0
 10
145.0177513477809
 20
70.78736687409317
 30
0.0
 10
145.082036499371
 20
70.77550551776957
 30
0.0
 10
145.143575838715
 20
70.7612960933578
 30
0.0
 10
145.2023014845099
 20
70.74510019156561
 30
0.0
 10
145.2581615460296
 20
70.7266816102864
 30
0.0
 10
145.3111384633468
 20
70.7060338346963
 30
0.0
 10
145.3613923732398
 20
70.68325084985837
 30
0.0
 10
145.4091864717107
 20
70.65858581532264
 30
0.0
 10
145.4536513963367
 20
70.63095160910594
 30
0.0
 10
145.4956920444151
 20
70.60172870207238
 30
0.0
 10
145.534654489202
 20
70.57012252723261
 30
0.0
 10
145.558664028168
 20
70.54723085727385
 30
0.0
 10
145.5705310886604
 20
70.53591631964117
 30
0.0
  0
LINE
  5
93
330
1F
100
AcDbEntity
  8
0
  6
Continuous
 62
     7
370
    25
100
AcDbLine
 10
145.1187936369
 20
72.0069587907
 30
0.0
 11
145.1187936369
 21
72.2617850455
 31
0.0
  0
SPLINE
  5
94
330
1F
100
AcDbEntity
  8
0
  6
Continuous
 62
     7
370
    25
100
AcDbSpline
210
0.0
220
0.0
230
1.0
 70
     8
 71
     3
 72
    15
 73
    11
 74
     0
 42
0.00000001
 43
0.00000001
 40
0.0
 40
0.0
 40
0.0
 40
0.0
 40
0.1017738366845025
 40
0.2081280746103135
 40
0.3195222361320723
 40
0.4377158324105367
 40
0.5640612668215818
 40
0.7002741501736237
 40
0.8452618826189012
 40
1.0
 40
1.0
 40
1.0
 40
1.0
 10
145.4199519380813
 20
71.90271168643656
 30
0.0
 10
145.4118497718631
 20
71.91024119617799
 30
0.0
 10
145.3952807958856
 20
71.92563908640494
 30
0.0
 10
145.3661486980092
 20
71.94472293118442
 30
0.0
 10
145.3337002005208
 20
71.9613845535112
 30
0.0
 10
145.2979700459113
 20
71.9762679245788
 30
0.0
 10
145.2581252289892
 20
71.98742828512276
 30
0.0
 10
145.2149331192404
 20
71.99707289654089
 30
0.0
 10
145.1679697937716
 20
72.00321736323114
 30
0.0
 10
145.1355373756567
 20
72.00568489114026
 30
0.0
 10
145.118793636923
 20
72.00695879068365
 30
0.0
  0
SPLINE
  5
95
330
1F
100
AcDbEntity
  8
0
  6
Continuous
 62
     7
370
    25
100
AcDbSpline
210
0.0
220
0.0
230
1.0
 70
     8
 71
     3
 72
    11
 73
     7
 74
     0
 42
0.00000001
 43
0.00000001
 40
0.0
 40
0.0
 40
0.0
 40
0.0
 40
0.2450868805219028
 40
0.4875552456976426
 40
0.7346288455311488
 40
1.0
 40
1.0
 40
1.0
 40
1.0
 10
145.5010330191624
 20
71.71738350110837
 30
0.0
 10
145.5000257831889
 20
71.73437083028682
 30
0.0
 10
145.4980220725804
 20
71.76816399552565
 30
0.0
 10
145.4823242340246
 20
71.81705520981102
 30
0.0
 10
145.456432995772
 20
71.86292683274341
 30
0.0
 10
145.4323983541117
 20
71.88913809860443
 30
0.0
 10
145.4199519380813
 20
71.90271168643656
 30
0.0
  0
SPLINE
  5
96
330
1F
100
AcDbEntity
  8
0
  6
Continuous
 62
     7
370
    25
100
AcDbSpline
210
0.0
220
0.0
230
1.0
 70
     8
 71
     3
 72
    11
 73
     7
 74
     0
 42
0.00000001
 43
0.00000001
 40
0.0
 40
0.0
 40
0.0
 40
0.0
 40
0.2388203430261967
 40
0.477799411008105
 40
0.7288233729769931
 40
1.0
 40
1.0
 40
1.0
 40
1.0
 10
145.4315349496643
 20
71.53205531578018
 30
0.0
 10
145.4422780823948
 20
71.54422127296249
 30
0.0
 10
145.4637714879648
 20
71.56856127307469
 30
0.0
 10
145.4857479153142
 20
71.61334628848988
 30
0.0
 10
145.4988272538886
 20
71.66358248473391
 30
0.0
 10
145.5002790877728
 20
71.6989942937347
 30
0.0
 10
145.5010330191624
 20
71.71738350110837
 30
0.0
  0
SPLINE
  5
97
330
1F
100
AcDbEntity
  8
0
  6
Continuous
 62
     7
370
    25
100
AcDbSpline
210
0.0
220
0.0
230
1.0
 70
     8
 71
     3
 72
    15
 73
    11
 74
     0
 42
0.00000001
 43
0.00000001
 40
0.0
 40
0.0
 40
0.0
 40
0.0
 40
0.1380420997033145
 40
0.2691721599589613
 40
0.3953313456434698
 40
0.5186017941434373
 40
0.63929855152241
 40
0.760080561786729
 40
0.8784957553092652
 40
1.0
 40
1.0
 40
1.0
 40
1.0
 10
145.1882917064211
 20
71.43939122311609
 30
0.0
 10
145.2006133732954
 20
71.43952373273603
 30
0.0
 10
145.2246397369481
 20
71.43978211695858
 30
0.0
 10
145.2595308137407
 20
71.4451286796978
 30
0.0
 10
145.2929202766397
 20
71.45142185374903
 30
0.0
 10
145.3241999375199
 20
71.46213418936274
 30
0.0
 10
145.3542486533255
 20
71.47473214406942
 30
0.0
 10
145.3817750342429
 20
71.49132682746719
 30
0.0
 10
145.4082680958888
 20
71.50969347701783
 30
0.0
 10
145.4237130452678
 20
71.52453766141153
 30
0.0
 10
145.4315349496643
 20
71.53205531578018
 30
0.0
  0
SPLINE
  5
98
330
1F
100
AcDbEntity
  8
0
  6
Continuous
 62
     7
370
    25
100
AcDbSpline
210
0.0
220
0.0
230
1.0
 70
     8
 71
     3
 72
    15
 73
    11
 74
     0
 42
0.00000001
 43
0.00000001
 40
0.0
 40
0.0
 40
0.0
 40
0.0
 40
0.1133059292696167
 40
0.2263015370273193
 40
0.3429947497841048
 40
0.4612849748553934
 40
0.5864354642724736
 40
0.7160226876888955
 40
0.8547540019702777
 40
1.0
 40
1.0
 40
1.0
 40
1.0
 10
144.9218824400118
 20
71.53205531578018
 30
0.0
 10
144.9298265068222
 20
71.5245048588811
 30
0.0
 10
144.9456928832867
 20
71.50942462422317
 30
0.0
 10
144.9734943301416
 20
71.49123784929529
 30
0.0
 10
145.0027506395215
 20
71.47463576337005
 30
0.0
 10
145.0351862541861
 20
71.4618990539398
 30
0.0
 10
145.0696993583604
 20
71.45140331608641
 30
0.0
 10
145.1071898235784
 20
71.44502373538674
 30
0.0
 10
145.1468201409262
 20
71.43980667982038
 30
0.0
 10
145.1742580349614
 20
71.4395318105963
 30
0.0
 10
145.1882917064211
 20
71.43939122311609
 30
0.0
  0
SPLINE
  5
99
330
1F
100
AcDbEntity
  8
0
  6
Continuous
 62
     7
370
    25
100
AcDbSpline
210
0.0
220
0.0
230
1.0
 70
     8
 71
     3
 72
    11
 73
     7
 74
     0
 42
0.00000001
 43
0.00000001
 40
0.0
 40
0.0
 40
0.0
 40
0.0
 40
0.2322932923175278
 40
0.468218608103474
 40
0.7217939329173709
 40
1.0
 40
1.0
 40
1.0
 40
1.0
 10
144.8292183473477
 20
71.72896651269139
 30
0.0
 10
144.8304431550318
 20
71.71166416875164
 30
0.0
 10
144.8329119208896
 20
71.67678894994711
 30
0.0
 10
144.8513206184403
 20
71.625700412734
 30
0.0
 10
144.8811213540381
 20
71.57657926255696
 30
0.0
 10
144.9078822461902
 20
71.54734793788988
 30
0.0
 10
144.9218824400118
 20
71.53205531578018
 30
0.0
  0
LINE
  5
9A
330
1F
100
AcDbEntity
  8
0
  6
Continuous
 62
     7
370
    25
100
AcDbLine
 10
144.8292183473
 20
71.7984645822
 30
0.0
 11
144.8292183473
 21
71.7289665127
 31
0.0
  0
LINE
  5
9B
330
1F
100
AcDbEntity
  8
0
  6
Continuous
 62
     7
370
    25
100
AcDbLine
 10
144.6323071504
 20
71.7984645822
 30
0.0
 11
144.8292183473
 21
71.7984645822
 31
0.0
  0
LINE
  5
9C
330
1F
100
AcDbEntity
  8
0
  6
Continuous
 62
     7
370
    25
100
AcDbLine
 10
144.6323071504
 20
71.7058004895
 30
0.0
 11
144.6323071504
 21
71.7984645822
 31
0.0
  0
SPLINE
  5
9D
330
1F
100
AcDbEntity
  8
0
  6
Continuous
 62
     7
370
    25
100
AcDbSpline
210
0.0
220
0.0
230
1.0
 70
     8
 71
     3
 72
    11
 73
     7
 74
     0
 42
0.00000001
 43
0.00000001
 40
0.0
 40
0.0
 40
0.0
 40
0.0
 40
0.2676320905605554
 40
0.5177929452577197
 40
0.757031548782957
 40
1.0
 40
1.0
 40
1.0
 40
1.0
 10
144.5396430577724
 20
71.49730628103116
 30
0.0
 10
144.5539569593605
 20
71.51263900930505
 30
0.0
 10
144.5816503396495
 20
71.54230353314877
 30
0.0
 10
144.6101723001435
 20
71.59454444762184
 30
0.0
 10
144.6295022908143
 20
71.64896775606528
 30
0.0
 10
144.6313673884165
 20
71.6867588077342
 30
0.0
 10
144.6323071504365
 20
71.70580048952534
 30
0.0
  0
SPLINE
  5
9E
330
1F
100
AcDbEntity
  8
0
  6
Continuous
 62
     7
370
    25
100
AcDbSpline
210
0.0
220
0.0
230
1.0
 70
     8
 71
     3
 72
    15
 73
    11
 74
     0
 42
0.00000001
 43
0.00000001
 40
0.0
 40
0.0
 40
0.0
 40
0.0
 40
0.1417962611116215
 40
0.2768819513476974
 40
0.4055805706087828
 40
0.5298229690785616
 40
0.6485572024501449
 40
0.7672114666371236
 40
0.8821786188665557
 40
1.0
 40
1.0
 40
1.0
 40
1.0
 10
144.2848168029461
 20
71.40464218836705
 30
0.0
 10
144.2979945049746
 20
71.40477764840705
 30
0.0
 10
144.3237262684451
 20
71.40504215778066
 30
0.0
 10
144.361055103929
 20
71.41034809981193
 30
0.0
 10
144.396571563339
 20
71.41663896888991
 30
0.0
 10
144.4294928966773
 20
71.42721106128477
 30
0.0
 10
144.4606033134426
 20
71.440004770602
 30
0.0
 10
144.4889447025147
 20
71.45644929245341
 30
0.0
 10
144.5159281336027
 20
71.4749440587834
 30
0.0
 10
144.5316737305982
 20
71.48979152516856
 30
0.0
 10
144.5396430577724
 20
71.49730628103116
 30
0.0
  0
SPLINE
  5
9F
330
1F
100
AcDbEntity
  8
0
  6
Continuous
 62
     7
370
    25
100
AcDbSpline
210
0.0
220
0.0
230
1.0
 70
     8
 71
     3
 72
    15
 73
    11
 74
     0
 42
0.00000001
 43
0.00000001
 40
0.0
 40
0.0
 40
0.0
 40
0.0
 40
0.1062344532908172
 40
0.2134351374465923
 40
0.3266362515327413
 40
0.445447807434634
 40
0.570912586560857
 40
0.7047818913259151
 40
0.8472638984122983
 40
1.0
 40
1.0
 40
1.0
 40
1.0
 10
143.9952415133709
 20
71.49730628103116
 30
0.0
 10
144.0033228728487
 20
71.48974313570247
 30
0.0
 10
144.0195590939379
 20
71.47454805620849
 30
0.0
 10
144.0483474294091
 20
71.45630003484145
 30
0.0
 10
144.0794802671317
 20
71.43959372456561
 30
0.0
 10
144.1146210480513
 20
71.4272187224131
 30
0.0
 10
144.1524977219042
 20
71.41647854137506
 30
0.0
 10
144.1938758609273
 20
71.41032847420833
 30
0.0
 10
144.2382063704528
 20
71.40500426960952
 30
0.0
 10
144.2689243398567
 20
71.40476564490831
 30
0.0
 10
144.2848168029461
 20
71.40464218836705
 30
0.0
  0
SPLINE
  5
A0
330
1F
100
AcDbEntity
  8
0
  6
Continuous
 62
     7
370
    25
100
AcDbSpline
210
0.0
220
0.0
230
1.0
 70
     8
 71
     3
 72
    15
 73
    11
 74
     0
 42
0.00000001
 43
0.00000001
 40
0.0
 40
0.0
 40
0.0
 40
0.0
 40
0.1380420997033145
 40
0.2691721599589621
 40
0.3953313456434698
 40
0.518601794143437
 40
0.6392985515224108
 40
0.760080561786729
 40
0.8784957553092647
 40
1.0
 40
1.0
 40
1.0
 40
1.0
 10
143.9025774207068
 20
71.74054952427439
 30
0.0
 10
143.9027099303267
 20
71.72822785740004
 30
0.0
 10
143.9029683145493
 20
71.70420149374729
 30
0.0
 10
143.9083148772885
 20
71.66931041695474
 30
0.0
 10
143.9146080513397
 20
71.63592095405575
 30
0.0
 10
143.9253203869534
 20
71.60464129317549
 30
0.0
 10
143.9379183416601
 20
71.57459257736993
 30
0.0
 10
143.9545130250578
 20
71.54706619645255
 30
0.0
 10
143.9728796746085
 20
71.52057313480661
 30
0.0
 10
143.9877238590022
 20
71.50512818542768
 30
0.0
 10
143.9952415133709
 20
71.49730628103116
 30
0.0
  0
SPLINE
  5
A1
330
1F
100
AcDbEntity
  8
0
  6
Continuous
 62
     7
370
    25
100
AcDbSpline
210
0.0
220
0.0
230
1.0
 70
     8
 71
     3
 72
    11
 73
     7
 74
     0
 42
0.00000001
 43
0.00000001
 40
0.0
 40
0.0
 40
0.0
 40
0.0
 40
0.2550921435312734
 40
0.498379195413479
 40
0.7437399667914605
 40
1.0
 40
1.0
 40
1.0
 40
1.0
 10
143.9836585017879
 20
71.93746072118559
 30
0.0
 10
143.9711647371723
 20
71.92362297067912
 30
0.0
 10
143.9467553913155
 20
71.89658784968998
 30
0.0
 10
143.921005088536
 20
71.84834339636078
 30
0.0
 10
143.9054448669686
 20
71.79585189358863
 30
0.0
 10
143.9035469819328
 20
71.75924875282094
 30
0.0
 10
143.9025774207068
 20
71.74054952427439
 30
0.0
  0
SPLINE
  5
A2
330
1F
100
AcDbEntity
  8
0
  6
Continuous
 62
     7
370
    25
100
AcDbSpline
210
0.0
220
0.0
230
1.0
 70
     8
 71
     3
 72
    15
 73
    11
 74
     0
 42
0.00000001
 43
0.00000001
 40
0.0
 40
0.0
 40
0.0
 40
0.0
 40
0.1305521219623391
 40
0.257514555698003
 40
0.3807268344757818
 40
0.5030306145961514
 40
0.6251462349433743
 40
0.7476378858044684
 40
0.8722881459663865
 40
1.0
 40
1.0
 40
1.0
 40
1.0
 10
144.2384847566141
 20
72.0417078254327
 30
0.0
 10
144.2261729496107
 20
72.04134712757875
 30
0.0
 10
144.2018878636033
 20
72.04063564969387
 30
0.0
 10
144.1662212165852
 20
72.03593727377115
 30
0.0
 10
144.1319850471995
 20
72.0277670851373
 30
0.0
 10
144.099330588857
 20
72.01598524122903
 30
0.0
 10
144.0677877831386
 20
72.00158605574846
 30
0.0
 10
144.0381721400208
 20
71.98316968936915
 30
0.0
 10
144.0094986886914
 20
71.96235897966471
 30
0.0
 10
143.9923412805464
 20
71.94582699464385
 30
0.0
 10
143.9836585017879
 20
71.93746072118559
 30
0.0
  0
LINE
  5
A3
330
1F
100
AcDbEntity
  8
0
  6
Continuous
 62
     7
370
    25
100
AcDbLine
 10
144.3195658377
 20
72.0417078254
 30
0.0
 11
144.2384847566
 21
72.0417078254
 31
0.0
  0
LINE
  5
A4
330
1F
100
AcDbEntity
  8
0
  6
Continuous
 62
     7
370
    25
100
AcDbLine
 10
144.3195658377
 20
72.3158390996
 30
0.0
 11
144.3195658377
 21
72.0417078254
 31
0.0
  0
LINE
  5
A5
330
1F
100
AcDbEntity
  8
0
  6
Continuous
 62
     7
370
    25
100
AcDbLine
 10
144.226901745
 20
72.3158390996
 30
0.0
 11
144.3195658377
 21
72.3158390996
 31
0.0
  0
SPLINE
  5
A6
330
1F
100
AcDbEntity
  8
0
  6
Continuous
 62
     7
370
    25
100
AcDbSpline
210
0.0
220
0.0
230
1.0
 70
     8
 71
     3
 72
    15
 73
    11
 74
     0
 42
0.00000001
 43
0.00000001
 40
0.0
 40
0.0
 40
0.0
 40
0.0
 40
0.1339120169181255
 40
0.2615284644313486
 40
0.3861887226529777
 40
0.5091929985924206
 40
0.6296768122270385
 40
0.751255974435348
 40
0.8742965747069021
 40
1.0
 40
1.0
 40
1.0
 40
1.0
 10
143.8446623627917
 20
72.14595492967979
 30
0.0
 10
143.8582896732181
 20
72.15951975599242
 30
0.0
 10
143.8849036370142
 20
72.1860116891099
 30
0.0
 10
143.9283211957208
 20
72.22063992678953
 30
0.0
 10
143.973546387073
 20
72.25002901073564
 30
0.0
 10
144.0206962572576
 20
72.2740797444248
 30
0.0
 10
144.0697514739254
 20
72.29278063089623
 30
0.0
 10
144.1205363480237
 20
72.30594651779803
 30
0.0
 10
144.173129379889
 20
72.31452206182739
 30
0.0
 10
144.2088501587031
 20
72.31539696501518
 30
0.0
 10
144.2269017450311
 20
72.31583909956396
 30
0.0
  0
SPLINE
  5
A7
330
1F
100
AcDbEntity
  8
0
  6
Continuous
 62
     7
370
    25
100
AcDbSpline
210
0.0
220
0.0
230
1.0
 70
     8
 71
     3
 72
    15
 73
    11
 74
     0
 42
0.00000001
 43
0.00000001
 40
0.0
 40
0.0
 40
0.0
 40
0.0
 40
0.1330514903197377
 40
0.2614008608137416
 40
0.385978942642456
 40
0.5084656149022188
 40
0.6295593452611173
 40
0.7509246542250765
 40
0.8741074588764663
 40
1.0
 40
1.0
 40
1.0
 40
1.0
 10
143.6825002006295
 20
71.74054952427439
 30
0.0
 10
143.6829605728364
 20
71.76045609780611
 30
0.0
 10
143.683865047419
 20
71.79956573456805
 30
0.0
 10
143.6919993408399
 20
71.85680887445993
 30
0.0
 10
143.7040459890452
 20
71.91173276222972
 30
0.0
 10
143.7224481547001
 20
71.96373111604747
 30
0.0
 10
143.7450592367279
 20
72.01350940134985
 30
0.0
 10
143.7734560374476
 20
72.06031404272467
 30
0.0
 10
143.8056844767851
 20
72.10554625332402
 30
0.0
 10
143.8315758418163
 20
72.13238803201305
 30
0.0
 10
143.8446623627917
 20
72.14595492967979
 30
0.0
  0
SPLINE
  5
A8
330
1F
100
AcDbEntity
  8
0
  6
Continuous
 62
     7
370
    25
100
AcDbSpline
210
0.0
220
0.0
230
1.0
 70
     8
 71
     3
 72
    15
 73
    11
 74
     0
 42
0.00000001
 43
0.00000001
 40
0.0
 40
0.0
 40
0.0
 40
0.0
 40
0.1158830802717865
 40
0.2315534497979611
 40
0.3480625771524266
 40
0.46785537839503
 40
0.5925908197539049
 40
0.7213115030172617
 40
0.8571441704632063
 40
1.0
 40
1.0
 40
1.0
 40
1.0
 10
143.8446623627917
 20
71.28881207253694
 30
0.0
 10
143.8315303573986
 20
71.30263645461682
 30
0.0
 10
143.8052904512413
 20
71.33025984324621
 30
0.0
 10
143.7731394320982
 20
71.3777712932574
 30
0.0
 10
143.7446607826777
 20
71.42818237273285
 30
0.0
 10
143.7221470904825
 20
71.48319226686466
 30
0.0
 10
143.7039596050549
 20
71.54185056475973
 30
0.0
 10
143.6918611391022
 20
71.60473591090233
 30
0.0
 10
143.6838443707034
 20
71.67127267293282
 30
0.0
 10
143.6829557221936
 20
71.71707251024883
 30
0.0
 10
143.6825002006295
 20
71.74054952427439
 30
0.0
  0
SPLINE
  5
A9
330
1F
100
AcDbEntity
  8
0
  6
Continuous
 62
     7
370
    25
100
AcDbSpline
210
0.0
220
0.0
230
1.0
 70
     8
 71
     3
 72
    15
 73
    11
 74
     0
 42
0.00000001
 43
0.00000001
 40
0.0
 40
0.0
 40
0.0
 40
0.0
 40
0.1354658418109469
 40
0.2653728839126842
 40
0.3915266279918203
 40
0.514617999244426
 40
0.6353652389705203
 40
0.7554358763572421
 40
0.8764282152102186
 40
1.0
 40
1.0
 40
1.0
 40
1.0
 10
144.2616507797801
 20
71.12664991037478
 30
0.0
 10
144.2408867107679
 20
71.12710449569384
 30
0.0
 10
144.2002106200141
 20
71.12799501256139
 30
0.0
 10
144.1406912101315
 20
71.13616109901204
 30
0.0
 10
144.0837606820719
 20
71.14813377980501
 30
0.0
 10
144.030029302266
 20
71.16651832194478
 30
0.0
 10
143.9789480540381
 20
71.18911101692848
 30
0.0
 10
143.9312416062148
 20
71.2174834312244
 30
0.0
 10
143.8855180707789
 20
71.24983215786756
 30
0.0
 10
143.8583763543888
 20
71.27572772646715
 30
0.0
 10
143.8446623627917
 20
71.28881207253694
 30
0.0
  0
SPLINE
  5
AA
330
1F
100
AcDbEntity
  8
0
  6
Continuous
 62
     7
370
    25
100
AcDbSpline
210
0.0
220
0.0
230
1.0
 70
     8
 71
     3
 72
    15
 73
    11
 74
     0
 42
0.00000001
 43
0.00000001
 40
0.0
 40
0.0
 40
0.0
 40
0.0
 40
0.1195027114365312
 40
0.2380939422658887
 40
0.3566476293726339
 40
0.4775806195769142
 40
0.6003630199241493
 40
0.7278327340041408
 40
0.8606471500295815
 40
1.0
 40
1.0
 40
1.0
 40
1.0
 10
144.6323071504365
 20
71.26564604937091
 30
0.0
 10
144.6205291291336
 20
71.25450656234683
 30
0.0
 10
144.5970629207907
 20
71.23231255228212
 30
0.0
 10
144.557738229581
 20
71.2039101915001
 30
0.0
 10
144.5152247171849
 20
71.18034975952054
 30
0.0
 10
144.4702557631689
 20
71.16038177663647
 30
0.0
 10
144.4220748043542
 20
71.14558362618956
 30
0.0
 10
144.3713514056847
 20
71.1342125361969
 30
0.0
 10
144.3174401051305
 20
71.12784693668956
 30
0.0
 10
144.2805426909744
 20
71.12705525879393
 30
0.0
 10
144.2616507797801
 20
71.12664991037478
 30
0.0
  0
SPLINE
  5
AB
330
1F
100
AcDbEntity
  8
0
  6
Continuous
 62
     7
370
    25
100
AcDbSpline
210
0.0
220
0.0
230
1.0
 70
     8
 71
     3
 72
    11
 73
     7
 74
     0
 42
0.00000001
 43
0.00000001
 40
0.0
 40
0.0
 40
0.0
 40
0.0
 40
0.2570374775372497
 40
0.5073419159098045
 40
0.7523129875772141
 40
1.0
 40
1.0
 40
1.0
 40
1.0
 10
144.7481372662666
 20
71.46255724628212
 30
0.0
 10
144.7419019241927
 20
71.44376949546165
 30
0.0
 10
144.7295945734341
 20
71.40668613474627
 30
0.0
 10
144.7029274612282
 20
71.355123927328
 30
0.0
 10
144.6711109562939
 20
71.30742552413682
 30
0.0
 10
144.6452892027101
 20
71.27962363000744
 30
0.0
 10
144.6323071504365
 20
71.26564604937091
 30
0.0
  0
SPLINE
  5
AC
330
1F
100
AcDbEntity
  8
0
  6
Continuous
 62
     7
370
    25
100
AcDbSpline
210
0.0
220
0.0
230
1.0
 70
     8
 71
     3
 72
    11
 73
     7
 74
     0
 42
0.00000001
 43
0.00000001
 40
0.0
 40
0.0
 40
0.0
 40
0.0
 40
0.273165644554724
 40
0.5274113090719875
 40
0.7672619830757357
 40
1.0
 40
1.0
 40
1.0
 40
1.0
 10
144.8408013589307
 20
71.28881207253694
 30
0.0
 10
144.8283273731675
 20
71.30217403689517
 30
0.0
 10
144.8042433739828
 20
71.32797249015758
 30
0.0
 10
144.776722576561
 20
71.3714585736469
 30
0.0
 10
144.7567801055789
 20
71.41610743288928
 30
0.0
 10
144.7509891606579
 20
71.44723011158666
 30
0.0
 10
144.7481372662666
 20
71.46255724628212
 30
0.0
  0
SPLINE
  5
AD
330
1F
100
AcDbEntity
  8
0
  6
Continuous
 62
     7
370
    25
100
AcDbSpline
210
0.0
220
0.0
230
1.0
 70
     8
 71
     3
 72
    15
 73
    11
 74
     0
 42
0.00000001
 43
0.00000001
 40
0.0
 40
0.0
 40
0.0
 40
0.0
 40
0.1495888260512939
 40
0.2896239650819626
 40
0.421929086193719
 40
0.5465682968532921
 40
0.6661289243466406
 40
0.7799971355270193
 40
0.8908038749321938
 40
1.0
 40
1.0
 40
1.0
 40
1.0
 10
145.1882917064211
 20
71.17298195670682
 30
0.0
 10
145.1695404119754
 20
71.17323892958412
 30
0.0
 10
145.1332353991537
 20
71.17373646342809
 30
0.0
 10
145.0806450564149
 20
71.17962241916491
 30
0.0
 10
145.0315671357697
 20
71.18816343620446
 30
0.0
 10
144.9862867900461
 20
71.20154516924978
 30
0.0
 10
144.9439413468165
 20
71.21668243102236
 30
0.0
 10
144.9060047422837
 20
71.23744037939349
 30
0.0
 10
144.8711893648504
 20
71.26084222478708
 30
0.0
 10
144.8508811362095
 20
71.27953440434821
 30
0.0
 10
144.8408013589307
 20
71.28881207253694
 30
0.0
  0
SPLINE
  5
AE
330
1F
100
AcDbEntity
  8
0
  6
Continuous
 62
     7
370
    25
100
AcDbSpline
210
0.0
220
0.0
230
1.0
 70
     8
 71
     3
 72
    15
 73
    11
 74
     0
 42
0.00000001
 43
0.00000001
 40
0.0
 40
0.0
 40
0.0
 40
0.0
 40
0.1195027114365312
 40
0.2380939422658887
 40
0.3566476293726339
 40
0.4775806195769142
 40
0.6003630199241493
 40
0.7278327340041405
 40
0.8606471500295815
 40
1.0
 40
1.0
 40
1.0
 40
1.0
 10
145.5589480770774
 20
71.31197809570295
 30
0.0
 10
145.5471700557745
 20
71.30083860867889
 30
0.0
 10
145.5237038474316
 20
71.27864459861418
 30
0.0
 10
145.4843791562219
 20
71.25024223783215
 30
0.0
 10
145.4418656438258
 20
71.22668180585259
 30
0.0
 10
145.3968966898098
 20
71.20671382296852
 30
0.0
 10
145.3487157309951
 20
71.1919156725216
 30
0.0
 10
145.2979923323257
 20
71.18054458252894
 30
0.0
 10
145.2440810317714
 20
71.17417898302162
 30
0.0
 10
145.2071836176153
 20
71.17338730512597
 30
0.0
 10
145.1882917064211
 20
71.17298195670682
 30
0.0
  0
SPLINE
  5
AF
330
1F
100
AcDbEntity
  8
0
  6
Continuous
 62
     7
370
    25
100
AcDbSpline
210
0.0
220
0.0
230
1.0
 70
     8
 71
     3
 72
    15
 73
    11
 74
     0
 42
0.00000001
 43
0.00000001
 40
0.0
 40
0.0
 40
0.0
 40
0.0
 40
0.140115695284887
 40
0.2734369515897454
 40
0.4007170918852061
 40
0.5244111544238705
 40
0.6451326608364126
 40
0.7627629456192477
 40
0.8809824433211497
 40
1.0
 40
1.0
 40
1.0
 40
1.0
 10
145.7095272276566
 20
71.71738350110837
 30
0.0
 10
145.7092245260729
 20
71.69662116342406
 30
0.0
 10
145.7086338013997
 20
71.65610328773046
 30
0.0
 10
145.7008648297039
 20
71.59718242399843
 30
0.0
 10
145.6897040869853
 20
71.5413028989328
 30
0.0
 10
145.6726112083757
 20
71.48888432457944
 30
0.0
 10
145.6519175248399
 20
71.43933702456248
 30
0.0
 10
145.6257827922751
 20
71.39332208204355
 30
0.0
 10
145.594862388989
 20
71.35066666985644
 30
0.0
 10
145.5709463320356
 20
71.32490317631719
 30
0.0
 10
145.5589480770774
 20
71.31197809570295
 30
0.0
  0
SPLINE
  5
B0
330
1F
100
AcDbEntity
  8
0
  6
Continuous
 62
     7
370
    25
100
AcDbSpline
210
0.0
220
0.0
230
1.0
 70
     8
 71
     3
 72
    15
 73
    11
 74
     0
 42
0.00000001
 43
0.00000001
 40
0.0
 40
0.0
 40
0.0
 40
0.0
 40
0.1270527522076903
 40
0.2522753243044999
 40
0.3739697899787142
 40
0.4948832629277702
 40
0.6176556772794564
 40
0.7419399124466171
 40
0.8684128160693888
 40
1.0
 40
1.0
 40
1.0
 40
1.0
 10
145.5589480770774
 20
72.08803987176474
 30
0.0
 10
145.5709356466604
 20
72.07539625742373
 30
0.0
 10
145.5947381062816
 20
72.050291158535
 30
0.0
 10
145.62543659506
 20
72.00910615348715
 30
0.0
 10
145.6515067782917
 20
71.9658644850311
 30
0.0
 10
145.6725671543693
 20
71.92035545563675
 30
0.0
 10
145.6895766291819
 20
71.8727679803541
 30
0.0
 10
145.7007174182965
 20
71.82273601097808
 30
0.0
 10
145.7086271081204
 20
71.77083089619562
 30
0.0
 10
145.7092232496651
 20
71.735433139134
 30
0.0
 10
145.7095272276566
 20
71.71738350110837
 30
0.0
  0
SPLINE
  5
B1
330
1F
100
AcDbEntity
  8
0
  6
Continuous
 62
     7
370
    25
100
AcDbSpline
210
0.0
220
0.0
230
1.0
 70
     8
 71
     3
 72
    15
 73
    11
 74
     0
 42
0.00000001
 43
0.00000001
 40
0.0
 40
0.0
 40
0.0
 40
0.0
 40
0.1342207616992959
 40
0.2632543584014014
 40
0.3882486178889515
 40
0.5110181775835606
 40
0.6322369822528031
 40
0.7532951172272377
 40
0.8750618099117069
 40
0.9999999999999999
 40
0.9999999999999999
 40
0.9999999999999999
 40
0.9999999999999999
 10
145.118793636923
 20
72.26178504550991
 30
0.0
 10
145.1405551068258
 20
72.26133982421301
 30
0.0
 10
145.183237041607
 20
72.26046658787178
 30
0.0
 10
145.2457514001985
 20
72.25215310116438
 30
0.0
 10
145.3053006945356
 20
72.2382981444263
 30
0.0
 10
145.3621903168801
 20
72.21955598095677
 30
0.0
 10
145.4161534823813
 20
72.1949791183257
 30
0.0
 10
145.4668753597184
 20
72.16467550857537
 30
0.0
 10
145.5151134331697
 20
72.12942176404293
 30
0.0
 10
145.5442118382695
 20
72.10195154966543
 30
0.0
 10
145.5589480770774
 20
72.08803987176474
 30
0.0
  0
LINE
  5
B2
330
1F
100
AcDbEntity
  8
0
  6
Continuous
 62
     7
370
    25
100
AcDbLine
 10
145.4671419853
 20
72.8988506826
 30
0.0
 11
145.4671419853
 21
73.7444105281
 31
0.0
  0
LINE
  5
B3
330
1F
100
AcDbEntity
  8
0
  6
Continuous
 62
     7
370
    25
100
AcDbLine
 10
143.7056662238
 20
73.2000089837
 30
0.0
 11
143.7056662238
 21
73.4548352386
 31
0.0
  0
LINE
  5
B4
330
1F
100
AcDbEntity
  8
0
  6
Continuous
 62
     7
370
    25
100
AcDbLine
 10
145.4315349497
 20
72.6440244277
 30
0.0
 11
143.7056662238
 21
73.2000089837
 31
0.0
  0
LINE
  5
B5
330
1F
100
AcDbEntity
  8
0
  6
Continuous
 62
     7
370
    25
100
AcDbLine
 10
145.6863612045
 20
72.6440244277
 30
0.0
 11
145.4315349497
 21
72.6440244277
 31
0.0
  0
LINE
  5
B6
330
1F
100
AcDbEntity
  8
0
  6
Continuous
 62
     7
370
    25
100
AcDbLine
 10
144.625872144
 20
75.3428661266
 30
0.0
 11
144.8176353358
 21
75.3428661266
 31
0.0
  0
LINE
  5
B7
330
1F
100
AcDbEntity
  8
0
  6
Continuous
 62
     7
370
    25
100
AcDbLine
 10
144.625872144
 20
74.0224028061
 30
0.0
 11
144.625872144
 21
75.3428661266
 31
0.0
  0
LINE
  5
B8
330
1F
100
AcDbEntity
  8
0
  6
Continuous
 62
     7
370
    25
100
AcDbLine
 10
144.8176353358
 20
74.0224028061
 30
0.0
 11
144.625872144
 21
74.0224028061
 31
0.0
  0
LINE
  5
B9
330
1F
100
AcDbEntity
  8
0
  6
Continuous
 62
     7
370
    25
100
AcDbLine
 10
144.8176353358
 20
75.3428661266
 30
0.0
 11
144.8176353358
 21
74.0224028061
 31
0.0
  0
LINE
  5
BA
330
1F
100
AcDbEntity
  8
0
  6
Continuous
 62
     7
370
    25
100
AcDbLine
 10
143.7065242247
 20
77.1292239129
 30
0.0
 11
145.6863612045
 21
77.1292239129
 31
0.0
  0
LINE
  5
BB
330
1F
100
AcDbEntity
  8
0
  6
Continuous
 62
     7
370
    25
100
AcDbLine
 10
143.7065242247
 20
76.2064439902
 30
0.0
 11
143.7065242247
 21
77.1292239129
 31
0.0
  0
SPLINE
  5
BC
330
1F
100
AcDbEntity
  8
0
  6
Continuous
 62
     7
370
    25
100
AcDbSpline
210
0.0
220
0.0
230
1.0
 70
     8
 71
     3
 72
    15
 73
    11
 74
     0
 42
0.00000001
 43
0.00000001
 40
0.0
 40
0.0
 40
0.0
 40
0.0
 40
0.1086277469152501
 40
0.2195300404679358
 40
0.33405835949625
 40
0.4525037346025801
 40
0.5781660321028791
 40
0.709801797526806
 40
0.8504665399585419
 40
0.9999999999999999
 40
0.9999999999999999
 40
0.9999999999999999
 40
0.9999999999999999
 10
143.8446623627917
 20
75.78945557318043
 30
0.0
 10
143.8336463489822
 20
75.80151273969126
 30
0.0
 10
143.8113836580392
 20
75.82587953663972
 30
0.0
 10
143.7829322451161
 20
75.86744893950129
 30
0.0
 10
143.7595203503783
 20
75.91361785625152
 30
0.0
 10
143.7401437438679
 20
75.96396446802139
 30
0.0
 10
143.7246782267452
 20
76.01834333833777
 30
0.0
 10
143.7141675131903
 20
76.07726693537015
 30
0.0
 10
143.7076549887105
 20
76.14037316158391
 30
0.0
 10
143.7069087479352
 20
76.18397619799394
 30
0.0
 10
143.7065242246536
 20
76.20644399016886
 30
0.0
  0
SPLINE
  5
BD
330
1F
100
AcDbEntity
  8
0
  6
Continuous
 62
     7
370
    25
100
AcDbSpline
210
0.0
220
0.0
230
1.0
 70
     8
 71
     3
 72
    15
 73
    11
 74
     0
 42
0.00000001
 43
0.00000001
 40
0.0
 40
0.0
 40
0.0
 40
0.0
 40
0.1319114978615548
 40
0.25855939557945
 40
0.3829282045992125
 40
0.5051155152535456
 40
0.6266776175559878
 40
0.7489849223246642
 40
0.872841572096447
 40
1.0
 40
1.0
 40
1.0
 40
1.0
 10
144.2732337913631
 20
75.61571039943527
 30
0.0
 10
144.2523280028464
 20
75.61614917252227
 30
0.0
 10
144.2113506192927
 20
75.61700921054783
 30
0.0
 10
144.1511368322419
 20
75.62543915250393
 30
0.0
 10
144.0935630811668
 20
75.63918066804574
 30
0.0
 10
144.0382764804954
 20
75.65803027361808
 30
0.0
 10
143.9856181819393
 20
75.68261419056627
 30
0.0
 10
143.935797247825
 20
75.7129438010501
 30
0.0
 10
143.8880519920997
 20
75.74807515482675
 30
0.0
 10
143.8592518487518
 20
75.77554167158178
 30
0.0
 10
143.8446623627917
 20
75.78945557318043
 30
0.0
  0
SPLINE
  5
BE
330
1F
100
AcDbEntity
  8
0
  6
Continuous
 62
     7
370
    25
100
AcDbSpline
210
0.0
220
0.0
230
1.0
 70
     8
 71
     3
 72
    15
 73
    11
 74
     0
 42
0.00000001
 43
0.00000001
 40
0.0
 40
0.0
 40
0.0
 40
0.0
 40
0.1263812889588909
 40
0.249104946497316
 40
0.3706105362999224
 40
0.4913917559424302
 40
0.6138158455532662
 40
0.7388355742356972
 40
0.8671181754268787
 40
1.0
 40
1.0
 40
1.0
 40
1.0
 10
144.6207241388535
 20
75.7547065384314
 30
0.0
 10
144.6089049126869
 20
75.7436209860819
 30
0.0
 10
144.585608523434
 20
75.72177071103195
 30
0.0
 10
144.5476059270109
 20
75.6930347838698
 30
0.0
 10
144.5069519568572
 20
75.66975317795314
 30
0.0
 10
144.4647676707243
 20
75.64940240126158
 30
0.0
 10
144.4197845440272
 20
75.63478175119415
 30
0.0
 10
144.3729564505414
 20
75.62333459262419
 30
0.0
 10
144.3237471036495
 20
75.6169287172846
 30
0.0
 10
144.2902680889769
 20
75.61612124536666
 30
0.0
 10
144.2732337913631
 20
75.61571039943527
 30
0.0
  0
SPLINE
  5
BF
330
1F
100
AcDbEntity
  8
0
  6
Continuous
 62
     7
370
    25
100
AcDbSpline
210
0.0
220
0.0
230
1.0
 70
     8
 71
     3
 72
    11
 73
     7
 74
     0
 42
0.00000001
 43
0.00000001
 40
0.0
 40
0.0
 40
0.0
 40
0.0
 40
0.2758864184465414
 40
0.5310076877713091
 40
0.7722766677115251
 40
1.0
 40
1.0
 40
1.0
 40
1.0
 10
144.7481372662666
 20
75.97478375850862
 30
0.0
 10
144.7401832792946
 20
75.95255866166602
 30
0.0
 10
144.7248739782629
 20
75.90978128483343
 30
0.0
 10
144.6948014356208
 20
75.85084994448243
 30
0.0
 10
144.6608785493862
 20
75.79880099446606
 30
0.0
 10
144.6338487130532
 20
75.7691189268178
 30
0.0
 10
144.6207241388535
 20
75.7547065384314
 30
0.0
  0
SPLINE
  5
C0
330
1F
100
AcDbEntity
  8
0
  6
Continuous
 62
     7
370
    25
100
AcDbSpline
210
0.0
220
0.0
230
1.0
 70
     8
 71
     3
 72
    11
 73
     7
 74
     0
 42
0.00000001
 43
0.00000001
 40
0.0
 40
0.0
 40
0.0
 40
0.0
 40
0.2409277974217342
 40
0.4854864172424141
 40
0.7380410464993911
 40
1.0
 40
1.0
 40
1.0
 40
1.0
 10
144.8523843705137
 20
75.80103858476345
 30
0.0
 10
144.8411994514226
 20
75.81307427707847
 30
0.0
 10
144.8186610546299
 20
75.83732704161446
 30
0.0
 10
144.7902666250041
 20
75.87905408777986
 30
0.0
 10
144.7666912096552
 20
75.92521720050772
 30
0.0
 10
144.7543968200389
 20
75.95806146241156
 30
0.0
 10
144.7481372662666
 20
75.97478375850862
 30
0.0
  0
SPLINE
  5
C1
330
1F
100
AcDbEntity
  8
0
  6
Continuous
 62
     7
370
    25
100
AcDbSpline
210
0.0
220
0.0
230
1.0
 70
     8
 71
     3
 72
    15
 73
    11
 74
     0
 42
0.00000001
 43
0.00000001
 40
0.0
 40
0.0
 40
0.0
 40
0.0
 40
0.1312072932871421
 40
0.2585055422472043
 40
0.3817646425439864
 40
0.503369267050067
 40
0.6250492974901232
 40
0.7476118725723033
 40
0.8722462138971595
 40
1.0
 40
1.0
 40
1.0
 40
1.0
 10
145.165125683255
 20
75.67362545735031
 30
0.0
 10
145.1499480159263
 20
75.67405807220337
 30
0.0
 10
145.1200448678271
 20
75.67491041306316
 30
0.0
 10
145.0762214481177
 20
75.68102555498014
 30
0.0
 10
145.0342818111136
 20
75.69093556094637
 30
0.0
 10
144.9940693173426
 20
75.7046177863843
 30
0.0
 10
144.9557745429565
 20
75.72282738539049
 30
0.0
 10
144.9192044849876
 20
75.74487562660666
 30
0.0
 10
144.8840534040257
 20
75.77047527525319
 30
0.0
 10
144.8630273403872
 20
75.79076721408111
 30
0.0
 10
144.8523843705137
 20
75.80103858476345
 30
0.0
  0
SPLINE
  5
C2
330
1F
100
AcDbEntity
  8
0
  6
Continuous
 62
     7
370
    25
100
AcDbSpline
210
0.0
220
0.0
230
1.0
 70
     8
 71
     3
 72
    15
 73
    11
 74
     0
 42
0.00000001
 43
0.00000001
 40
0.0
 40
0.0
 40
0.0
 40
0.0
 40
0.1195027114365315
 40
0.2380939422658886
 40
0.3566476293726341
 40
0.4775806195769142
 40
0.6003630199241496
 40
0.7278327340041408
 40
0.8606471500295816
 40
1.0
 40
1.0
 40
1.0
 40
1.0
 10
145.5357820539114
 20
75.81262159634647
 30
0.0
 10
145.5240040326084
 20
75.8014821093224
 30
0.0
 10
145.5005378242656
 20
75.77928809925767
 30
0.0
 10
145.4612131330559
 20
75.75088573847565
 30
0.0
 10
145.4186996206598
 20
75.72732530649608
 30
0.0
 10
145.3737306666438
 20
75.70735732361202
 30
0.0
 10
145.3255497078291
 20
75.6925591731651
 30
0.0
 10
145.2748263091596
 20
75.68118808317246
 30
0.0
 10
145.2209150086053
 20
75.67482248366512
 30
0.0
 10
145.1840175944493
 20
75.67403080576948
 30
0.0
 10
145.165125683255
 20
75.67362545735031
 30
0.0
  0
SPLINE
  5
C3
330
1F
100
AcDbEntity
  8
0
  6
Continuous
 62
     7
370
    25
100
AcDbSpline
210
0.0
220
0.0
230
1.0
 70
     8
 71
     3
 72
    15
 73
    11
 74
     0
 42
0.00000001
 43
0.00000001
 40
0.0
 40
0.0
 40
0.0
 40
0.0
 40
0.1342477572737638
 40
0.2634617725756839
 40
0.3884666271730292
 40
0.5118790511869573
 40
0.6324080741525892
 40
0.7535525248235481
 40
0.8755084805282746
 40
1.0
 40
1.0
 40
1.0
 40
1.0
 10
145.6863612044905
 20
76.19486097858584
 30
0.0
 10
145.6860510334646
 20
76.17595597489927
 30
0.0
 10
145.6854423215579
 20
76.13885482786363
 30
0.0
 10
145.6776479425808
 20
76.08464407643322
 30
0.0
 10
145.6663893805804
 20
76.03264793262275
 30
0.0
 10
145.6495143426562
 20
75.98343211809454
 30
0.0
 10
145.6282941159476
 20
75.9365806923026
 30
0.0
 10
145.6026715332061
 20
75.89216681917658
 30
0.0
 10
145.5714078153434
 20
75.85079290017322
 30
0.0
 10
145.5477384813483
 20
75.82543233795673
 30
0.0
 10
145.5357820539114
 20
75.81262159634647
 30
0.0
  0
LINE
  5
C4
330
1F
100
AcDbEntity
  8
0
  6
Continuous
 62
     7
370
    25
100
AcDbLine
 10
145.6863612045
 20
77.1292239129
 30
0.0
 11
145.6863612045
 21
76.1948609786
 31
0.0
  0
LINE
  5
C5
330
1F
100
AcDbEntity
  8
0
  6
Continuous
 62
     7
370
    25
100
AcDbLine
 10
143.7056662238
 20
79.0121067958
 30
0.0
 11
145.6863612045
 21
79.0121067958
 31
0.0
  0
LINE
  5
C6
330
1F
100
AcDbEntity
  8
0
  6
Continuous
 62
     7
370
    25
100
AcDbLine
 10
143.7056662238
 20
78.7379755217
 30
0.0
 11
143.7056662238
 21
79.0121067958
 31
0.0
  0
LINE
  5
C7
330
1F
100
AcDbEntity
  8
0
  6
Continuous
 62
     7
370
    25
100
AcDbLine
 10
145.2693727875
 20
78.7379755217
 30
0.0
 11
143.7056662238
 21
78.7379755217
 31
0.0
  0
LINE
  5
C8
330
1F
100
AcDbEntity
  8
0
  6
Continuous
 62
     7
370
    25
100
AcDbLine
 10
143.7056662238
 20
77.8113345951
 30
0.0
 11
145.2693727875
 21
78.7379755217
 31
0.0
  0
LINE
  5
C9
330
1F
100
AcDbEntity
  8
0
  6
Continuous
 62
     7
370
    25
100
AcDbLine
 10
143.7056662238
 20
77.5217593055
 30
0.0
 11
143.7056662238
 21
77.8113345951
 31
0.0
  0
LINE
  5
CA
330
1F
100
AcDbEntity
  8
0
  6
Continuous
 62
     7
370
    25
100
AcDbLine
 10
145.6863612045
 20
77.5217593055
 30
0.0
 11
143.7056662238
 21
77.5217593055
 31
0.0
  0
LINE
  5
CB
330
1F
100
AcDbEntity
  8
0
  6
Continuous
 62
     7
370
    25
100
AcDbLine
 10
145.6863612045
 20
77.7958905796
 30
0.0
 11
145.6863612045
 21
77.5217593055
 31
0.0
  0
LINE
  5
CC
330
1F
100
AcDbEntity
  8
0
  6
Continuous
 62
     7
370
    25
100
AcDbLine
 10
144.1226546408
 20
77.7958905796
 30
0.0
 11
145.6863612045
 21
77.7958905796
 31
0.0
  0
LINE
  5
CD
330
1F
100
AcDbEntity
  8
0
  6
Continuous
 62
     7
370
    25
100
AcDbLine
 10
145.6863612045
 20
78.7148094985
 30
0.0
 11
144.1226546408
 21
77.7958905796
 31
0.0
  0
LINE
  5
CE
330
1F
100
AcDbEntity
  8
0
  6
Continuous
 62
     7
370
    25
100
AcDbLine
 10
145.6863612045
 20
79.0121067958
 30
0.0
 11
145.6863612045
 21
78.7148094985
 31
0.0
  0
SPLINE
  5
CF
330
1F
100
AcDbEntity
  8
0
  6
Continuous
 62
     7
370
    25
100
AcDbSpline
210
0.0
220
0.0
230
1.0
 70
     8
 71
     3
 72
    23
 73
    19
 74
     0
 42
0.00000001
 43
0.00000001
 40
0.0
 40
0.0
 40
0.0
 40
0.0
 40
0.044190610628286
 40
0.0897849017527572
 40
0.1375220657281903
 40
0.1870790674012528
 40
0.2386344326447439
 40
0.2928411155263978
 40
0.349672933948091
 40
0.4094358303820869
 40
0.4719926205430653
 40
0.537704004592553
 40
0.6060605743707038
 40
0.678160415571394
 40
0.7535848462545451
 40
0.8324062082865282
 40
0.9141977901571281
 40
1.0
 40
1.0
 40
1.0
 40
1.0
 10
143.8562453743747
 20
70.60541438913926
 30
0.0
 10
143.8652534244095
 20
70.61401380797541
 30
0.0
 10
143.8835556582066
 20
70.63148579952197
 30
0.0
 10
143.9143196038214
 20
70.6551666535049
 30
0.0
 10
143.9483380962972
 20
70.67671016478099
 30
0.0
 10
143.9847076422059
 20
70.69765057107743
 30
0.0
 10
144.0245580249333
 20
70.71580526678251
 30
0.0
 10
144.0669656805243
 20
70.73314844472824
 30
0.0
 10
144.1126409075843
 20
70.74833402859203
 30
0.0
 10
144.1610182472181
 20
70.76276871848079
 30
0.0
 10
144.2127135055682
 20
70.77441528713732
 30
0.0
 10
144.2670325263163
 20
70.78525147016074
 30
0.0
 10
144.3244232336824
 20
70.79425073321767
 30
0.0
 10
144.3848137804732
 20
70.80145619515308
 30
0.0
 10
144.4483382175507
 20
70.80704122522096
 30
0.0
 10
144.5147305318673
 20
70.81067782256096
 30
0.0
 10
144.5840926039002
 20
70.81348393988439
 30
0.0
 10
144.6313030581205
 20
70.8137648046254
 30
0.0
 10
144.6554731736025
 20
70.81390859763347
 30
0.0
  0
LINE
  5
D0
330
1F
100
AcDbEntity
  8
0
  6
Continuous
 62
     7
370
    25
100
AcDbLine
 10
145.6863612045
 20
73.7444105281
 30
0.0
 11
145.6863612045
 21
72.6440244277
 31
0.0
  0
LINE
  5
D1
330
1F
100
AcDbEntity
  8
0
  6
Continuous
 62
     7
370
    25
100
AcDbLine
 10
145.4671419853
 20
73.7444105281
 30
0.0
 11
145.6863612045
 21
73.7444105281
 31
0.0
  0
LINE
  5
D2
330
1F
100
AcDbEntity
  8
0
  6
Continuous
 62
     7
370
    25
100
AcDbLine
 10
143.7056662238
 20
73.4548352386
 30
0.0
 11
145.4671419853
 21
72.8988506826
 31
0.0
  0
LINE
  5
D3
330
1F
100
AcDbEntity
  8
0
  6
Continuous
 62
     7
370
    25
100
AcDbLine
 10
141.170917189
 20
73.8526249588
 30
0.0
 11
141.170917189
 21
88.6026249588
 31
0.0
  0
LINE
  5
D4
330
1F
100
AcDbEntity
  8
0
  6
Continuous
 62
     7
370
    25
100
AcDbLine
 10
141.170917189
 20
59.1026249588
 30
0.0
 11
141.170917189
 21
73.8526249588
 31
0.0
  0
LINE
  5
D5
330
1F
100
AcDbEntity
  8
0
  6
Continuous
 62
     7
370
    25
100
AcDbLine
 10
148.170917189
 20
73.8526249588
 30
0.0
 11
148.170917189
 21
88.6026249588
 31
0.0
  0
LINE
  5
D6
330
1F
100
AcDbEntity
  8
0
  6
Continuous
 62
     7
370
    25
100
AcDbLine
 10
148.170917189
 20
59.1026249588
 30
0.0
 11
148.170917189
 21
73.8526249588
 31
0.0
  0
SPLINE
  5
D7
330
1F
100
AcDbEntity
  8
0
  6
Continuous
 62
     7
370
    25
100
AcDbSpline
210
0.0
220
0.0
230
1.0
 70
     8
 71
     3
 72
    11
 73
     7
 74
     0
 42
0.00000001
 43
0.00000001
 40
0.0
 40
0.0
 40
0.0
 40
0.0
 40
0.2562600332085392
 40
0.501620804586522
 40
0.7449078564687255
 40
1.0
 40
1.0
 40
1.0
 40
1.0
 10
144.8176353357647
 20
70.20000898373385
 30
0.0
 10
144.8166657745387
 20
70.21870821228039
 30
0.0
 10
144.8147678895029
 20
70.25531135304809
 30
0.0
 10
144.7992076679353
 20
70.30780285582023
 30
0.0
 10
144.7734573651559
 20
70.35604730914943
 30
0.0
 10
144.7490480192992
 20
70.38308243013857
 30
0.0
 10
144.7365542546836
 20
70.39692018064504
 30
0.0
  0
SPLINE
  5
D8
330
1F
100
AcDbEntity
  8
0
  6
Continuous
 62
     7
370
    25
100
AcDbSpline
210
0.0
220
0.0
230
1.0
 70
     8
 71
     3
 72
    11
 73
     7
 74
     0
 42
0.00000001
 43
0.00000001
 40
0.0
 40
0.0
 40
0.0
 40
0.0
 40
0.2912484084677859
 40
0.5474762715832023
 40
0.7812177661650672
 40
1.0
 40
1.0
 40
1.0
 40
1.0
 10
144.7365542546836
 20
70.03784682157169
 30
0.0
 10
144.7488867218749
 20
70.05106061949867
 30
0.0
 10
144.7720687649727
 20
70.0758993503284
 30
0.0
 10
144.7981378877388
 20
70.11695792286797
 30
0.0
 10
144.8142992908987
 20
70.1583768136967
 30
0.0
 10
144.8165481007497
 20
70.18644083497263
 30
0.0
 10
144.8176353357647
 20
70.20000898373385
 30
0.0
  0
SPLINE
  5
D9
330
1F
100
AcDbEntity
  8
0
  6
Continuous
 62
     7
370
    25
100
AcDbSpline
210
0.0
220
0.0
230
1.0
 70
     8
 71
     3
 72
    15
 73
    11
 74
     0
 42
0.00000001
 43
0.00000001
 40
0.0
 40
0.0
 40
0.0
 40
0.0
 40
0.1621938662364103
 40
0.3128358862094927
 40
0.45149378481997
 40
0.5789754992164103
 40
0.6959713973784583
 40
0.804044657006101
 40
0.904279252498922
 40
1.0
 40
1.0
 40
1.0
 40
1.0
 10
144.3658978840272
 20
69.93359971732458
 30
0.0
 10
144.3872135199822
 20
69.93394560592878
 30
0.0
 10
144.4283266398482
 20
69.9346127480997
 30
0.0
 10
144.4875235235935
 20
69.93921762344918
 30
0.0
 10
144.541777082366
 20
69.94716052770409
 30
0.0
 10
144.5908189405423
 20
69.95876987910154
 30
0.0
 10
144.6349911349467
 20
69.97306490728897
 30
0.0
 10
144.673770758099
 20
69.99121923174489
 30
0.0
 10
144.7080837303739
 20
70.01206910087573
 30
0.0
 10
144.7272109455901
 20
70.02938722281026
 30
0.0
 10
144.7365542546836
 20
70.03784682157169
 30
0.0
  0
SPLINE
  5
DA
330
1F
100
AcDbEntity
  8
0
  6
Continuous
 62
     7
370
    25
100
AcDbSpline
210
0.0
220
0.0
230
1.0
 70
     8
 71
     3
 72
    15
 73
    11
 74
     0
 42
0.00000001
 43
0.00000001
 40
0.0
 40
0.0
 40
0.0
 40
0.0
 40
0.0889385933316046
 40
0.1846881048742355
 40
0.290639097524363
 40
0.4070025892724368
 40
0.5351860897525822
 40
0.6768017488293067
 40
0.8315571904058213
 40
1.0
 40
1.0
 40
1.0
 40
1.0
 10
143.9604924786218
 20
70.03784682157169
 30
0.0
 10
143.9699575492223
 20
70.02934999151266
 30
0.0
 10
143.9896125256078
 20
70.01170564407856
 30
0.0
 10
144.0258145408665
 20
69.9909793910192
 30
0.0
 10
144.0675227742672
 20
69.97295701954842
 30
0.0
 10
144.1155541581131
 20
69.95870363289787
 30
0.0
 10
144.1694511458498
 20
69.94707592743809
 30
0.0
 10
144.229565908195
 20
69.93920936876235
 30
0.0
 10
144.2957546067402
 20
69.93459382780625
 30
0.0
 10
144.3418658581383
 20
69.93394031288493
 30
0.0
 10
144.3658978840272
 20
69.93359971732458
 30
0.0
  0
SPLINE
  5
DB
330
1F
100
AcDbEntity
  8
0
  6
Continuous
 62
     7
370
    25
100
AcDbSpline
210
0.0
220
0.0
230
1.0
 70
     8
 71
     3
 72
    11
 73
     7
 74
     0
 42
0.00000001
 43
0.00000001
 40
0.0
 40
0.0
 40
0.0
 40
0.0
 40
0.2601257123120336
 40
0.5090133886864484
 40
0.7508417226532328
 40
1.0
 40
1.0
 40
1.0
 40
1.0
 10
143.8909944091237
 20
70.21159199531687
 30
0.0
 10
143.891721038054
 20
70.19489633086806
 30
0.0
 10
143.8931429038542
 20
70.16222629351603
 30
0.0
 10
143.9071586794566
 20
70.11585902748851
 30
0.0
 10
143.9285480076157
 20
70.07311023142499
 30
0.0
 10
143.9497388687697
 20
70.04971770062123
 30
0.0
 10
143.9604924786218
 20
70.03784682157169
 30
0.0
  0
SPLINE
  5
DC
330
1F
100
AcDbEntity
  8
0
  6
Continuous
 62
     7
370
    25
100
AcDbSpline
210
0.0
220
0.0
230
1.0
 70
     8
 71
     3
 72
    11
 73
     7
 74
     0
 42
0.00000001
 43
0.00000001
 40
0.0
 40
0.0
 40
0.0
 40
0.0
 40
0.2767994473675437
 40
0.5300473798609838
 40
0.7673216447737551
 40
1.0
 40
1.0
 40
1.0
 40
1.0
 10
143.9720754902048
 20
70.38533716906204
 30
0.0
 10
143.9596528958012
 20
70.3720378427027
 30
0.0
 10
143.9358646849599
 20
70.34657076479586
 30
0.0
 10
143.9102436196358
 20
70.30287651723894
 30
0.0
 10
143.8941004952537
 20
70.25774630044279
 30
0.0
 10
143.8920229988632
 20
70.2268761319118
 30
0.0
 10
143.8909944091237
 20
70.21159199531687
 30
0.0
  0
SPLINE
  5
DD
330
1F
100
AcDbEntity
  8
0
  6
Continuous
 62
     7
370
    25
100
AcDbSpline
210
0.0
220
0.0
230
1.0
 70
     8
 71
     3
 72
    15
 73
    11
 74
     0
 42
0.00000001
 43
0.00000001
 40
0.0
 40
0.0
 40
0.0
 40
0.0
 40
0.1493997748286759
 40
0.2899387608175544
 40
0.4216321191698546
 40
0.5469260282951609
 40
0.6656128117813256
 40
0.7800387407312267
 40
0.8908418859280363
 40
1.0
 40
1.0
 40
1.0
 40
1.0
 10
144.3890639071932
 20
70.52433330805817
 30
0.0
 10
144.366600574224
 20
70.52392827192116
 30
0.0
 10
144.3230061917531
 20
70.52314222203734
 30
0.0
 10
144.2598130365382
 20
70.51690614291961
 30
0.0
 10
144.2011122113534
 20
70.50542684790322
 30
0.0
 10
144.1463979558263
 20
70.49100052442279
 30
0.0
 10
144.0963430483152
 20
70.4707617556422
 30
0.0
 10
144.0500684560969
 20
70.44752296866305
 30
0.0
 10
144.0083694093258
 20
70.4190439908352
 30
0.0
 10
143.9841129941759
 20
70.39651661759699
 30
0.0
 10
143.9720754902048
 20
70.38533716906204
 30
0.0
  0
SPLINE
  5
DE
330
1F
100
AcDbEntity
  8
0
  6
Continuous
 62
     7
370
    25
100
AcDbSpline
210
0.0
220
0.0
230
1.0
 70
     8
 71
     3
 72
    15
 73
    11
 74
     0
 42
0.00000001
 43
0.00000001
 40
0.0
 40
0.0
 40
0.0
 40
0.0
 40
0.1182864595995973
 40
0.2347934213738277
 40
0.3525293820747458
 40
0.4728657235109876
 40
0.5967540177287655
 40
0.7246940143624925
 40
0.858807397913268
 40
1.0
 40
1.0
 40
1.0
 40
1.0
 10
144.7365542546836
 20
70.39692018064504
 30
0.0
 10
144.7256289524971
 20
70.40720190047914
 30
0.0
 10
144.7039427080311
 20
70.4276106622734
 30
0.0
 10
144.6673230391706
 20
70.45343117598998
 30
0.0
 10
144.6280763999002
 20
70.47541887105987
 30
0.0
 10
144.5858551224732
 20
70.49358502981998
 30
0.0
 10
144.5405961044211
 20
70.50711963983552
 30
0.0
 10
144.4926562448739
 20
70.51699491929273
 30
0.0
 10
144.4418434772421
 20
70.52308666056891
 30
0.0
 10
144.406956128324
 20
70.5239106958139
 30
0.0
 10
144.3890639071932
 20
70.52433330805817
 30
0.0
  0
LINE
  5
DF
330
1F
100
AcDbEntity
  8
0
  6
Continuous
 62
     7
370
    25
100
AcDbLine
 10
145.4671419853
 20
76.8550926388
 30
0.0
 11
144.8523843705
 21
76.8550926388
 31
0.0
  0
SPLINE
  5
E0
330
1F
100
AcDbEntity
  8
0
  6
Continuous
 62
     7
370
    25
100
AcDbSpline
210
0.0
220
0.0
230
1.0
 70
     8
 71
     3
 72
    11
 73
     7
 74
     0
 42
0.00000001
 43
0.00000001
 40
0.0
 40
0.0
 40
0.0
 40
0.0
 40
0.2499695538886854
 40
0.4922399851273399
 40
0.7405148106355983
 40
1.0
 40
1.0
 40
1.0
 40
1.0
 10
145.3967859149153
 20
76.03269881642369
 30
0.0
 10
145.4076694305494
 20
76.04456881123063
 30
0.0
 10
145.4291012469068
 20
76.06794320213679
 30
0.0
 10
145.4510609837437
 20
76.11059775676183
 30
0.0
 10
145.4649661889091
 20
76.15709132542904
 30
0.0
 10
145.4664061228274
 20
76.18975273490271
 30
0.0
 10
145.4671419852713
 20
76.20644399016886
 30
0.0
  0
SPLINE
  5
E1
330
1F
100
AcDbEntity
  8
0
  6
Continuous
 62
     7
370
    25
100
AcDbSpline
210
0.0
220
0.0
230
1.0
 70
     8
 71
     3
 72
    11
 73
     7
 74
     0
 42
0.00000001
 43
0.00000001
 40
0.0
 40
0.0
 40
0.0
 40
0.0
 40
0.2516095171558485
 40
0.4964930798665569
 40
0.7426069856111293
 40
1.0
 40
1.0
 40
1.0
 40
1.0
 10
145.176708694838
 20
75.9400347237596
 30
0.0
 10
145.1972795362436
 20
75.94122240775957
 30
0.0
 10
145.2378713251406
 20
75.94356602692676
 30
0.0
 10
145.2964562109442
 20
75.96129904607415
 30
0.0
 10
145.3504890879101
 20
75.99100300288544
 30
0.0
 10
145.381124880765
 20
76.01859418761892
 30
0.0
 10
145.3967859149153
 20
76.03269881642369
 30
0.0
  0
SPLINE
  5
E2
330
1F
100
AcDbEntity
  8
0
  6
Continuous
 62
     7
370
    25
100
AcDbSpline
210
0.0
220
0.0
230
1.0
 70
     8
 71
     3
 72
    15
 73
    11
 74
     0
 42
0.00000001
 43
0.00000001
 40
0.0
 40
0.0
 40
0.0
 40
0.0
 40
0.1215042446907348
 40
0.2399194382132701
 40
0.3607014484775892
 40
0.4813982058565625
 40
0.60466865435653
 40
0.7308278400410384
 40
0.8619579002966854
 40
1.0
 40
1.0
 40
1.0
 40
1.0
 10
144.9334654515948
 20
76.03269881642369
 30
0.0
 10
144.9412873559913
 20
76.02518116205503
 30
0.0
 10
144.9567323053703
 20
76.01033697766134
 30
0.0
 10
144.9832253670162
 20
75.9919703281107
 30
0.0
 10
145.0107517479336
 20
75.97537564471294
 30
0.0
 10
145.0408004637391
 20
75.96277769000625
 30
0.0
 10
145.0720801246194
 20
75.95206535439254
 30
0.0
 10
145.1054695875184
 20
75.94577218034131
 30
0.0
 10
145.1403606643109
 20
75.94042561760209
 30
0.0
 10
145.1643870279637
 20
75.94016723337953
 30
0.0
 10
145.176708694838
 20
75.9400347237596
 30
0.0
  0
SPLINE
  5
E3
330
1F
100
AcDbEntity
  8
0
  6
Continuous
 62
     7
370
    25
100
AcDbSpline
210
0.0
220
0.0
230
1.0
 70
     8
 71
     3
 72
    11
 73
     7
 74
     0
 42
0.00000001
 43
0.00000001
 40
0.0
 40
0.0
 40
0.0
 40
0.0
 40
0.2562600332085409
 40
0.5016208045865217
 40
0.7449078564687267
 40
1.0
 40
1.0
 40
1.0
 40
1.0
 10
144.8523843705137
 20
76.22961001333488
 30
0.0
 10
144.8533539317397
 20
76.21091078478834
 30
0.0
 10
144.8552518167755
 20
76.17430764402064
 30
0.0
 10
144.870812038343
 20
76.1218161412485
 30
0.0
 10
144.8965623411225
 20
76.0735716879193
 30
0.0
 10
144.9209716869792
 20
76.04653656693016
 30
0.0
 10
144.9334654515948
 20
76.03269881642369
 30
0.0
  0
LINE
  5
E4
330
1F
100
AcDbEntity
  8
0
  6
Continuous
 62
     7
370
    25
100
AcDbLine
 10
144.8523843705
 20
76.8550926388
 30
0.0
 11
144.8523843705
 21
76.2296100133
 31
0.0
  0
LINE
  5
E5
330
1F
100
AcDbEntity
  8
0
  6
Continuous
 62
     7
370
    25
100
AcDbLine
 10
145.4671419853
 20
76.2064439902
 30
0.0
 11
145.4671419853
 21
76.8550926388
 31
0.0
  0
SPLINE
  5
E6
330
1F
100
AcDbEntity
  8
0
  6
Continuous
 62
     7
370
    25
100
AcDbSpline
210
0.0
220
0.0
230
1.0
 70
     8
 71
     3
 72
    15
 73
    11
 74
     0
 42
0.00000001
 43
0.00000001
 40
0.0
 40
0.0
 40
0.0
 40
0.0
 40
0.1417962611116215
 40
0.2768819513476974
 40
0.4055805706087828
 40
0.5298229690785616
 40
0.6485572024501449
 40
0.7672114666371236
 40
0.8821786188665557
 40
1.0
 40
1.0
 40
1.0
 40
1.0
 10
144.2732337913631
 20
75.89370267742754
 30
0.0
 10
144.2864114933916
 20
75.89383813746754
 30
0.0
 10
144.3121432568622
 20
75.89410264684115
 30
0.0
 10
144.349472092346
 20
75.8994085888724
 30
0.0
 10
144.384988551756
 20
75.9056994579504
 30
0.0
 10
144.4179098850942
 20
75.91627155034524
 30
0.0
 10
144.4490203018596
 20
75.9290652596625
 30
0.0
 10
144.4773616909317
 20
75.9455097815139
 30
0.0
 10
144.5043451220197
 20
75.96400454784389
 30
0.0
 10
144.5200907190151
 20
75.97885201422905
 30
0.0
 10
144.5280600461894
 20
75.98636677009165
 30
0.0
  0
SPLINE
  5
E7
330
1F
100
AcDbEntity
  8
0
  6
Continuous
 62
     7
370
    25
100
AcDbSpline
210
0.0
220
0.0
230
1.0
 70
     8
 71
     3
 72
    15
 73
    11
 74
     0
 42
0.00000001
 43
0.00000001
 40
0.0
 40
0.0
 40
0.0
 40
0.0
 40
0.1277118540336135
 40
0.2523621141955316
 40
0.3748537650566257
 40
0.4969693854038489
 40
0.6192731655242182
 40
0.7424854443019969
 40
0.869447878037661
 40
1.0
 40
1.0
 40
1.0
 40
1.0
 10
144.0184075365369
 20
75.99794978167465
 30
0.0
 10
144.0270903152955
 20
75.98958350821637
 30
0.0
 10
144.0442477234405
 20
75.97305152319552
 30
0.0
 10
144.0729211747698
 20
75.9522408134911
 30
0.0
 10
144.1025368178876
 20
75.93382444711177
 30
0.0
 10
144.134079623606
 20
75.91942526163122
 30
0.0
 10
144.1667340819486
 20
75.90764341772294
 30
0.0
 10
144.2009702513343
 20
75.8994732290891
 30
0.0
 10
144.2366368983523
 20
75.89477485316637
 30
0.0
 10
144.2609219843598
 20
75.89406337528149
 30
0.0
 10
144.2732337913631
 20
75.89370267742754
 30
0.0
  0
SPLINE
  5
E8
330
1F
100
AcDbEntity
  8
0
  6
Continuous
 62
     7
370
    25
100
AcDbSpline
210
0.0
220
0.0
230
1.0
 70
     8
 71
     3
 72
    15
 73
    11
 74
     0
 42
0.00000001
 43
0.00000001
 40
0.0
 40
0.0
 40
0.0
 40
0.0
 40
0.1452459980297224
 40
0.2839773123111047
 40
0.4135645357275261
 40
0.538715025144607
 40
0.657005250215896
 40
0.7736984629726802
 40
0.8866940707303831
 40
0.9999999999999999
 40
0.9999999999999999
 40
0.9999999999999999
 40
0.9999999999999999
 10
143.9257434438728
 20
76.26435904808392
 30
0.0
 10
143.925884031353
 20
76.25032537662423
 30
0.0
 10
143.9261589005771
 20
76.22288748258904
 30
0.0
 10
143.9313759561435
 20
76.18325716524122
 30
0.0
 10
143.9377555368431
 20
76.14576670002323
 30
0.0
 10
143.9482512746965
 20
76.11125359584898
 30
0.0
 10
143.9609879841267
 20
76.07881798118434
 30
0.0
 10
143.977590070052
 20
76.04956167180451
 30
0.0
 10
143.9957768449799
 20
76.0217602249496
 30
0.0
 10
144.0108570796378
 20
76.00589384848509
 30
0.0
 10
144.0184075365369
 20
75.99794978167465
 30
0.0
  0
LINE
  5
E9
330
1F
100
AcDbEntity
  8
0
  6
Continuous
 62
     7
370
    25
100
AcDbLine
 10
144.6331651513
 20
76.8550926388
 30
0.0
 11
143.9257434439
 21
76.8550926388
 31
0.0
  0
LINE
  5
EA
330
1F
100
AcDbEntity
  8
0
  6
Continuous
 62
     7
370
    25
100
AcDbLine
 10
144.6331651513
 20
76.2643590481
 30
0.0
 11
144.6331651513
 21
76.8550926388
 31
0.0
  0
SPLINE
  5
EB
330
1F
100
AcDbEntity
  8
0
  6
Continuous
 62
     7
370
    25
100
AcDbSpline
210
0.0
220
0.0
230
1.0
 70
     8
 71
     3
 72
    15
 73
    11
 74
     0
 42
0.00000001
 43
0.00000001
 40
0.0
 40
0.0
 40
0.0
 40
0.0
 40
0.1193556939378553
 40
0.2390663805212351
 40
0.3573840708360864
 40
0.4787728926029025
 40
0.6013911634438117
 40
0.7292416297469763
 40
0.8608048514681802
 40
1.0
 40
1.0
 40
1.0
 40
1.0
 10
144.5280600461894
 20
75.98636677009165
 30
0.0
 10
144.5364246698987
 20
75.99519474639904
 30
0.0
 10
144.5531787957275
 20
76.01287695554642
 30
0.0
 10
144.5743813476634
 20
76.04256757608084
 30
0.0
 10
144.5927142449175
 20
76.0742868473334
 30
0.0
 10
144.6076188836718
 20
76.1080994043766
 30
0.0
 10
144.6193923023921
 20
76.14414532076694
 30
0.0
 10
144.6273669886031
 20
76.18227078253034
 30
0.0
 10
144.6321492594384
 20
76.22262435589238
 30
0.0
 10
144.6328202165365
 20
76.2501884984671
 30
0.0
 10
144.6331651512945
 20
76.26435904808392
 30
0.0
  0
LINE
  5
EC
330
1F
100
AcDbEntity
  8
0
  6
Continuous
 62
     7
370
    25
100
AcDbLine
 10
143.9257434439
 20
76.8550926388
 30
0.0
 11
143.9257434439
 21
76.2643590481
 31
0.0
  0
LINE
  5
ED
330
1F
100
AcDbEntity
  8
0
  6
Continuous
 62
     7
370
    25
100
AcDbLine
 10
145.2809557991
 20
68.6208584046
 30
0.0
 11
144.4353959535
 21
69.1343719181
 31
0.0
  0
LINE
  5
EE
330
1F
100
AcDbEntity
  8
0
  6
Continuous
 62
     7
370
    25
100
AcDbLine
 10
144.4353959535
 20
68.6208584046
 30
0.0
 11
145.2809557991
 21
68.6208584046
 31
0.0
  0
LINE
  5
EF
330
1F
100
AcDbEntity
  8
0
  6
Continuous
 62
     7
370
    25
100
AcDbLine
 10
144.4353959535
 20
69.1343719181
 30
0.0
 11
144.4353959535
 21
68.6208584046
 31
0.0
  0
LINE
  5
F0
330
1F
100
AcDbEntity
  8
0
  6
Continuous
 62
     7
370
    25
100
AcDbLine
 10
124.6728526729
 20
86.8222479426
 30
0.0
 11
124.6728526729
 21
60.8830019749
 31
0.0
  0
LINE
  5
F1
330
1F
100
AcDbEntity
  8
0
  6
Continuous
 62
     7
370
    25
100
AcDbLine
 10
123.170917189
 20
62.3849374588
 30
0.0
 11
123.170917189
 21
85.3203124588
 31
0.0
  0
LINE
  5
F2
330
1F
100
AcDbEntity
  8
0
  6
Continuous
 62
     7
370
    18
100
AcDbLine
 10
123.6967502104
 20
85.8461454801
 30
0.0
 11
139.570917189
 21
86.3422131982
 31
0.0
  0
LINE
  5
F3
330
1F
100
AcDbEntity
  8
0
  6
Continuous
 62
     7
370
    18
100
AcDbLine
 10
123.6967502104
 20
61.8591044374
 30
0.0
 11
139.570917189
 21
61.3630367194
 31
0.0
  0
LINE
  5
F4
330
1F
100
AcDbEntity
  8
0
  6
Continuous
 62
     7
370
    25
100
AcDbLine
 10
139.570917189
 20
60.4174374588
 30
0.0
 11
139.570917189
 21
87.2878124588
 31
0.0
  0
LINE
  5
F5
330
1F
100
AcDbEntity
  8
FORMAT
  6
CENTERX2
370
    18
100
AcDbLine
 10
149.3047824167
 20
73.8526249588
 30
0.0
 11
121.170917189
 21
73.8526249588
 31
0.0
  0
SPLINE
  5
F6
330
1F
100
AcDbEntity
  8
0
  6
Continuous
 62
     7
370
    25
100
AcDbSpline
210
0.0
220
0.0
230
1.0
 70
    24
 71
     3
 72
    16
 73
    12
 74
     0
 42
0.00000001
 43
0.00000001
 40
0.0
 40
0.0
 40
0.0
 40
0.0
 40
0.2500000000000001
 40
0.2500000000000001
 40
0.5000000000000001
 40
0.5000000000000001
 40
0.625
 40
0.625
 40
0.7499999999999999
 40
0.7499999999999999
 40
1.0
 40
1.0
 40
1.0
 40
1.0
 10
162.2761526723853
 20
82.51287899660385
 30
0.0
 10
163.5007606085508
 20
83.21990671820075
 30
0.0
 10
164.734296708456
 20
83.93208911753617
 30
0.0
 10
167.227094458483
 20
85.3713065695495
 30
0.0
 10
168.4865473558984
 20
86.09845203890399
 30
0.0
 10
170.3994548254137
 20
87.20286968136342
 30
0.0
 10
171.0400918343074
 20
87.57274163090105
 30
0.0
 10
172.3073392531771
 20
88.30438726931534
 30
0.0
 10
172.9367143568991
 20
88.6677571548705
 30
0.0
 10
174.8136345144511
 20
89.75139751308059
 30
0.0
 10
176.050018075474
 20
90.46522389485881
 30
0.0
 10
177.2761526723853
 20
91.17313303444826
 30
0.0
  0
SPLINE
  5
F7
330
1F
100
AcDbEntity
  8
0
  6
Continuous
 62
     7
370
    25
100
AcDbSpline
210
0.0
220
0.0
230
1.0
 70
    24
 71
     3
 72
    16
 73
    12
 74
     0
 42
0.00000001
 43
0.00000001
 40
0.0
 40
0.0
 40
0.0
 40
0.0
 40
0.2499999999999999
 40
0.2499999999999999
 40
0.4999999999999998
 40
0.4999999999999998
 40
0.6249999999999998
 40
0.6249999999999998
 40
0.7499999999999998
 40
0.7499999999999998
 40
1.0
 40
1.0
 40
1.0
 40
1.0
 10
177.2761526723853
 20
91.17313303444827
 30
0.0
 10
178.5007606085508
 20
90.46610531285137
 30
0.0
 10
179.734296708456
 20
89.75392291351595
 30
0.0
 10
182.227094458483
 20
88.31470546150261
 30
0.0
 10
183.4865473558984
 20
87.58755999214814
 30
0.0
 10
185.3994548254137
 20
86.48314234968868
 30
0.0
 10
186.0400918343073
 20
86.11327040015107
 30
0.0
 10
187.3073392531771
 20
85.38162476173676
 30
0.0
 10
187.9367143568991
 20
85.0182548761816
 30
0.0
 10
189.8136345144511
 20
83.93461451797151
 30
0.0
 10
191.050018075474
 20
83.2207881361933
 30
0.0
 10
192.2761526723853
 20
82.51287899660386
 30
0.0
  0
SPLINE
  5
F8
330
1F
100
AcDbEntity
  8
0
  6
Continuous
 62
     7
370
    25
100
AcDbSpline
210
0.0
220
0.0
230
1.0
 70
    24
 71
     3
 72
    14
 73
    10
 74
     0
 42
0.00000001
 43
0.00000001
 40
0.0
 40
0.0
 40
0.0
 40
0.0
 40
0.25
 40
0.25
 40
0.5
 40
0.5
 40
0.75
 40
0.75
 40
1.0
 40
1.0
 40
1.0
 40
1.0
 10
192.2761526723853
 20
82.51287899660386
 30
0.0
 10
192.2761526723853
 20
81.10309952089754
 30
0.0
 10
192.2761526723853
 20
79.6803068236488
 30
0.0
 10
192.2761526723853
 20
76.79666700280933
 30
0.0
 10
192.2761526723853
 20
75.33416105488239
 30
0.0
 10
192.2761526723853
 20
72.36692329304694
 30
0.0
 10
192.2761526723853
 20
70.90676441189703
 30
0.0
 10
192.2761526723853
 20
68.02444454174226
 30
0.0
 10
192.2761526723853
 20
66.60200027610549
 30
0.0
 10
192.2761526723853
 20
65.19237092091508
 30
0.0
  0
SPLINE
  5
F9
330
1F
100
AcDbEntity
  8
0
  6
Continuous
 62
     7
370
    25
100
AcDbSpline
210
0.0
220
0.0
230
1.0
 70
    24
 71
     3
 72
    16
 73
    12
 74
     0
 42
0.00000001
 43
0.00000001
 40
0.0
 40
0.0
 40
0.0
 40
0.0
 40
0.2499999999999999
 40
0.2499999999999999
 40
0.4999999999999998
 40
0.4999999999999998
 40
0.6249999999999998
 40
0.6249999999999998
 40
0.7499999999999997
 40
0.7499999999999997
 40
1.0
 40
1.0
 40
1.0
 40
1.0
 10
192.2761526723853
 20
65.1923709209151
 30
0.0
 10
191.0515447362199
 20
64.48534319931821
 30
0.0
 10
189.8180086363146
 20
63.77316079998278
 30
0.0
 10
187.3252108862877
 20
62.33394334796944
 30
0.0
 10
186.0657579888722
 20
61.60679787861496
 30
0.0
 10
184.152850519357
 20
60.5023802361555
 30
0.0
 10
183.5122135104633
 20
60.13250828661789
 30
0.0
 10
182.2449660915936
 20
59.40086264820359
 30
0.0
 10
181.6155909878715
 20
59.03749276264843
 30
0.0
 10
179.7386708303195
 20
57.95385240443834
 30
0.0
 10
178.5022872692966
 20
57.24002602266014
 30
0.0
 10
177.2761526723853
 20
56.53211688307068
 30
0.0
  0
SPLINE
  5
FA
330
1F
100
AcDbEntity
  8
0
  6
Continuous
 62
     7
370
    25
100
AcDbSpline
210
0.0
220
0.0
230
1.0
 70
    24
 71
     3
 72
    16
 73
    12
 74
     0
 42
0.00000001
 43
0.00000001
 40
0.0
 40
0.0
 40
0.0
 40
0.0
 40
0.25
 40
0.25
 40
0.5
 40
0.5
 40
0.6249999999999999
 40
0.6249999999999999
 40
0.7499999999999998
 40
0.7499999999999998
 40
1.0
 40
1.0
 40
1.0
 40
1.0
 10
177.2761526723854
 20
56.53211688307067
 30
0.0
 10
176.0515447362199
 20
57.23914460466757
 30
0.0
 10
174.8180086363146
 20
57.95132700400298
 30
0.0
 10
172.3252108862877
 20
59.39054445601633
 30
0.0
 10
171.0657579888722
 20
60.1176899253708
 30
0.0
 10
169.152850519357
 20
61.22210756783025
 30
0.0
 10
168.5122135104633
 20
61.59197951736786
 30
0.0
 10
167.2449660915936
 20
62.32362515578217
 30
0.0
 10
166.6155909878715
 20
62.68699504133732
 30
0.0
 10
164.7386708303195
 20
63.77063539954742
 30
0.0
 10
163.5022872692966
 20
64.48446178132562
 30
0.0
 10
162.2761526723853
 20
65.19237092091508
 30
0.0
  0
SPLINE
  5
FB
330
1F
100
AcDbEntity
  8
0
  6
Continuous
 62
     7
370
    25
100
AcDbSpline
210
0.0
220
0.0
230
1.0
 70
    24
 71
     3
 72
    14
 73
    10
 74
     0
 42
0.00000001
 43
0.00000001
 40
0.0
 40
0.0
 40
0.0
 40
0.0
 40
0.2500000000000001
 40
0.2500000000000001
 40
0.5000000000000001
 40
0.5000000000000001
 40
0.75
 40
0.75
 40
1.0
 40
1.0
 40
1.0
 40
1.0
 10
162.2761526723853
 20
65.19237092091507
 30
0.0
 10
162.2761526723853
 20
66.60215039662138
 30
0.0
 10
162.2761526723853
 20
68.02494309387012
 30
0.0
 10
162.2761526723853
 20
70.90858291470961
 30
0.0
 10
162.2761526723853
 20
72.37108886263655
 30
0.0
 10
162.2761526723853
 20
75.338326624472
 30
0.0
 10
162.2761526723853
 20
76.79848550562191
 30
0.0
 10
162.2761526723853
 20
79.68080537577669
 30
0.0
 10
162.2761526723853
 20
81.10324964141347
 30
0.0
 10
162.2761526723853
 20
82.51287899660386
 30
0.0
  0
CIRCLE
  5
FC
330
1F
100
AcDbEntity
  8
0
  6
Continuous
 62
     7
370
    25
100
AcDbCircle
 10
177.2761526724
 20
73.8526249588
 30
0.0
 40
14.75000000000003
  0
CIRCLE
  5
FD
330
1F
100
AcDbEntity
  8
0
  6
Continuous
 62
     7
370
    25
100
AcDbCircle
 10
177.2761526724
 20
73.8526249588
 30
0.0
 40
13.25
  0
CIRCLE
  5
FE
330
1F
100
AcDbEntity
  8
0
  6
Continuous
 62
     7
370
    25
100
AcDbCircle
 10
177.2761526724
 20
73.8526249588
 30
0.0
 40
13.0
  0
CIRCLE
  5
FF
330
1F
100
AcDbEntity
  8
0
  6
Continuous
 62
     7
370
    25
100
AcDbCircle
 10
177.2761526724
 20
73.8526249588
 30
0.0
 40
12.75
  0
CIRCLE
  5
100
330
1F
100
AcDbEntity
  8
0
  6
Continuous
 62
     7
370
    25
100
AcDbCircle
 10
177.2761526724
 20
73.8526249588
 30
0.0
 40
11.13735300000002
  0
CIRCLE
  5
101
330
1F
100
AcDbEntity
  8
0
  6
Continuous
 62
     7
370
    25
100
AcDbCircle
 10
177.2761526724
 20
73.8526249588
 30
0.0
 40
9.637443707137379
  0
CIRCLE
  5
102
330
1F
100
AcDbEntity
  8
0
  6
Continuous
 62
     7
370
    25
100
AcDbCircle
 10
177.2761526724
 20
73.8526249588
 30
0.0
 40
9.173350234100951
  0
CIRCLE
  5
103
330
1F
100
AcDbEntity
  8
0
  6
Continuous
 62
     7
370
    25
100
AcDbCircle
 10
177.2761526724
 20
73.8526249588
 30
0.0
 40
8.9281
  0
CIRCLE
  5
104
330
1F
100
AcDbEntity
  8
0
  6
Continuous
 62
     7
370
    25
100
AcDbCircle
 10
177.2761526724
 20
73.8526249588
 30
0.0
 40
8.749999999999972
  0
INSERT
  5
110
330
1F
100
AcDbEntity
  8
FORMAT
100
AcDbBlockReference
  2
SW_CENTERMARKSYMBOL_0
 10
177.2761526724
 20
73.8526249588
 30
0.0
  0
ARC
  5
111
330
1F
100
AcDbEntity
  8
0
  6
Continuous
 62
     7
370
    18
100
AcDbCircle
 10
177.2761526724
 20
73.8526249588
 30
0.0
 40
10.64583835099964
100
AcDbArc
 50
75.0
 51
345.0
  0
LINE
  5
112
330
1F
100
AcDbEntity
  8
0
  6
Continuous
 62
     7
370
    25
100
AcDbLine
 10
148.0265796217
 20
101.4437664962
 30
0.0
 11
148.170917189
 21
101.6937664962
 31
0.0
  0
LINE
  5
113
330
1F
100
AcDbEntity
  8
0
  6
Continuous
 62
     7
370
    25
100
AcDbLine
 10
148.170917189
 20
131.1937664962
 30
0.0
 11
148.0265796217
 21
131.4437664962
 31
0.0
  0
LINE
  5
114
330
1F
100
AcDbEntity
  8
0
  6
Continuous
 62
     7
370
    25
100
AcDbLine
 10
141.3152547563
 20
131.4437664962
 30
0.0
 11
141.170917189
 21
131.1937664962
 31
0.0
  0
LINE
  5
115
330
1F
100
AcDbEntity
  8
0
  6
Continuous
 62
     7
370
    25
100
AcDbLine
 10
141.170917189
 20
101.6937664962
 30
0.0
 11
141.3152547563
 21
101.4437664962
 31
0.0
  0
LINE
  5
116
330
1F
100
AcDbEntity
  8
0
  6
Continuous
 62
     7
370
    25
100
AcDbLine
 10
141.170917189
 20
129.9289539962
 30
0.0
 11
124.6728526729
 21
129.4133894801
 31
0.0
  0
LINE
  5
117
330
1F
100
AcDbEntity
  8
0
  6
Continuous
 62
     7
370
    25
100
AcDbLine
 10
124.6728526729
 20
103.4741435123
 30
0.0
 11
141.170917189
 21
102.9585789962
 31
0.0
  0
LINE
  5
118
330
1F
100
AcDbEntity
  8
0
  6
Continuous
 62
     7
370
    25
100
AcDbLine
 10
124.6728526729
 20
129.4133894801
 30
0.0
 11
123.170917189
 21
127.9114539962
 31
0.0
  0
LINE
  5
119
330
1F
100
AcDbEntity
  8
0
  6
Continuous
 62
     7
370
    25
100
AcDbLine
 10
123.170917189
 20
104.9760789962
 30
0.0
 11
124.6728526729
 21
103.4741435123
 31
0.0
  0
SPLINE
  5
11A
330
1F
100
AcDbEntity
  8
0
  6
Continuous
 62
     7
370
    25
100
AcDbSpline
210
0.0
220
0.0
230
1.0
 70
     8
 71
     3
 72
    16
 73
    12
 74
     0
 42
0.00000001
 43
0.00000001
 40
0.0
 40
0.0
 40
0.0
 40
0.0
 40
0.2500000000000001
 40
0.2500000000000001
 40
0.5000000000000001
 40
0.5000000000000001
 40
0.625
 40
0.625
 40
0.7499999999999999
 40
0.7499999999999999
 40
1.0
 40
1.0
 40
1.0
 40
1.0
 10
146.6868336595938
 20
101.4437664962058
 30
0.0
 10
147.0950363049822
 20
102.6683744323713
 30
0.0
 10
147.4314691454964
 20
103.9019105322766
 30
0.0
 10
147.8975377993712
 20
106.3947082823035
 30
0.0
 10
148.0256362550671
 20
107.654161179719
 30
0.0
 10
148.0270433971606
 20
109.5670686492342
 30
0.0
 10
147.995728349932
 20
110.2077056581279
 30
0.0
 10
147.873615955236
 20
111.4749530769976
 30
0.0
 10
147.7829425563598
 20
112.1043281807196
 30
0.0
 10
147.4328107826229
 20
113.9812483382716
 30
0.0
 10
147.0955451918974
 20
115.2176318992946
 30
0.0
 10
146.6868336595936
 20
116.4437664962059
 30
0.0
  0
SPLINE
  5
11B
330
1F
100
AcDbEntity
  8
0
  6
Continuous
 62
     7
370
    25
100
AcDbSpline
210
0.0
220
0.0
230
1.0
 70
     8
 71
     3
 72
    16
 73
    12
 74
     0
 42
0.00000001
 43
0.00000001
 40
0.0
 40
0.0
 40
0.0
 40
0.0
 40
0.2499999999999999
 40
0.2499999999999999
 40
0.4999999999999998
 40
0.4999999999999998
 40
0.6249999999999998
 40
0.6249999999999998
 40
0.7499999999999998
 40
0.7499999999999998
 40
1.0
 40
1.0
 40
1.0
 40
1.0
 10
146.6868336595938
 20
116.4437664962058
 30
0.0
 10
147.0950363049822
 20
117.6683744323713
 30
0.0
 10
147.4314691454964
 20
118.9019105322765
 30
0.0
 10
147.8975377993712
 20
121.3947082823035
 30
0.0
 10
148.0256362550671
 20
122.654161179719
 30
0.0
 10
148.0270433971606
 20
124.5670686492342
 30
0.0
 10
147.995728349932
 20
125.2077056581279
 30
0.0
 10
147.873615955236
 20
126.4749530769976
 30
0.0
 10
147.7829425563598
 20
127.1043281807196
 30
0.0
 10
147.4328107826228
 20
128.9812483382717
 30
0.0
 10
147.0955451918974
 20
130.2176318992946
 30
0.0
 10
146.6868336595936
 20
131.4437664962059
 30
0.0
  0
SPLINE
  5
11C
330
1F
100
AcDbEntity
  8
0
  6
Continuous
 62
     7
370
    25
100
AcDbSpline
210
0.0
220
0.0
230
1.0
 70
    24
 71
     3
 72
    14
 73
    10
 74
     0
 42
0.00000001
 43
0.00000001
 40
0.0
 40
0.0
 40
0.0
 40
0.0
 40
0.1639266967991939
 40
0.3278991061161046
 40
0.491787652269439
 40
0.6587150498545362
 40
0.8257466310634133
 40
0.9926432680958455
 40
1.0
 40
1.0
 40
1.0
 40
1.0
 10
146.6868336595935
 20
131.4437664962059
 30
0.0
 10
146.8158158235412
 20
131.4437664962059
 30
0.0
 10
147.0738161193393
 20
131.4437664962059
 30
0.0
 10
147.3975242251632
 20
131.4437664962059
 30
0.0
 10
147.6664893795434
 20
131.4437664962059
 30
0.0
 10
147.8693996334135
 20
131.4437664962059
 30
0.0
 10
147.9884309459749
 20
131.4437664962059
 30
0.0
 10
148.0391826125781
 20
131.4437664962059
 30
0.0
 10
148.0254062876837
 20
131.4437664962059
 30
0.0
 10
148.0248246706424
 20
131.4437664962059
 30
0.0
  0
SPLINE
  5
11D
330
1F
100
AcDbEntity
  8
0
  6
Continuous
 62
     7
370
    25
100
AcDbSpline
210
0.0
220
0.0
230
1.0
 70
    24
 71
     3
 72
    13
 73
     9
 74
     0
 42
0.00000001
 43
0.00000001
 40
0.0
 40
0.0
 40
0.0
 40
0.0
 40
0.1586375904836462
 40
0.3247648600472056
 40
0.4907876255051529
 40
0.6604787105784852
 40
0.8302648135082165
 40
1.0
 40
1.0
 40
1.0
 40
1.0
 10
148.0248246706424
 20
101.4437664962058
 30
0.0
 10
148.0181044790848
 20
101.4437664962058
 30
0.0
 10
148.0043468188477
 20
101.4437664962058
 30
0.0
 10
147.8825974096395
 20
101.4437664962059
 30
0.0
 10
147.6890368168094
 20
101.4437664962058
 30
0.0
 10
147.4189679822298
 20
101.4437664962058
 30
0.0
 10
147.0871161014831
 20
101.4437664962058
 30
0.0
 10
146.8202477998883
 20
101.4437664962058
 30
0.0
 10
146.6868336595935
 20
101.4437664962058
 30
0.0
  0
LINE
  5
11E
330
1F
100
AcDbEntity
  8
0
  6
Continuous
 62
     7
370
    25
100
AcDbLine
 10
148.170917189
 20
101.6937664962
 30
0.0
 11
148.170917189
 21
131.1937664962
 31
0.0
  0
SPLINE
  5
11F
330
1F
100
AcDbEntity
  8
0
  6
Continuous
 62
     7
370
    25
100
AcDbSpline
210
0.0
220
0.0
230
1.0
 70
    24
 71
     3
 72
    13
 73
     9
 74
     0
 42
0.00000001
 43
0.00000001
 40
0.0
 40
0.0
 40
0.0
 40
0.0
 40
0.1586375904836462
 40
0.3247648600472056
 40
0.4907876255051529
 40
0.6604787105784852
 40
0.8302648135082165
 40
1.0
 40
1.0
 40
1.0
 40
1.0
 10
141.3170097074506
 20
101.4437664962058
 30
0.0
 10
141.3237298990083
 20
101.4437664962058
 30
0.0
 10
141.3374875592454
 20
101.4437664962058
 30
0.0
 10
141.4592369684536
 20
101.4437664962059
 30
0.0
 10
141.6527975612836
 20
101.4437664962058
 30
0.0
 10
141.9228663958633
 20
101.4437664962058
 30
0.0
 10
142.2547182766099
 20
101.4437664962058
 30
0.0
 10
142.5215865782048
 20
101.4437664962058
 30
0.0
 10
142.6550007184995
 20
101.4437664962058
 30
0.0
  0
SPLINE
  5
120
330
1F
100
AcDbEntity
  8
0
  6
Continuous
 62
     7
370
    25
100
AcDbSpline
210
0.0
220
0.0
230
1.0
 70
    24
 71
     3
 72
    14
 73
    10
 74
     0
 42
0.00000001
 43
0.00000001
 40
0.0
 40
0.0
 40
0.0
 40
0.0
 40
0.1639266967991939
 40
0.3278991061161046
 40
0.491787652269439
 40
0.6587150498545362
 40
0.8257466310634133
 40
0.9926432680958455
 40
1.0
 40
1.0
 40
1.0
 40
1.0
 10
142.6550007184995
 20
131.4437664962059
 30
0.0
 10
142.5260185545518
 20
131.4437664962059
 30
0.0
 10
142.2680182587538
 20
131.4437664962059
 30
0.0
 10
141.9443101529299
 20
131.4437664962059
 30
0.0
 10
141.6753449985496
 20
131.4437664962059
 30
0.0
 10
141.4724347446796
 20
131.4437664962059
 30
0.0
 10
141.3534034321181
 20
131.4437664962059
 30
0.0
 10
141.302651765515
 20
131.4437664962059
 30
0.0
 10
141.3164280904094
 20
131.4437664962059
 30
0.0
 10
141.3170097074506
 20
131.4437664962059
 30
0.0
  0
SPLINE
  5
121
330
1F
100
AcDbEntity
  8
0
  6
Continuous
 62
     7
370
    25
100
AcDbSpline
210
0.0
220
0.0
230
1.0
 70
     8
 71
     3
 72
    16
 73
    12
 74
     0
 42
0.00000001
 43
0.00000001
 40
0.0
 40
0.0
 40
0.0
 40
0.0
 40
0.2499999999999999
 40
0.2499999999999999
 40
0.4999999999999998
 40
0.4999999999999998
 40
0.6249999999999998
 40
0.6249999999999998
 40
0.7499999999999998
 40
0.7499999999999998
 40
1.0
 40
1.0
 40
1.0
 40
1.0
 10
142.6550007184993
 20
116.4437664962058
 30
0.0
 10
142.2467980731108
 20
117.6683744323713
 30
0.0
 10
141.9103652325967
 20
118.9019105322765
 30
0.0
 10
141.4442965787219
 20
121.3947082823035
 30
0.0
 10
141.3161981230259
 20
122.654161179719
 30
0.0
 10
141.3147909809325
 20
124.5670686492342
 30
0.0
 10
141.3461060281611
 20
125.2077056581279
 30
0.0
 10
141.468218422857
 20
126.4749530769976
 30
0.0
 10
141.5588918217332
 20
127.1043281807196
 30
0.0
 10
141.9090235954702
 20
128.9812483382717
 30
0.0
 10
142.2462891861957
 20
130.2176318992946
 30
0.0
 10
142.6550007184994
 20
131.4437664962059
 30
0.0
  0
SPLINE
  5
122
330
1F
100
AcDbEntity
  8
0
  6
Continuous
 62
     7
370
    25
100
AcDbSpline
210
0.0
220
0.0
230
1.0
 70
     8
 71
     3
 72
    16
 73
    12
 74
     0
 42
0.00000001
 43
0.00000001
 40
0.0
 40
0.0
 40
0.0
 40
0.0
 40
0.2500000000000001
 40
0.2500000000000001
 40
0.5000000000000001
 40
0.5000000000000001
 40
0.625
 40
0.625
 40
0.7499999999999999
 40
0.7499999999999999
 40
1.0
 40
1.0
 40
1.0
 40
1.0
 10
142.6550007184993
 20
101.4437664962058
 30
0.0
 10
142.2467980731108
 20
102.6683744323713
 30
0.0
 10
141.9103652325967
 20
103.9019105322766
 30
0.0
 10
141.4442965787219
 20
106.3947082823035
 30
0.0
 10
141.3161981230259
 20
107.654161179719
 30
0.0
 10
141.3147909809325
 20
109.5670686492342
 30
0.0
 10
141.3461060281611
 20
110.2077056581279
 30
0.0
 10
141.468218422857
 20
111.4749530769976
 30
0.0
 10
141.5588918217332
 20
112.1043281807196
 30
0.0
 10
141.9090235954702
 20
113.9812483382716
 30
0.0
 10
142.2462891861957
 20
115.2176318992946
 30
0.0
 10
142.6550007184994
 20
116.4437664962059
 30
0.0
  0
LINE
  5
123
330
1F
100
AcDbEntity
  8
0
  6
Continuous
 62
     7
370
    25
100
AcDbLine
 10
141.170917189
 20
101.6937664962
 30
0.0
 11
141.170917189
 21
131.1937664962
 31
0.0
  0
LINE
  5
124
330
1F
100
AcDbEntity
  8
0
  6
Continuous
 62
     7
370
    25
100
AcDbLine
 10
142.6550007185
 20
131.4437664962
 30
0.0
 11
146.6868336596
 21
131.4437664962
 31
0.0
  0
LINE
  5
125
330
1F
100
AcDbEntity
  8
0
  6
Continuous
 62
     7
370
    25
100
AcDbLine
 10
142.6550007185
 20
116.4437664962
 30
0.0
 11
146.6868336596
 21
116.4437664962
 31
0.0
  0
LINE
  5
126
330
1F
100
AcDbEntity
  8
0
  6
Continuous
 62
     7
370
    25
100
AcDbLine
 10
142.6550007185
 20
101.4437664962
 30
0.0
 11
146.6868336596
 21
101.4437664962
 31
0.0
  0
LINE
  5
127
330
1F
100
AcDbEntity
  8
0
  6
Continuous
 62
     7
370
    25
100
AcDbLine
 10
124.6728526729
 20
129.4133894801
 30
0.0
 11
124.6728526729
 21
103.4741435123
 31
0.0
  0
LINE
  5
128
330
1F
100
AcDbEntity
  8
0
  6
Continuous
 62
     7
370
    25
100
AcDbLine
 10
123.170917189
 20
116.4437664962
 30
0.0
 11
123.170917189
 21
127.9114539962
 31
0.0
  0
LINE
  5
129
330
1F
100
AcDbEntity
  8
0
  6
Continuous
 62
     7
370
    25
100
AcDbLine
 10
123.170917189
 20
104.9760789962
 30
0.0
 11
123.170917189
 21
116.4437664962
 31
0.0
  0
LINE
  5
12A
330
1F
100
AcDbEntity
  8
0
  6
Continuous
 62
     7
370
    18
100
AcDbLine
 10
123.6967502104
 20
128.4372870175
 30
0.0
 11
139.570917189
 21
128.9333547356
 31
0.0
  0
LINE
  5
12B
330
1F
100
AcDbEntity
  8
0
  6
Continuous
 62
     7
370
    18
100
AcDbLine
 10
123.6967502104
 20
104.4502459749
 30
0.0
 11
139.570917189
 21
103.9541782568
 31
0.0
  0
LINE
  5
12C
330
1F
100
AcDbEntity
  8
0
  6
Continuous
 62
     7
370
    25
100
AcDbLine
 10
139.570917189
 20
103.0085789962
 30
0.0
 11
139.570917189
 21
129.8789539962
 31
0.0
  0
LINE
  5
12D
330
1F
100
AcDbEntity
  8
FORMAT
  6
CENTERX2
370
    18
100
AcDbLine
 10
148.8320877333
 20
116.4437664962
 30
0.0
 11
121.170917189
 21
116.4437664962
 31
0.0
  0
ENDSEC
  0
SECTION
  2
OBJECTS
  0
DICTIONARY
  5
C
330
0
100
AcDbDictionary
281
     1
  3
ACAD_GROUP
350
D
  3
ACAD_LAYOUT
350
1A
  3
ACAD_MLINESTYLE
350
17
  3
ACAD_PLOTSETTINGS
350
19
  3
ACAD_PLOTSTYLENAME
350
E
  3
ACAD_SCALELIST
350
47
  3
DWGPROPS
350
12E
  0
DICTIONARY
  5
D
102
{ACAD_REACTORS
330
C
102
}
330
C
100
AcDbDictionary
281
     1
  0
DICTIONARY
  5
1A
102
{ACAD_REACTORS
330
C
102
}
330
C
100
AcDbDictionary
281
     1
  3
Layout1
350
1E
  3
Layout2
350
26
  3
Model
350
22
  0
DICTIONARY
  5
17
102
{ACAD_REACTORS
330
C
102
}
330
C
100
AcDbDictionary
281
     1
  3
Standard
350
18
  0
DICTIONARY
  5
19
102
{ACAD_REACTORS
330
C
102
}
330
C
100
AcDbDictionary
281
     1
  0
ACDBDICTIONARYWDFLT
  5
E
102
{ACAD_REACTORS
330
C
102
}
330
C
100
AcDbDictionary
281
     1
  3
Normal
350
F
100
AcDbDictionaryWithDefault
340
F
  0
DICTIONARY
  5
47
102
{ACAD_REACTORS
330
C
102
}
330
C
100
AcDbDictionary
281
     1
  3
A0
350
48
  3
A1
350
49
  3
A2
350
4A
  3
A3
350
4B
  3
A4
350
4C
  3
A5
350
4D
  3
A6
350
4E
  3
A7
350
4F
  3
A8
350
50
  3
A9
350
51
  3
B0
350
52
  3
B1
350
53
  3
B2
350
54
  3
B3
350
55
  3
B4
350
56
  3
B5
350
57
  3
B6
350
58
  0
XRECORD
  5
12E
102
{ACAD_REACTORS
330
C
102
}
330
C
100
AcDbXrecord
280
     1
  1
DWGPROPS COOKIE
  2

  3

  4

  6

  7

  8
user28
  9

300
=
301
=
302
=
303
=
304
=
305
=
306
=
307
=
308
=
309
=
 40
0.0
 41
2460398.30041331
 42
2460398.300413889
  1

 90
        0
  0
LAYOUT
  5
1E
102
{ACAD_REACTORS
330
1A
102
}
330
1A
100
AcDbPlotSettings
  1

  2
none_device
  4

  6

 40
0.0
 41
0.0
 42
0.0
 43
0.0
 44
0.0
 45
0.0
 46
0.0
 47
0.0
 48
0.0
 49
0.0
140
0.0
141
0.0
142
1.0
143
1.0
 70
   688
 72
     1
 73
     0
 74
     5
  7

 75
    16
147
1.0
148
0.0
149
0.0
100
AcDbLayout
  1
Layout1
 70
     1
 71
     1
 10
0.0
 20
0.0
 11
420.0
 21
297.0
 12
0.0
 22
0.0
 32
0.0
 14
1.0000000000E+20
 24
1.0000000000E+20
 34
1.0000000000E+20
 15
-1.0000000000E+20
 25
-1.0000000000E+20
 35
-1.0000000000E+20
146
0.0
 13
0.0
 23
0.0
 33
0.0
 16
1.0
 26
0.0
 36
0.0
 17
0.0
 27
1.0
 37
0.0
 76
     0
330
1B
  0
LAYOUT
  5
26
102
{ACAD_REACTORS
330
1A
102
}
330
1A
100
AcDbPlotSettings
  1

  2
none_device
  4

  6

 40
0.0
 41
0.0
 42
0.0
 43
0.0
 44
0.0
 45
0.0
 46
0.0
 47
0.0
 48
0.0
 49
0.0
140
0.0
141
0.0
142
1.0
143
1.0
 70
   688
 72
     1
 73
     0
 74
     5
  7

 75
    16
147
1.0
148
0.0
149
0.0
100
AcDbLayout
  1
Layout2
 70
     1
 71
     2
 10
0.0
 20
0.0
 11
0.0
 21
0.0
 12
0.0
 22
0.0
 32
0.0
 14
0.0
 24
0.0
 34
0.0
 15
0.0
 25
0.0
 35
0.0
146
0.0
 13
0.0
 23
0.0
 33
0.0
 16
1.0
 26
0.0
 36
0.0
 17
0.0
 27
1.0
 37
0.0
 76
     0
330
23
  0
LAYOUT
  5
22
102
{ACAD_REACTORS
330
1A
102
}
330
1A
100
AcDbPlotSettings
  1

  2
none_device
  4
Letter_(8.50_x_11.00_Inches)
  6

 40
6.35
 41
6.35
 42
6.35000508
 43
6.35000508
 44
215.9
 45
279.4
 46
0.0
 47
0.0
 48
0.0
 49
0.0
140
0.0
141
0.0
142
1.0
143
1.0
 70
  1712
 72
     1
 73
     0
 74
     0
  7

 75
     0
147
1.0
148
0.0
149
0.0
100
AcDbLayout
  1
Model
 70
     1
 71
     0
 10
0.0
 20
0.0
 11
297.0
 21
210.0
 12
0.0
 22
0.0
 32
0.0
 14
0.0
 24
0.0
 34
0.0
 15
297.0
 25
210.0
 35
0.0
146
0.0
 13
0.0
 23
0.0
 33
0.0
 16
1.0
 26
0.0
 36
0.0
 17
0.0
 27
1.0
 37
0.0
 76
     0
330
1F
331
29
  0
MLINESTYLE
  5
18
102
{ACAD_REACTORS
330
17
102
}
330
17
100
AcDbMlineStyle
  2
Standard
 70
     0
  3

 62
   256
 51
90.0
 52
90.0
 71
     2
 49
0.5
 62
   256
  6
BYLAYER
 49
-0.5
 62
   256
  6
BYLAYER
  0
ACDBPLACEHOLDER
  5
F
102
{ACAD_REACTORS
330
E
102
}
330
E
  0
SCALE
  5
48
102
{ACAD_REACTORS
330
47
102
}
330
47
100
AcDbScale
 70
     0
300
1:1
140
1.0
141
1.0
290
     1
  0
SCALE
  5
49
102
{ACAD_REACTORS
330
47
102
}
330
47
100
AcDbScale
 70
     0
300
1:2
140
1.0
141
2.0
290
     0
  0
SCALE
  5
4A
102
{ACAD_REACTORS
330
47
102
}
330
47
100
AcDbScale
 70
     0
300
1:4
140
1.0
141
4.0
290
     0
  0
SCALE
  5
4B
102
{ACAD_REACTORS
330
47
102
}
330
47
100
AcDbScale
 70
     0
300
1:5
140
1.0
141
5.0
290
     0
  0
SCALE
  5
4C
102
{ACAD_REACTORS
330
47
102
}
330
47
100
AcDbScale
 70
     0
300
1:8
140
1.0
141
8.0
290
     0
  0
SCALE
  5
4D
102
{ACAD_REACTORS
330
47
102
}
330
47
100
AcDbScale
 70
     0
300
1:10
140
1.0
141
10.0
290
     0
  0
SCALE
  5
4E
102
{ACAD_REACTORS
330
47
102
}
330
47
100
AcDbScale
 70
     0
300
1:16
140
1.0
141
16.0
290
     0
  0
SCALE
  5
4F
102
{ACAD_REACTORS
330
47
102
}
330
47
100
AcDbScale
 70
     0
300
1:20
140
1.0
141
20.0
290
     0
  0
SCALE
  5
50
102
{ACAD_REACTORS
330
47
102
}
330
47
100
AcDbScale
 70
     0
300
1:30
140
1.0
141
30.0
290
     0
  0
SCALE
  5
51
102
{ACAD_REACTORS
330
47
102
}
330
47
100
AcDbScale
 70
     0
300
1:40
140
1.0
141
40.0
290
     0
  0
SCALE
  5
52
102
{ACAD_REACTORS
330
47
102
}
330
47
100
AcDbScale
 70
     0
300
1:50
140
1.0
141
50.0
290
     0
  0
SCALE
  5
53
102
{ACAD_REACTORS
330
47
102
}
330
47
100
AcDbScale
 70
     0
300
1:100
140
1.0
141
100.0
290
     0
  0
SCALE
  5
54
102
{ACAD_REACTORS
330
47
102
}
330
47
100
AcDbScale
 70
     0
300
2:1
140
2.0
141
1.0
290
     0
  0
SCALE
  5
55
102
{ACAD_REACTORS
330
47
102
}
330
47
100
AcDbScale
 70
     0
300
4:1
140
4.0
141
1.0
290
     0
  0
SCALE
  5
56
102
{ACAD_REACTORS
330
47
102
}
330
47
100
AcDbScale
 70
     0
300
8:1
140
8.0
141
1.0
290
     0
  0
SCALE
  5
57
102
{ACAD_REACTORS
330
47
102
}
330
47
100
AcDbScale
 70
     0
300
10:1
140
10.0
141
1.0
290
     0
  0
SCALE
  5
58
102
{ACAD_REACTORS
330
47
102
}
330
47
100
AcDbScale
 70
     0
300
100:1
140
100.0
141
1.0
290
     0
  0
ENDSEC
  0
EOF
