  0
SECTION
  2
HEADER
  9
$ACADVER
  1
AC1015
  9
$ACADMAINTVER
 70
     6
  9
$DWGCODEPAGE
  3
DOS932
  9
$INSBASE
 10
0.0
 20
0.0
 30
0.0
  9
$EXTMIN
 10
0.0
 20
0.0
 30
0.0
  9
$EXTMAX
 10
148.5
 20
105.0
 30
0.0
  9
$LIMMIN
 10
0.0
 20
0.0
  9
$LIMMAX
 10
148.5
 20
105.0
  9
$ORTHOMODE
 70
     0
  9
$REGENMODE
 70
     1
  9
$FILLMODE
 70
     1
  9
$QTEXTMODE
 70
     0
  9
$MIRRTEXT
 70
     1
  9
$LTSCALE
 40
0.5
  9
$ATTMODE
 70
     1
  9
$TEXTSIZE
 40
1.7638888889
  9
$TRACEWID
 40
1.0
  9
$TEXTSTYLE
  7
Standard
  9
$CLAYER
  8
0
  9
$CELTYPE
  6
ByLayer
  9
$CECOLOR
 62
   256
  9
$CELTSCALE
 40
1.0
  9
$DISPSILH
 70
     0
  9
$DIMSCALE
 40
1.0
  9
$DIMASZ
 40
1.3642578125
  9
$DIMEXO
 40
0.5
  9
$DIMDLI
 40
3.75
  9
$DIMRND
 40
0.0
  9
$DIMDLE
 40
0.0
  9
$DIMEXE
 40
0.5
  9
$DIMTP
 40
0.0
  9
$DIMTM
 40
0.0
  9
$DIMTXT
 40
1.7638888889
  9
$DIMCEN
 40
2.5
  9
$DIMTSZ
 40
0.0
  9
$DIMTOL
 70
     0
  9
$DIMLIM
 70
     0
  9
$DIMTIH
 70
     1
  9
$DIMTOH
 70
     1
  9
$DIMSE1
 70
     0
  9
$DIMSE2
 70
     0
  9
$DIMTAD
 70
     1
  9
$DIMZIN
 70
     0
  9
$DIMBLK
  1

  9
$DIMASO
 70
     1
  9
$DIMSHO
 70
     1
  9
$DIMPOST
  1

  9
$DIMAPOST
  1

  9
$DIMALT
 70
     0
  9
$DIMALTD
 70
     3
  9
$DIMALTF
 40
0.0393700787
  9
$DIMLFAC
 40
1.0
  9
$DIMTOFL
 70
     1
  9
$DIMTVP
 40
0.0
  9
$DIMTIX
 70
     0
  9
$DIMSOXD
 70
     0
  9
$DIMSAH
 70
     0
  9
$DIMBLK1
  1

  9
$DIMBLK2
  1

  9
$DIMSTYLE
  2
ISO-25
  9
$DIMCLRD
 70
     0
  9
$DIMCLRE
 70
     0
  9
$DIMCLRT
 70
     0
  9
$DIMTFAC
 40
1.0
  9
$DIMGAP
 40
0.762
  9
$DIMJUST
 70
     0
  9
$DIMSD1
 70
     0
  9
$DIMSD2
 70
     0
  9
$DIMTOLJ
 70
     0
  9
$DIMTZIN
 70
     0
  9
$DIMALTZ
 70
     0
  9
$DIMALTTZ
 70
     0
  9
$DIMUPT
 70
     0
  9
$DIMDEC
 70
     2
  9
$DIMTDEC
 70
     2
  9
$DIMALTU
 70
     2
  9
$DIMALTTD
 70
     3
  9
$DIMTXSTY
  7
Standard
  9
$DIMAUNIT
 70
     0
  9
$DIMADEC
 70
     2
  9
$DIMALTRND
 40
0.0
  9
$DIMAZIN
 70
     0
  9
$DIMDSEP
 70
    44
  9
$DIMATFIT
 70
     3
  9
$DIMFRAC
 70
     0
  9
$DIMLDRBLK
  1

  9
$DIMLUNIT
 70
     2
  9
$DIMLWD
 70
    -2
  9
$DIMLWE
 70
    -2
  9
$DIMTMOVE
 70
     0
  9
$LUNITS
 70
     2
  9
$LUPREC
 70
     2
  9
$SKETCHINC
 40
1.0
  9
$FILLETRAD
 40
0.0
  9
$AUNITS
 70
     0
  9
$AUPREC
 70
     2
  9
$MENU
  1
.
  9
$ELEVATION
 40
0.0
  9
$PELEVATION
 40
0.0
  9
$THICKNESS
 40
0.0
  9
$LIMCHECK
 70
     0
  9
$CHAMFERA
 40
0.0
  9
$CHAMFERB
 40
0.0
  9
$CHAMFERC
 40
0.0
  9
$CHAMFERD
 40
0.0
  9
$SKPOLY
 70
     0
  9
$TDCREATE
 40
2460398.674342778
  9
$TDUCREATE
 40
2460398.299342778
  9
$TDUPDATE
 40
2460398.674343333
  9
$TDUUPDATE
 40
2460398.299343333
  9
$TDINDWG
 40
0.0000000116
  9
$TDUSRTIMER
 40
0.0000000116
  9
$USRTIMER
 70
     1
  9
$ANGBASE
 50
0.0
  9
$ANGDIR
 70
     0
  9
$PDMODE
 70
     0
  9
$PDSIZE
 40
-1.0
  9
$PLINEWID
 40
0.0
  9
$SPLFRAME
 70
     0
  9
$SPLINETYPE
 70
     6
  9
$SPLINESEGS
 70
     8
  9
$HANDSEED
  5
134
  9
$SURFTAB1
 70
     6
  9
$SURFTAB2
 70
     6
  9
$SURFTYPE
 70
     6
  9
$SURFU
 70
     6
  9
$SURFV
 70
     6
  9
$UCSBASE
  2

  9
$UCSNAME
  2

  9
$UCSORG
 10
0.0
 20
0.0
 30
0.0
  9
$UCSXDIR
 10
1.0
 20
0.0
 30
0.0
  9
$UCSYDIR
 10
0.0
 20
1.0
 30
0.0
  9
$UCSORTHOREF
  2

  9
$UCSORTHOVIEW
 70
     0
  9
$UCSORGTOP
 10
0.0
 20
0.0
 30
0.0
  9
$UCSORGBOTTOM
 10
0.0
 20
0.0
 30
0.0
  9
$UCSORGLEFT
 10
0.0
 20
0.0
 30
0.0
  9
$UCSORGRIGHT
 10
0.0
 20
0.0
 30
0.0
  9
$UCSORGFRONT
 10
0.0
 20
0.0
 30
0.0
  9
$UCSORGBACK
 10
0.0
 20
0.0
 30
0.0
  9
$PUCSBASE
  2

  9
$PUCSNAME
  2

  9
$PUCSORG
 10
0.0
 20
0.0
 30
0.0
  9
$PUCSXDIR
 10
1.0
 20
0.0
 30
0.0
  9
$PUCSYDIR
 10
0.0
 20
1.0
 30
0.0
  9
$PUCSORTHOREF
  2

  9
$PUCSORTHOVIEW
 70
     0
  9
$PUCSORGTOP
 10
0.0
 20
0.0
 30
0.0
  9
$PUCSORGBOTTOM
 10
0.0
 20
0.0
 30
0.0
  9
$PUCSORGLEFT
 10
0.0
 20
0.0
 30
0.0
  9
$PUCSORGRIGHT
 10
0.0
 20
0.0
 30
0.0
  9
$PUCSORGFRONT
 10
0.0
 20
0.0
 30
0.0
  9
$PUCSORGBACK
 10
0.0
 20
0.0
 30
0.0
  9
$USERI1
 70
     0
  9
$USERI2
 70
     0
  9
$USERI3
 70
     0
  9
$USERI4
 70
     0
  9
$USERI5
 70
     0
  9
$USERR1
 40
0.0
  9
$USERR2
 40
0.0
  9
$USERR3
 40
0.0
  9
$USERR4
 40
0.0
  9
$USERR5
 40
0.0
  9
$WORLDVIEW
 70
     1
  9
$SHADEDGE
 70
     3
  9
$SHADEDIF
 70
    70
  9
$TILEMODE
 70
     1
  9
$MAXACTVP
 70
    64
  9
$PINSBASE
 10
0.0
 20
0.0
 30
0.0
  9
$PLIMCHECK
 70
     0
  9
$PEXTMIN
 10
1.0000000000E+20
 20
1.0000000000E+20
 30
1.0000000000E+20
  9
$PEXTMAX
 10
-1.0000000000E+20
 20
-1.0000000000E+20
 30
-1.0000000000E+20
  9
$PLIMMIN
 10
0.0
 20
0.0
  9
$PLIMMAX
 10
420.0
 20
297.0
  9
$UNITMODE
 70
     0
  9
$VISRETAIN
 70
     1
  9
$PLINEGEN
 70
     0
  9
$PSLTSCALE
 70
     1
  9
$TREEDEPTH
 70
  3020
  9
$CMLSTYLE
  2
Standard
  9
$CMLJUST
 70
     0
  9
$CMLSCALE
 40
20.0
  9
$PROXYGRAPHICS
 70
     1
  9
$MEASUREMENT
 70
     1
  9
$CELWEIGHT
370
    -1
  9
$ENDCAPS
280
     0
  9
$JOINSTYLE
280
     0
  9
$LWDISPLAY
290
     1
  9
$INSUNITS
 70
     4
  9
$HYPERLINKBASE
  1

  9
$STYLESHEET
  1

  9
$XEDIT
290
     1
  9
$CEPSNTYPE
380
     0
  9
$PSTYLEMODE
290
     1
  9
$FINGERPRINTGUID
  2
{4ca2eeb1-2c71-4b93-b19c-01a9d112dbf3}
  9
$VERSIONGUID
  2
{FAEB1C32-E019-11D5-929B-00C0DF256EC4}
  9
$EXTNAMES
290
     1
  9
$PSVPSCALE
 40
0.0
  9
$OLESTARTUP
290
     0
  0
ENDSEC
  0
SECTION
  2
CLASSES
  0
CLASS
  1
ACDBDICTIONARYWDFLT
  2
AcDbDictionaryWithDefault
  3
ObjectDBX Classes
 90
        0
280
     0
281
     0
  0
CLASS
  1
VISUALSTYLE
  2
AcDbVisualStyle
  3
ObjectDBX Classes
 90
     4095
280
     0
281
     0
  0
CLASS
  1
MATERIAL
  2
AcDbMaterial
  3
ObjectDBX Classes
 90
     1153
280
     0
281
     0
  0
CLASS
  1
SCALE
  2
AcDbScale
  3
ObjectDBX Classes
 90
     1153
280
     0
281
     0
  0
CLASS
  1
TABLESTYLE
  2
AcDbTableStyle
  3
ObjectDBX Classes
 90
     4095
280
     0
281
     0
  0
CLASS
  1
MLEADERSTYLE
  2
AcDbMLeaderStyle
  3
ACDB_MLEADERSTYLE_CLASS
 90
     4095
280
     0
281
     0
  0
CLASS
  1
SUN
  2
AcDbSun
  3
SCENEOE
 90
     1153
280
     0
281
     0
  0
CLASS
  1
ACDBPLACEHOLDER
  2
AcDbPlaceHolder
  3
ObjectDBX Classes
 90
        0
280
     0
281
     0
  0
CLASS
  1
LAYOUT
  2
AcDbLayout
  3
ObjectDBX Classes
 90
        0
280
     0
281
     0
  0
ENDSEC
  0
SECTION
  2
TABLES
  0
TABLE
  2
VPORT
  5
8
330
0
100
AcDbSymbolTable
 70
     1
  0
VPORT
  5
29
330
8
100
AcDbSymbolTableRecord
100
AcDbViewportTableRecord
  2
*Active
 70
     0
 10
0.0
 20
0.0
 11
1.0
 21
1.0
 12
74.25
 22
52.5
 13
0.0
 23
0.0
 14
10.0
 24
10.0
 15
10.0
 25
10.0
 16
0.0
 26
0.0
 36
1.0
 17
0.0
 27
0.0
 37
0.0
 40
105.0
 41
1.4142857143
 42
50.0
 43
0.0
 44
0.0
 50
0.0
 51
0.0
 71
     0
 72
  2000
 73
     1
 74
     3
 75
     0
 76
     0
 77
     0
 78
     0
281
     0
 65
     1
110
0.0
120
0.0
130
0.0
111
1.0
121
0.0
131
0.0
112
0.0
122
1.0
132
0.0
 79
     0
146
0.0
  0
ENDTAB
  0
TABLE
  2
LTYPE
  5
5
330
0
100
AcDbSymbolTable
 70
     6
  0
LTYPE
  5
14
330
5
100
AcDbSymbolTableRecord
100
AcDbLinetypeTableRecord
  2
ByBlock
 70
     0
  3

 72
    65
 73
     0
 40
0.0
  0
LTYPE
  5
15
330
5
100
AcDbSymbolTableRecord
100
AcDbLinetypeTableRecord
  2
ByLayer
 70
     0
  3

 72
    65
 73
     0
 40
0.0
  0
LTYPE
  5
16
330
5
100
AcDbSymbolTableRecord
100
AcDbLinetypeTableRecord
  2
Continuous
 70
     0
  3
Solid line
 72
    65
 73
     0
 40
0.0
  0
LTYPE
  5
5E
330
5
100
AcDbSymbolTableRecord
100
AcDbLinetypeTableRecord
  2
HIDDEN
 70
     0
  3
Hidden __ __ __ __ __ __ __ __ __ __ __ __ __ __
 72
    65
 73
     2
 40
1.905
 49
1.27
 74
     0
 49
-0.635
 74
     0
  0
LTYPE
  5
5F
330
5
100
AcDbSymbolTableRecord
100
AcDbLinetypeTableRecord
  2
PHANTOM
 70
     0
  3
Phantom ______  __  __  ______  __  __  ______
 72
    65
 73
     6
 40
12.7
 49
6.35
 74
     0
 49
-1.27
 74
     0
 49
1.27
 74
     0
 49
-1.27
 74
     0
 49
1.27
 74
     0
 49
-1.27
 74
     0
  0
LTYPE
  5
60
330
5
100
AcDbSymbolTableRecord
100
AcDbLinetypeTableRecord
  2
CENTER
 70
     0
  3
Center ____ _ ____ _ ____ _ ____ _ ____ _ ____
 72
    65
 73
     4
 40
10.16
 49
6.35
 74
     0
 49
-1.27
 74
     0
 49
1.27
 74
     0
 49
-1.27
 74
     0
  0
LTYPE
  5
61
330
5
100
AcDbSymbolTableRecord
100
AcDbLinetypeTableRecord
  2
CENTERX2
 70
     0
  3
Center (2x) ________  __  ________  __  _____
 72
    65
 73
     4
 40
20.32
 49
12.7
 74
     0
 49
-2.54
 74
     0
 49
2.54
 74
     0
 49
-2.54
 74
     0
  0
LTYPE
  5
62
330
5
100
AcDbSymbolTableRecord
100
AcDbLinetypeTableRecord
  2
DOT2
 70
     0
  3
Dot (.5x) ........................................
 72
    65
 73
     2
 40
0.635
 49
0.0
 74
     0
 49
-0.635
 74
     0
  0
ENDTAB
  0
TABLE
  2
LAYER
  5
2
330
0
100
AcDbSymbolTable
 70
     2
  0
LAYER
  5
10
330
2
100
AcDbSymbolTableRecord
100
AcDbLayerTableRecord
  2
0
 70
     0
 62
     7
  6
Continuous
370
    -3
390
F
  0
LAYER
  5
63
330
2
100
AcDbSymbolTableRecord
100
AcDbLayerTableRecord
  2
FORMAT
 70
     0
 62
     7
  6
Continuous
370
    -3
390
F
  0
ENDTAB
  0
TABLE
  2
STYLE
  5
3
330
0
100
AcDbSymbolTable
 70
     2
  0
STYLE
  5
11
330
3
100
AcDbSymbolTableRecord
100
AcDbTextStyleTableRecord
  2
Standard
 70
     0
 40
0.0
 41
1.0
 50
0.0
 71
     0
 42
1.7638888889
  3
txt
  4
bigfont
  0
STYLE
  5
64
330
3
100
AcDbSymbolTableRecord
100
AcDbTextStyleTableRecord
  2
SLDTEXTSTYLE0
 70
     0
 40
0.0
 41
0.7
 50
0.0
 71
     0
 42
1.7638888889
  3
TXT
  4
bigfont
  0
ENDTAB
  0
TABLE
  2
VIEW
  5
6
330
0
100
AcDbSymbolTable
 70
     0
  0
ENDTAB
  0
TABLE
  2
UCS
  5
7
330
0
100
AcDbSymbolTable
 70
     0
  0
ENDTAB
  0
TABLE
  2
APPID
  5
9
330
0
100
AcDbSymbolTable
 70
     1
  0
APPID
  5
12
330
9
100
AcDbSymbolTableRecord
100
AcDbRegAppTableRecord
  2
ACAD
 70
     0
  0
ENDTAB
  0
TABLE
  2
DIMSTYLE
  5
A
330
0
100
AcDbSymbolTable
 70
     1
100
AcDbDimStyleTable
  0
DIMSTYLE
105
27
330
A
100
AcDbSymbolTableRecord
100
AcDbDimStyleTableRecord
  2
ISO-25
 70
     0
 41
2.5
 42
0.625
 43
3.75
 44
1.25
 73
     0
 74
     0
 77
     1
 78
     8
140
2.5
141
2.5
143
0.0393700787
147
0.625
171
     3
172
     1
178
     0
271
     2
272
     2
274
     3
278
    44
283
     0
284
     8
340
11
  0
ENDTAB
  0
TABLE
  2
BLOCK_RECORD
  5
1
330
0
100
AcDbSymbolTable
 70
     2
  0
BLOCK_RECORD
  5
1F
330
1
100
AcDbSymbolTableRecord
100
AcDbBlockTableRecord
  2
*Model_Space
340
22
  0
BLOCK_RECORD
  5
1B
330
1
100
AcDbSymbolTableRecord
100
AcDbBlockTableRecord
  2
*Paper_Space
340
1E
  0
BLOCK_RECORD
  5
23
330
1
100
AcDbSymbolTableRecord
100
AcDbBlockTableRecord
  2
*Paper_Space0
340
26
  0
BLOCK_RECORD
  5
10A
330
1
100
AcDbSymbolTableRecord
100
AcDbBlockTableRecord
  2
SW_CENTERMARKSYMBOL_0
340
0
102
{BLKREFS
331
115
102
}
  0
ENDTAB
  0
ENDSEC
  0
SECTION
  2
BLOCKS
  0
BLOCK
  5
20
330
1F
100
AcDbEntity
  8
0
100
AcDbBlockBegin
  2
*Model_Space
 70
     0
 10
0.0
 20
0.0
 30
0.0
  3
*Model_Space
  1

  0
ENDBLK
  5
21
330
1F
100
AcDbEntity
  8
0
100
AcDbBlockEnd
  0
BLOCK
  5
1C
330
1B
100
AcDbEntity
 67
     1
  8
0
100
AcDbBlockBegin
  2
*Paper_Space
 70
     0
 10
0.0
 20
0.0
 30
0.0
  3
*Paper_Space
  1

  0
ENDBLK
  5
1D
330
1B
100
AcDbEntity
 67
     1
  8
0
100
AcDbBlockEnd
  0
BLOCK
  5
24
330
23
100
AcDbEntity
  8
0
100
AcDbBlockBegin
  2
*Paper_Space0
 70
     0
 10
0.0
 20
0.0
 30
0.0
  3
*Paper_Space0
  1

  0
ENDBLK
  5
25
330
23
100
AcDbEntity
  8
0
100
AcDbBlockEnd
  0
BLOCK
  5
10B
330
10A
100
AcDbEntity
  8
0
100
AcDbBlockBegin
  2
SW_CENTERMARKSYMBOL_0
 70
     0
 10
0.0
 20
0.0
 30
0.0
  3
SW_CENTERMARKSYMBOL_0
  1

  0
LINE
  5
10D
330
10A
100
AcDbEntity
  8
FORMAT
 62
     0
100
AcDbLine
 10
0.0
 20
0.0
 30
0.0
 11
0.0
 21
2.5
 31
0.0
  0
LINE
  5
10E
330
10A
100
AcDbEntity
  8
FORMAT
 62
     0
100
AcDbLine
 10
0.0
 20
0.0
 30
0.0
 11
-2.5
 21
0.0
 31
0.0
  0
LINE
  5
10F
330
10A
100
AcDbEntity
  8
FORMAT
 62
     0
100
AcDbLine
 10
0.0
 20
0.0
 30
0.0
 11
0.0
 21
-2.5
 31
0.0
  0
LINE
  5
110
330
10A
100
AcDbEntity
  8
FORMAT
 62
     0
100
AcDbLine
 10
0.0
 20
0.0
 30
0.0
 11
2.5
 21
0.0
 31
0.0
  0
LINE
  5
111
330
10A
100
AcDbEntity
  8
FORMAT
 62
     0
100
AcDbLine
 10
0.0
 20
5.0
 30
0.0
 11
0.0
 21
14.25
 31
0.0
  0
LINE
  5
112
330
10A
100
AcDbEntity
  8
FORMAT
 62
     0
100
AcDbLine
 10
-5.0
 20
0.0
 30
0.0
 11
-14.25
 21
0.0
 31
0.0
  0
LINE
  5
113
330
10A
100
AcDbEntity
  8
FORMAT
 62
     0
100
AcDbLine
 10
0.0
 20
-5.0
 30
0.0
 11
0.0
 21
-14.25
 31
0.0
  0
LINE
  5
114
330
10A
100
AcDbEntity
  8
FORMAT
 62
     0
100
AcDbLine
 10
5.0
 20
0.0
 30
0.0
 11
14.25
 21
0.0
 31
0.0
  0
ENDBLK
  5
10C
330
10A
100
AcDbEntity
  8
0
100
AcDbBlockEnd
  0
ENDSEC
  0
SECTION
  2
ENTITIES
  0
MTEXT
  5
65
330
1F
100
AcDbEntity
  8
FORMAT
100
AcDbMText
 10
78.7260911635
 20
51.3264743825
 30
0.0
 40
2.1166666667
 41
0.0
 71
     1
 72
     1
  1
5NB-7343
  7
SLDTEXTSTYLE0
 73
     1
 44
1.0
  0
LINE
  5
66
330
1F
100
AcDbEntity
  8
0
  6
Continuous
 62
     7
370
    25
100
AcDbLine
 10
61.6406054136
 20
43.4017332156
 30
0.0
 11
60.4244710766
 21
41.295326755
 31
0.0
  0
LINE
  5
67
330
1F
100
AcDbEntity
  8
0
  6
Continuous
 62
     7
370
    25
100
AcDbLine
 10
60.4244710766
 20
17.795326755
 30
0.0
 11
61.6406054136
 21
15.6889202945
 31
0.0
  0
LINE
  5
68
330
1F
100
AcDbEntity
  8
0
  6
Continuous
 62
     7
370
    25
100
AcDbLine
 10
65.2083367396
 20
15.6889202945
 30
0.0
 11
66.4244710766
 21
17.795326755
 31
0.0
  0
LINE
  5
69
330
1F
100
AcDbEntity
  8
0
  6
Continuous
 62
     7
370
    25
100
AcDbLine
 10
66.4244710766
 20
41.295326755
 30
0.0
 11
65.2083367396
 21
43.4017332156
 31
0.0
  0
LINE
  5
6A
330
1F
100
AcDbEntity
  8
0
  6
Continuous
 62
     7
370
    25
100
AcDbLine
 10
60.4244710766
 20
40.267826755
 30
0.0
 11
45.9264065605
 21
39.8147622389
 31
0.0
  0
LINE
  5
6B
330
1F
100
AcDbEntity
  8
0
  6
Continuous
 62
     7
370
    25
100
AcDbLine
 10
45.9264065605
 20
19.2758912711
 30
0.0
 11
60.4244710766
 21
18.822826755
 31
0.0
  0
LINE
  5
6C
330
1F
100
AcDbEntity
  8
0
  6
Continuous
 62
     7
370
    25
100
AcDbLine
 10
45.9264065605
 20
39.8147622389
 30
0.0
 11
44.4244710766
 21
38.312826755
 31
0.0
  0
LINE
  5
6D
330
1F
100
AcDbEntity
  8
0
  6
Continuous
 62
     7
370
    25
100
AcDbLine
 10
44.4244710766
 20
20.777826755
 30
0.0
 11
45.9264065605
 21
19.2758912711
 31
0.0
  0
SPLINE
  5
6E
330
1F
100
AcDbEntity
  8
0
  6
Continuous
 62
     7
370
    25
100
AcDbSpline
210
0.0
220
0.0
230
1.0
 70
     8
 71
     3
 72
    16
 73
    12
 74
     0
 42
0.00000001
 43
0.00000001
 40
0.0
 40
0.0
 40
0.0
 40
0.0
 40
0.2499999999999999
 40
0.2499999999999999
 40
0.4999999999999999
 40
0.4999999999999999
 40
0.625
 40
0.625
 40
0.7499999999999998
 40
0.7499999999999998
 40
1.0
 40
1.0
 40
1.0
 40
1.0
 10
61.64060541361258
 20
15.68892029445117
 30
0.0
 10
61.31404333362859
 20
16.25454240880881
 30
0.0
 10
61.04489705335409
 20
16.8242883113795
 30
0.0
 10
60.6720420906182
 20
17.97566237923087
 30
0.0
 10
60.56956329540526
 20
18.55737887898681
 30
0.0
 10
60.56843764377165
 20
19.44091331786868
 30
0.0
 10
60.59348971072107
 20
19.73681082153717
 30
0.0
 10
60.69117965410918
 20
20.322127250243
 30
0.0
 10
60.76371837937887
 20
20.61282311724516
 30
0.0
 10
61.04382379542348
 20
21.47973527846175
 30
0.0
 10
61.31363623737027
 20
22.05079629896583
 30
0.0
 10
61.64060541361272
 20
22.6171235247267
 30
0.0
  0
LINE
  5
6F
330
1F
100
AcDbEntity
  8
0
  6
Continuous
 62
     7
370
    25
100
AcDbLine
 10
61.6406054136
 20
22.6171235247
 30
0.0
 11
65.2083367396
 21
22.6171235247
 31
0.0
  0
SPLINE
  5
70
330
1F
100
AcDbEntity
  8
0
  6
Continuous
 62
     7
370
    25
100
AcDbSpline
210
0.0
220
0.0
230
1.0
 70
     8
 71
     3
 72
    16
 73
    12
 74
     0
 42
0.00000001
 43
0.00000001
 40
0.0
 40
0.0
 40
0.0
 40
0.0
 40
0.2499999999999999
 40
0.2499999999999999
 40
0.4999999999999999
 40
0.4999999999999999
 40
0.625
 40
0.625
 40
0.7499999999999998
 40
0.7499999999999998
 40
1.0
 40
1.0
 40
1.0
 40
1.0
 10
65.20833673956939
 20
15.68892029445117
 30
0.0
 10
65.53489881955338
 20
16.25454240880881
 30
0.0
 10
65.80404509982787
 20
16.8242883113795
 30
0.0
 10
66.17690006256377
 20
17.97566237923087
 30
0.0
 10
66.27937885777669
 20
18.55737887898681
 30
0.0
 10
66.28050450941032
 20
19.44091331786868
 30
0.0
 10
66.25545244246089
 20
19.73681082153717
 30
0.0
 10
66.15776249907279
 20
20.322127250243
 30
0.0
 10
66.08522377380311
 20
20.61282311724516
 30
0.0
 10
65.80511835775849
 20
21.47973527846175
 30
0.0
 10
65.53530591581169
 20
22.05079629896583
 30
0.0
 10
65.20833673956925
 20
22.6171235247267
 30
0.0
  0
LINE
  5
71
330
1F
100
AcDbEntity
  8
0
  6
Continuous
 62
     7
370
    25
100
AcDbLine
 10
61.6406054136
 20
15.6889202945
 30
0.0
 11
65.2083367396
 21
15.6889202945
 31
0.0
  0
SPLINE
  5
72
330
1F
100
AcDbEntity
  8
0
  6
Continuous
 62
     7
370
    25
100
AcDbSpline
210
0.0
220
0.0
230
1.0
 70
     8
 71
     3
 72
    14
 73
    10
 74
     0
 42
0.00000001
 43
0.00000001
 40
0.0
 40
0.0
 40
0.0
 40
0.0
 40
0.2499999999999999
 40
0.2499999999999999
 40
0.4999999999999999
 40
0.4999999999999999
 40
0.7499999999999999
 40
0.7499999999999999
 40
1.0
 40
1.0
 40
1.0
 40
1.0
 10
61.64060541361287
 20
22.61712352472669
 30
0.0
 10
61.31503191682519
 20
23.74494320079494
 30
0.0
 10
61.04578276319619
 20
24.88317698407107
 30
0.0
 10
60.67199719738534
 20
27.1900991649471
 30
0.0
 10
60.56871164053803
 20
28.36014625934185
 30
0.0
 10
60.56890578627358
 20
30.73390712420223
 30
0.0
 10
60.67218977662384
 20
31.90202503977508
 30
0.0
 10
61.04589238439232
 20
34.20787071745641
 30
0.0
 10
61.31506503507036
 20
35.34582503417604
 30
0.0
 10
61.64060541361287
 20
36.47352998527772
 30
0.0
  0
LINE
  5
73
330
1F
100
AcDbEntity
  8
0
  6
Continuous
 62
     7
370
    25
100
AcDbLine
 10
61.6406054136
 20
36.4735299853
 30
0.0
 11
65.2083367396
 21
36.4735299853
 31
0.0
  0
SPLINE
  5
74
330
1F
100
AcDbEntity
  8
0
  6
Continuous
 62
     7
370
    25
100
AcDbSpline
210
0.0
220
0.0
230
1.0
 70
     8
 71
     3
 72
    14
 73
    10
 74
     0
 42
0.00000001
 43
0.00000001
 40
0.0
 40
0.0
 40
0.0
 40
0.0
 40
0.2499999999999999
 40
0.2499999999999999
 40
0.4999999999999999
 40
0.4999999999999999
 40
0.7499999999999999
 40
0.7499999999999999
 40
1.0
 40
1.0
 40
1.0
 40
1.0
 10
65.20833673956909
 20
22.61712352472669
 30
0.0
 10
65.53391023635677
 20
23.74494320079494
 30
0.0
 10
65.80315938998578
 20
24.88317698407107
 30
0.0
 10
66.17694495579663
 20
27.1900991649471
 30
0.0
 10
66.28023051264393
 20
28.36014625934185
 30
0.0
 10
66.28003636690838
 20
30.73390712420223
 30
0.0
 10
66.17675237655813
 20
31.90202503977508
 30
0.0
 10
65.80304976878965
 20
34.20787071745641
 30
0.0
 10
65.5338771181116
 20
35.34582503417604
 30
0.0
 10
65.20833673956909
 20
36.47352998527772
 30
0.0
  0
LINE
  5
75
330
1F
100
AcDbEntity
  8
0
  6
Continuous
 62
     7
370
    25
100
AcDbLine
 10
63.7603784125
 20
25.8451516069
 30
0.0
 11
63.7603784125
 21
26.036271298
 31
0.0
  0
SPLINE
  5
76
330
1F
100
AcDbEntity
  8
0
  6
Continuous
 62
     7
370
    25
100
AcDbSpline
210
0.0
220
0.0
230
1.0
 70
     8
 71
     3
 72
    15
 73
    11
 74
     0
 42
0.00000001
 43
0.00000001
 40
0.0
 40
0.0
 40
0.0
 40
0.0
 40
0.1017738366845019
 40
0.2081280746103127
 40
0.3195222361320721
 40
0.4377158324105372
 40
0.5640612668215815
 40
0.7002741501736233
 40
0.8452618826189009
 40
1.0
 40
1.0
 40
1.0
 40
1.0
 10
63.98624713836705
 20
25.76696627871402
 30
0.0
 10
63.98017051370341
 20
25.7726134110201
 30
0.0
 10
63.96774378172032
 20
25.78416182869032
 30
0.0
 10
63.94589470831301
 20
25.79847471227491
 30
0.0
 10
63.92155833519669
 20
25.81097092902
 30
0.0
 10
63.89476071923959
 20
25.82213345732071
 30
0.0
 10
63.86487710654801
 20
25.83050372772867
 30
0.0
 10
63.83248302423642
 20
25.83773718629227
 30
0.0
 10
63.79726053013479
 20
25.84234553630997
 30
0.0
 10
63.77293621654857
 20
25.8441961822418
 30
0.0
 10
63.76037841249832
 20
25.84515160689935
 30
0.0
  0
SPLINE
  5
77
330
1F
100
AcDbEntity
  8
0
  6
Continuous
 62
     7
370
    25
100
AcDbSpline
210
0.0
220
0.0
230
1.0
 70
     8
 71
     3
 72
    11
 73
     7
 74
     0
 42
0.00000001
 43
0.00000001
 40
0.0
 40
0.0
 40
0.0
 40
0.0
 40
0.2450868805219012
 40
0.487555245697641
 40
0.7346288455311486
 40
1.0
 40
1.0
 40
1.0
 40
1.0
 10
64.04705794917786
 20
25.62797013971788
 30
0.0
 10
64.04630252219778
 20
25.64071063660172
 30
0.0
 10
64.04479973924136
 20
25.66605551053084
 30
0.0
 10
64.03302636032456
 20
25.70272392124487
 30
0.0
 10
64.01360793163506
 20
25.73712763844416
 30
0.0
 10
63.99558195038985
 20
25.75678608783993
 30
0.0
 10
63.98624713836705
 20
25.76696627871402
 30
0.0
  0
SPLINE
  5
78
330
1F
100
AcDbEntity
  8
0
  6
Continuous
 62
     7
370
    25
100
AcDbSpline
210
0.0
220
0.0
230
1.0
 70
     8
 71
     3
 72
    11
 73
     7
 74
     0
 42
0.00000001
 43
0.00000001
 40
0.0
 40
0.0
 40
0.0
 40
0.0
 40
0.2388203430261955
 40
0.4777994110081039
 40
0.7288233729769951
 40
1.0
 40
1.0
 40
1.0
 40
1.0
 10
63.99493439705431
 20
25.48897400072174
 30
0.0
 10
64.0029917466022
 20
25.49809846860847
 30
0.0
 10
64.0191118007797
 20
25.51635346869262
 30
0.0
 10
64.03559412129171
 20
25.54994223025401
 30
0.0
 10
64.04540362522255
 20
25.58761937743704
 30
0.0
 10
64.04649250063567
 20
25.61417823418764
 30
0.0
 10
64.04705794917786
 20
25.62797013971788
 30
0.0
  0
SPLINE
  5
79
330
1F
100
AcDbEntity
  8
0
  6
Continuous
 62
     7
370
    25
100
AcDbSpline
210
0.0
220
0.0
230
1.0
 70
     8
 71
     3
 72
    15
 73
    11
 74
     0
 42
0.00000001
 43
0.00000001
 40
0.0
 40
0.0
 40
0.0
 40
0.0
 40
0.1380420997033151
 40
0.2691721599589615
 40
0.3953313456434694
 40
0.5186017941434374
 40
0.6392985515224092
 40
0.7600805617867296
 40
0.8784957553092647
 40
1.0
 40
1.0
 40
1.0
 40
1.0
 10
63.81250196462187
 20
25.41947593122367
 30
0.0
 10
63.82174321477763
 20
25.41957531343862
 30
0.0
 10
63.83976298751719
 20
25.41976910160555
 30
0.0
 10
63.8659312951116
 20
25.42377902365996
 30
0.0
 10
63.89097339228586
 20
25.42849890419838
 30
0.0
 10
63.91443313794603
 20
25.43653315590866
 30
0.0
 10
63.93696967480022
 20
25.44598162193867
 30
0.0
 10
63.95761446048825
 20
25.45842763448699
 30
0.0
 10
63.9774842567227
 20
25.47220262164998
 30
0.0
 10
63.98906796875691
 20
25.48333575994526
 30
0.0
 10
63.99493439705431
 20
25.48897400072174
 30
0.0
  0
SPLINE
  5
7A
330
1F
100
AcDbEntity
  8
0
  6
Continuous
 62
     7
370
    25
100
AcDbSpline
210
0.0
220
0.0
230
1.0
 70
     8
 71
     3
 72
    15
 73
    11
 74
     0
 42
0.00000001
 43
0.00000001
 40
0.0
 40
0.0
 40
0.0
 40
0.0
 40
0.1133059292696166
 40
0.2263015370273189
 40
0.3429947497841053
 40
0.4612849748553937
 40
0.5864354642724737
 40
0.7160226876888955
 40
0.8547540019702781
 40
0.9999999999999999
 40
0.9999999999999999
 40
0.9999999999999999
 40
0.9999999999999999
 10
63.61269501481492
 20
25.48897400072174
 30
0.0
 10
63.61865306492276
 20
25.48331115804743
 30
0.0
 10
63.63055284727113
 20
25.47200098205398
 30
0.0
 10
63.65140393241232
 20
25.45836090085807
 30
0.0
 10
63.6733461644472
 20
25.44590933641414
 30
0.0
 10
63.69767287544567
 20
25.43635680434146
 30
0.0
 10
63.72355770357635
 20
25.42848500095142
 30
0.0
 10
63.75167555248984
 20
25.42370031542667
 30
0.0
 10
63.78139829050071
 20
25.41978752375189
 30
0.0
 10
63.80197671102711
 20
25.41958137183384
 30
0.0
 10
63.81250196462187
 20
25.41947593122367
 30
0.0
  0
SPLINE
  5
7B
330
1F
100
AcDbEntity
  8
0
  6
Continuous
 62
     7
370
    25
100
AcDbSpline
210
0.0
220
0.0
230
1.0
 70
     8
 71
     3
 72
    11
 73
     7
 74
     0
 42
0.00000001
 43
0.00000001
 40
0.0
 40
0.0
 40
0.0
 40
0.0
 40
0.2322932923175283
 40
0.4682186081034752
 40
0.7217939329173698
 40
1.0
 40
1.0
 40
1.0
 40
1.0
 10
63.54319694531685
 20
25.63665739840514
 30
0.0
 10
63.54411555107995
 20
25.62368064045033
 30
0.0
 10
63.54596712547328
 20
25.59752422634693
 30
0.0
 10
63.55977364863634
 20
25.5592078234371
 30
0.0
 10
63.58212420033464
 20
25.52236696080432
 30
0.0
 10
63.60219486944874
 20
25.50044346730401
 30
0.0
 10
63.61269501481492
 20
25.48897400072174
 30
0.0
  0
LINE
  5
7C
330
1F
100
AcDbEntity
  8
0
  6
Continuous
 62
     7
370
    25
100
AcDbLine
 10
63.5431969453
 20
25.6887809505
 30
0.0
 11
63.5431969453
 21
25.6366573984
 31
0.0
  0
LINE
  5
7D
330
1F
100
AcDbEntity
  8
0
  6
Continuous
 62
     7
370
    25
100
AcDbLine
 10
63.3955135476
 20
25.6887809505
 30
0.0
 11
63.5431969453
 21
25.6887809505
 31
0.0
  0
LINE
  5
7E
330
1F
100
AcDbEntity
  8
0
  6
Continuous
 62
     7
370
    25
100
AcDbLine
 10
63.3955135476
 20
25.619282881
 30
0.0
 11
63.3955135476
 21
25.6887809505
 31
0.0
  0
SPLINE
  5
7F
330
1F
100
AcDbEntity
  8
0
  6
Continuous
 62
     7
370
    25
100
AcDbSpline
210
0.0
220
0.0
230
1.0
 70
     8
 71
     3
 72
    11
 73
     7
 74
     0
 42
0.00000001
 43
0.00000001
 40
0.0
 40
0.0
 40
0.0
 40
0.0
 40
0.267632090560558
 40
0.5177929452577206
 40
0.7570315487829544
 40
1.0
 40
1.0
 40
1.0
 40
1.0
 10
63.32601547813537
 20
25.46291222465997
 30
0.0
 10
63.33675090432646
 20
25.47441177086539
 30
0.0
 10
63.35752093954319
 20
25.49666016374818
 30
0.0
 10
63.37891240991375
 20
25.53584084960298
 30
0.0
 10
63.39340990291678
 20
25.57665833093556
 30
0.0
 10
63.3948087261185
 20
25.60500161968725
 30
0.0
 10
63.39551354763346
 20
25.61928288103062
 30
0.0
  0
SPLINE
  5
80
330
1F
100
AcDbEntity
  8
0
  6
Continuous
 62
     7
370
    25
100
AcDbSpline
210
0.0
220
0.0
230
1.0
 70
     8
 71
     3
 72
    15
 73
    11
 74
     0
 42
0.00000001
 43
0.00000001
 40
0.0
 40
0.0
 40
0.0
 40
0.0
 40
0.1417962611116216
 40
0.2768819513476974
 40
0.4055805706087832
 40
0.5298229690785617
 40
0.6485572024501455
 40
0.7672114666371236
 40
0.8821786188665558
 40
1.0
 40
1.0
 40
1.0
 40
1.0
 10
63.1348957870157
 20
25.3934141551619
 30
0.0
 10
63.14477906353707
 20
25.3935157501919
 30
0.0
 10
63.16407788613995
 20
25.39371413222209
 30
0.0
 10
63.19207451275281
 20
25.39769358874554
 30
0.0
 10
63.21871185731033
 20
25.40241174055405
 30
0.0
 10
63.24340285731403
 20
25.41034080985017
 30
0.0
 10
63.26673566988806
 20
25.41993609183811
 30
0.0
 10
63.28799171169209
 20
25.43226948322666
 30
0.0
 10
63.3082292850081
 20
25.44614055797415
 30
0.0
 10
63.3200384827547
 20
25.45727615776302
 30
0.0
 10
63.32601547813537
 20
25.46291222465997
 30
0.0
  0
SPLINE
  5
81
330
1F
100
AcDbEntity
  8
0
  6
Continuous
 62
     7
370
    25
100
AcDbSpline
210
0.0
220
0.0
230
1.0
 70
     8
 71
     3
 72
    15
 73
    11
 74
     0
 42
0.00000001
 43
0.00000001
 40
0.0
 40
0.0
 40
0.0
 40
0.0
 40
0.1062344532908171
 40
0.2134351374465925
 40
0.3266362515327407
 40
0.4454478074346337
 40
0.5709125865608569
 40
0.7047818913259154
 40
0.8472638984122982
 40
1.0
 40
1.0
 40
1.0
 40
1.0
 10
62.91771431983423
 20
25.46291222465997
 30
0.0
 10
62.92377533944263
 20
25.45723986566346
 30
0.0
 10
62.93595250525949
 20
25.44584355604297
 30
0.0
 10
62.95754375686287
 20
25.43215754001769
 30
0.0
 10
62.98089338515489
 20
25.41962780731081
 30
0.0
 10
63.00724897084459
 20
25.41034655569644
 30
0.0
 10
63.03565647623427
 20
25.4022914199179
 30
0.0
 10
63.06669008050156
 20
25.39767886954285
 30
0.0
 10
63.0999379626457
 20
25.39368571609375
 30
0.0
 10
63.12297643969861
 20
25.39350674756783
 30
0.0
 10
63.1348957870157
 20
25.3934141551619
 30
0.0
  0
SPLINE
  5
82
330
1F
100
AcDbEntity
  8
0
  6
Continuous
 62
     7
370
    25
100
AcDbSpline
210
0.0
220
0.0
230
1.0
 70
     8
 71
     3
 72
    15
 73
    11
 74
     0
 42
0.00000001
 43
0.00000001
 40
0.0
 40
0.0
 40
0.0
 40
0.0
 40
0.1380420997033122
 40
0.2691721599589569
 40
0.3953313456434694
 40
0.5186017941434343
 40
0.6392985515224072
 40
0.7600805617867277
 40
0.8784957553092635
 40
0.9999999999999999
 40
0.9999999999999999
 40
0.9999999999999999
 40
0.9999999999999999
 10
62.84821625033615
 20
25.6453446570924
 30
0.0
 10
62.84831563255111
 20
25.63610340693664
 30
0.0
 10
62.84850942071802
 20
25.61808363419708
 30
0.0
 10
62.85251934277245
 20
25.59191532660266
 30
0.0
 10
62.85723922331086
 20
25.56687322942841
 30
0.0
 10
62.86527347502115
 20
25.54341348376823
 30
0.0
 10
62.87472194105116
 20
25.52087694691404
 30
0.0
 10
62.88716795359949
 20
25.50023216122601
 30
0.0
 10
62.90094294076247
 20
25.48036236499156
 30
0.0
 10
62.91207607905774
 20
25.46877865295736
 30
0.0
 10
62.91771431983423
 20
25.46291222465997
 30
0.0
  0
SPLINE
  5
83
330
1F
100
AcDbEntity
  8
0
  6
Continuous
 62
     7
370
    25
100
AcDbSpline
210
0.0
220
0.0
230
1.0
 70
     8
 71
     3
 72
    11
 73
     7
 74
     0
 42
0.00000001
 43
0.00000001
 40
0.0
 40
0.0
 40
0.0
 40
0.0
 40
0.2550921435312746
 40
0.4983791954134765
 40
0.7437399667914606
 40
1.0
 40
1.0
 40
1.0
 40
1.0
 10
62.90902706114697
 20
25.79302805477579
 30
0.0
 10
62.89965673768528
 20
25.78264974189594
 30
0.0
 10
62.88134972829272
 20
25.76237340115409
 30
0.0
 10
62.86203700120814
 20
25.72619006115718
 30
0.0
 10
62.8503668350325
 20
25.68682143407808
 30
0.0
 10
62.84894342125568
 20
25.6593690785023
 30
0.0
 10
62.84821625033615
 20
25.6453446570924
 30
0.0
  0
SPLINE
  5
84
330
1F
100
AcDbEntity
  8
0
  6
Continuous
 62
     7
370
    25
100
AcDbSpline
210
0.0
220
0.0
230
1.0
 70
     8
 71
     3
 72
    15
 73
    11
 74
     0
 42
0.00000001
 43
0.00000001
 40
0.0
 40
0.0
 40
0.0
 40
0.0
 40
0.130552121962339
 40
0.257514555698003
 40
0.3807268344757821
 40
0.5030306145961513
 40
0.6251462349433744
 40
0.7476378858044694
 40
0.8722881459663874
 40
1.0
 40
1.0
 40
1.0
 40
1.0
 10
63.10014675226666
 20
25.87121338296112
 30
0.0
 10
63.09091289701413
 20
25.87094285957066
 30
0.0
 10
63.07269908250852
 20
25.87040925115701
 30
0.0
 10
63.04594909724501
 20
25.86688546921497
 30
0.0
 10
63.02027197020573
 20
25.86075782773957
 30
0.0
 10
62.99578112644881
 20
25.85192144480838
 30
0.0
 10
62.97212402216
 20
25.84112205569796
 30
0.0
 10
62.9499122898217
 20
25.82730978091346
 30
0.0
 10
62.92840720132466
 20
25.81170174863514
 30
0.0
 10
62.9155391452159
 20
25.79930275986951
 30
0.0
 10
62.90902706114697
 20
25.79302805477579
 30
0.0
  0
LINE
  5
85
330
1F
100
AcDbEntity
  8
0
  6
Continuous
 62
     7
370
    25
100
AcDbLine
 10
63.1609575631
 20
25.871213383
 30
0.0
 11
63.1001467523
 21
25.871213383
 31
0.0
  0
LINE
  5
86
330
1F
100
AcDbEntity
  8
0
  6
Continuous
 62
     7
370
    25
100
AcDbLine
 10
63.1609575631
 20
26.0768118386
 30
0.0
 11
63.1609575631
 21
25.871213383
 31
0.0
  0
LINE
  5
87
330
1F
100
AcDbEntity
  8
0
  6
Continuous
 62
     7
370
    25
100
AcDbLine
 10
63.0914594936
 20
26.0768118386
 30
0.0
 11
63.1609575631
 21
26.0768118386
 31
0.0
  0
SPLINE
  5
88
330
1F
100
AcDbEntity
  8
0
  6
Continuous
 62
     7
370
    25
100
AcDbSpline
210
0.0
220
0.0
230
1.0
 70
     8
 71
     3
 72
    15
 73
    11
 74
     0
 42
0.00000001
 43
0.00000001
 40
0.0
 40
0.0
 40
0.0
 40
0.0
 40
0.1339120169181253
 40
0.2615284644313489
 40
0.3861887226529779
 40
0.5091929985924206
 40
0.6296768122270383
 40
0.7512559744353479
 40
0.8742965747069023
 40
1.0
 40
1.0
 40
1.0
 40
1.0
 10
62.80477995689987
 20
25.94939871114645
 30
0.0
 10
62.81500043971963
 20
25.95957233088093
 30
0.0
 10
62.83496091256678
 20
25.97944128071903
 30
0.0
 10
62.8675240815967
 20
26.00541245897876
 30
0.0
 10
62.90144297511088
 20
26.02745427193834
 30
0.0
 10
62.93680537774926
 20
26.0454923222052
 30
0.0
 10
62.97359679025013
 20
26.05951798705877
 30
0.0
 10
63.01168544582384
 20
26.06939240223513
 30
0.0
 10
63.05113021972282
 20
26.07582406025715
 30
0.0
 10
63.07792080383337
 20
26.076480237648
 30
0.0
 10
63.0914594935794
 20
26.07681183855958
 30
0.0
  0
SPLINE
  5
89
330
1F
100
AcDbEntity
  8
0
  6
Continuous
 62
     7
370
    25
100
AcDbSpline
210
0.0
220
0.0
230
1.0
 70
     8
 71
     3
 72
    15
 73
    11
 74
     0
 42
0.00000001
 43
0.00000001
 40
0.0
 40
0.0
 40
0.0
 40
0.0
 40
0.1330514903197389
 40
0.2614008608137419
 40
0.3859789426424568
 40
0.5084656149022188
 40
0.6295593452611179
 40
0.7509246542250764
 40
0.8741074588764665
 40
0.9999999999999999
 40
0.9999999999999999
 40
0.9999999999999999
 40
0.9999999999999999
 10
62.68315833527824
 20
25.6453446570924
 30
0.0
 10
62.68350361443339
 20
25.66027458724118
 30
0.0
 10
62.68418197037033
 20
25.68960681481265
 30
0.0
 10
62.69028269043597
 20
25.73253916973155
 30
0.0
 10
62.69931767659003
 20
25.77373208555889
 30
0.0
 10
62.71311930083119
 20
25.8127308509222
 30
0.0
 10
62.73007761235205
 20
25.85006456489899
 30
0.0
 10
62.75137521289177
 20
25.88516804593011
 30
0.0
 10
62.77554654239492
 20
25.91909220387962
 30
0.0
 10
62.79496506616833
 20
25.93922353789639
 30
0.0
 10
62.80477995689987
 20
25.94939871114645
 30
0.0
  0
SPLINE
  5
8A
330
1F
100
AcDbEntity
  8
0
  6
Continuous
 62
     7
370
    25
100
AcDbSpline
210
0.0
220
0.0
230
1.0
 70
     8
 71
     3
 72
    15
 73
    11
 74
     0
 42
0.00000001
 43
0.00000001
 40
0.0
 40
0.0
 40
0.0
 40
0.0
 40
0.1158830802717868
 40
0.2315534497979621
 40
0.3480625771524268
 40
0.4678553783950306
 40
0.5925908197539046
 40
0.7213115030172642
 40
0.8571441704632083
 40
1.0
 40
1.0
 40
1.0
 40
1.0
 10
62.80477995689987
 20
25.30654156828931
 30
0.0
 10
62.79493095285502
 20
25.31690985484921
 30
0.0
 10
62.7752510232371
 20
25.33762739632127
 30
0.0
 10
62.75113775887976
 20
25.37326098382965
 30
0.0
 10
62.72977877181432
 20
25.41106929343623
 30
0.0
 10
62.71289350266794
 20
25.4523267140351
 30
0.0
 10
62.69925288859726
 20
25.4963204374564
 30
0.0
 10
62.69017903913272
 20
25.54348444706335
 30
0.0
 10
62.68416646283367
 20
25.59338701858621
 30
0.0
 10
62.6834999764513
 20
25.62773689657322
 30
0.0
 10
62.68315833527824
 20
25.6453446570924
 30
0.0
  0
SPLINE
  5
8B
330
1F
100
AcDbEntity
  8
0
  6
Continuous
 62
     7
370
    25
100
AcDbSpline
210
0.0
220
0.0
230
1.0
 70
     8
 71
     3
 72
    15
 73
    11
 74
     0
 42
0.00000001
 43
0.00000001
 40
0.0
 40
0.0
 40
0.0
 40
0.0
 40
0.1354658418109468
 40
0.2653728839126842
 40
0.3915266279918198
 40
0.5146179992444262
 40
0.6353652389705204
 40
0.7554358763572426
 40
0.876428215210218
 40
1.0
 40
1.0
 40
1.0
 40
1.0
 10
63.11752126964118
 20
25.18491994666769
 30
0.0
 10
63.10194821788201
 20
25.18526088565699
 30
0.0
 10
63.07144114981669
 20
25.18592877330764
 30
0.0
 10
63.02680159240472
 20
25.19205333814563
 30
0.0
 10
62.98410369636004
 20
25.20103284874037
 30
0.0
 10
62.94380516150561
 20
25.21482125534519
 30
0.0
 10
62.90549422533462
 20
25.23176577658296
 30
0.0
 10
62.86971438946716
 20
25.2530450873049
 30
0.0
 10
62.83542173789028
 20
25.27730663228727
 30
0.0
 10
62.81506545059767
 20
25.29672830873696
 30
0.0
 10
62.80477995689987
 20
25.30654156828931
 30
0.0
  0
SPLINE
  5
8C
330
1F
100
AcDbEntity
  8
0
  6
Continuous
 62
     7
370
    25
100
AcDbSpline
210
0.0
220
0.0
230
1.0
 70
     8
 71
     3
 72
    15
 73
    11
 74
     0
 42
0.00000001
 43
0.00000001
 40
0.0
 40
0.0
 40
0.0
 40
0.0
 40
0.1195027114365293
 40
0.2380939422658873
 40
0.3566476293726335
 40
0.4775806195769133
 40
0.6003630199241489
 40
0.7278327340041402
 40
0.8606471500295811
 40
0.9999999999999999
 40
0.9999999999999999
 40
0.9999999999999999
 40
0.9999999999999999
 10
63.39551354763346
 20
25.28916705091479
 30
0.0
 10
63.38668003165625
 20
25.28081243564673
 30
0.0
 10
63.36908037539908
 20
25.2641669280982
 30
0.0
 10
63.33958685699183
 20
25.24286515751168
 30
0.0
 10
63.30770172269476
 20
25.22519483352701
 30
0.0
 10
63.27397500718275
 20
25.21021884636395
 30
0.0
 10
63.23783928807173
 20
25.19912023352877
 30
0.0
 10
63.19979673906963
 20
25.19059191603428
 30
0.0
 10
63.15936326365393
 20
25.18581771640379
 30
0.0
 10
63.13169020303688
 20
25.18522395798205
 30
0.0
 10
63.11752126964118
 20
25.18491994666769
 30
0.0
  0
SPLINE
  5
8D
330
1F
100
AcDbEntity
  8
0
  6
Continuous
 62
     7
370
    25
100
AcDbSpline
210
0.0
220
0.0
230
1.0
 70
     8
 71
     3
 72
    11
 73
     7
 74
     0
 42
0.00000001
 43
0.00000001
 40
0.0
 40
0.0
 40
0.0
 40
0.0
 40
0.2570374775372518
 40
0.5073419159098052
 40
0.7523129875772133
 40
1.0
 40
1.0
 40
1.0
 40
1.0
 10
63.48238613450604
 20
25.43685044859819
 30
0.0
 10
63.47770962795057
 20
25.42275963548284
 30
0.0
 10
63.46847911488165
 20
25.39494711494631
 30
0.0
 10
63.44847878072722
 20
25.3562754593826
 30
0.0
 10
63.42461640202654
 20
25.32050165698922
 30
0.0
 10
63.40525008683868
 20
25.29965023639217
 30
0.0
 10
63.39551354763346
 20
25.28916705091479
 30
0.0
  0
SPLINE
  5
8E
330
1F
100
AcDbEntity
  8
0
  6
Continuous
 62
     7
370
    25
100
AcDbSpline
210
0.0
220
0.0
230
1.0
 70
     8
 71
     3
 72
    11
 73
     7
 74
     0
 42
0.00000001
 43
0.00000001
 40
0.0
 40
0.0
 40
0.0
 40
0.0
 40
0.2731656445547231
 40
0.5274113090719859
 40
0.7672619830757345
 40
1.0
 40
1.0
 40
1.0
 40
1.0
 10
63.55188420400411
 20
25.30654156828931
 30
0.0
 10
63.54252871468169
 20
25.31656304155798
 30
0.0
 10
63.52446571529319
 20
25.33591188150479
 30
0.0
 10
63.5038251172268
 20
25.36852644412179
 30
0.0
 10
63.48886826399021
 20
25.40201308855356
 30
0.0
 10
63.48452505529947
 20
25.4253550975766
 30
0.0
 10
63.48238613450604
 20
25.43685044859819
 30
0.0
  0
SPLINE
  5
8F
330
1F
100
AcDbEntity
  8
0
  6
Continuous
 62
     7
370
    25
100
AcDbSpline
210
0.0
220
0.0
230
1.0
 70
     8
 71
     3
 72
    15
 73
    11
 74
     0
 42
0.00000001
 43
0.00000001
 40
0.0
 40
0.0
 40
0.0
 40
0.0
 40
0.1495888260512939
 40
0.2896239650819633
 40
0.4219290861937192
 40
0.5465682968532923
 40
0.6661289243466413
 40
0.7799971355270188
 40
0.8908038749321946
 40
0.9999999999999999
 40
0.9999999999999999
 40
0.9999999999999999
 40
0.9999999999999999
 10
63.81250196462187
 20
25.21966898141672
 30
0.0
 10
63.79843849378762
 20
25.21986171107469
 30
0.0
 10
63.77120973417136
 20
25.22023486145767
 30
0.0
 10
63.73176697711726
 20
25.22464932826029
 30
0.0
 10
63.69495853663336
 20
25.23105509103995
 30
0.0
 10
63.66099827734067
 20
25.24109139082395
 30
0.0
 10
63.62923919491845
 20
25.25244433715337
 30
0.0
 10
63.60078674151884
 20
25.26801279843172
 30
0.0
 10
63.5746752084439
 20
25.28556418247691
 30
0.0
 10
63.5594440369632
 20
25.29958331714777
 30
0.0
 10
63.55188420400411
 20
25.30654156828931
 30
0.0
  0
SPLINE
  5
90
330
1F
100
AcDbEntity
  8
0
  6
Continuous
 62
     7
370
    25
100
AcDbSpline
210
0.0
220
0.0
230
1.0
 70
     8
 71
     3
 72
    15
 73
    11
 74
     0
 42
0.00000001
 43
0.00000001
 40
0.0
 40
0.0
 40
0.0
 40
0.0
 40
0.1195027114365314
 40
0.2380939422658892
 40
0.3566476293726336
 40
0.4775806195769129
 40
0.6003630199241495
 40
0.7278327340041411
 40
0.8606471500295816
 40
1.0
 40
1.0
 40
1.0
 40
1.0
 10
64.09049424261414
 20
25.32391608566383
 30
0.0
 10
64.08166072663694
 20
25.31556147039577
 30
0.0
 10
64.06406107037978
 20
25.29891596284724
 30
0.0
 10
64.03456755197253
 20
25.27761419226071
 30
0.0
 10
64.00268241767546
 20
25.25994386827605
 30
0.0
 10
63.96895570216345
 20
25.24496788111299
 30
0.0
 10
63.93281998305242
 20
25.2338692682778
 30
0.0
 10
63.89477743405033
 20
25.22534095078331
 30
0.0
 10
63.85434395863462
 20
25.22056675115282
 30
0.0
 10
63.82667089801758
 20
25.21997299273109
 30
0.0
 10
63.81250196462187
 20
25.21966898141672
 30
0.0
  0
SPLINE
  5
91
330
1F
100
AcDbEntity
  8
0
  6
Continuous
 62
     7
370
    25
100
AcDbSpline
210
0.0
220
0.0
230
1.0
 70
     8
 71
     3
 72
    15
 73
    11
 74
     0
 42
0.00000001
 43
0.00000001
 40
0.0
 40
0.0
 40
0.0
 40
0.0
 40
0.1401156952848863
 40
0.2734369515897442
 40
0.4007170918852064
 40
0.5244111544238703
 40
0.6451326608364124
 40
0.7627629456192477
 40
0.8809824433211495
 40
1.0
 40
1.0
 40
1.0
 40
1.0
 10
64.20342860554851
 20
25.62797013971788
 30
0.0
 10
64.20320157936071
 20
25.61239838645465
 30
0.0
 10
64.20275853585588
 20
25.58200997968445
 30
0.0
 10
64.19693180708401
 20
25.53781933188543
 30
0.0
 10
64.18856125004504
 20
25.49590968808621
 30
0.0
 10
64.17574159108786
 20
25.45659575732119
 30
0.0
 10
64.16022132843604
 20
25.41943528230847
 30
0.0
 10
64.14062027901245
 20
25.38492407541927
 30
0.0
 10
64.11742997654784
 20
25.35293251627893
 30
0.0
 10
64.09949293383278
 20
25.3336098961245
 30
0.0
 10
64.09049424261414
 20
25.32391608566383
 30
0.0
  0
LINE
  5
92
330
1F
100
AcDbEntity
  8
0
  6
Continuous
 62
     7
370
    25
100
AcDbLine
 10
63.2565174086
 20
27.2177384795
 30
0.0
 11
64.2034286055
 21
26.6356921474
 31
0.0
  0
LINE
  5
93
330
1F
100
AcDbEntity
  8
0
  6
Continuous
 62
     7
370
    25
100
AcDbLine
 10
63.0834157355
 20
27.2177384795
 30
0.0
 11
63.2565174086
 21
27.2177384795
 31
0.0
  0
LINE
  5
94
330
1F
100
AcDbEntity
  8
0
  6
Continuous
 62
     7
370
    25
100
AcDbLine
 10
63.0834157355
 20
26.6414836532
 30
0.0
 11
63.0834157355
 21
27.2177384795
 31
0.0
  0
LINE
  5
95
330
1F
100
AcDbEntity
  8
0
  6
Continuous
 62
     7
370
    25
100
AcDbLine
 10
62.7005328527
 20
26.6414836532
 30
0.0
 11
63.0834157355
 21
26.6414836532
 31
0.0
  0
LINE
  5
96
330
1F
100
AcDbEntity
  8
0
  6
Continuous
 62
     7
370
    25
100
AcDbLine
 10
62.7005328527
 20
26.4358851976
 30
0.0
 11
62.7005328527
 21
26.6414836532
 31
0.0
  0
LINE
  5
97
330
1F
100
AcDbEntity
  8
0
  6
Continuous
 62
     7
370
    25
100
AcDbLine
 10
63.0834157355
 20
26.4358851976
 30
0.0
 11
62.7005328527
 21
26.4358851976
 31
0.0
  0
LINE
  5
98
330
1F
100
AcDbEntity
  8
0
  6
Continuous
 62
     7
370
    25
100
AcDbLine
 10
63.0834157355
 20
26.2534527652
 30
0.0
 11
63.0834157355
 21
26.4358851976
 31
0.0
  0
LINE
  5
99
330
1F
100
AcDbEntity
  8
0
  6
Continuous
 62
     7
370
    25
100
AcDbLine
 10
63.24783015
 20
26.2534527652
 30
0.0
 11
63.0834157355
 21
26.2534527652
 31
0.0
  0
LINE
  5
9A
330
1F
100
AcDbEntity
  8
0
  6
Continuous
 62
     7
370
    25
100
AcDbLine
 10
63.24783015
 20
26.4358851976
 30
0.0
 11
63.24783015
 21
26.2534527652
 31
0.0
  0
LINE
  5
9B
330
1F
100
AcDbEntity
  8
0
  6
Continuous
 62
     7
370
    25
100
AcDbLine
 10
64.2034286055
 20
26.4358851976
 30
0.0
 11
63.24783015
 21
26.4358851976
 31
0.0
  0
LINE
  5
9C
330
1F
100
AcDbEntity
  8
0
  6
Continuous
 62
     7
370
    25
100
AcDbLine
 10
64.2034286055
 20
26.6356921474
 30
0.0
 11
64.2034286055
 21
26.4358851976
 31
0.0
  0
LINE
  5
9D
330
1F
100
AcDbEntity
  8
0
  6
Continuous
 62
     7
370
    25
100
AcDbLine
 10
63.7603784125
 20
28.0690898308
 30
0.0
 11
63.7603784125
 21
28.260209522
 31
0.0
  0
SPLINE
  5
9E
330
1F
100
AcDbEntity
  8
0
  6
Continuous
 62
     7
370
    25
100
AcDbSpline
210
0.0
220
0.0
230
1.0
 70
     8
 71
     3
 72
    15
 73
    11
 74
     0
 42
0.00000001
 43
0.00000001
 40
0.0
 40
0.0
 40
0.0
 40
0.0
 40
0.1017738366845019
 40
0.2081280746103132
 40
0.3195222361320717
 40
0.4377158324105367
 40
0.5640612668215814
 40
0.7002741501736234
 40
0.8452618826189008
 40
1.0
 40
1.0
 40
1.0
 40
1.0
 10
63.98624713836705
 20
27.99090450265224
 30
0.0
 10
63.98017051370341
 20
27.99655163495832
 30
0.0
 10
63.96774378172032
 20
28.00810005262854
 30
0.0
 10
63.94589470831301
 20
28.02241293621314
 30
0.0
 10
63.92155833519669
 20
28.03490915295822
 30
0.0
 10
63.89476071923959
 20
28.04607168125894
 30
0.0
 10
63.86487710654801
 20
28.0544419516669
 30
0.0
 10
63.83248302423642
 20
28.06167541023049
 30
0.0
 10
63.79726053013478
 20
28.06628376024819
 30
0.0
 10
63.77293621654857
 20
28.06813440618002
 30
0.0
 10
63.76037841249832
 20
28.06908983083757
 30
0.0
  0
SPLINE
  5
9F
330
1F
100
AcDbEntity
  8
0
  6
Continuous
 62
     7
370
    25
100
AcDbSpline
210
0.0
220
0.0
230
1.0
 70
     8
 71
     3
 72
    11
 73
     7
 74
     0
 42
0.00000001
 43
0.00000001
 40
0.0
 40
0.0
 40
0.0
 40
0.0
 40
0.2450868805219031
 40
0.4875552456976431
 40
0.7346288455311485
 40
1.0
 40
1.0
 40
1.0
 40
1.0
 10
64.04705794917786
 20
27.8519083636561
 30
0.0
 10
64.04630252219776
 20
27.86464886053994
 30
0.0
 10
64.04479973924136
 20
27.88999373446907
 30
0.0
 10
64.03302636032456
 20
27.9266621451831
 30
0.0
 10
64.01360793163506
 20
27.96106586238238
 30
0.0
 10
63.99558195038983
 20
27.98072431177815
 30
0.0
 10
63.98624713836705
 20
27.99090450265224
 30
0.0
  0
SPLINE
  5
A0
330
1F
100
AcDbEntity
  8
0
  6
Continuous
 62
     7
370
    25
100
AcDbSpline
210
0.0
220
0.0
230
1.0
 70
     8
 71
     3
 72
    11
 73
     7
 74
     0
 42
0.00000001
 43
0.00000001
 40
0.0
 40
0.0
 40
0.0
 40
0.0
 40
0.2388203430261979
 40
0.4777994110081064
 40
0.728823372976995
 40
1.0
 40
1.0
 40
1.0
 40
1.0
 10
63.99493439705431
 20
27.71291222465996
 30
0.0
 10
64.0029917466022
 20
27.72203669254669
 30
0.0
 10
64.0191118007797
 20
27.74029169263084
 30
0.0
 10
64.03559412129171
 20
27.77388045419224
 30
0.0
 10
64.04540362522255
 20
27.81155760137526
 30
0.0
 10
64.04649250063565
 20
27.83811645812586
 30
0.0
 10
64.04705794917786
 20
27.8519083636561
 30
0.0
  0
SPLINE
  5
A1
330
1F
100
AcDbEntity
  8
0
  6
Continuous
 62
     7
370
    25
100
AcDbSpline
210
0.0
220
0.0
230
1.0
 70
     8
 71
     3
 72
    15
 73
    11
 74
     0
 42
0.00000001
 43
0.00000001
 40
0.0
 40
0.0
 40
0.0
 40
0.0
 40
0.1380420997033151
 40
0.2691721599589617
 40
0.3953313456434694
 40
0.5186017941434374
 40
0.6392985515224101
 40
0.7600805617867294
 40
0.8784957553092646
 40
1.0
 40
1.0
 40
1.0
 40
1.0
 10
63.81250196462187
 20
27.6434141551619
 30
0.0
 10
63.82174321477763
 20
27.64351353737685
 30
0.0
 10
63.83976298751719
 20
27.64370732554377
 30
0.0
 10
63.8659312951116
 20
27.64771724759818
 30
0.0
 10
63.89097339228586
 20
27.6524371281366
 30
0.0
 10
63.91443313794603
 20
27.66047137984689
 30
0.0
 10
63.93696967480022
 20
27.6699198458769
 30
0.0
 10
63.95761446048825
 20
27.68236585842522
 30
0.0
 10
63.9774842567227
 20
27.6961408455882
 30
0.0
 10
63.98906796875691
 20
27.70727398388348
 30
0.0
 10
63.99493439705431
 20
27.71291222465996
 30
0.0
  0
SPLINE
  5
A2
330
1F
100
AcDbEntity
  8
0
  6
Continuous
 62
     7
370
    25
100
AcDbSpline
210
0.0
220
0.0
230
1.0
 70
     8
 71
     3
 72
    15
 73
    11
 74
     0
 42
0.00000001
 43
0.00000001
 40
0.0
 40
0.0
 40
0.0
 40
0.0
 40
0.1133059292696167
 40
0.226301537027319
 40
0.3429947497841045
 40
0.4612849748553937
 40
0.5864354642724737
 40
0.7160226876888953
 40
0.8547540019702781
 40
1.0
 40
1.0
 40
1.0
 40
1.0
 10
63.61269501481492
 20
27.71291222465996
 30
0.0
 10
63.61865306492276
 20
27.70724938198565
 30
0.0
 10
63.63055284727113
 20
27.69593920599221
 30
0.0
 10
63.65140393241232
 20
27.68229912479629
 30
0.0
 10
63.6733461644472
 20
27.66984756035236
 30
0.0
 10
63.69767287544567
 20
27.66029502827968
 30
0.0
 10
63.72355770357635
 20
27.65242322488965
 30
0.0
 10
63.75167555248984
 20
27.64763853936489
 30
0.0
 10
63.78139829050071
 20
27.64372574769011
 30
0.0
 10
63.80197671102711
 20
27.64351959577206
 30
0.0
 10
63.81250196462187
 20
27.6434141551619
 30
0.0
  0
SPLINE
  5
A3
330
1F
100
AcDbEntity
  8
0
  6
Continuous
 62
     7
370
    25
100
AcDbSpline
210
0.0
220
0.0
230
1.0
 70
     8
 71
     3
 72
    11
 73
     7
 74
     0
 42
0.00000001
 43
0.00000001
 40
0.0
 40
0.0
 40
0.0
 40
0.0
 40
0.2322932923175303
 40
0.4682186081034742
 40
0.7217939329173704
 40
1.0
 40
1.0
 40
1.0
 40
1.0
 10
63.54319694531685
 20
27.86059562234336
 30
0.0
 10
63.54411555107995
 20
27.84761886438855
 30
0.0
 10
63.54596712547328
 20
27.82146245028516
 30
0.0
 10
63.55977364863634
 20
27.78314604737533
 30
0.0
 10
63.58212420033464
 20
27.74630518474255
 30
0.0
 10
63.60219486944874
 20
27.72438169124224
 30
0.0
 10
63.61269501481492
 20
27.71291222465996
 30
0.0
  0
LINE
  5
A4
330
1F
100
AcDbEntity
  8
0
  6
Continuous
 62
     7
370
    25
100
AcDbLine
 10
63.5431969453
 20
27.9127191745
 30
0.0
 11
63.5431969453
 21
27.8605956223
 31
0.0
  0
LINE
  5
A5
330
1F
100
AcDbEntity
  8
0
  6
Continuous
 62
     7
370
    25
100
AcDbLine
 10
63.3955135476
 20
27.9127191745
 30
0.0
 11
63.5431969453
 21
27.9127191745
 31
0.0
  0
LINE
  5
A6
330
1F
100
AcDbEntity
  8
0
  6
Continuous
 62
     7
370
    25
100
AcDbLine
 10
63.3955135476
 20
27.843221105
 30
0.0
 11
63.3955135476
 21
27.9127191745
 31
0.0
  0
SPLINE
  5
A7
330
1F
100
AcDbEntity
  8
0
  6
Continuous
 62
     7
370
    25
100
AcDbSpline
210
0.0
220
0.0
230
1.0
 70
     8
 71
     3
 72
    11
 73
     7
 74
     0
 42
0.00000001
 43
0.00000001
 40
0.0
 40
0.0
 40
0.0
 40
0.0
 40
0.2676320905605556
 40
0.5177929452577187
 40
0.7570315487829565
 40
1.0
 40
1.0
 40
1.0
 40
1.0
 10
63.32601547813537
 20
27.68685044859819
 30
0.0
 10
63.33675090432646
 20
27.69834999480361
 30
0.0
 10
63.35752093954319
 20
27.7205983876864
 30
0.0
 10
63.37891240991375
 20
27.7597790735412
 30
0.0
 10
63.39340990291678
 20
27.80059655487378
 30
0.0
 10
63.3948087261185
 20
27.82893984362547
 30
0.0
 10
63.39551354763346
 20
27.84322110496884
 30
0.0
  0
SPLINE
  5
A8
330
1F
100
AcDbEntity
  8
0
  6
Continuous
 62
     7
370
    25
100
AcDbSpline
210
0.0
220
0.0
230
1.0
 70
     8
 71
     3
 72
    15
 73
    11
 74
     0
 42
0.00000001
 43
0.00000001
 40
0.0
 40
0.0
 40
0.0
 40
0.0
 40
0.1417962611116216
 40
0.2768819513476975
 40
0.4055805706087831
 40
0.5298229690785616
 40
0.6485572024501445
 40
0.7672114666371236
 40
0.8821786188665557
 40
1.0
 40
1.0
 40
1.0
 40
1.0
 10
63.1348957870157
 20
27.61735237910012
 30
0.0
 10
63.14477906353707
 20
27.61745397413012
 30
0.0
 10
63.16407788613995
 20
27.61765235616031
 30
0.0
 10
63.19207451275281
 20
27.62163181268377
 30
0.0
 10
63.21871185731033
 20
27.62634996449227
 30
0.0
 10
63.24340285731403
 20
27.6342790337884
 30
0.0
 10
63.26673566988806
 20
27.64387431577633
 30
0.0
 10
63.28799171169209
 20
27.65620770716489
 30
0.0
 10
63.3082292850081
 20
27.67007878191237
 30
0.0
 10
63.3200384827547
 20
27.68121438170125
 30
0.0
 10
63.32601547813537
 20
27.68685044859819
 30
0.0
  0
SPLINE
  5
A9
330
1F
100
AcDbEntity
  8
0
  6
Continuous
 62
     7
370
    25
100
AcDbSpline
210
0.0
220
0.0
230
1.0
 70
     8
 71
     3
 72
    15
 73
    11
 74
     0
 42
0.00000001
 43
0.00000001
 40
0.0
 40
0.0
 40
0.0
 40
0.0
 40
0.1062344532908171
 40
0.2134351374465925
 40
0.3266362515327415
 40
0.4454478074346337
 40
0.5709125865608569
 40
0.7047818913259153
 40
0.8472638984122982
 40
1.0
 40
1.0
 40
1.0
 40
1.0
 10
62.91771431983423
 20
27.68685044859819
 30
0.0
 10
62.92377533944263
 20
27.68117808960168
 30
0.0
 10
62.93595250525949
 20
27.6697817799812
 30
0.0
 10
62.95754375686287
 20
27.65609576395591
 30
0.0
 10
62.98089338515489
 20
27.64356603124904
 30
0.0
 10
63.00724897084459
 20
27.63428477963466
 30
0.0
 10
63.03565647623427
 20
27.62622964385612
 30
0.0
 10
63.06669008050156
 20
27.62161709348107
 30
0.0
 10
63.0999379626457
 20
27.61762394003197
 30
0.0
 10
63.12297643969861
 20
27.61744497150605
 30
0.0
 10
63.1348957870157
 20
27.61735237910012
 30
0.0
  0
SPLINE
  5
AA
330
1F
100
AcDbEntity
  8
0
  6
Continuous
 62
     7
370
    25
100
AcDbSpline
210
0.0
220
0.0
230
1.0
 70
     8
 71
     3
 72
    15
 73
    11
 74
     0
 42
0.00000001
 43
0.00000001
 40
0.0
 40
0.0
 40
0.0
 40
0.0
 40
0.138042099703314
 40
0.2691721599589607
 40
0.3953313456434694
 40
0.5186017941434372
 40
0.6392985515224101
 40
0.7600805617867294
 40
0.8784957553092646
 40
1.0
 40
1.0
 40
1.0
 40
1.0
 10
62.84821625033615
 20
27.86928288103062
 30
0.0
 10
62.84831563255111
 20
27.86004163087486
 30
0.0
 10
62.84850942071802
 20
27.8420218581353
 30
0.0
 10
62.85251934277245
 20
27.81585355054089
 30
0.0
 10
62.85723922331086
 20
27.79081145336664
 30
0.0
 10
62.86527347502115
 20
27.76735170770645
 30
0.0
 10
62.87472194105116
 20
27.74481517085227
 30
0.0
 10
62.88716795359949
 20
27.72417038516423
 30
0.0
 10
62.90094294076247
 20
27.70430058892979
 30
0.0
 10
62.91207607905774
 20
27.69271687689559
 30
0.0
 10
62.91771431983423
 20
27.68685044859819
 30
0.0
  0
SPLINE
  5
AB
330
1F
100
AcDbEntity
  8
0
  6
Continuous
 62
     7
370
    25
100
AcDbSpline
210
0.0
220
0.0
230
1.0
 70
     8
 71
     3
 72
    11
 73
     7
 74
     0
 42
0.00000001
 43
0.00000001
 40
0.0
 40
0.0
 40
0.0
 40
0.0
 40
0.2550921435312739
 40
0.4983791954134786
 40
0.7437399667914601
 40
1.0
 40
1.0
 40
1.0
 40
1.0
 10
62.90902706114697
 20
28.01696627871402
 30
0.0
 10
62.89965673768528
 20
28.00658796583416
 30
0.0
 10
62.88134972829272
 20
27.98631162509231
 30
0.0
 10
62.86203700120814
 20
27.9501282850954
 30
0.0
 10
62.8503668350325
 20
27.9107596580163
 30
0.0
 10
62.84894342125568
 20
27.88330730244053
 30
0.0
 10
62.84821625033615
 20
27.86928288103062
 30
0.0
  0
SPLINE
  5
AC
330
1F
100
AcDbEntity
  8
0
  6
Continuous
 62
     7
370
    25
100
AcDbSpline
210
0.0
220
0.0
230
1.0
 70
     8
 71
     3
 72
    15
 73
    11
 74
     0
 42
0.00000001
 43
0.00000001
 40
0.0
 40
0.0
 40
0.0
 40
0.0
 40
0.1305521219623391
 40
0.257514555698003
 40
0.3807268344757818
 40
0.5030306145961513
 40
0.6251462349433744
 40
0.7476378858044694
 40
0.8722881459663864
 40
1.0
 40
1.0
 40
1.0
 40
1.0
 10
63.10014675226666
 20
28.09515160689935
 30
0.0
 10
63.09091289701413
 20
28.09488108350888
 30
0.0
 10
63.07269908250852
 20
28.09434747509523
 30
0.0
 10
63.04594909724501
 20
28.09082369315319
 30
0.0
 10
63.02027197020573
 20
28.0846960516778
 30
0.0
 10
62.99578112644881
 20
28.0758596687466
 30
0.0
 10
62.97212402216
 20
28.06506027963618
 30
0.0
 10
62.9499122898217
 20
28.05124800485168
 30
0.0
 10
62.92840720132466
 20
28.03563997257336
 30
0.0
 10
62.9155391452159
 20
28.02324098380773
 30
0.0
 10
62.90902706114697
 20
28.01696627871402
 30
0.0
  0
LINE
  5
AD
330
1F
100
AcDbEntity
  8
0
  6
Continuous
 62
     7
370
    25
100
AcDbLine
 10
63.1609575631
 20
28.0951516069
 30
0.0
 11
63.1001467523
 21
28.0951516069
 31
0.0
  0
LINE
  5
AE
330
1F
100
AcDbEntity
  8
0
  6
Continuous
 62
     7
370
    25
100
AcDbLine
 10
63.1609575631
 20
28.3007500625
 30
0.0
 11
63.1609575631
 21
28.0951516069
 31
0.0
  0
LINE
  5
AF
330
1F
100
AcDbEntity
  8
0
  6
Continuous
 62
     7
370
    25
100
AcDbLine
 10
63.0914594936
 20
28.3007500625
 30
0.0
 11
63.1609575631
 21
28.3007500625
 31
0.0
  0
SPLINE
  5
B0
330
1F
100
AcDbEntity
  8
0
  6
Continuous
 62
     7
370
    25
100
AcDbSpline
210
0.0
220
0.0
230
1.0
 70
     8
 71
     3
 72
    15
 73
    11
 74
     0
 42
0.00000001
 43
0.00000001
 40
0.0
 40
0.0
 40
0.0
 40
0.0
 40
0.1339120169181248
 40
0.2615284644313484
 40
0.3861887226529774
 40
0.5091929985924206
 40
0.6296768122270381
 40
0.7512559744353479
 40
0.874296574706902
 40
1.0
 40
1.0
 40
1.0
 40
1.0
 10
62.80477995689987
 20
28.17333693508468
 30
0.0
 10
62.81500043971963
 20
28.18351055481915
 30
0.0
 10
62.83496091256678
 20
28.20337950465726
 30
0.0
 10
62.8675240815967
 20
28.22935068291698
 30
0.0
 10
62.90144297511088
 20
28.25139249587656
 30
0.0
 10
62.93680537774926
 20
28.26943054614342
 30
0.0
 10
62.97359679025013
 20
28.283456210997
 30
0.0
 10
63.01168544582384
 20
28.29333062617336
 30
0.0
 10
63.05113021972282
 20
28.29976228419537
 30
0.0
 10
63.07792080383337
 20
28.30041846158622
 30
0.0
 10
63.0914594935794
 20
28.3007500624978
 30
0.0
  0
SPLINE
  5
B1
330
1F
100
AcDbEntity
  8
0
  6
Continuous
 62
     7
370
    25
100
AcDbSpline
210
0.0
220
0.0
230
1.0
 70
     8
 71
     3
 72
    15
 73
    11
 74
     0
 42
0.00000001
 43
0.00000001
 40
0.0
 40
0.0
 40
0.0
 40
0.0
 40
0.1330514903197376
 40
0.2614008608137415
 40
0.3859789426424564
 40
0.508465614902219
 40
0.6295593452611171
 40
0.7509246542250768
 40
0.8741074588764665
 40
1.0
 40
1.0
 40
1.0
 40
1.0
 10
62.68315833527824
 20
27.86928288103062
 30
0.0
 10
62.68350361443339
 20
27.88421281117941
 30
0.0
 10
62.68418197037033
 20
27.91354503875087
 30
0.0
 10
62.69028269043597
 20
27.95647739366978
 30
0.0
 10
62.69931767659003
 20
27.99767030949711
 30
0.0
 10
62.71311930083119
 20
28.03666907486043
 30
0.0
 10
62.73007761235205
 20
28.07400278883722
 30
0.0
 10
62.75137521289177
 20
28.10910626986833
 30
0.0
 10
62.77554654239492
 20
28.14303042781784
 30
0.0
 10
62.79496506616833
 20
28.16316176183462
 30
0.0
 10
62.80477995689987
 20
28.17333693508468
 30
0.0
  0
SPLINE
  5
B2
330
1F
100
AcDbEntity
  8
0
  6
Continuous
 62
     7
370
    25
100
AcDbSpline
210
0.0
220
0.0
230
1.0
 70
     8
 71
     3
 72
    15
 73
    11
 74
     0
 42
0.00000001
 43
0.00000001
 40
0.0
 40
0.0
 40
0.0
 40
0.0
 40
0.1158830802717865
 40
0.2315534497979615
 40
0.3480625771524275
 40
0.4678553783950309
 40
0.5925908197539052
 40
0.7213115030172625
 40
0.8571441704632063
 40
1.0
 40
1.0
 40
1.0
 40
1.0
 10
62.80477995689987
 20
27.53047979222753
 30
0.0
 10
62.79493095285502
 20
27.54084807878744
 30
0.0
 10
62.7752510232371
 20
27.56156562025949
 30
0.0
 10
62.75113775887976
 20
27.59719920776787
 30
0.0
 10
62.72977877181432
 20
27.63500751737446
 30
0.0
 10
62.71289350266794
 20
27.67626493797332
 30
0.0
 10
62.69925288859726
 20
27.72025866139462
 30
0.0
 10
62.69017903913272
 20
27.76742267100158
 30
0.0
 10
62.68416646283367
 20
27.81732524252444
 30
0.0
 10
62.6834999764513
 20
27.85167512051144
 30
0.0
 10
62.68315833527824
 20
27.86928288103062
 30
0.0
  0
SPLINE
  5
B3
330
1F
100
AcDbEntity
  8
0
  6
Continuous
 62
     7
370
    25
100
AcDbSpline
210
0.0
220
0.0
230
1.0
 70
     8
 71
     3
 72
    15
 73
    11
 74
     0
 42
0.00000001
 43
0.00000001
 40
0.0
 40
0.0
 40
0.0
 40
0.0
 40
0.1354658418109468
 40
0.2653728839126843
 40
0.3915266279918205
 40
0.5146179992444262
 40
0.6353652389705204
 40
0.755435876357243
 40
0.8764282152102189
 40
1.0
 40
1.0
 40
1.0
 40
1.0
 10
63.11752126964118
 20
27.40885817060591
 30
0.0
 10
63.10194821788201
 20
27.40919910959521
 30
0.0
 10
63.07144114981669
 20
27.40986699724586
 30
0.0
 10
63.02680159240472
 20
27.41599156208385
 30
0.0
 10
62.98410369636004
 20
27.42497107267859
 30
0.0
 10
62.94380516150561
 20
27.43875947928341
 30
0.0
 10
62.90549422533461
 20
27.45570400052118
 30
0.0
 10
62.86971438946716
 20
27.47698331124312
 30
0.0
 10
62.83542173789028
 20
27.50124485622549
 30
0.0
 10
62.81506545059767
 20
27.52066653267519
 30
0.0
 10
62.80477995689987
 20
27.53047979222753
 30
0.0
  0
SPLINE
  5
B4
330
1F
100
AcDbEntity
  8
0
  6
Continuous
 62
     7
370
    25
100
AcDbSpline
210
0.0
220
0.0
230
1.0
 70
     8
 71
     3
 72
    15
 73
    11
 74
     0
 42
0.00000001
 43
0.00000001
 40
0.0
 40
0.0
 40
0.0
 40
0.0
 40
0.119502711436531
 40
0.2380939422658888
 40
0.3566476293726342
 40
0.4775806195769143
 40
0.6003630199241495
 40
0.7278327340041407
 40
0.8606471500295815
 40
1.0
 40
1.0
 40
1.0
 40
1.0
 10
63.39551354763346
 20
27.51310527485301
 30
0.0
 10
63.38668003165625
 20
27.50475065958495
 30
0.0
 10
63.36908037539908
 20
27.48810515203643
 30
0.0
 10
63.33958685699183
 20
27.4668033814499
 30
0.0
 10
63.30770172269476
 20
27.44913305746523
 30
0.0
 10
63.27397500718275
 20
27.43415707030218
 30
0.0
 10
63.23783928807173
 20
27.42305845746699
 30
0.0
 10
63.19979673906963
 20
27.4145301399725
 30
0.0
 10
63.15936326365393
 20
27.40975594034201
 30
0.0
 10
63.13169020303688
 20
27.40916218192028
 30
0.0
 10
63.11752126964118
 20
27.40885817060591
 30
0.0
  0
SPLINE
  5
B5
330
1F
100
AcDbEntity
  8
0
  6
Continuous
 62
     7
370
    25
100
AcDbSpline
210
0.0
220
0.0
230
1.0
 70
     8
 71
     3
 72
    11
 73
     7
 74
     0
 42
0.00000001
 43
0.00000001
 40
0.0
 40
0.0
 40
0.0
 40
0.0
 40
0.2570374775372502
 40
0.5073419159098055
 40
0.7523129875772145
 40
1.0
 40
1.0
 40
1.0
 40
1.0
 10
63.48238613450604
 20
27.66078867253641
 30
0.0
 10
63.47770962795057
 20
27.64669785942107
 30
0.0
 10
63.46847911488165
 20
27.61888533888453
 30
0.0
 10
63.44847878072722
 20
27.58021368332082
 30
0.0
 10
63.42461640202654
 20
27.54443988092743
 30
0.0
 10
63.40525008683868
 20
27.5235884603304
 30
0.0
 10
63.39551354763346
 20
27.51310527485301
 30
0.0
  0
SPLINE
  5
B6
330
1F
100
AcDbEntity
  8
0
  6
Continuous
 62
     7
370
    25
100
AcDbSpline
210
0.0
220
0.0
230
1.0
 70
     8
 71
     3
 72
    11
 73
     7
 74
     0
 42
0.00000001
 43
0.00000001
 40
0.0
 40
0.0
 40
0.0
 40
0.0
 40
0.2731656445547251
 40
0.5274113090719889
 40
0.7672619830757372
 40
1.0
 40
1.0
 40
1.0
 40
1.0
 10
63.55188420400411
 20
27.53047979222753
 30
0.0
 10
63.54252871468169
 20
27.5405012654962
 30
0.0
 10
63.52446571529319
 20
27.55985010544302
 30
0.0
 10
63.5038251172268
 20
27.59246466806001
 30
0.0
 10
63.48886826399021
 20
27.62595131249178
 30
0.0
 10
63.48452505529947
 20
27.64929332151482
 30
0.0
 10
63.48238613450604
 20
27.66078867253641
 30
0.0
  0
SPLINE
  5
B7
330
1F
100
AcDbEntity
  8
0
  6
Continuous
 62
     7
370
    25
100
AcDbSpline
210
0.0
220
0.0
230
1.0
 70
     8
 71
     3
 72
    15
 73
    11
 74
     0
 42
0.00000001
 43
0.00000001
 40
0.0
 40
0.0
 40
0.0
 40
0.0
 40
0.1495888260512939
 40
0.2896239650819633
 40
0.4219290861937192
 40
0.5465682968532928
 40
0.6661289243466413
 40
0.7799971355270188
 40
0.8908038749321946
 40
0.9999999999999999
 40
0.9999999999999999
 40
0.9999999999999999
 40
0.9999999999999999
 10
63.81250196462187
 20
27.44360720535494
 30
0.0
 10
63.79843849378762
 20
27.44379993501292
 30
0.0
 10
63.77120973417136
 20
27.44417308539589
 30
0.0
 10
63.73176697711726
 20
27.44858755219851
 30
0.0
 10
63.69495853663336
 20
27.45499331497817
 30
0.0
 10
63.66099827734067
 20
27.46502961476217
 30
0.0
 10
63.62923919491845
 20
27.47638256109159
 30
0.0
 10
63.60078674151884
 20
27.49195102236994
 30
0.0
 10
63.5746752084439
 20
27.50950240641514
 30
0.0
 10
63.5594440369632
 20
27.52352154108599
 30
0.0
 10
63.55188420400411
 20
27.53047979222753
 30
0.0
  0
SPLINE
  5
B8
330
1F
100
AcDbEntity
  8
0
  6
Continuous
 62
     7
370
    25
100
AcDbSpline
210
0.0
220
0.0
230
1.0
 70
     8
 71
     3
 72
    15
 73
    11
 74
     0
 42
0.00000001
 43
0.00000001
 40
0.0
 40
0.0
 40
0.0
 40
0.0
 40
0.1195027114365314
 40
0.2380939422658883
 40
0.3566476293726342
 40
0.4775806195769134
 40
0.6003630199241491
 40
0.7278327340041411
 40
0.8606471500295816
 40
1.0
 40
1.0
 40
1.0
 40
1.0
 10
64.09049424261414
 20
27.54785430960205
 30
0.0
 10
64.08166072663694
 20
27.53949969433399
 30
0.0
 10
64.06406107037978
 20
27.52285418678546
 30
0.0
 10
64.03456755197253
 20
27.50155241619894
 30
0.0
 10
64.00268241767546
 20
27.48388209221427
 30
0.0
 10
63.96895570216345
 20
27.46890610505121
 30
0.0
 10
63.93281998305242
 20
27.45780749221603
 30
0.0
 10
63.89477743405033
 20
27.44927917472154
 30
0.0
 10
63.85434395863462
 20
27.44450497509104
 30
0.0
 10
63.82667089801758
 20
27.44391121666931
 30
0.0
 10
63.81250196462187
 20
27.44360720535494
 30
0.0
  0
SPLINE
  5
B9
330
1F
100
AcDbEntity
  8
0
  6
Continuous
 62
     7
370
    25
100
AcDbSpline
210
0.0
220
0.0
230
1.0
 70
     8
 71
     3
 72
    15
 73
    11
 74
     0
 42
0.00000001
 43
0.00000001
 40
0.0
 40
0.0
 40
0.0
 40
0.0
 40
0.1401156952848864
 40
0.2734369515897445
 40
0.4007170918852054
 40
0.5244111544238701
 40
0.6451326608364115
 40
0.7627629456192481
 40
0.8809824433211494
 40
1.0
 40
1.0
 40
1.0
 40
1.0
 10
64.20342860554851
 20
27.8519083636561
 30
0.0
 10
64.20320157936071
 20
27.83633661039287
 30
0.0
 10
64.20275853585588
 20
27.80594820362267
 30
0.0
 10
64.19693180708401
 20
27.76175755582365
 30
0.0
 10
64.18856125004504
 20
27.71984791202443
 30
0.0
 10
64.17574159108786
 20
27.68053398125942
 30
0.0
 10
64.16022132843604
 20
27.64337350624669
 30
0.0
 10
64.14062027901245
 20
27.60886229935749
 30
0.0
 10
64.11742997654784
 20
27.57687074021716
 30
0.0
 10
64.09949293383278
 20
27.55754812006272
 30
0.0
 10
64.09049424261414
 20
27.54785430960205
 30
0.0
  0
SPLINE
  5
BA
330
1F
100
AcDbEntity
  8
0
  6
Continuous
 62
     7
370
    25
100
AcDbSpline
210
0.0
220
0.0
230
1.0
 70
     8
 71
     3
 72
    15
 73
    11
 74
     0
 42
0.00000001
 43
0.00000001
 40
0.0
 40
0.0
 40
0.0
 40
0.0
 40
0.1270527522076904
 40
0.2522753243044992
 40
0.3739697899787141
 40
0.49488326292777
 40
0.6176556772794559
 40
0.7419399124466161
 40
0.8684128160693879
 40
1.0
 40
1.0
 40
1.0
 40
1.0
 10
64.09049424261414
 20
28.12990064164838
 30
0.0
 10
64.09948491980141
 20
28.12041793089262
 30
0.0
 10
64.11733676451726
 20
28.10158910672608
 30
0.0
 10
64.14036063110107
 20
28.0707003529402
 30
0.0
 10
64.15991326852486
 20
28.03826910159815
 30
0.0
 10
64.17570855058308
 20
28.0041373295524
 30
0.0
 10
64.18846565669253
 20
27.96844672309039
 30
0.0
 10
64.1968212485285
 20
27.93092274605838
 30
0.0
 10
64.20275351589638
 20
27.89199390997154
 30
0.0
 10
64.20320062205491
 20
27.86544559217532
 30
0.0
 10
64.20342860554851
 20
27.8519083636561
 30
0.0
  0
SPLINE
  5
BB
330
1F
100
AcDbEntity
  8
0
  6
Continuous
 62
     7
370
    25
100
AcDbSpline
210
0.0
220
0.0
230
1.0
 70
     8
 71
     3
 72
    15
 73
    11
 74
     0
 42
0.00000001
 43
0.00000001
 40
0.0
 40
0.0
 40
0.0
 40
0.0
 40
0.1342207616992959
 40
0.2632543584014019
 40
0.3882486178889517
 40
0.5110181775835607
 40
0.6322369822528029
 40
0.7532951172272381
 40
0.8750618099117068
 40
1.0
 40
1.0
 40
1.0
 40
1.0
 10
63.76037841249832
 20
28.26020952195726
 30
0.0
 10
63.77669951492541
 20
28.25987560598458
 30
0.0
 10
63.8087109660113
 20
28.25922067872866
 30
0.0
 10
63.855596734955
 20
28.25298556369811
 30
0.0
 10
63.90025870570776
 20
28.24259434614455
 30
0.0
 10
63.94292592246616
 20
28.2285377235424
 30
0.0
 10
63.98339829659203
 20
28.2101050765691
 30
0.0
 10
64.02143970459484
 20
28.18737736925635
 30
0.0
 10
64.05761825968334
 20
28.16093706085702
 30
0.0
 10
64.07944206350818
 20
28.1403344000739
 30
0.0
 10
64.09049424261414
 20
28.12990064164838
 30
0.0
  0
LINE
  5
BC
330
1F
100
AcDbEntity
  8
0
  6
Continuous
 62
     7
370
    25
100
AcDbLine
 10
64.0216396738
 20
28.7380087498
 30
0.0
 11
64.0216396738
 21
29.3721786339
 31
0.0
  0
LINE
  5
BD
330
1F
100
AcDbEntity
  8
0
  6
Continuous
 62
     7
370
    25
100
AcDbLine
 10
62.7005328527
 20
28.9638774756
 30
0.0
 11
62.7005328527
 21
29.1549971667
 31
0.0
  0
LINE
  5
BE
330
1F
100
AcDbEntity
  8
0
  6
Continuous
 62
     7
370
    25
100
AcDbLine
 10
64.1860540882
 20
28.5468890586
 30
0.0
 11
63.9949343971
 21
28.5468890586
 31
0.0
  0
LINE
  5
BF
330
1F
100
AcDbEntity
  8
0
  6
Continuous
 62
     7
370
    25
100
AcDbLine
 10
63.3906872928
 20
30.5710203328
 30
0.0
 11
63.5345096866
 21
30.5710203328
 31
0.0
  0
LINE
  5
C0
330
1F
100
AcDbEntity
  8
0
  6
Continuous
 62
     7
370
    25
100
AcDbLine
 10
63.3906872928
 20
29.5806728424
 30
0.0
 11
63.3906872928
 21
30.5710203328
 31
0.0
  0
LINE
  5
C1
330
1F
100
AcDbEntity
  8
0
  6
Continuous
 62
     7
370
    25
100
AcDbLine
 10
63.5345096866
 20
29.5806728424
 30
0.0
 11
63.3906872928
 21
29.5806728424
 31
0.0
  0
LINE
  5
C2
330
1F
100
AcDbEntity
  8
0
  6
Continuous
 62
     7
370
    25
100
AcDbLine
 10
63.5345096866
 20
30.5710203328
 30
0.0
 11
63.5345096866
 21
29.5806728424
 31
0.0
  0
LINE
  5
C3
330
1F
100
AcDbEntity
  8
0
  6
Continuous
 62
     7
370
    25
100
AcDbLine
 10
62.7011763533
 20
31.9107886725
 30
0.0
 11
64.1860540882
 21
31.9107886725
 31
0.0
  0
LINE
  5
C4
330
1F
100
AcDbEntity
  8
0
  6
Continuous
 62
     7
370
    25
100
AcDbLine
 10
62.7011763533
 20
31.2187037305
 30
0.0
 11
62.7011763533
 21
31.9107886725
 31
0.0
  0
SPLINE
  5
C5
330
1F
100
AcDbEntity
  8
0
  6
Continuous
 62
     7
370
    25
100
AcDbSpline
210
0.0
220
0.0
230
1.0
 70
     8
 71
     3
 72
    15
 73
    11
 74
     0
 42
0.00000001
 43
0.00000001
 40
0.0
 40
0.0
 40
0.0
 40
0.0
 40
0.1086277469152499
 40
0.2195300404679357
 40
0.3340583594962496
 40
0.4525037346025803
 40
0.578166032102879
 40
0.7098017975268055
 40
0.8504665399585418
 40
1.0
 40
1.0
 40
1.0
 40
1.0
 10
62.80477995689986
 20
30.90596241771016
 30
0.0
 10
62.7965179465427
 20
30.91500529259328
 30
0.0
 10
62.77982092833546
 20
30.93328039030461
 30
0.0
 10
62.75848236864314
 20
30.96445744245079
 30
0.0
 10
62.74092344758977
 20
30.99908413001347
 30
0.0
 10
62.72639099270698
 20
31.03684408884087
 30
0.0
 10
62.71479185486499
 20
31.07762824157816
 30
0.0
 10
62.7069088196988
 20
31.12182093935244
 30
0.0
 10
62.70202442633896
 20
31.16915060901276
 30
0.0
 10
62.70146474575751
 20
31.20185288632027
 30
0.0
 10
62.70117635329626
 20
31.21870373045147
 30
0.0
  0
SPLINE
  5
C6
330
1F
100
AcDbEntity
  8
0
  6
Continuous
 62
     7
370
    25
100
AcDbSpline
210
0.0
220
0.0
230
1.0
 70
     8
 71
     3
 72
    15
 73
    11
 74
     0
 42
0.00000001
 43
0.00000001
 40
0.0
 40
0.0
 40
0.0
 40
0.0
 40
0.1319114978615549
 40
0.25855939557945
 40
0.3829282045992126
 40
0.5051155152535458
 40
0.626677617555988
 40
0.7489849223246643
 40
0.8728415720964469
 40
0.9999999999999999
 40
0.9999999999999999
 40
0.9999999999999999
 40
0.9999999999999999
 10
63.12620852832844
 20
30.77565353740128
 30
0.0
 10
63.11052918694084
 20
30.77598261721652
 30
0.0
 10
63.07979614927559
 20
30.7766276457357
 30
0.0
 10
63.03463580898748
 20
30.78295010220277
 30
0.0
 10
62.99145549568122
 20
30.79325623885914
 30
0.0
 10
62.94999054517759
 20
30.80739344303839
 30
0.0
 10
62.91049682126056
 20
30.82583138074952
 30
0.0
 10
62.87313112067487
 20
30.84857858861241
 30
0.0
 10
62.8373221788809
 20
30.87492710394488
 30
0.0
 10
62.81572207136994
 20
30.89552699151116
 30
0.0
 10
62.80477995689986
 20
30.90596241771016
 30
0.0
  0
SPLINE
  5
C7
330
1F
100
AcDbEntity
  8
0
  6
Continuous
 62
     7
370
    25
100
AcDbSpline
210
0.0
220
0.0
230
1.0
 70
     8
 71
     3
 72
    15
 73
    11
 74
     0
 42
0.00000001
 43
0.00000001
 40
0.0
 40
0.0
 40
0.0
 40
0.0
 40
0.126381288958891
 40
0.2491049464973162
 40
0.3706105362999222
 40
0.4913917559424304
 40
0.6138158455532662
 40
0.7388355742356971
 40
0.8671181754268789
 40
1.0
 40
1.0
 40
1.0
 40
1.0
 10
63.3868262889462
 20
30.87990064164838
 30
0.0
 10
63.37796186932126
 20
30.87158647738624
 30
0.0
 10
63.36048957738164
 20
30.85519877109878
 30
0.0
 10
63.33198763006423
 20
30.83364682572718
 30
0.0
 10
63.301497152449
 20
30.81618562128968
 30
0.0
 10
63.2698589378493
 20
30.80092253877101
 30
0.0
 10
63.23612159282649
 20
30.78995705122045
 30
0.0
 10
63.20100052271214
 20
30.78137168229297
 30
0.0
 10
63.16409351254319
 20
30.77656727578826
 30
0.0
 10
63.13898425153877
 20
30.77596167184981
 30
0.0
 10
63.12620852832844
 20
30.77565353740128
 30
0.0
  0
SPLINE
  5
C8
330
1F
100
AcDbEntity
  8
0
  6
Continuous
 62
     7
370
    25
100
AcDbSpline
210
0.0
220
0.0
230
1.0
 70
     8
 71
     3
 72
    11
 73
     7
 74
     0
 42
0.00000001
 43
0.00000001
 40
0.0
 40
0.0
 40
0.0
 40
0.0
 40
0.2758864184465409
 40
0.5310076877713107
 40
0.7722766677115254
 40
1.0
 40
1.0
 40
1.0
 40
1.0
 10
63.48238613450604
 20
31.0449585567063
 30
0.0
 10
63.47642064427706
 20
31.02828973407434
 30
0.0
 10
63.46493866850327
 20
30.9962067014499
 30
0.0
 10
63.44238426152167
 20
30.95200819618666
 30
0.0
 10
63.41694209684573
 20
30.91297148367438
 30
0.0
 10
63.39666971959601
 20
30.89070993293818
 30
0.0
 10
63.3868262889462
 20
30.87990064164838
 30
0.0
  0
SPLINE
  5
C9
330
1F
100
AcDbEntity
  8
0
  6
Continuous
 62
     7
370
    25
100
AcDbSpline
210
0.0
220
0.0
230
1.0
 70
     8
 71
     3
 72
    11
 73
     7
 74
     0
 42
0.00000001
 43
0.00000001
 40
0.0
 40
0.0
 40
0.0
 40
0.0
 40
0.2409277974217346
 40
0.485486417242414
 40
0.7380410464993911
 40
1.0
 40
1.0
 40
1.0
 40
1.0
 10
63.56057146269137
 20
30.91464967639742
 30
0.0
 10
63.55218277337305
 20
30.92367644563367
 30
0.0
 10
63.53527897577852
 20
30.94186601903567
 30
0.0
 10
63.51398315355913
 20
30.97316130365973
 30
0.0
 10
63.4963015920475
 20
31.00778363820561
 30
0.0
 10
63.48708079983523
 20
31.0324168346335
 30
0.0
 10
63.48238613450604
 20
31.0449585567063
 30
0.0
  0
SPLINE
  5
CA
330
1F
100
AcDbEntity
  8
0
  6
Continuous
 62
     7
370
    25
100
AcDbSpline
210
0.0
220
0.0
230
1.0
 70
     8
 71
     3
 72
    15
 73
    11
 74
     0
 42
0.00000001
 43
0.00000001
 40
0.0
 40
0.0
 40
0.0
 40
0.0
 40
0.131207293287142
 40
0.2585055422472042
 40
0.3817646425439866
 40
0.5033692670500668
 40
0.6250492974901228
 40
0.7476118725723034
 40
0.8722462138971593
 40
1.0
 40
1.0
 40
1.0
 40
1.0
 10
63.79512744724736
 20
30.81908983083757
 30
0.0
 10
63.78374419675082
 20
30.81941429197736
 30
0.0
 10
63.76131683567643
 20
30.8200535476222
 30
0.0
 10
63.72844927089435
 20
30.82463990405994
 30
0.0
 10
63.6969945431413
 20
30.83207240853461
 30
0.0
 10
63.66683517281309
 20
30.84233407761306
 30
0.0
 10
63.63811409202347
 20
30.85599127686769
 30
0.0
 10
63.61068654854677
 20
30.87252745777982
 30
0.0
 10
63.58432323782533
 20
30.89172719426472
 30
0.0
 10
63.56855369009651
 20
30.90694614838565
 30
0.0
 10
63.56057146269137
 20
30.91464967639742
 30
0.0
  0
SPLINE
  5
CB
330
1F
100
AcDbEntity
  8
0
  6
Continuous
 62
     7
370
    25
100
AcDbSpline
210
0.0
220
0.0
230
1.0
 70
     8
 71
     3
 72
    15
 73
    11
 74
     0
 42
0.00000001
 43
0.00000001
 40
0.0
 40
0.0
 40
0.0
 40
0.0
 40
0.1195027114365312
 40
0.2380939422658885
 40
0.3566476293726336
 40
0.4775806195769139
 40
0.6003630199241489
 40
0.7278327340041405
 40
0.8606471500295809
 40
1.0
 40
1.0
 40
1.0
 40
1.0
 10
64.07311972523964
 20
30.92333693508468
 30
0.0
 10
64.06428620926242
 20
30.91498231981662
 30
0.0
 10
64.04668655300526
 20
30.89833681226808
 30
0.0
 10
64.01719303459801
 20
30.87703504168156
 30
0.0
 10
63.98530790030094
 20
30.85936471769689
 30
0.0
 10
63.95158118478893
 20
30.84438873053384
 30
0.0
 10
63.9154454656779
 20
30.83329011769866
 30
0.0
 10
63.87740291667581
 20
30.82476180020416
 30
0.0
 10
63.8369694412601
 20
30.81998760057367
 30
0.0
 10
63.80929638064306
 20
30.81939384215194
 30
0.0
 10
63.79512744724736
 20
30.81908983083757
 30
0.0
  0
SPLINE
  5
CC
330
1F
100
AcDbEntity
  8
0
  6
Continuous
 62
     7
370
    25
100
AcDbSpline
210
0.0
220
0.0
230
1.0
 70
     8
 71
     3
 72
    15
 73
    11
 74
     0
 42
0.00000001
 43
0.00000001
 40
0.0
 40
0.0
 40
0.0
 40
0.0
 40
0.1342477572737638
 40
0.2634617725756842
 40
0.3884666271730294
 40
0.5118790511869575
 40
0.6324080741525892
 40
0.753552524823548
 40
0.8755084805282747
 40
1.0
 40
1.0
 40
1.0
 40
1.0
 10
64.18605408817399
 20
31.21001647176421
 30
0.0
 10
64.18582145990453
 20
31.19583771899927
 30
0.0
 10
64.18536492597451
 20
31.16801185872255
 30
0.0
 10
64.17951914174168
 20
31.12735379514974
 30
0.0
 10
64.17107522024139
 20
31.08835668729189
 30
0.0
 10
64.15841894179823
 20
31.05144482639573
 30
0.0
 10
64.14250377176675
 20
31.01630625705178
 30
0.0
 10
64.1232868347107
 20
30.98299585220727
 30
0.0
 10
64.09983904631366
 20
30.95196541295474
 30
0.0
 10
64.08208704581727
 20
30.93294499129237
 30
0.0
 10
64.07311972523964
 20
30.92333693508468
 30
0.0
  0
LINE
  5
CD
330
1F
100
AcDbEntity
  8
0
  6
Continuous
 62
     7
370
    25
100
AcDbLine
 10
64.1860540882
 20
31.9107886725
 30
0.0
 11
64.1860540882
 21
31.2100164718
 31
0.0
  0
LINE
  5
CE
330
1F
100
AcDbEntity
  8
0
  6
Continuous
 62
     7
370
    25
100
AcDbLine
 10
62.7005328527
 20
33.3229508347
 30
0.0
 11
64.1860540882
 21
33.3229508347
 31
0.0
  0
LINE
  5
CF
330
1F
100
AcDbEntity
  8
0
  6
Continuous
 62
     7
370
    25
100
AcDbLine
 10
62.7005328527
 20
33.1173523791
 30
0.0
 11
62.7005328527
 21
33.3229508347
 31
0.0
  0
LINE
  5
D0
330
1F
100
AcDbEntity
  8
0
  6
Continuous
 62
     7
370
    25
100
AcDbLine
 10
63.8733127754
 20
33.1173523791
 30
0.0
 11
62.7005328527
 21
33.1173523791
 31
0.0
  0
LINE
  5
D1
330
1F
100
AcDbEntity
  8
0
  6
Continuous
 62
     7
370
    25
100
AcDbLine
 10
62.7005328527
 20
32.4223716841
 30
0.0
 11
63.8733127754
 21
33.1173523791
 31
0.0
  0
LINE
  5
D2
330
1F
100
AcDbEntity
  8
0
  6
Continuous
 62
     7
370
    25
100
AcDbLine
 10
62.7005328527
 20
32.2051902169
 30
0.0
 11
62.7005328527
 21
32.4223716841
 31
0.0
  0
LINE
  5
D3
330
1F
100
AcDbEntity
  8
0
  6
Continuous
 62
     7
370
    25
100
AcDbLine
 10
64.1860540882
 20
32.2051902169
 30
0.0
 11
62.7005328527
 21
32.2051902169
 31
0.0
  0
LINE
  5
D4
330
1F
100
AcDbEntity
  8
0
  6
Continuous
 62
     7
370
    25
100
AcDbLine
 10
64.1860540882
 20
32.4107886725
 30
0.0
 11
64.1860540882
 21
32.2051902169
 31
0.0
  0
LINE
  5
D5
330
1F
100
AcDbEntity
  8
0
  6
Continuous
 62
     7
370
    25
100
AcDbLine
 10
63.0132741654
 20
32.4107886725
 30
0.0
 11
64.1860540882
 21
32.4107886725
 31
0.0
  0
LINE
  5
D6
330
1F
100
AcDbEntity
  8
0
  6
Continuous
 62
     7
370
    25
100
AcDbLine
 10
64.1860540882
 20
33.0999778617
 30
0.0
 11
63.0132741654
 21
32.4107886725
 31
0.0
  0
LINE
  5
D7
330
1F
100
AcDbEntity
  8
0
  6
Continuous
 62
     7
370
    25
100
AcDbLine
 10
64.1860540882
 20
33.3229508347
 30
0.0
 11
64.1860540882
 21
33.0999778617
 31
0.0
  0
LINE
  5
D8
330
1F
100
AcDbEntity
  8
0
  6
Continuous
 62
     7
370
    25
100
AcDbLine
 10
64.1860540882
 20
29.3721786339
 30
0.0
 11
64.1860540882
 21
28.5468890586
 31
0.0
  0
LINE
  5
D9
330
1F
100
AcDbEntity
  8
0
  6
Continuous
 62
     7
370
    25
100
AcDbLine
 10
64.0216396738
 20
29.3721786339
 30
0.0
 11
64.1860540882
 21
29.3721786339
 31
0.0
  0
LINE
  5
DA
330
1F
100
AcDbEntity
  8
0
  6
Continuous
 62
     7
370
    25
100
AcDbLine
 10
63.9949343971
 20
28.5468890586
 30
0.0
 11
62.7005328527
 21
28.9638774756
 31
0.0
  0
LINE
  5
DB
330
1F
100
AcDbEntity
  8
0
  6
Continuous
 62
     7
370
    25
100
AcDbLine
 10
62.7005328527
 20
29.1549971667
 30
0.0
 11
64.0216396738
 21
28.7380087498
 31
0.0
  0
SPLINE
  5
DC
330
1F
100
AcDbEntity
  8
0
  6
Continuous
 62
     7
370
    25
100
AcDbSpline
210
0.0
220
0.0
230
1.0
 70
     8
 71
     3
 72
    15
 73
    11
 74
     0
 42
0.00000001
 43
0.00000001
 40
0.0
 40
0.0
 40
0.0
 40
0.0
 40
0.1342207616992959
 40
0.2632543584014018
 40
0.3882486178889518
 40
0.5110181775835605
 40
0.6322369822528031
 40
0.7532951172272376
 40
0.875061809911707
 40
1.0
 40
1.0
 40
1.0
 40
1.0
 10
63.76037841249832
 20
26.03627129801904
 30
0.0
 10
63.77669951492541
 20
26.03593738204636
 30
0.0
 10
63.8087109660113
 20
26.03528245479044
 30
0.0
 10
63.855596734955
 20
26.0290473397599
 30
0.0
 10
63.90025870570776
 20
26.01865612220632
 30
0.0
 10
63.94292592246616
 20
26.00459949960418
 30
0.0
 10
63.98339829659203
 20
25.98616685263088
 30
0.0
 10
64.02143970459484
 20
25.96343914531813
 30
0.0
 10
64.05761825968334
 20
25.9369988369188
 30
0.0
 10
64.07944206350818
 20
25.91639617613568
 30
0.0
 10
64.09049424261414
 20
25.90596241771016
 30
0.0
  0
SPLINE
  5
DD
330
1F
100
AcDbEntity
  8
0
  6
Continuous
 62
     7
370
    25
100
AcDbSpline
210
0.0
220
0.0
230
1.0
 70
     8
 71
     3
 72
    15
 73
    11
 74
     0
 42
0.00000001
 43
0.00000001
 40
0.0
 40
0.0
 40
0.0
 40
0.0
 40
0.1270527522076901
 40
0.2522753243044997
 40
0.3739697899787154
 40
0.4948832629277704
 40
0.6176556772794579
 40
0.7419399124466176
 40
0.868412816069389
 40
1.0
 40
1.0
 40
1.0
 40
1.0
 10
64.09049424261414
 20
25.90596241771016
 30
0.0
 10
64.09948491980141
 20
25.8964797069544
 30
0.0
 10
64.11733676451726
 20
25.87765088278786
 30
0.0
 10
64.14036063110107
 20
25.84676212900197
 30
0.0
 10
64.15991326852486
 20
25.81433087765993
 30
0.0
 10
64.17570855058308
 20
25.78019910561417
 30
0.0
 10
64.18846565669253
 20
25.74450849915218
 30
0.0
 10
64.1968212485285
 20
25.70698452212016
 30
0.0
 10
64.20275351589638
 20
25.66805568603332
 30
0.0
 10
64.20320062205491
 20
25.6415073682371
 30
0.0
 10
64.20342860554851
 20
25.62797013971788
 30
0.0
  0
SPLINE
  5
DE
330
1F
100
AcDbEntity
  8
0
  6
Continuous
 62
     7
370
    25
100
AcDbSpline
210
0.0
220
0.0
230
1.0
 70
     8
 71
     3
 72
    16
 73
    12
 74
     0
 42
0.00000001
 43
0.00000001
 40
0.0
 40
0.0
 40
0.0
 40
0.0
 40
0.2500000000000002
 40
0.2500000000000002
 40
0.5000000000000004
 40
0.5000000000000004
 40
0.6250000000000003
 40
0.6250000000000003
 40
0.7500000000000002
 40
0.7500000000000002
 40
1.0
 40
1.0
 40
1.0
 40
1.0
 10
61.64060541361258
 20
36.47352998527771
 30
0.0
 10
61.31404333362859
 20
37.03915209963536
 30
0.0
 10
61.04489705335409
 20
37.60889800220603
 30
0.0
 10
60.67204209061821
 20
38.76027207005741
 30
0.0
 10
60.56956329540527
 20
39.34198856981336
 30
0.0
 10
60.56843764377165
 20
40.22552300869522
 30
0.0
 10
60.59348971072108
 20
40.52142051236371
 30
0.0
 10
60.69117965410918
 20
41.10673694106954
 30
0.0
 10
60.76371837937887
 20
41.39743280807171
 30
0.0
 10
61.04382379542349
 20
42.26434496928829
 30
0.0
 10
61.31363623737028
 20
42.83540598979238
 30
0.0
 10
61.64060541361273
 20
43.40173321555325
 30
0.0
  0
LINE
  5
DF
330
1F
100
AcDbEntity
  8
0
  6
Continuous
 62
     7
370
    25
100
AcDbLine
 10
60.4244710766
 20
29.545326755
 30
0.0
 11
60.4244710766
 21
41.295326755
 31
0.0
  0
LINE
  5
E0
330
1F
100
AcDbEntity
  8
0
  6
Continuous
 62
     7
370
    25
100
AcDbLine
 10
60.4244710766
 20
17.795326755
 30
0.0
 11
60.4244710766
 21
29.545326755
 31
0.0
  0
SPLINE
  5
E1
330
1F
100
AcDbEntity
  8
0
  6
Continuous
 62
     7
370
    25
100
AcDbSpline
210
0.0
220
0.0
230
1.0
 70
     8
 71
     3
 72
    16
 73
    12
 74
     0
 42
0.00000001
 43
0.00000001
 40
0.0
 40
0.0
 40
0.0
 40
0.0
 40
0.2500000000000002
 40
0.2500000000000002
 40
0.5000000000000004
 40
0.5000000000000004
 40
0.6250000000000003
 40
0.6250000000000003
 40
0.7500000000000002
 40
0.7500000000000002
 40
1.0
 40
1.0
 40
1.0
 40
1.0
 10
65.20833673956939
 20
36.47352998527771
 30
0.0
 10
65.53489881955338
 20
37.03915209963536
 30
0.0
 10
65.80404509982787
 20
37.60889800220603
 30
0.0
 10
66.17690006256376
 20
38.76027207005741
 30
0.0
 10
66.27937885777669
 20
39.34198856981336
 30
0.0
 10
66.2805045094103
 20
40.22552300869522
 30
0.0
 10
66.25545244246089
 20
40.52142051236371
 30
0.0
 10
66.15776249907279
 20
41.10673694106954
 30
0.0
 10
66.0852237738031
 20
41.39743280807171
 30
0.0
 10
65.80511835775847
 20
42.26434496928829
 30
0.0
 10
65.53530591581169
 20
42.83540598979238
 30
0.0
 10
65.20833673956923
 20
43.40173321555325
 30
0.0
  0
LINE
  5
E2
330
1F
100
AcDbEntity
  8
0
  6
Continuous
 62
     7
370
    25
100
AcDbLine
 10
66.4244710766
 20
29.545326755
 30
0.0
 11
66.4244710766
 21
41.295326755
 31
0.0
  0
LINE
  5
E3
330
1F
100
AcDbEntity
  8
0
  6
Continuous
 62
     7
370
    25
100
AcDbLine
 10
66.4244710766
 20
17.795326755
 30
0.0
 11
66.4244710766
 21
29.545326755
 31
0.0
  0
LINE
  5
E4
330
1F
100
AcDbEntity
  8
0
  6
Continuous
 62
     7
370
    25
100
AcDbLine
 10
63.8820000341
 20
26.6414836532
 30
0.0
 11
63.24783015
 21
27.0266187884
 31
0.0
  0
LINE
  5
E5
330
1F
100
AcDbEntity
  8
0
  6
Continuous
 62
     7
370
    25
100
AcDbLine
 10
63.24783015
 20
26.6414836532
 30
0.0
 11
63.8820000341
 21
26.6414836532
 31
0.0
  0
LINE
  5
E6
330
1F
100
AcDbEntity
  8
0
  6
Continuous
 62
     7
370
    25
100
AcDbLine
 10
63.24783015
 20
27.0266187884
 30
0.0
 11
63.24783015
 21
26.6414836532
 31
0.0
  0
LINE
  5
E7
330
1F
100
AcDbEntity
  8
0
  6
Continuous
 62
     7
370
    25
100
AcDbLine
 10
64.0216396738
 20
31.7051902169
 30
0.0
 11
63.5605714627
 21
31.7051902169
 31
0.0
  0
LINE
  5
E8
330
1F
100
AcDbEntity
  8
0
  6
Continuous
 62
     7
370
    25
100
AcDbLine
 10
64.0216396738
 20
31.2187037305
 30
0.0
 11
64.0216396738
 21
31.7051902169
 31
0.0
  0
SPLINE
  5
E9
330
1F
100
AcDbEntity
  8
0
  6
Continuous
 62
     7
370
    25
100
AcDbSpline
210
0.0
220
0.0
230
1.0
 70
     8
 71
     3
 72
    11
 73
     7
 74
     0
 42
0.00000001
 43
0.00000001
 40
0.0
 40
0.0
 40
0.0
 40
0.0
 40
0.2499695538886856
 40
0.4922399851273396
 40
0.7405148106355957
 40
1.0
 40
1.0
 40
1.0
 40
1.0
 10
63.96887262099253
 20
31.08839485014259
 30
0.0
 10
63.97703525771814
 20
31.0972973462478
 30
0.0
 10
63.99310911998619
 20
31.11482813942742
 30
0.0
 10
64.00957892261384
 20
31.14681905539621
 30
0.0
 10
64.02000782648793
 20
31.18168923189661
 30
0.0
 10
64.02108777692665
 20
31.20618528900186
 30
0.0
 10
64.02163967375958
 20
31.21870373045147
 30
0.0
  0
SPLINE
  5
EA
330
1F
100
AcDbEntity
  8
0
  6
Continuous
 62
     7
370
    25
100
AcDbSpline
210
0.0
220
0.0
230
1.0
 70
     8
 71
     3
 72
    11
 73
     7
 74
     0
 42
0.00000001
 43
0.00000001
 40
0.0
 40
0.0
 40
0.0
 40
0.0
 40
0.2516095171558488
 40
0.4964930798665573
 40
0.7426069856111285
 40
1.0
 40
1.0
 40
1.0
 40
1.0
 10
63.80381470593462
 20
31.01889678064452
 30
0.0
 10
63.81924283698877
 20
31.0197875436445
 30
0.0
 10
63.84968667866158
 20
31.02154525801989
 30
0.0
 10
63.89362534301424
 20
31.03484502238043
 30
0.0
 10
63.93415000073867
 20
31.0571229899889
 30
0.0
 10
63.95712684537983
 20
31.07781637853901
 30
0.0
 10
63.96887262099253
 20
31.08839485014259
 30
0.0
  0
SPLINE
  5
EB
330
1F
100
AcDbEntity
  8
0
  6
Continuous
 62
     7
370
    25
100
AcDbSpline
210
0.0
220
0.0
230
1.0
 70
     8
 71
     3
 72
    15
 73
    11
 74
     0
 42
0.00000001
 43
0.00000001
 40
0.0
 40
0.0
 40
0.0
 40
0.0
 40
0.121504244690735
 40
0.2399194382132703
 40
0.3607014484775896
 40
0.4813982058565623
 40
0.6046686543565304
 40
0.7308278400410382
 40
0.8619579002966858
 40
1.0
 40
1.0
 40
1.0
 40
1.0
 10
63.62138227350219
 20
31.08839485014259
 30
0.0
 10
63.62724870179957
 20
31.0827566093661
 30
0.0
 10
63.63883241383378
 20
31.07162347107083
 30
0.0
 10
63.65870221006823
 20
31.05784848390784
 30
0.0
 10
63.67934699575626
 20
31.04540247135952
 30
0.0
 10
63.70188353261045
 20
31.03595400532951
 30
0.0
 10
63.72534327827064
 20
31.02791975361923
 30
0.0
 10
63.75038537544488
 20
31.02319987308081
 30
0.0
 10
63.77655368303929
 20
31.01918995102639
 30
0.0
 10
63.79457345577885
 20
31.01899616285947
 30
0.0
 10
63.80381470593462
 20
31.01889678064452
 30
0.0
  0
SPLINE
  5
EC
330
1F
100
AcDbEntity
  8
0
  6
Continuous
 62
     7
370
    25
100
AcDbSpline
210
0.0
220
0.0
230
1.0
 70
     8
 71
     3
 72
    11
 73
     7
 74
     0
 42
0.00000001
 43
0.00000001
 40
0.0
 40
0.0
 40
0.0
 40
0.0
 40
0.2562600332085385
 40
0.5016208045865215
 40
0.744907856468725
 40
1.0
 40
1.0
 40
1.0
 40
1.0
 10
63.56057146269137
 20
31.23607824782599
 30
0.0
 10
63.56129863361089
 20
31.22205382641608
 30
0.0
 10
63.56272204738772
 20
31.19460147084031
 30
0.0
 10
63.57439221356334
 20
31.1552328437612
 30
0.0
 10
63.59370494064794
 20
31.1190495037643
 30
0.0
 10
63.6120119500405
 20
31.09877316302244
 30
0.0
 10
63.62138227350219
 20
31.08839485014259
 30
0.0
  0
LINE
  5
ED
330
1F
100
AcDbEntity
  8
0
  6
Continuous
 62
     7
370
    25
100
AcDbLine
 10
63.5605714627
 20
31.7051902169
 30
0.0
 11
63.5605714627
 21
31.2360782478
 31
0.0
  0
LINE
  5
EE
330
1F
100
AcDbEntity
  8
0
  6
Continuous
 62
     7
370
    25
100
AcDbLine
 10
63.3961570483
 20
31.7051902169
 30
0.0
 11
62.8655907677
 21
31.7051902169
 31
0.0
  0
LINE
  5
EF
330
1F
100
AcDbEntity
  8
0
  6
Continuous
 62
     7
370
    25
100
AcDbLine
 10
63.3961570483
 20
31.2621400239
 30
0.0
 11
63.3961570483
 21
31.7051902169
 31
0.0
  0
SPLINE
  5
F0
330
1F
100
AcDbEntity
  8
0
  6
Continuous
 62
     7
370
    25
100
AcDbSpline
210
0.0
220
0.0
230
1.0
 70
     8
 71
     3
 72
    15
 73
    11
 74
     0
 42
0.00000001
 43
0.00000001
 40
0.0
 40
0.0
 40
0.0
 40
0.0
 40
0.1193556939378552
 40
0.239066380521236
 40
0.3573840708360857
 40
0.4787728926029033
 40
0.6013911634438115
 40
0.7292416297469759
 40
0.860804851468179
 40
1.0
 40
1.0
 40
1.0
 40
1.0
 10
63.31732821944813
 20
31.05364581539355
 30
0.0
 10
63.32360168723012
 20
31.06026679762411
 30
0.0
 10
63.33616728160167
 20
31.07352845448464
 30
0.0
 10
63.35206919555361
 20
31.09579641988546
 30
0.0
 10
63.36581886849422
 20
31.11958587332488
 30
0.0
 10
63.37699734755996
 20
31.14494529110728
 30
0.0
 10
63.38582741160016
 20
31.17197972840003
 30
0.0
 10
63.39180842625844
 20
31.20057382472259
 30
0.0
 10
63.3953951293849
 20
31.23083900474411
 30
0.0
 10
63.39589834720845
 20
31.25151211167514
 30
0.0
 10
63.39615704827695
 20
31.26214002388776
 30
0.0
  0
SPLINE
  5
F1
330
1F
100
AcDbEntity
  8
0
  6
Continuous
 62
     7
370
    25
100
AcDbSpline
210
0.0
220
0.0
230
1.0
 70
     8
 71
     3
 72
    15
 73
    11
 74
     0
 42
0.00000001
 43
0.00000001
 40
0.0
 40
0.0
 40
0.0
 40
0.0
 40
0.1417962611116216
 40
0.2768819513476978
 40
0.4055805706087828
 40
0.5298229690785617
 40
0.6485572024501447
 40
0.7672114666371234
 40
0.8821786188665558
 40
1.0
 40
1.0
 40
1.0
 40
1.0
 10
63.12620852832844
 20
30.98414774589548
 30
0.0
 10
63.1360918048498
 20
30.98424934092548
 30
0.0
 10
63.15539062745269
 20
30.98444772295568
 30
0.0
 10
63.18338725406555
 20
30.98842717947914
 30
0.0
 10
63.21002459862307
 20
30.99314533128764
 30
0.0
 10
63.23471559862677
 20
31.00107440058376
 30
0.0
 10
63.2580484112008
 20
31.0106696825717
 30
0.0
 10
63.27930445300483
 20
31.02300307396025
 30
0.0
 10
63.29954202632084
 20
31.03687414870774
 30
0.0
 10
63.31135122406744
 20
31.04800974849661
 30
0.0
 10
63.31732821944813
 20
31.05364581539355
 30
0.0
  0
SPLINE
  5
F2
330
1F
100
AcDbEntity
  8
0
  6
Continuous
 62
     7
370
    25
100
AcDbSpline
210
0.0
220
0.0
230
1.0
 70
     8
 71
     3
 72
    15
 73
    11
 74
     0
 42
0.00000001
 43
0.00000001
 40
0.0
 40
0.0
 40
0.0
 40
0.0
 40
0.1277118540336134
 40
0.2523621141955306
 40
0.3748537650566255
 40
0.4969693854038486
 40
0.6192731655242182
 40
0.7424854443019969
 40
0.8694478780376611
 40
0.9999999999999999
 40
0.9999999999999999
 40
0.9999999999999999
 40
0.9999999999999999
 10
62.93508883720875
 20
31.06233307408081
 30
0.0
 10
62.94160092127768
 20
31.05605836898711
 30
0.0
 10
62.95446897738643
 20
31.04365938022147
 30
0.0
 10
62.97597406588348
 20
31.02805134794315
 30
0.0
 10
62.99818579822178
 20
31.01423907315866
 30
0.0
 10
63.02184290251059
 20
31.00343968404824
 30
0.0
 10
63.0463337462675
 20
30.99460330111703
 30
0.0
 10
63.07201087330677
 20
30.98847565964164
 30
0.0
 10
63.0987608585703
 20
30.9849518776996
 30
0.0
 10
63.11697467307591
 20
30.98441826928594
 30
0.0
 10
63.12620852832844
 20
30.98414774589548
 30
0.0
  0
SPLINE
  5
F3
330
1F
100
AcDbEntity
  8
0
  6
Continuous
 62
     7
370
    25
100
AcDbSpline
210
0.0
220
0.0
230
1.0
 70
     8
 71
     3
 72
    15
 73
    11
 74
     0
 42
0.00000001
 43
0.00000001
 40
0.0
 40
0.0
 40
0.0
 40
0.0
 40
0.1452459980297227
 40
0.2839773123111052
 40
0.4135645357275268
 40
0.5387150251446066
 40
0.6570052502158956
 40
0.773698462972681
 40
0.8866940707303831
 40
1.0
 40
1.0
 40
1.0
 40
1.0
 10
62.86559076771067
 20
31.26214002388776
 30
0.0
 10
62.86569620832083
 20
31.25161477029301
 30
0.0
 10
62.8659023602389
 20
31.2310363497666
 30
0.0
 10
62.86981515191367
 20
31.20131361175574
 30
0.0
 10
62.87459983743842
 20
31.17319576284224
 30
0.0
 10
62.88247164082846
 20
31.14731093471157
 30
0.0
 10
62.89202417290115
 20
31.12298422371309
 30
0.0
 10
62.90447573734506
 20
31.10104199167822
 30
0.0
 10
62.91811581854098
 20
31.08019090653703
 30
0.0
 10
62.92942599453444
 20
31.06829112418865
 30
0.0
 10
62.93508883720875
 20
31.06233307408081
 30
0.0
  0
LINE
  5
F4
330
1F
100
AcDbEntity
  8
0
  6
Continuous
 62
     7
370
    25
100
AcDbLine
 10
62.8655907677
 20
31.7051902169
 30
0.0
 11
62.8655907677
 21
31.2621400239
 31
0.0
  0
LINE
  5
F5
330
1F
100
AcDbEntity
  8
0
  6
Continuous
 62
     7
370
    25
100
AcDbLine
 10
61.6406054136
 20
43.4017332156
 30
0.0
 11
65.2083367396
 21
43.4017332156
 31
0.0
  0
LINE
  5
F6
330
1F
100
AcDbEntity
  8
0
  6
Continuous
 62
     7
370
    25
100
AcDbLine
 10
45.9264065605
 20
39.8147622389
 30
0.0
 11
45.9264065605
 21
19.2758912711
 31
0.0
  0
LINE
  5
F7
330
1F
100
AcDbEntity
  8
0
  6
Continuous
 62
     7
370
    25
100
AcDbLine
 10
44.4244710766
 20
20.777826755
 30
0.0
 11
44.4244710766
 21
38.312826755
 31
0.0
  0
LINE
  5
F8
330
1F
100
AcDbEntity
  8
0
  6
Continuous
 62
     7
370
    18
100
AcDbLine
 10
44.9031681323
 20
38.7915238107
 30
0.0
 11
59.4244710766
 21
39.2453145277
 31
0.0
  0
LINE
  5
F9
330
1F
100
AcDbEntity
  8
0
  6
Continuous
 62
     7
370
    18
100
AcDbLine
 10
44.9031681323
 20
20.2991296993
 30
0.0
 11
59.4244710766
 21
19.8453389823
 31
0.0
  0
LINE
  5
FA
330
1F
100
AcDbEntity
  8
0
  6
Continuous
 62
     7
370
    25
100
AcDbLine
 10
59.4244710766
 20
18.854076755
 30
0.0
 11
59.4244710766
 21
40.236576755
 31
0.0
  0
LINE
  5
FB
330
1F
100
AcDbEntity
  8
FORMAT
  6
CENTERX2
370
    18
100
AcDbLine
 10
67.4967901065
 20
29.545326755
 30
0.0
 11
43.4244710766
 21
29.545326755
 31
0.0
  0
SPLINE
  5
FC
330
1F
100
AcDbEntity
  8
0
  6
Continuous
 62
     7
370
    25
100
AcDbSpline
210
0.0
220
0.0
230
1.0
 70
    24
 71
     3
 72
    16
 73
    12
 74
     0
 42
0.00000001
 43
0.00000001
 40
0.0
 40
0.0
 40
0.0
 40
0.0
 40
0.2500000000000002
 40
0.2500000000000002
 40
0.5000000000000004
 40
0.5000000000000004
 40
0.6250000000000003
 40
0.6250000000000003
 40
0.7500000000000002
 40
0.7500000000000002
 40
1.0
 40
1.0
 40
1.0
 40
1.0
 10
73.60526865131197
 20
36.47352998527771
 30
0.0
 10
74.58495489126396
 20
37.03915209963536
 30
0.0
 10
75.57178374192057
 20
37.60889800220603
 30
0.0
 10
77.56602212595641
 20
38.76027207005741
 30
0.0
 10
78.57358465913484
 20
39.34198856981336
 30
0.0
 10
80.10391119751507
 20
40.22552300869522
 30
0.0
 10
80.6164207077017
 20
40.52142051236371
 30
0.0
 10
81.63021850072496
 20
41.10673694106954
 30
0.0
 10
82.13371851192299
 20
41.39743280807171
 30
0.0
 10
83.63525442084948
 20
42.26434496928829
 30
0.0
 10
84.62436112258467
 20
42.83540598979238
 30
0.0
 10
85.60526865131204
 20
43.40173321555325
 30
0.0
  0
SPLINE
  5
FD
330
1F
100
AcDbEntity
  8
0
  6
Continuous
 62
     7
370
    25
100
AcDbSpline
210
0.0
220
0.0
230
1.0
 70
    24
 71
     3
 72
    16
 73
    12
 74
     0
 42
0.00000001
 43
0.00000001
 40
0.0
 40
0.0
 40
0.0
 40
0.0
 40
0.2499999999999999
 40
0.2499999999999999
 40
0.4999999999999999
 40
0.4999999999999999
 40
0.6249999999999999
 40
0.6249999999999999
 40
0.7499999999999998
 40
0.7499999999999998
 40
1.0
 40
1.0
 40
1.0
 40
1.0
 10
85.60526865131197
 20
43.40173321555326
 30
0.0
 10
86.58495489126398
 20
42.83611110119561
 30
0.0
 10
87.57178374192057
 20
42.26636519862493
 30
0.0
 10
89.56602212595641
 20
41.11499113077355
 30
0.0
 10
90.57358465913484
 20
40.5332746310176
 30
0.0
 10
92.10391119751509
 20
39.64974019213574
 30
0.0
 10
92.6164207077017
 20
39.35384268846725
 30
0.0
 10
93.63021850072498
 20
38.76852625976142
 30
0.0
 10
94.13371851192299
 20
38.47783039275926
 30
0.0
 10
95.63525442084946
 20
37.61091823154267
 30
0.0
 10
96.62436112258467
 20
37.03985721103859
 30
0.0
 10
97.60526865131204
 20
36.47352998527771
 30
0.0
  0
SPLINE
  5
FE
330
1F
100
AcDbEntity
  8
0
  6
Continuous
 62
     7
370
    25
100
AcDbSpline
210
0.0
220
0.0
230
1.0
 70
    24
 71
     3
 72
    14
 73
    10
 74
     0
 42
0.00000001
 43
0.00000001
 40
0.0
 40
0.0
 40
0.0
 40
0.0
 40
0.2500000000000001
 40
0.2500000000000001
 40
0.5000000000000001
 40
0.5000000000000001
 40
0.7500000000000001
 40
0.7500000000000001
 40
1.0
 40
1.0
 40
1.0
 40
1.0
 10
97.60526865131202
 20
36.47352998527772
 30
0.0
 10
97.60526865131203
 20
35.34571030920948
 30
0.0
 10
97.60526865131203
 20
34.20747652593334
 30
0.0
 10
97.60526865131203
 20
31.90055434505731
 30
0.0
 10
97.60526865131202
 20
30.73050725066257
 30
0.0
 10
97.60526865131202
 20
28.35674638580219
 30
0.0
 10
97.60526865131203
 20
27.18862847022934
 30
0.0
 10
97.60526865131203
 20
24.88278279254801
 30
0.0
 10
97.60526865131202
 20
23.74482847582838
 30
0.0
 10
97.60526865131202
 20
22.6171235247267
 30
0.0
  0
SPLINE
  5
FF
330
1F
100
AcDbEntity
  8
0
  6
Continuous
 62
     7
370
    25
100
AcDbSpline
210
0.0
220
0.0
230
1.0
 70
    24
 71
     3
 72
    16
 73
    12
 74
     0
 42
0.00000001
 43
0.00000001
 40
0.0
 40
0.0
 40
0.0
 40
0.0
 40
0.25
 40
0.25
 40
0.5
 40
0.5
 40
0.625
 40
0.625
 40
0.75
 40
0.75
 40
1.0
 40
1.0
 40
1.0
 40
1.0
 10
97.60526865131206
 20
22.61712352472671
 30
0.0
 10
96.62558241136007
 20
22.05150141036907
 30
0.0
 10
95.63875356070346
 20
21.48175550779839
 30
0.0
 10
93.64451517666764
 20
20.33038143994701
 30
0.0
 10
92.6369526434892
 20
19.74866494019107
 30
0.0
 10
91.10662610510896
 20
18.8651305013092
 30
0.0
 10
90.59411659492234
 20
18.56923299764071
 30
0.0
 10
89.58031880189907
 20
17.98391656893488
 30
0.0
 10
89.07681879070104
 20
17.69322070193272
 30
0.0
 10
87.57528288177457
 20
16.82630854071613
 30
0.0
 10
86.58617618003937
 20
16.25524752021205
 30
0.0
 10
85.605268651312
 20
15.68892029445117
 30
0.0
  0
SPLINE
  5
100
330
1F
100
AcDbEntity
  8
0
  6
Continuous
 62
     7
370
    25
100
AcDbSpline
210
0.0
220
0.0
230
1.0
 70
    24
 71
     3
 72
    16
 73
    12
 74
     0
 42
0.00000001
 43
0.00000001
 40
0.0
 40
0.0
 40
0.0
 40
0.0
 40
0.2499999999999999
 40
0.2499999999999999
 40
0.4999999999999999
 40
0.4999999999999999
 40
0.625
 40
0.625
 40
0.7499999999999998
 40
0.7499999999999998
 40
1.0
 40
1.0
 40
1.0
 40
1.0
 10
85.60526865131206
 20
15.68892029445117
 30
0.0
 10
84.62558241136007
 20
16.25454240880881
 30
0.0
 10
83.63875356070346
 20
16.8242883113795
 30
0.0
 10
81.64451517666762
 20
17.97566237923087
 30
0.0
 10
80.63695264348921
 20
18.55737887898681
 30
0.0
 10
79.10662610510896
 20
19.44091331786868
 30
0.0
 10
78.59411659492233
 20
19.73681082153717
 30
0.0
 10
77.58031880189907
 20
20.322127250243
 30
0.0
 10
77.07681879070104
 20
20.61282311724516
 30
0.0
 10
75.57528288177457
 20
21.47973527846175
 30
0.0
 10
74.58617618003937
 20
22.05079629896583
 30
0.0
 10
73.60526865131199
 20
22.6171235247267
 30
0.0
  0
SPLINE
  5
101
330
1F
100
AcDbEntity
  8
0
  6
Continuous
 62
     7
370
    25
100
AcDbSpline
210
0.0
220
0.0
230
1.0
 70
    24
 71
     3
 72
    14
 73
    10
 74
     0
 42
0.00000001
 43
0.00000001
 40
0.0
 40
0.0
 40
0.0
 40
0.0
 40
0.2499999999999999
 40
0.2499999999999999
 40
0.4999999999999999
 40
0.4999999999999999
 40
0.7499999999999999
 40
0.7499999999999999
 40
1.0
 40
1.0
 40
1.0
 40
1.0
 10
73.60526865131202
 20
22.61712352472669
 30
0.0
 10
73.605268651312
 20
23.74494320079494
 30
0.0
 10
73.60526865131202
 20
24.88317698407107
 30
0.0
 10
73.60526865131202
 20
27.1900991649471
 30
0.0
 10
73.60526865131202
 20
28.36014625934185
 30
0.0
 10
73.60526865131202
 20
30.73390712420223
 30
0.0
 10
73.60526865131202
 20
31.90202503977508
 30
0.0
 10
73.60526865131202
 20
34.20787071745641
 30
0.0
 10
73.60526865131202
 20
35.34582503417604
 30
0.0
 10
73.60526865131202
 20
36.47352998527772
 30
0.0
  0
CIRCLE
  5
102
330
1F
100
AcDbEntity
  8
0
  6
Continuous
 62
     7
370
    25
100
AcDbCircle
 10
85.6052686513
 20
29.545326755
 30
0.0
 40
11.75000000000001
  0
CIRCLE
  5
103
330
1F
100
AcDbEntity
  8
0
  6
Continuous
 62
     7
370
    25
100
AcDbCircle
 10
85.6052686513
 20
29.545326755
 30
0.0
 40
10.40000000000001
  0
CIRCLE
  5
104
330
1F
100
AcDbEntity
  8
0
  6
Continuous
 62
     7
370
    25
100
AcDbCircle
 10
85.6052686513
 20
29.545326755
 30
0.0
 40
10.25000000000001
  0
CIRCLE
  5
105
330
1F
100
AcDbEntity
  8
0
  6
Continuous
 62
     7
370
    25
100
AcDbCircle
 10
85.6052686513
 20
29.545326755
 30
0.0
 40
10.09999999999999
  0
CIRCLE
  5
106
330
1F
100
AcDbEntity
  8
0
  6
Continuous
 62
     7
370
    25
100
AcDbCircle
 10
85.6052686513
 20
29.545326755
 30
0.0
 40
8.793733400000008
  0
CIRCLE
  5
107
330
1F
100
AcDbEntity
  8
0
  6
Continuous
 62
     7
370
    25
100
AcDbCircle
 10
85.6052686513
 20
29.545326755
 30
0.0
 40
7.79379387142491
  0
CIRCLE
  5
108
330
1F
100
AcDbEntity
  8
0
  6
Continuous
 62
     7
370
    25
100
AcDbCircle
 10
85.6052686513
 20
29.545326755
 30
0.0
 40
7.404554651612557
  0
CIRCLE
  5
109
330
1F
100
AcDbEntity
  8
0
  6
Continuous
 62
     7
370
    25
100
AcDbCircle
 10
85.6052686513
 20
29.545326755
 30
0.0
 40
7.25
  0
INSERT
  5
115
330
1F
100
AcDbEntity
  8
FORMAT
100
AcDbBlockReference
  2
SW_CENTERMARKSYMBOL_0
 10
85.6052686513
 20
29.545326755
 30
0.0
  0
ARC
  5
116
330
1F
100
AcDbEntity
  8
0
  6
Continuous
 62
     7
370
    18
100
AcDbCircle
 10
85.6052686513
 20
29.545326755
 30
0.0
 40
8.586700412440047
100
AcDbArc
 50
75.0
 51
345.0
  0
LINE
  5
117
330
1F
100
AcDbEntity
  8
0
  6
Continuous
 62
     7
370
    25
100
AcDbLine
 10
66.2801335093
 20
49.140849216
 30
0.0
 11
66.4244710766
 21
49.390849216
 31
0.0
  0
LINE
  5
118
330
1F
100
AcDbEntity
  8
0
  6
Continuous
 62
     7
370
    25
100
AcDbLine
 10
66.4244710766
 20
72.890849216
 30
0.0
 11
66.2801335093
 21
73.140849216
 31
0.0
  0
LINE
  5
119
330
1F
100
AcDbEntity
  8
0
  6
Continuous
 62
     7
370
    25
100
AcDbLine
 10
60.5688086439
 20
73.140849216
 30
0.0
 11
60.4244710766
 21
72.890849216
 31
0.0
  0
LINE
  5
11A
330
1F
100
AcDbEntity
  8
0
  6
Continuous
 62
     7
370
    25
100
AcDbLine
 10
60.4244710766
 20
49.390849216
 30
0.0
 11
60.5688086439
 21
49.140849216
 31
0.0
  0
LINE
  5
11B
330
1F
100
AcDbEntity
  8
0
  6
Continuous
 62
     7
370
    25
100
AcDbLine
 10
60.4244710766
 20
71.863349216
 30
0.0
 11
45.9264065605
 21
71.4102846999
 31
0.0
  0
LINE
  5
11C
330
1F
100
AcDbEntity
  8
0
  6
Continuous
 62
     7
370
    25
100
AcDbLine
 10
45.9264065605
 20
50.8714137322
 30
0.0
 11
60.4244710766
 21
50.418349216
 31
0.0
  0
LINE
  5
11D
330
1F
100
AcDbEntity
  8
0
  6
Continuous
 62
     7
370
    25
100
AcDbLine
 10
45.9264065605
 20
71.4102846999
 30
0.0
 11
44.4244710766
 21
69.908349216
 31
0.0
  0
LINE
  5
11E
330
1F
100
AcDbEntity
  8
0
  6
Continuous
 62
     7
370
    25
100
AcDbLine
 10
44.4244710766
 20
52.373349216
 30
0.0
 11
45.9264065605
 21
50.8714137322
 31
0.0
  0
SPLINE
  5
11F
330
1F
100
AcDbEntity
  8
0
  6
Continuous
 62
     7
370
    25
100
AcDbSpline
210
0.0
220
0.0
230
1.0
 70
     8
 71
     3
 72
    16
 73
    12
 74
     0
 42
0.00000001
 43
0.00000001
 40
0.0
 40
0.0
 40
0.0
 40
0.0
 40
0.2499999999999999
 40
0.2499999999999999
 40
0.4999999999999999
 40
0.4999999999999999
 40
0.6249999999999999
 40
0.6249999999999999
 40
0.7499999999999998
 40
0.7499999999999998
 40
1.0
 40
1.0
 40
1.0
 40
1.0
 10
61.64060541361259
 20
61.14084921603829
 30
0.0
 10
61.3140433336286
 20
62.12053545599027
 30
0.0
 10
61.0448970533541
 20
63.10736430664687
 30
0.0
 10
60.67204209061821
 20
65.10160269068271
 30
0.0
 10
60.56956329540527
 20
66.10916522386115
 30
0.0
 10
60.56843764377165
 20
67.63949176224139
 30
0.0
 10
60.59348971072108
 20
68.15200127242801
 30
0.0
 10
60.69117965410918
 20
69.16579906545128
 30
0.0
 10
60.76371837937887
 20
69.6692990766493
 30
0.0
 10
61.04382379542349
 20
71.17083498557578
 30
0.0
 10
61.31363623737028
 20
72.15994168731098
 30
0.0
 10
61.64060541361273
 20
73.14084921603835
 30
0.0
  0
LINE
  5
120
330
1F
100
AcDbEntity
  8
0
  6
Continuous
 62
     7
370
    25
100
AcDbLine
 10
61.6406054136
 20
73.140849216
 30
0.0
 11
65.2083367396
 21
73.140849216
 31
0.0
  0
SPLINE
  5
121
330
1F
100
AcDbEntity
  8
0
  6
Continuous
 62
     7
370
    25
100
AcDbSpline
210
0.0
220
0.0
230
1.0
 70
     8
 71
     3
 72
    16
 73
    12
 74
     0
 42
0.00000001
 43
0.00000001
 40
0.0
 40
0.0
 40
0.0
 40
0.0
 40
0.2499999999999999
 40
0.2499999999999999
 40
0.4999999999999999
 40
0.4999999999999999
 40
0.6249999999999999
 40
0.6249999999999999
 40
0.7499999999999998
 40
0.7499999999999998
 40
1.0
 40
1.0
 40
1.0
 40
1.0
 10
65.20833673956938
 20
61.14084921603829
 30
0.0
 10
65.53489881955336
 20
62.12053545599027
 30
0.0
 10
65.80404509982786
 20
63.10736430664687
 30
0.0
 10
66.17690006256376
 20
65.10160269068271
 30
0.0
 10
66.27937885777669
 20
66.10916522386115
 30
0.0
 10
66.2805045094103
 20
67.63949176224139
 30
0.0
 10
66.25545244246088
 20
68.15200127242801
 30
0.0
 10
66.15776249907277
 20
69.16579906545128
 30
0.0
 10
66.0852237738031
 20
69.6692990766493
 30
0.0
 10
65.80511835775847
 20
71.17083498557578
 30
0.0
 10
65.53530591581169
 20
72.15994168731098
 30
0.0
 10
65.20833673956923
 20
73.14084921603835
 30
0.0
  0
LINE
  5
122
330
1F
100
AcDbEntity
  8
0
  6
Continuous
 62
     7
370
    25
100
AcDbLine
 10
61.6406054136
 20
61.140849216
 30
0.0
 11
65.2083367396
 21
61.140849216
 31
0.0
  0
SPLINE
  5
123
330
1F
100
AcDbEntity
  8
0
  6
Continuous
 62
     7
370
    25
100
AcDbSpline
210
0.0
220
0.0
230
1.0
 70
     8
 71
     3
 72
    16
 73
    12
 74
     0
 42
0.00000001
 43
0.00000001
 40
0.0
 40
0.0
 40
0.0
 40
0.0
 40
0.2500000000000002
 40
0.2500000000000002
 40
0.5000000000000004
 40
0.5000000000000004
 40
0.6250000000000003
 40
0.6250000000000003
 40
0.7500000000000002
 40
0.7500000000000002
 40
1.0
 40
1.0
 40
1.0
 40
1.0
 10
65.20833673956939
 20
49.14084921603828
 30
0.0
 10
65.53489881955338
 20
50.12053545599026
 30
0.0
 10
65.80404509982787
 20
51.10736430664688
 30
0.0
 10
66.17690006256376
 20
53.10160269068272
 30
0.0
 10
66.27937885777669
 20
54.10916522386115
 30
0.0
 10
66.2805045094103
 20
55.63949176224138
 30
0.0
 10
66.25545244246089
 20
56.15200127242801
 30
0.0
 10
66.15776249907279
 20
57.16579906545128
 30
0.0
 10
66.0852237738031
 20
57.6692990766493
 30
0.0
 10
65.80511835775847
 20
59.17083498557577
 30
0.0
 10
65.53530591581169
 20
60.15994168731098
 30
0.0
 10
65.20833673956923
 20
61.14084921603835
 30
0.0
  0
SPLINE
  5
124
330
1F
100
AcDbEntity
  8
0
  6
Continuous
 62
     7
370
    25
100
AcDbSpline
210
0.0
220
0.0
230
1.0
 70
    24
 71
     3
 72
    14
 73
    10
 74
     0
 42
0.00000001
 43
0.00000001
 40
0.0
 40
0.0
 40
0.0
 40
0.0
 40
0.1638914016952701
 40
0.3278284854562003
 40
0.4916817707220923
 40
0.6585715912525922
 40
0.8255655094138028
 40
0.9924245814826936
 40
1.0
 40
1.0
 40
1.0
 40
1.0
 10
65.20833673956909
 20
73.14084921603832
 30
0.0
 10
65.3115009833673
 20
73.14084921603833
 30
0.0
 10
65.5178582263207
 20
73.14084921603833
 30
0.0
 10
65.77678312927262
 20
73.14084921603833
 30
0.0
 10
65.99193574367692
 20
73.14084921603832
 30
0.0
 10
66.1542682690731
 20
73.14084921603833
 30
0.0
 10
66.24954628925649
 20
73.1408492160383
 30
0.0
 10
66.29018558458363
 20
73.14084921603836
 30
0.0
 10
66.27916791310314
 20
73.14084921603832
 30
0.0
 10
66.27868943277353
 20
73.14084921603832
 30
0.0
  0
SPLINE
  5
125
330
1F
100
AcDbEntity
  8
0
  6
Continuous
 62
     7
370
    25
100
AcDbSpline
210
0.0
220
0.0
230
1.0
 70
    24
 71
     3
 72
    13
 73
     9
 74
     0
 42
0.00000001
 43
0.00000001
 40
0.0
 40
0.0
 40
0.0
 40
0.0
 40
0.1584539347450191
 40
0.3246163155289175
 40
0.4906741100713845
 40
0.6604029946080466
 40
0.8302269731198949
 40
1.0
 40
1.0
 40
1.0
 40
1.0
 10
66.27868943277353
 20
49.14084921603832
 30
0.0
 10
66.27334283845452
 20
49.14084921603832
 30
0.0
 10
66.26238954940395
 20
49.14084921603832
 30
0.0
 10
66.16506119219615
 20
49.14084921603833
 30
0.0
 10
66.01022995697018
 20
49.14084921603832
 30
0.0
 10
65.79415606072531
 20
49.14084921603833
 30
0.0
 10
65.52863175815565
 20
49.14084921603833
 30
0.0
 10
65.31509106619784
 20
49.14084921603833
 30
0.0
 10
65.20833673956909
 20
49.14084921603833
 30
0.0
  0
LINE
  5
126
330
1F
100
AcDbEntity
  8
0
  6
Continuous
 62
     7
370
    25
100
AcDbLine
 10
66.4244710766
 20
49.390849216
 30
0.0
 11
66.4244710766
 21
72.890849216
 31
0.0
  0
SPLINE
  5
127
330
1F
100
AcDbEntity
  8
0
  6
Continuous
 62
     7
370
    25
100
AcDbSpline
210
0.0
220
0.0
230
1.0
 70
    24
 71
     3
 72
    13
 73
     9
 74
     0
 42
0.00000001
 43
0.00000001
 40
0.0
 40
0.0
 40
0.0
 40
0.0
 40
0.1584539347450191
 40
0.3246163155289175
 40
0.4906741100713845
 40
0.6604029946080466
 40
0.8302269731198947
 40
1.0
 40
1.0
 40
1.0
 40
1.0
 10
60.57025272040843
 20
49.14084921603832
 30
0.0
 10
60.57559931472744
 20
49.14084921603832
 30
0.0
 10
60.58655260377802
 20
49.14084921603832
 30
0.0
 10
60.68388096098582
 20
49.14084921603833
 30
0.0
 10
60.83871219621178
 20
49.14084921603832
 30
0.0
 10
61.05478609245664
 20
49.14084921603833
 30
0.0
 10
61.3203103950263
 20
49.14084921603833
 30
0.0
 10
61.53385108698414
 20
49.14084921603833
 30
0.0
 10
61.64060541361287
 20
49.14084921603833
 30
0.0
  0
SPLINE
  5
128
330
1F
100
AcDbEntity
  8
0
  6
Continuous
 62
     7
370
    25
100
AcDbSpline
210
0.0
220
0.0
230
1.0
 70
    24
 71
     3
 72
    14
 73
    10
 74
     0
 42
0.00000001
 43
0.00000001
 40
0.0
 40
0.0
 40
0.0
 40
0.0
 40
0.1638914016952701
 40
0.3278284854562003
 40
0.4916817707220923
 40
0.6585715912525922
 40
0.8255655094138028
 40
0.9924245814826936
 40
1.0
 40
1.0
 40
1.0
 40
1.0
 10
61.64060541361287
 20
73.14084921603832
 30
0.0
 10
61.53744116981466
 20
73.14084921603833
 30
0.0
 10
61.33108392686125
 20
73.14084921603833
 30
0.0
 10
61.07215902390935
 20
73.14084921603833
 30
0.0
 10
60.85700640950505
 20
73.14084921603832
 30
0.0
 10
60.69467388410886
 20
73.14084921603833
 30
0.0
 10
60.59939586392547
 20
73.1408492160383
 30
0.0
 10
60.55875656859834
 20
73.14084921603836
 30
0.0
 10
60.56977424007882
 20
73.14084921603832
 30
0.0
 10
60.57025272040844
 20
73.14084921603832
 30
0.0
  0
SPLINE
  5
129
330
1F
100
AcDbEntity
  8
0
  6
Continuous
 62
     7
370
    25
100
AcDbSpline
210
0.0
220
0.0
230
1.0
 70
     8
 71
     3
 72
    16
 73
    12
 74
     0
 42
0.00000001
 43
0.00000001
 40
0.0
 40
0.0
 40
0.0
 40
0.0
 40
0.2500000000000002
 40
0.2500000000000002
 40
0.5000000000000004
 40
0.5000000000000004
 40
0.6250000000000003
 40
0.6250000000000003
 40
0.7500000000000002
 40
0.7500000000000002
 40
1.0
 40
1.0
 40
1.0
 40
1.0
 10
61.64060541361258
 20
49.14084921603828
 30
0.0
 10
61.31404333362859
 20
50.12053545599026
 30
0.0
 10
61.04489705335409
 20
51.10736430664688
 30
0.0
 10
60.67204209061821
 20
53.10160269068272
 30
0.0
 10
60.56956329540527
 20
54.10916522386115
 30
0.0
 10
60.56843764377165
 20
55.63949176224138
 30
0.0
 10
60.59348971072108
 20
56.15200127242801
 30
0.0
 10
60.69117965410918
 20
57.16579906545128
 30
0.0
 10
60.76371837937887
 20
57.6692990766493
 30
0.0
 10
61.04382379542349
 20
59.17083498557577
 30
0.0
 10
61.31363623737028
 20
60.15994168731098
 30
0.0
 10
61.64060541361273
 20
61.14084921603835
 30
0.0
  0
LINE
  5
12A
330
1F
100
AcDbEntity
  8
0
  6
Continuous
 62
     7
370
    25
100
AcDbLine
 10
60.4244710766
 20
49.390849216
 30
0.0
 11
60.4244710766
 21
72.890849216
 31
0.0
  0
LINE
  5
12B
330
1F
100
AcDbEntity
  8
0
  6
Continuous
 62
     7
370
    25
100
AcDbLine
 10
61.6406054136
 20
49.140849216
 30
0.0
 11
65.2083367396
 21
49.140849216
 31
0.0
  0
LINE
  5
12C
330
1F
100
AcDbEntity
  8
0
  6
Continuous
 62
     7
370
    25
100
AcDbLine
 10
45.9264065605
 20
71.4102846999
 30
0.0
 11
45.9264065605
 21
50.8714137322
 31
0.0
  0
LINE
  5
12D
330
1F
100
AcDbEntity
  8
0
  6
Continuous
 62
     7
370
    25
100
AcDbLine
 10
44.4244710766
 20
61.140849216
 30
0.0
 11
44.4244710766
 21
69.908349216
 31
0.0
  0
LINE
  5
12E
330
1F
100
AcDbEntity
  8
0
  6
Continuous
 62
     7
370
    25
100
AcDbLine
 10
44.4244710766
 20
52.373349216
 30
0.0
 11
44.4244710766
 21
61.140849216
 31
0.0
  0
LINE
  5
12F
330
1F
100
AcDbEntity
  8
0
  6
Continuous
 62
     7
370
    18
100
AcDbLine
 10
44.9031681323
 20
70.3870462717
 30
0.0
 11
59.4244710766
 21
70.8408369888
 31
0.0
  0
LINE
  5
130
330
1F
100
AcDbEntity
  8
0
  6
Continuous
 62
     7
370
    18
100
AcDbLine
 10
44.9031681323
 20
51.8946521603
 30
0.0
 11
59.4244710766
 21
51.4408614433
 31
0.0
  0
LINE
  5
131
330
1F
100
AcDbEntity
  8
0
  6
Continuous
 62
     7
370
    25
100
AcDbLine
 10
59.4244710766
 20
50.449599216
 30
0.0
 11
59.4244710766
 21
71.832099216
 31
0.0
  0
LINE
  5
132
330
1F
100
AcDbEntity
  8
FORMAT
  6
CENTERX2
370
    18
100
AcDbLine
 10
67.1524530211
 20
61.140849216
 30
0.0
 11
43.4244710766
 21
61.140849216
 31
0.0
  0
ENDSEC
  0
SECTION
  2
OBJECTS
  0
DICTIONARY
  5
C
330
0
100
AcDbDictionary
281
     1
  3
ACAD_GROUP
350
D
  3
ACAD_LAYOUT
350
1A
  3
ACAD_MLINESTYLE
350
17
  3
ACAD_PLOTSETTINGS
350
19
  3
ACAD_PLOTSTYLENAME
350
E
  3
ACAD_SCALELIST
350
47
  3
DWGPROPS
350
133
  0
DICTIONARY
  5
D
102
{ACAD_REACTORS
330
C
102
}
330
C
100
AcDbDictionary
281
     1
  0
DICTIONARY
  5
1A
102
{ACAD_REACTORS
330
C
102
}
330
C
100
AcDbDictionary
281
     1
  3
Layout1
350
1E
  3
Layout2
350
26
  3
Model
350
22
  0
DICTIONARY
  5
17
102
{ACAD_REACTORS
330
C
102
}
330
C
100
AcDbDictionary
281
     1
  3
Standard
350
18
  0
DICTIONARY
  5
19
102
{ACAD_REACTORS
330
C
102
}
330
C
100
AcDbDictionary
281
     1
  0
ACDBDICTIONARYWDFLT
  5
E
102
{ACAD_REACTORS
330
C
102
}
330
C
100
AcDbDictionary
281
     1
  3
Normal
350
F
100
AcDbDictionaryWithDefault
340
F
  0
DICTIONARY
  5
47
102
{ACAD_REACTORS
330
C
102
}
330
C
100
AcDbDictionary
281
     1
  3
A0
350
48
  3
A1
350
49
  3
A2
350
4A
  3
A3
350
4B
  3
A4
350
4C
  3
A5
350
4D
  3
A6
350
4E
  3
A7
350
4F
  3
A8
350
50
  3
A9
350
51
  3
B0
350
52
  3
B1
350
53
  3
B2
350
54
  3
B3
350
55
  3
B4
350
56
  3
B5
350
57
  3
B6
350
58
  0
XRECORD
  5
133
102
{ACAD_REACTORS
330
C
102
}
330
C
100
AcDbXrecord
280
     1
  1
DWGPROPS COOKIE
  2

  3

  4

  6

  7

  8
user28
  9

300
=
301
=
302
=
303
=
304
=
305
=
306
=
307
=
308
=
309
=
 40
0.0
 41
2460398.299342778
 42
2460398.299343333
  1

 90
        0
  0
LAYOUT
  5
1E
102
{ACAD_REACTORS
330
1A
102
}
330
1A
100
AcDbPlotSettings
  1

  2
none_device
  4

  6

 40
0.0
 41
0.0
 42
0.0
 43
0.0
 44
0.0
 45
0.0
 46
0.0
 47
0.0
 48
0.0
 49
0.0
140
0.0
141
0.0
142
1.0
143
1.0
 70
   688
 72
     1
 73
     0
 74
     5
  7

 75
    16
147
1.0
148
0.0
149
0.0
100
AcDbLayout
  1
Layout1
 70
     1
 71
     1
 10
0.0
 20
0.0
 11
420.0
 21
297.0
 12
0.0
 22
0.0
 32
0.0
 14
1.0000000000E+20
 24
1.0000000000E+20
 34
1.0000000000E+20
 15
-1.0000000000E+20
 25
-1.0000000000E+20
 35
-1.0000000000E+20
146
0.0
 13
0.0
 23
0.0
 33
0.0
 16
1.0
 26
0.0
 36
0.0
 17
0.0
 27
1.0
 37
0.0
 76
     0
330
1B
  0
LAYOUT
  5
26
102
{ACAD_REACTORS
330
1A
102
}
330
1A
100
AcDbPlotSettings
  1

  2
none_device
  4

  6

 40
0.0
 41
0.0
 42
0.0
 43
0.0
 44
0.0
 45
0.0
 46
0.0
 47
0.0
 48
0.0
 49
0.0
140
0.0
141
0.0
142
1.0
143
1.0
 70
   688
 72
     1
 73
     0
 74
     5
  7

 75
    16
147
1.0
148
0.0
149
0.0
100
AcDbLayout
  1
Layout2
 70
     1
 71
     2
 10
0.0
 20
0.0
 11
0.0
 21
0.0
 12
0.0
 22
0.0
 32
0.0
 14
0.0
 24
0.0
 34
0.0
 15
0.0
 25
0.0
 35
0.0
146
0.0
 13
0.0
 23
0.0
 33
0.0
 16
1.0
 26
0.0
 36
0.0
 17
0.0
 27
1.0
 37
0.0
 76
     0
330
23
  0
LAYOUT
  5
22
102
{ACAD_REACTORS
330
1A
102
}
330
1A
100
AcDbPlotSettings
  1

  2
none_device
  4
Letter_(8.50_x_11.00_Inches)
  6

 40
6.35
 41
6.35
 42
6.35000508
 43
6.35000508
 44
215.9
 45
279.4
 46
0.0
 47
0.0
 48
0.0
 49
0.0
140
0.0
141
0.0
142
1.0
143
1.0
 70
  1712
 72
     1
 73
     0
 74
     0
  7

 75
     0
147
1.0
148
0.0
149
0.0
100
AcDbLayout
  1
Model
 70
     1
 71
     0
 10
0.0
 20
0.0
 11
148.5
 21
105.0
 12
0.0
 22
0.0
 32
0.0
 14
0.0
 24
0.0
 34
0.0
 15
148.5
 25
105.0
 35
0.0
146
0.0
 13
0.0
 23
0.0
 33
0.0
 16
1.0
 26
0.0
 36
0.0
 17
0.0
 27
1.0
 37
0.0
 76
     0
330
1F
331
29
  0
MLINESTYLE
  5
18
102
{ACAD_REACTORS
330
17
102
}
330
17
100
AcDbMlineStyle
  2
Standard
 70
     0
  3

 62
   256
 51
90.0
 52
90.0
 71
     2
 49
0.5
 62
   256
  6
BYLAYER
 49
-0.5
 62
   256
  6
BYLAYER
  0
ACDBPLACEHOLDER
  5
F
102
{ACAD_REACTORS
330
E
102
}
330
E
  0
SCALE
  5
48
102
{ACAD_REACTORS
330
47
102
}
330
47
100
AcDbScale
 70
     0
300
1:1
140
1.0
141
1.0
290
     1
  0
SCALE
  5
49
102
{ACAD_REACTORS
330
47
102
}
330
47
100
AcDbScale
 70
     0
300
1:2
140
1.0
141
2.0
290
     0
  0
SCALE
  5
4A
102
{ACAD_REACTORS
330
47
102
}
330
47
100
AcDbScale
 70
     0
300
1:4
140
1.0
141
4.0
290
     0
  0
SCALE
  5
4B
102
{ACAD_REACTORS
330
47
102
}
330
47
100
AcDbScale
 70
     0
300
1:5
140
1.0
141
5.0
290
     0
  0
SCALE
  5
4C
102
{ACAD_REACTORS
330
47
102
}
330
47
100
AcDbScale
 70
     0
300
1:8
140
1.0
141
8.0
290
     0
  0
SCALE
  5
4D
102
{ACAD_REACTORS
330
47
102
}
330
47
100
AcDbScale
 70
     0
300
1:10
140
1.0
141
10.0
290
     0
  0
SCALE
  5
4E
102
{ACAD_REACTORS
330
47
102
}
330
47
100
AcDbScale
 70
     0
300
1:16
140
1.0
141
16.0
290
     0
  0
SCALE
  5
4F
102
{ACAD_REACTORS
330
47
102
}
330
47
100
AcDbScale
 70
     0
300
1:20
140
1.0
141
20.0
290
     0
  0
SCALE
  5
50
102
{ACAD_REACTORS
330
47
102
}
330
47
100
AcDbScale
 70
     0
300
1:30
140
1.0
141
30.0
290
     0
  0
SCALE
  5
51
102
{ACAD_REACTORS
330
47
102
}
330
47
100
AcDbScale
 70
     0
300
1:40
140
1.0
141
40.0
290
     0
  0
SCALE
  5
52
102
{ACAD_REACTORS
330
47
102
}
330
47
100
AcDbScale
 70
     0
300
1:50
140
1.0
141
50.0
290
     0
  0
SCALE
  5
53
102
{ACAD_REACTORS
330
47
102
}
330
47
100
AcDbScale
 70
     0
300
1:100
140
1.0
141
100.0
290
     0
  0
SCALE
  5
54
102
{ACAD_REACTORS
330
47
102
}
330
47
100
AcDbScale
 70
     0
300
2:1
140
2.0
141
1.0
290
     0
  0
SCALE
  5
55
102
{ACAD_REACTORS
330
47
102
}
330
47
100
AcDbScale
 70
     0
300
4:1
140
4.0
141
1.0
290
     0
  0
SCALE
  5
56
102
{ACAD_REACTORS
330
47
102
}
330
47
100
AcDbScale
 70
     0
300
8:1
140
8.0
141
1.0
290
     0
  0
SCALE
  5
57
102
{ACAD_REACTORS
330
47
102
}
330
47
100
AcDbScale
 70
     0
300
10:1
140
10.0
141
1.0
290
     0
  0
SCALE
  5
58
102
{ACAD_REACTORS
330
47
102
}
330
47
100
AcDbScale
 70
     0
300
100:1
140
100.0
141
1.0
290
     0
  0
ENDSEC
  0
EOF
