  0
SECTION
  2
HEADER
  9
$ACADVER
  1
AC1015
  9
$ACADMAINTVER
 70
     6
  9
$DWGCODEPAGE
  3
DOS932
  9
$INSBASE
 10
0.0
 20
0.0
 30
0.0
  9
$EXTMIN
 10
0.0
 20
0.0
 30
0.0
  9
$EXTMAX
 10
148.5
 20
105.0
 30
0.0
  9
$LIMMIN
 10
0.0
 20
0.0
  9
$LIMMAX
 10
148.5
 20
105.0
  9
$ORTHOMODE
 70
     0
  9
$REGENMODE
 70
     1
  9
$FILLMODE
 70
     1
  9
$QTEXTMODE
 70
     0
  9
$MIRRTEXT
 70
     1
  9
$LTSCALE
 40
0.5
  9
$ATTMODE
 70
     1
  9
$TEXTSIZE
 40
1.7638888889
  9
$TRACEWID
 40
1.0
  9
$TEXTSTYLE
  7
Standard
  9
$CLAYER
  8
0
  9
$CELTYPE
  6
ByLayer
  9
$CECOLOR
 62
   256
  9
$CELTSCALE
 40
1.0
  9
$DISPSILH
 70
     0
  9
$DIMSCALE
 40
1.0
  9
$DIMASZ
 40
1.3642578125
  9
$DIMEXO
 40
0.5
  9
$DIMDLI
 40
3.75
  9
$DIMRND
 40
0.0
  9
$DIMDLE
 40
0.0
  9
$DIMEXE
 40
0.5
  9
$DIMTP
 40
0.0
  9
$DIMTM
 40
0.0
  9
$DIMTXT
 40
1.7638888889
  9
$DIMCEN
 40
2.5
  9
$DIMTSZ
 40
0.0
  9
$DIMTOL
 70
     0
  9
$DIMLIM
 70
     0
  9
$DIMTIH
 70
     1
  9
$DIMTOH
 70
     1
  9
$DIMSE1
 70
     0
  9
$DIMSE2
 70
     0
  9
$DIMTAD
 70
     1
  9
$DIMZIN
 70
     0
  9
$DIMBLK
  1

  9
$DIMASO
 70
     1
  9
$DIMSHO
 70
     1
  9
$DIMPOST
  1

  9
$DIMAPOST
  1

  9
$DIMALT
 70
     0
  9
$DIMALTD
 70
     3
  9
$DIMALTF
 40
0.0393700787
  9
$DIMLFAC
 40
1.0
  9
$DIMTOFL
 70
     1
  9
$DIMTVP
 40
0.0
  9
$DIMTIX
 70
     0
  9
$DIMSOXD
 70
     0
  9
$DIMSAH
 70
     0
  9
$DIMBLK1
  1

  9
$DIMBLK2
  1

  9
$DIMSTYLE
  2
ISO-25
  9
$DIMCLRD
 70
     0
  9
$DIMCLRE
 70
     0
  9
$DIMCLRT
 70
     0
  9
$DIMTFAC
 40
1.0
  9
$DIMGAP
 40
0.762
  9
$DIMJUST
 70
     0
  9
$DIMSD1
 70
     0
  9
$DIMSD2
 70
     0
  9
$DIMTOLJ
 70
     0
  9
$DIMTZIN
 70
     0
  9
$DIMALTZ
 70
     0
  9
$DIMALTTZ
 70
     0
  9
$DIMUPT
 70
     0
  9
$DIMDEC
 70
     2
  9
$DIMTDEC
 70
     2
  9
$DIMALTU
 70
     2
  9
$DIMALTTD
 70
     3
  9
$DIMTXSTY
  7
Standard
  9
$DIMAUNIT
 70
     0
  9
$DIMADEC
 70
     2
  9
$DIMALTRND
 40
0.0
  9
$DIMAZIN
 70
     0
  9
$DIMDSEP
 70
    44
  9
$DIMATFIT
 70
     3
  9
$DIMFRAC
 70
     0
  9
$DIMLDRBLK
  1

  9
$DIMLUNIT
 70
     2
  9
$DIMLWD
 70
    -2
  9
$DIMLWE
 70
    -2
  9
$DIMTMOVE
 70
     0
  9
$LUNITS
 70
     2
  9
$LUPREC
 70
     2
  9
$SKETCHINC
 40
1.0
  9
$FILLETRAD
 40
0.0
  9
$AUNITS
 70
     0
  9
$AUPREC
 70
     2
  9
$MENU
  1
.
  9
$ELEVATION
 40
0.0
  9
$PELEVATION
 40
0.0
  9
$THICKNESS
 40
0.0
  9
$LIMCHECK
 70
     0
  9
$CHAMFERA
 40
0.0
  9
$CHAMFERB
 40
0.0
  9
$CHAMFERC
 40
0.0
  9
$CHAMFERD
 40
0.0
  9
$SKPOLY
 70
     0
  9
$TDCREATE
 40
2460398.673550718
  9
$TDUCREATE
 40
2460398.298550718
  9
$TDUPDATE
 40
2460398.67355125
  9
$TDUUPDATE
 40
2460398.29855125
  9
$TDINDWG
 40
0.0000000116
  9
$TDUSRTIMER
 40
0.0000000116
  9
$USRTIMER
 70
     1
  9
$ANGBASE
 50
0.0
  9
$ANGDIR
 70
     0
  9
$PDMODE
 70
     0
  9
$PDSIZE
 40
-1.0
  9
$PLINEWID
 40
0.0
  9
$SPLFRAME
 70
     0
  9
$SPLINETYPE
 70
     6
  9
$SPLINESEGS
 70
     8
  9
$HANDSEED
  5
13A
  9
$SURFTAB1
 70
     6
  9
$SURFTAB2
 70
     6
  9
$SURFTYPE
 70
     6
  9
$SURFU
 70
     6
  9
$SURFV
 70
     6
  9
$UCSBASE
  2

  9
$UCSNAME
  2

  9
$UCSORG
 10
0.0
 20
0.0
 30
0.0
  9
$UCSXDIR
 10
1.0
 20
0.0
 30
0.0
  9
$UCSYDIR
 10
0.0
 20
1.0
 30
0.0
  9
$UCSORTHOREF
  2

  9
$UCSORTHOVIEW
 70
     0
  9
$UCSORGTOP
 10
0.0
 20
0.0
 30
0.0
  9
$UCSORGBOTTOM
 10
0.0
 20
0.0
 30
0.0
  9
$UCSORGLEFT
 10
0.0
 20
0.0
 30
0.0
  9
$UCSORGRIGHT
 10
0.0
 20
0.0
 30
0.0
  9
$UCSORGFRONT
 10
0.0
 20
0.0
 30
0.0
  9
$UCSORGBACK
 10
0.0
 20
0.0
 30
0.0
  9
$PUCSBASE
  2

  9
$PUCSNAME
  2

  9
$PUCSORG
 10
0.0
 20
0.0
 30
0.0
  9
$PUCSXDIR
 10
1.0
 20
0.0
 30
0.0
  9
$PUCSYDIR
 10
0.0
 20
1.0
 30
0.0
  9
$PUCSORTHOREF
  2

  9
$PUCSORTHOVIEW
 70
     0
  9
$PUCSORGTOP
 10
0.0
 20
0.0
 30
0.0
  9
$PUCSORGBOTTOM
 10
0.0
 20
0.0
 30
0.0
  9
$PUCSORGLEFT
 10
0.0
 20
0.0
 30
0.0
  9
$PUCSORGRIGHT
 10
0.0
 20
0.0
 30
0.0
  9
$PUCSORGFRONT
 10
0.0
 20
0.0
 30
0.0
  9
$PUCSORGBACK
 10
0.0
 20
0.0
 30
0.0
  9
$USERI1
 70
     0
  9
$USERI2
 70
     0
  9
$USERI3
 70
     0
  9
$USERI4
 70
     0
  9
$USERI5
 70
     0
  9
$USERR1
 40
0.0
  9
$USERR2
 40
0.0
  9
$USERR3
 40
0.0
  9
$USERR4
 40
0.0
  9
$USERR5
 40
0.0
  9
$WORLDVIEW
 70
     1
  9
$SHADEDGE
 70
     3
  9
$SHADEDIF
 70
    70
  9
$TILEMODE
 70
     1
  9
$MAXACTVP
 70
    64
  9
$PINSBASE
 10
0.0
 20
0.0
 30
0.0
  9
$PLIMCHECK
 70
     0
  9
$PEXTMIN
 10
1.0000000000E+20
 20
1.0000000000E+20
 30
1.0000000000E+20
  9
$PEXTMAX
 10
-1.0000000000E+20
 20
-1.0000000000E+20
 30
-1.0000000000E+20
  9
$PLIMMIN
 10
0.0
 20
0.0
  9
$PLIMMAX
 10
420.0
 20
297.0
  9
$UNITMODE
 70
     0
  9
$VISRETAIN
 70
     1
  9
$PLINEGEN
 70
     0
  9
$PSLTSCALE
 70
     1
  9
$TREEDEPTH
 70
  3020
  9
$CMLSTYLE
  2
Standard
  9
$CMLJUST
 70
     0
  9
$CMLSCALE
 40
20.0
  9
$PROXYGRAPHICS
 70
     1
  9
$MEASUREMENT
 70
     1
  9
$CELWEIGHT
370
    -1
  9
$ENDCAPS
280
     0
  9
$JOINSTYLE
280
     0
  9
$LWDISPLAY
290
     1
  9
$INSUNITS
 70
     4
  9
$HYPERLINKBASE
  1

  9
$STYLESHEET
  1

  9
$XEDIT
290
     1
  9
$CEPSNTYPE
380
     0
  9
$PSTYLEMODE
290
     1
  9
$FINGERPRINTGUID
  2
{78e8e4b3-706a-4e2a-82f5-588ac8150391}
  9
$VERSIONGUID
  2
{FAEB1C32-E019-11D5-929B-00C0DF256EC4}
  9
$EXTNAMES
290
     1
  9
$PSVPSCALE
 40
0.0
  9
$OLESTARTUP
290
     0
  0
ENDSEC
  0
SECTION
  2
CLASSES
  0
CLASS
  1
ACDBDICTIONARYWDFLT
  2
AcDbDictionaryWithDefault
  3
ObjectDBX Classes
 90
        0
280
     0
281
     0
  0
CLASS
  1
VISUALSTYLE
  2
AcDbVisualStyle
  3
ObjectDBX Classes
 90
     4095
280
     0
281
     0
  0
CLASS
  1
MATERIAL
  2
AcDbMaterial
  3
ObjectDBX Classes
 90
     1153
280
     0
281
     0
  0
CLASS
  1
SCALE
  2
AcDbScale
  3
ObjectDBX Classes
 90
     1153
280
     0
281
     0
  0
CLASS
  1
TABLESTYLE
  2
AcDbTableStyle
  3
ObjectDBX Classes
 90
     4095
280
     0
281
     0
  0
CLASS
  1
MLEADERSTYLE
  2
AcDbMLeaderStyle
  3
ACDB_MLEADERSTYLE_CLASS
 90
     4095
280
     0
281
     0
  0
CLASS
  1
SUN
  2
AcDbSun
  3
SCENEOE
 90
     1153
280
     0
281
     0
  0
CLASS
  1
ACDBPLACEHOLDER
  2
AcDbPlaceHolder
  3
ObjectDBX Classes
 90
        0
280
     0
281
     0
  0
CLASS
  1
LAYOUT
  2
AcDbLayout
  3
ObjectDBX Classes
 90
        0
280
     0
281
     0
  0
ENDSEC
  0
SECTION
  2
TABLES
  0
TABLE
  2
VPORT
  5
8
330
0
100
AcDbSymbolTable
 70
     1
  0
VPORT
  5
29
330
8
100
AcDbSymbolTableRecord
100
AcDbViewportTableRecord
  2
*Active
 70
     0
 10
0.0
 20
0.0
 11
1.0
 21
1.0
 12
74.25
 22
52.5
 13
0.0
 23
0.0
 14
10.0
 24
10.0
 15
10.0
 25
10.0
 16
0.0
 26
0.0
 36
1.0
 17
0.0
 27
0.0
 37
0.0
 40
105.0
 41
1.4142857143
 42
50.0
 43
0.0
 44
0.0
 50
0.0
 51
0.0
 71
     0
 72
  2000
 73
     1
 74
     3
 75
     0
 76
     0
 77
     0
 78
     0
281
     0
 65
     1
110
0.0
120
0.0
130
0.0
111
1.0
121
0.0
131
0.0
112
0.0
122
1.0
132
0.0
 79
     0
146
0.0
  0
ENDTAB
  0
TABLE
  2
LTYPE
  5
5
330
0
100
AcDbSymbolTable
 70
     6
  0
LTYPE
  5
14
330
5
100
AcDbSymbolTableRecord
100
AcDbLinetypeTableRecord
  2
ByBlock
 70
     0
  3

 72
    65
 73
     0
 40
0.0
  0
LTYPE
  5
15
330
5
100
AcDbSymbolTableRecord
100
AcDbLinetypeTableRecord
  2
ByLayer
 70
     0
  3

 72
    65
 73
     0
 40
0.0
  0
LTYPE
  5
16
330
5
100
AcDbSymbolTableRecord
100
AcDbLinetypeTableRecord
  2
Continuous
 70
     0
  3
Solid line
 72
    65
 73
     0
 40
0.0
  0
LTYPE
  5
5E
330
5
100
AcDbSymbolTableRecord
100
AcDbLinetypeTableRecord
  2
HIDDEN
 70
     0
  3
Hidden __ __ __ __ __ __ __ __ __ __ __ __ __ __
 72
    65
 73
     2
 40
1.905
 49
1.27
 74
     0
 49
-0.635
 74
     0
  0
LTYPE
  5
5F
330
5
100
AcDbSymbolTableRecord
100
AcDbLinetypeTableRecord
  2
PHANTOM
 70
     0
  3
Phantom ______  __  __  ______  __  __  ______
 72
    65
 73
     6
 40
12.7
 49
6.35
 74
     0
 49
-1.27
 74
     0
 49
1.27
 74
     0
 49
-1.27
 74
     0
 49
1.27
 74
     0
 49
-1.27
 74
     0
  0
LTYPE
  5
60
330
5
100
AcDbSymbolTableRecord
100
AcDbLinetypeTableRecord
  2
CENTER
 70
     0
  3
Center ____ _ ____ _ ____ _ ____ _ ____ _ ____
 72
    65
 73
     4
 40
10.16
 49
6.35
 74
     0
 49
-1.27
 74
     0
 49
1.27
 74
     0
 49
-1.27
 74
     0
  0
LTYPE
  5
61
330
5
100
AcDbSymbolTableRecord
100
AcDbLinetypeTableRecord
  2
CENTERX2
 70
     0
  3
Center (2x) ________  __  ________  __  _____
 72
    65
 73
     4
 40
20.32
 49
12.7
 74
     0
 49
-2.54
 74
     0
 49
2.54
 74
     0
 49
-2.54
 74
     0
  0
LTYPE
  5
62
330
5
100
AcDbSymbolTableRecord
100
AcDbLinetypeTableRecord
  2
DOT2
 70
     0
  3
Dot (.5x) ........................................
 72
    65
 73
     2
 40
0.635
 49
0.0
 74
     0
 49
-0.635
 74
     0
  0
ENDTAB
  0
TABLE
  2
LAYER
  5
2
330
0
100
AcDbSymbolTable
 70
     2
  0
LAYER
  5
10
330
2
100
AcDbSymbolTableRecord
100
AcDbLayerTableRecord
  2
0
 70
     0
 62
     7
  6
Continuous
370
    -3
390
F
  0
LAYER
  5
63
330
2
100
AcDbSymbolTableRecord
100
AcDbLayerTableRecord
  2
FORMAT
 70
     0
 62
     7
  6
Continuous
370
    -3
390
F
  0
ENDTAB
  0
TABLE
  2
STYLE
  5
3
330
0
100
AcDbSymbolTable
 70
     2
  0
STYLE
  5
11
330
3
100
AcDbSymbolTableRecord
100
AcDbTextStyleTableRecord
  2
Standard
 70
     0
 40
0.0
 41
1.0
 50
0.0
 71
     0
 42
1.7638888889
  3
txt
  4
bigfont
  0
STYLE
  5
64
330
3
100
AcDbSymbolTableRecord
100
AcDbTextStyleTableRecord
  2
SLDTEXTSTYLE0
 70
     0
 40
0.0
 41
0.7
 50
0.0
 71
     0
 42
1.7638888889
  3
TXT
  4
bigfont
  0
ENDTAB
  0
TABLE
  2
VIEW
  5
6
330
0
100
AcDbSymbolTable
 70
     0
  0
ENDTAB
  0
TABLE
  2
UCS
  5
7
330
0
100
AcDbSymbolTable
 70
     0
  0
ENDTAB
  0
TABLE
  2
APPID
  5
9
330
0
100
AcDbSymbolTable
 70
     1
  0
APPID
  5
12
330
9
100
AcDbSymbolTableRecord
100
AcDbRegAppTableRecord
  2
ACAD
 70
     0
  0
ENDTAB
  0
TABLE
  2
DIMSTYLE
  5
A
330
0
100
AcDbSymbolTable
 70
     1
100
AcDbDimStyleTable
  0
DIMSTYLE
105
27
330
A
100
AcDbSymbolTableRecord
100
AcDbDimStyleTableRecord
  2
ISO-25
 70
     0
 41
2.5
 42
0.625
 43
3.75
 44
1.25
 73
     0
 74
     0
 77
     1
 78
     8
140
2.5
141
2.5
143
0.0393700787
147
0.625
171
     3
172
     1
178
     0
271
     2
272
     2
274
     3
278
    44
283
     0
284
     8
340
11
  0
ENDTAB
  0
TABLE
  2
BLOCK_RECORD
  5
1
330
0
100
AcDbSymbolTable
 70
     2
  0
BLOCK_RECORD
  5
1F
330
1
100
AcDbSymbolTableRecord
100
AcDbBlockTableRecord
  2
*Model_Space
340
22
  0
BLOCK_RECORD
  5
1B
330
1
100
AcDbSymbolTableRecord
100
AcDbBlockTableRecord
  2
*Paper_Space
340
1E
  0
BLOCK_RECORD
  5
23
330
1
100
AcDbSymbolTableRecord
100
AcDbBlockTableRecord
  2
*Paper_Space0
340
26
  0
BLOCK_RECORD
  5
110
330
1
100
AcDbSymbolTableRecord
100
AcDbBlockTableRecord
  2
SW_CENTERMARKSYMBOL_0
340
0
102
{BLKREFS
331
11B
102
}
  0
ENDTAB
  0
ENDSEC
  0
SECTION
  2
BLOCKS
  0
BLOCK
  5
20
330
1F
100
AcDbEntity
  8
0
100
AcDbBlockBegin
  2
*Model_Space
 70
     0
 10
0.0
 20
0.0
 30
0.0
  3
*Model_Space
  1

  0
ENDBLK
  5
21
330
1F
100
AcDbEntity
  8
0
100
AcDbBlockEnd
  0
BLOCK
  5
1C
330
1B
100
AcDbEntity
 67
     1
  8
0
100
AcDbBlockBegin
  2
*Paper_Space
 70
     0
 10
0.0
 20
0.0
 30
0.0
  3
*Paper_Space
  1

  0
ENDBLK
  5
1D
330
1B
100
AcDbEntity
 67
     1
  8
0
100
AcDbBlockEnd
  0
BLOCK
  5
24
330
23
100
AcDbEntity
  8
0
100
AcDbBlockBegin
  2
*Paper_Space0
 70
     0
 10
0.0
 20
0.0
 30
0.0
  3
*Paper_Space0
  1

  0
ENDBLK
  5
25
330
23
100
AcDbEntity
  8
0
100
AcDbBlockEnd
  0
BLOCK
  5
111
330
110
100
AcDbEntity
  8
0
100
AcDbBlockBegin
  2
SW_CENTERMARKSYMBOL_0
 70
     0
 10
0.0
 20
0.0
 30
0.0
  3
SW_CENTERMARKSYMBOL_0
  1

  0
LINE
  5
113
330
110
100
AcDbEntity
  8
FORMAT
 62
     0
100
AcDbLine
 10
0.0
 20
0.0
 30
0.0
 11
0.0
 21
2.5
 31
0.0
  0
LINE
  5
114
330
110
100
AcDbEntity
  8
FORMAT
 62
     0
100
AcDbLine
 10
0.0
 20
0.0
 30
0.0
 11
-2.5
 21
0.0
 31
0.0
  0
LINE
  5
115
330
110
100
AcDbEntity
  8
FORMAT
 62
     0
100
AcDbLine
 10
0.0
 20
0.0
 30
0.0
 11
0.0
 21
-2.5
 31
0.0
  0
LINE
  5
116
330
110
100
AcDbEntity
  8
FORMAT
 62
     0
100
AcDbLine
 10
0.0
 20
0.0
 30
0.0
 11
2.5
 21
0.0
 31
0.0
  0
LINE
  5
117
330
110
100
AcDbEntity
  8
FORMAT
 62
     0
100
AcDbLine
 10
0.0
 20
5.0
 30
0.0
 11
0.0
 21
11.75
 31
0.0
  0
LINE
  5
118
330
110
100
AcDbEntity
  8
FORMAT
 62
     0
100
AcDbLine
 10
-5.0
 20
0.0
 30
0.0
 11
-11.75
 21
0.0
 31
0.0
  0
LINE
  5
119
330
110
100
AcDbEntity
  8
FORMAT
 62
     0
100
AcDbLine
 10
0.0
 20
-5.0
 30
0.0
 11
0.0
 21
-11.75
 31
0.0
  0
LINE
  5
11A
330
110
100
AcDbEntity
  8
FORMAT
 62
     0
100
AcDbLine
 10
5.0
 20
0.0
 30
0.0
 11
11.75
 21
0.0
 31
0.0
  0
ENDBLK
  5
112
330
110
100
AcDbEntity
  8
0
100
AcDbBlockEnd
  0
ENDSEC
  0
SECTION
  2
ENTITIES
  0
MTEXT
  5
65
330
1F
100
AcDbEntity
  8
FORMAT
100
AcDbMText
 10
71.2752067622
 20
48.8742845796
 30
0.0
 40
2.1166666667
 41
0.0
 71
     1
 72
     1
  1
5NB-7332
  7
SLDTEXTSTYLE0
 73
     1
 44
1.0
  0
LINE
  5
66
330
1F
100
AcDbEntity
  8
0
  6
Continuous
 62
     7
370
    25
100
AcDbLine
 10
59.0919832219
 20
19.5391624664
 30
0.0
 11
60.0848265652
 21
21.2588175811
 31
0.0
  0
LINE
  5
67
330
1F
100
AcDbEntity
  8
0
  6
Continuous
 62
     7
370
    25
100
AcDbLine
 10
60.0848265652
 20
39.7588175811
 30
0.0
 11
59.0919832219
 21
41.4784726957
 31
0.0
  0
LINE
  5
68
330
1F
100
AcDbEntity
  8
0
  6
Continuous
 62
     7
370
    25
100
AcDbLine
 10
55.0776699086
 20
41.4784726957
 30
0.0
 11
54.0848265652
 21
39.7588175811
 31
0.0
  0
LINE
  5
69
330
1F
100
AcDbEntity
  8
0
  6
Continuous
 62
     7
370
    25
100
AcDbLine
 10
54.0848265652
 20
21.2588175811
 30
0.0
 11
55.0776699086
 21
19.5391624664
 31
0.0
  0
LINE
  5
6A
330
1F
100
AcDbEntity
  8
0
  6
Continuous
 62
     7
370
    25
100
AcDbLine
 10
54.0848265652
 20
39.0476300811
 30
0.0
 11
42.0861168878
 21
38.6726704036
 31
0.0
  0
LINE
  5
6B
330
1F
100
AcDbEntity
  8
0
  6
Continuous
 62
     7
370
    25
100
AcDbLine
 10
42.0861168878
 20
22.3449647585
 30
0.0
 11
54.0848265652
 21
21.9700050811
 31
0.0
  0
LINE
  5
6C
330
1F
100
AcDbEntity
  8
0
  6
Continuous
 62
     7
370
    25
100
AcDbLine
 10
42.0861168878
 20
38.6726704036
 30
0.0
 11
41.0848265652
 21
37.6713800811
 31
0.0
  0
LINE
  5
6D
330
1F
100
AcDbEntity
  8
0
  6
Continuous
 62
     7
370
    25
100
AcDbLine
 10
41.0848265652
 20
23.3462550811
 30
0.0
 11
42.0861168878
 21
22.3449647585
 31
0.0
  0
SPLINE
  5
6E
330
1F
100
AcDbEntity
  8
0
  6
Continuous
 62
     7
370
    25
100
AcDbSpline
210
0.0
220
0.0
230
1.0
 70
     8
 71
     3
 72
    16
 73
    12
 74
     0
 42
0.00000001
 43
0.00000001
 40
0.0
 40
0.0
 40
0.0
 40
0.0
 40
0.2499999999999999
 40
0.2499999999999999
 40
0.4999999999999998
 40
0.4999999999999998
 40
0.6249999999999998
 40
0.6249999999999998
 40
0.7499999999999997
 40
0.7499999999999997
 40
1.0
 40
1.0
 40
1.0
 40
1.0
 10
55.07766990855373
 20
35.99364513835376
 30
0.0
 10
54.81914163307138
 20
36.44142924668234
 30
0.0
 10
54.60606748632873
 20
36.89247806861918
 30
0.0
 10
54.31089059954186
 20
37.8039826496754
 30
0.0
 10
54.22976152139925
 20
38.26450834143563
 30
0.0
 10
54.22887044515216
 20
38.96397344400731
 30
0.0
 10
54.24870336186881
 20
39.19822557610482
 30
0.0
 10
54.32604126250082
 20
39.66160099671862
 30
0.0
 10
54.3834677597652
 20
39.89173518159247
 30
0.0
 10
54.60521787773271
 20
40.57804051197879
 30
0.0
 10
54.81881936236337
 20
41.03013039808629
 30
0.0
 10
55.07766990855391
 20
41.47847269565524
 30
0.0
  0
LINE
  5
6F
330
1F
100
AcDbEntity
  8
0
  6
Continuous
 62
     7
370
    25
100
AcDbLine
 10
55.0776699086
 20
41.4784726957
 30
0.0
 11
59.0919832219
 21
41.4784726957
 31
0.0
  0
SPLINE
  5
70
330
1F
100
AcDbEntity
  8
0
  6
Continuous
 62
     7
370
    25
100
AcDbSpline
210
0.0
220
0.0
230
1.0
 70
     8
 71
     3
 72
    16
 73
    12
 74
     0
 42
0.00000001
 43
0.00000001
 40
0.0
 40
0.0
 40
0.0
 40
0.0
 40
0.2499999999999999
 40
0.2499999999999999
 40
0.4999999999999998
 40
0.4999999999999998
 40
0.6249999999999998
 40
0.6249999999999998
 40
0.7499999999999997
 40
0.7499999999999997
 40
1.0
 40
1.0
 40
1.0
 40
1.0
 10
59.09198322189587
 20
35.99364513835376
 30
0.0
 10
59.35051149737821
 20
36.44142924668234
 30
0.0
 10
59.56358564412087
 20
36.89247806861918
 30
0.0
 10
59.85876253090775
 20
37.8039826496754
 30
0.0
 10
59.93989160905034
 20
38.26450834143563
 30
0.0
 10
59.94078268529743
 20
38.96397344400731
 30
0.0
 10
59.92094976858078
 20
39.19822557610482
 30
0.0
 10
59.84361186794877
 20
39.66160099671862
 30
0.0
 10
59.7861853706844
 20
39.89173518159247
 30
0.0
 10
59.56443525271689
 20
40.57804051197879
 30
0.0
 10
59.35083376808623
 20
41.03013039808629
 30
0.0
 10
59.09198322189569
 20
41.47847269565524
 30
0.0
  0
LINE
  5
71
330
1F
100
AcDbEntity
  8
0
  6
Continuous
 62
     7
370
    25
100
AcDbLine
 10
55.0776699086
 20
35.9936451384
 30
0.0
 11
59.0919832219
 21
35.9936451384
 31
0.0
  0
SPLINE
  5
72
330
1F
100
AcDbEntity
  8
0
  6
Continuous
 62
     7
370
    25
100
AcDbSpline
210
0.0
220
0.0
230
1.0
 70
     8
 71
     3
 72
    16
 73
    12
 74
     0
 42
0.00000001
 43
0.00000001
 40
0.0
 40
0.0
 40
0.0
 40
0.0
 40
0.25
 40
0.25
 40
0.5
 40
0.5
 40
0.625
 40
0.625
 40
0.75
 40
0.75
 40
1.0
 40
1.0
 40
1.0
 40
1.0
 10
59.09198322189588
 20
19.53916246644941
 30
0.0
 10
59.35051149737821
 20
19.986946574778
 30
0.0
 10
59.56358564412087
 20
20.43799539671484
 30
0.0
 10
59.85876253090775
 20
21.34949997777107
 30
0.0
 10
59.93989160905035
 20
21.8100256695313
 30
0.0
 10
59.94078268529744
 20
22.50949077210296
 30
0.0
 10
59.92094976858079
 20
22.74374290420048
 30
0.0
 10
59.84361186794877
 20
23.20711832481427
 30
0.0
 10
59.78618537068441
 20
23.43725250968813
 30
0.0
 10
59.5644352527169
 20
24.12355784007444
 30
0.0
 10
59.35083376808623
 20
24.57564772618193
 30
0.0
 10
59.0919832218957
 20
25.0239900237509
 30
0.0
  0
SPLINE
  5
73
330
1F
100
AcDbEntity
  8
0
  6
Continuous
 62
     7
370
    25
100
AcDbSpline
210
0.0
220
0.0
230
1.0
 70
     8
 71
     3
 72
    14
 73
    10
 74
     0
 42
0.00000001
 43
0.00000001
 40
0.0
 40
0.0
 40
0.0
 40
0.0
 40
0.25
 40
0.25
 40
0.5
 40
0.5
 40
0.75
 40
0.75
 40
1.0
 40
1.0
 40
1.0
 40
1.0
 10
59.09198322189551
 20
25.02399002375088
 30
0.0
 10
59.34972773013025
 20
25.91684319101972
 30
0.0
 10
59.56288381048017
 20
26.81794455175245
 30
0.0
 10
59.85879904262215
 20
28.64426875820547
 30
0.0
 10
59.94056780090032
 20
29.57060028292445
 30
0.0
 10
59.94041007904377
 20
31.44979694409524
 30
0.0
 10
59.85864417571955
 20
32.37454735026301
 30
0.0
 10
59.56279752397312
 20
34.19999782656335
 30
0.0
 10
59.34970313166426
 20
35.10087718267066
 30
0.0
 10
59.0919832218955
 20
35.99364513835378
 30
0.0
  0
LINE
  5
74
330
1F
100
AcDbEntity
  8
0
  6
Continuous
 62
     7
370
    25
100
AcDbLine
 10
60.0848265652
 20
30.5088175811
 30
0.0
 11
60.0848265652
 21
39.7588175811
 31
0.0
  0
LINE
  5
75
330
1F
100
AcDbEntity
  8
0
  6
Continuous
 62
     7
370
    25
100
AcDbLine
 10
60.0848265652
 20
21.2588175811
 30
0.0
 11
60.0848265652
 21
30.5088175811
 31
0.0
  0
SPLINE
  5
76
330
1F
100
AcDbEntity
  8
0
  6
Continuous
 62
     7
370
    25
100
AcDbSpline
210
0.0
220
0.0
230
1.0
 70
     8
 71
     3
 72
    14
 73
    10
 74
     0
 42
0.00000001
 43
0.00000001
 40
0.0
 40
0.0
 40
0.0
 40
0.0
 40
0.25
 40
0.25
 40
0.5
 40
0.5
 40
0.75
 40
0.75
 40
1.0
 40
1.0
 40
1.0
 40
1.0
 10
55.07766990855409
 20
25.02399002375088
 30
0.0
 10
54.81992540031936
 20
25.91684319101972
 30
0.0
 10
54.60676931996942
 20
26.81794455175245
 30
0.0
 10
54.31085408782744
 20
28.64426875820547
 30
0.0
 10
54.22908532954927
 20
29.57060028292445
 30
0.0
 10
54.22924305140583
 20
31.44979694409524
 30
0.0
 10
54.31100895473005
 20
32.37454735026301
 30
0.0
 10
54.60685560647649
 20
34.19999782656335
 30
0.0
 10
54.81994999878533
 20
35.10087718267066
 30
0.0
 10
55.07766990855409
 20
35.99364513835378
 30
0.0
  0
SPLINE
  5
77
330
1F
100
AcDbEntity
  8
0
  6
Continuous
 62
     7
370
    25
100
AcDbSpline
210
0.0
220
0.0
230
1.0
 70
     8
 71
     3
 72
    16
 73
    12
 74
     0
 42
0.00000001
 43
0.00000001
 40
0.0
 40
0.0
 40
0.0
 40
0.0
 40
0.25
 40
0.25
 40
0.5
 40
0.5
 40
0.625
 40
0.625
 40
0.75
 40
0.75
 40
1.0
 40
1.0
 40
1.0
 40
1.0
 10
55.07766990855372
 20
19.53916246644941
 30
0.0
 10
54.81914163307137
 20
19.986946574778
 30
0.0
 10
54.60606748632873
 20
20.43799539671484
 30
0.0
 10
54.31089059954185
 20
21.34949997777107
 30
0.0
 10
54.22976152139925
 20
21.8100256695313
 30
0.0
 10
54.22887044515215
 20
22.50949077210296
 30
0.0
 10
54.24870336186881
 20
22.74374290420048
 30
0.0
 10
54.32604126250082
 20
23.20711832481427
 30
0.0
 10
54.3834677597652
 20
23.43725250968813
 30
0.0
 10
54.60521787773271
 20
24.12355784007444
 30
0.0
 10
54.81881936236336
 20
24.57564772618193
 30
0.0
 10
55.0776699085539
 20
25.0239900237509
 30
0.0
  0
LINE
  5
78
330
1F
100
AcDbEntity
  8
0
  6
Continuous
 62
     7
370
    25
100
AcDbLine
 10
54.0848265652
 20
30.5088175811
 30
0.0
 11
54.0848265652
 21
39.7588175811
 31
0.0
  0
LINE
  5
79
330
1F
100
AcDbEntity
  8
0
  6
Continuous
 62
     7
370
    25
100
AcDbLine
 10
54.0848265652
 20
21.2588175811
 30
0.0
 11
54.0848265652
 21
30.5088175811
 31
0.0
  0
LINE
  5
7A
330
1F
100
AcDbEntity
  8
0
  6
Continuous
 62
     7
370
    25
100
AcDbLine
 10
55.0776699086
 20
25.0239900238
 30
0.0
 11
59.0919832219
 21
25.0239900238
 31
0.0
  0
LINE
  5
7B
330
1F
100
AcDbEntity
  8
0
  6
Continuous
 62
     7
370
    25
100
AcDbLine
 10
57.4581856386
 20
27.3748549196
 30
0.0
 11
57.4581856386
 21
27.5480209427
 31
0.0
  0
SPLINE
  5
7C
330
1F
100
AcDbEntity
  8
0
  6
Continuous
 62
     7
370
    25
100
AcDbSpline
210
0.0
220
0.0
230
1.0
 70
     8
 71
     3
 72
    15
 73
    11
 74
     0
 42
0.00000001
 43
0.00000001
 40
0.0
 40
0.0
 40
0.0
 40
0.0
 40
0.1046424622149477
 40
0.2111208971546085
 40
0.3233806047009378
 40
0.4420520864308685
 40
0.5671630372768659
 40
0.7019710430082281
 40
0.8453718683440632
 40
1.0
 40
1.0
 40
1.0
 40
1.0
 10
57.72169915209739
 20
27.29203638674503
 30
0.0
 10
57.71443522890291
 20
27.29875543501157
 30
0.0
 10
57.69977993554285
 20
27.31231141857724
 30
0.0
 10
57.67411317314534
 20
27.32910002249065
 30
0.0
 10
57.64552695662589
 20
27.34327776209976
 30
0.0
 10
57.61393786687952
 20
27.35497589479633
 30
0.0
 10
57.57925115253195
 20
27.36384762167609
 30
0.0
 10
57.54165315117427
 20
27.37010306826871
 30
0.0
 10
57.50093402747729
 20
27.37407950598353
 30
0.0
 10
57.47278853263252
 20
27.37459003747921
 30
0.0
 10
57.45818563858388
 20
27.37485491956356
 30
0.0
  0
SPLINE
  5
7D
330
1F
100
AcDbEntity
  8
0
  6
Continuous
 62
     7
370
    25
100
AcDbSpline
210
0.0
220
0.0
230
1.0
 70
     8
 71
     3
 72
    11
 73
     7
 74
     0
 42
0.00000001
 43
0.00000001
 40
0.0
 40
0.0
 40
0.0
 40
0.0
 40
0.2497828004743453
 40
0.4924940338313417
 40
0.739533807865226
 40
1.0
 40
1.0
 40
1.0
 40
1.0
 10
57.76687289727113
 20
27.18663098133963
 30
0.0
 10
57.76635869988264
 20
27.19645492275417
 30
0.0
 10
57.76534486247846
 20
27.21582468130515
 30
0.0
 10
57.75654935306127
 20
27.24378649873753
 30
0.0
 10
57.74212598837378
 20
27.26974942358103
 30
0.0
 10
57.72862713796867
 20
27.28447751841001
 30
0.0
 10
57.72169915209739
 20
27.29203638674503
 30
0.0
  0
SPLINE
  5
7E
330
1F
100
AcDbEntity
  8
0
  6
Continuous
 62
     7
370
    25
100
AcDbSpline
210
0.0
220
0.0
230
1.0
 70
     8
 71
     3
 72
    11
 73
     7
 74
     0
 42
0.00000001
 43
0.00000001
 40
0.0
 40
0.0
 40
0.0
 40
0.0
 40
0.2490517621319
 40
0.4918163964483682
 40
0.7399854914835408
 40
1.0
 40
1.0
 40
1.0
 40
1.0
 10
57.72169915209739
 20
27.07369661840526
 30
0.0
 10
57.72865469629821
 20
27.08142898540277
 30
0.0
 10
57.74239019712306
 20
27.09669852150315
 30
0.0
 10
57.75678864736442
 20
27.12427321021133
 30
0.0
 10
57.76536633617325
 20
27.15460566466529
 30
0.0
 10
57.76636296664613
 20
27.17579126845262
 30
0.0
 10
57.76687289727113
 20
27.18663098133963
 30
0.0
  0
SPLINE
  5
7F
330
1F
100
AcDbEntity
  8
0
  6
Continuous
 62
     7
370
    25
100
AcDbSpline
210
0.0
220
0.0
230
1.0
 70
     8
 71
     3
 72
    15
 73
    11
 74
     0
 42
0.00000001
 43
0.00000001
 40
0.0
 40
0.0
 40
0.0
 40
0.0
 40
0.1322900133483163
 40
0.2607898618052669
 40
0.3858441649046999
 40
0.5080904451166519
 40
0.6294055086180665
 40
0.7510893117646916
 40
0.8732553966668103
 40
1.0
 40
1.0
 40
1.0
 40
1.0
 10
57.57112000151823
 20
27.0134649581736
 30
0.0
 10
57.57847916761603
 20
27.01355745483276
 30
0.0
 10
57.59298665658721
 20
27.01373979808262
 30
0.0
 10
57.61417293240491
 20
27.01722403571867
 30
0.0
 10
57.63469040841714
 20
27.02127376885737
 30
0.0
 10
57.6539654313561
 20
27.02831473508921
 30
0.0
 10
57.67261423376559
 20
27.03642444229813
 30
0.0
 10
57.68973502364654
 20
27.047378941998
 30
0.0
 10
57.70661576553576
 20
27.05923003329726
 30
0.0
 10
57.71661007738027
 20
27.06881565004876
 30
0.0
 10
57.72169915209739
 20
27.07369661840526
 30
0.0
  0
SPLINE
  5
80
330
1F
100
AcDbEntity
  8
0
  6
Continuous
 62
     7
370
    25
100
AcDbSpline
210
0.0
220
0.0
230
1.0
 70
     8
 71
     3
 72
    15
 73
    11
 74
     0
 42
0.00000001
 43
0.00000001
 40
0.0
 40
0.0
 40
0.0
 40
0.0
 40
0.1414377028612577
 40
0.2759868619651536
 40
0.4050827468357287
 40
0.52930925153632
 40
0.6494060973408687
 40
0.7665008015291712
 40
0.883521477640193
 40
1.0
 40
1.0
 40
1.0
 40
1.0
 10
57.28501961541784
 20
27.14145723616588
 30
0.0
 10
57.29618816666567
 20
27.13121504528912
 30
0.0
 10
57.31798131905166
 20
27.11122949643941
 30
0.0
 10
57.35284143843936
 20
27.08530867339757
 30
0.0
 10
57.38794921472045
 20
27.06302320082429
 30
0.0
 10
57.42380334196358
 20
27.04517653471436
 30
0.0
 10
57.45990648299516
 20
27.0310709666308
 30
0.0
 10
57.49651344988234
 20
27.02095385718823
 30
0.0
 10
57.5336197354124
 20
27.01453112886079
 30
0.0
 10
57.55863927682027
 20
27.01381979786435
 30
0.0
 10
57.57112000151823
 20
27.0134649581736
 30
0.0
  0
SPLINE
  5
81
330
1F
100
AcDbEntity
  8
0
  6
Continuous
 62
     7
370
    25
100
AcDbSpline
210
0.0
220
0.0
230
1.0
 70
     8
 71
     3
 72
    15
 73
    11
 74
     0
 42
0.00000001
 43
0.00000001
 40
0.0
 40
0.0
 40
0.0
 40
0.0
 40
0.1476613860734708
 40
0.2888924423695145
 40
0.4241065500574236
 40
0.5519955532306788
 40
0.6738679309355684
 40
0.7893162665477801
 40
0.8978915155028957
 40
1.0
 40
1.0
 40
1.0
 40
1.0
 10
56.94621652661476
 20
27.45014449485314
 30
0.0
 10
56.96274412733425
 20
27.43478876060695
 30
0.0
 10
56.9950795879806
 20
27.40474600069035
 30
0.0
 10
57.0428447138067
 20
27.36096170731776
 30
0.0
 10
57.08845525647683
 20
27.31929816106852
 30
0.0
 10
57.13179985515557
 20
27.27953961973159
 30
0.0
 10
57.17298171498555
 20
27.24189029310783
 30
0.0
 10
57.21227448555995
 20
27.20655032683575
 30
0.0
 10
57.24943722495756
 20
27.1733586769372
 30
0.0
 10
57.27340403243274
 20
27.1518712029576
 30
0.0
 10
57.28501961541784
 20
27.14145723616588
 30
0.0
  0
SPLINE
  5
82
330
1F
100
AcDbEntity
  8
0
  6
Continuous
 62
     7
370
    25
100
AcDbSpline
210
0.0
220
0.0
230
1.0
 70
     8
 71
     3
 72
    15
 73
    11
 74
     0
 42
0.00000001
 43
0.00000001
 40
0.0
 40
0.0
 40
0.0
 40
0.0
 40
0.082428498742331
 40
0.1761528009252871
 40
0.2809817587265283
 40
0.3985256681357573
 40
0.5291842754648532
 40
0.6726050610319607
 40
0.8293989194531021
 40
1.0
 40
1.0
 40
1.0
 40
1.0
 10
56.73540571580395
 20
27.57813677284541
 30
0.0
 10
56.74204879809891
 20
27.57651358730255
 30
0.0
 10
56.75624531472715
 20
27.57304477876959
 30
0.0
 10
56.77793680972268
 20
27.56438945233405
 30
0.0
 10
56.80144510860737
 20
27.55280613738973
 30
0.0
 10
56.8268311027043
 20
27.5382132381664
 30
0.0
 10
56.85404357846955
 20
27.52051034022377
 30
0.0
 10
56.88345594549735
 20
27.50023923661296
 30
0.0
 10
56.91433560344096
 20
27.47635734223691
 30
0.0
 10
56.93529491333042
 20
27.45912436600198
 30
0.0
 10
56.94621652661476
 20
27.45014449485314
 30
0.0
  0
LINE
  5
83
330
1F
100
AcDbEntity
  8
0
  6
Continuous
 62
     7
370
    25
100
AcDbLine
 10
56.6079711384
 20
27.5781367728
 30
0.0
 11
56.7354057158
 21
27.5781367728
 31
0.0
  0
LINE
  5
84
330
1F
100
AcDbEntity
  8
0
  6
Continuous
 62
     7
370
    25
100
AcDbLine
 10
56.6079711384
 20
26.8101831049
 30
0.0
 11
56.6079711384
 21
27.5781367728
 31
0.0
  0
LINE
  5
85
330
1F
100
AcDbEntity
  8
0
  6
Continuous
 62
     7
370
    25
100
AcDbLine
 10
56.7504636309
 20
26.8101831049
 30
0.0
 11
56.6079711384
 21
26.8101831049
 31
0.0
  0
LINE
  5
86
330
1F
100
AcDbEntity
  8
0
  6
Continuous
 62
     7
370
    25
100
AcDbLine
 10
56.7504636309
 20
27.3748549196
 30
0.0
 11
56.7504636309
 21
26.8101831049
 31
0.0
  0
SPLINE
  5
87
330
1F
100
AcDbEntity
  8
0
  6
Continuous
 62
     7
370
    25
100
AcDbSpline
210
0.0
220
0.0
230
1.0
 70
     8
 71
     3
 72
     9
 73
     5
 74
     0
 42
0.00000001
 43
0.00000001
 40
0.0
 40
0.0
 40
0.0
 40
0.0
 40
0.5155288090837096
 40
1.0
 40
1.0
 40
1.0
 40
1.0
 10
56.87092695132519
 20
27.28450742921607
 30
0.0
 10
56.85118149330349
 20
27.30131018543996
 30
0.0
 10
56.81288012648599
 20
27.33390342936313
 30
0.0
 10
56.77083384360353
 20
27.3614900140345
 30
0.0
 10
56.75046363086187
 20
27.37485491956356
 30
0.0
  0
LINE
  5
88
330
1F
100
AcDbEntity
  8
0
  6
Continuous
 62
     7
370
    25
100
AcDbLine
 10
57.0064481868
 20
27.1640441088
 30
0.0
 11
56.8709269513
 21
27.2845074292
 31
0.0
  0
SPLINE
  5
89
330
1F
100
AcDbEntity
  8
0
  6
Continuous
 62
     7
370
    25
100
AcDbSpline
210
0.0
220
0.0
230
1.0
 70
     8
 71
     3
 72
     9
 73
     5
 74
     0
 42
0.00000001
 43
0.00000001
 40
0.0
 40
0.0
 40
0.0
 40
0.0
 40
0.5004988252029445
 40
1.0
 40
1.0
 40
1.0
 40
1.0
 10
57.25490378530202
 20
26.94570434041298
 30
0.0
 10
57.21260834937029
 20
26.9811692465535
 30
0.0
 10
57.12810178551459
 20
27.05202836620505
 30
0.0
 10
57.04697240681661
 20
27.12673037006501
 30
0.0
 10
57.00644818684642
 20
27.16404410875275
 30
0.0
  0
SPLINE
  5
8A
330
1F
100
AcDbEntity
  8
0
  6
Continuous
 62
     7
370
    25
100
AcDbSpline
210
0.0
220
0.0
230
1.0
 70
     8
 71
     3
 72
    15
 73
    11
 74
     0
 42
0.00000001
 43
0.00000001
 40
0.0
 40
0.0
 40
0.0
 40
0.0
 40
0.1293972986426974
 40
0.2563931032053938
 40
0.3803289534191741
 40
0.5027804241113406
 40
0.6257089540099047
 40
0.7486563126058706
 40
0.8729651434356748
 40
1.0
 40
1.0
 40
1.0
 40
1.0
 10
57.57112000151823
 20
26.83276997747862
 30
0.0
 10
57.55632563218595
 20
26.83306866620608
 30
0.0
 10
57.52701146332106
 20
26.83366050027473
 30
0.0
 10
57.48379474582342
 20
26.83906380793197
 30
0.0
 10
57.44202938059237
 20
26.84805132970886
 30
0.0
 10
57.40160153610786
 20
26.86036143020915
 30
0.0
 10
57.36251227838176
 20
26.87618478685441
 30
0.0
 10
57.32506037880788
 20
26.89596896173128
 30
0.0
 10
57.2887529264378
 20
26.91873770568009
 30
0.0
 10
57.26626812098561
 20
26.93665070185442
 30
0.0
 10
57.25490378530202
 20
26.94570434041298
 30
0.0
  0
SPLINE
  5
8B
330
1F
100
AcDbEntity
  8
0
  6
Continuous
 62
     7
370
    25
100
AcDbSpline
210
0.0
220
0.0
230
1.0
 70
     8
 71
     3
 72
    15
 73
    11
 74
     0
 42
0.00000001
 43
0.00000001
 40
0.0
 40
0.0
 40
0.0
 40
0.0
 40
0.1270527522076904
 40
0.2522753243044985
 40
0.3739697899787143
 40
0.4948832629277701
 40
0.6176556772794567
 40
0.7419399124466162
 40
0.8684128160693878
 40
1.0
 40
1.0
 40
1.0
 40
1.0
 10
57.81204664244488
 20
26.93064642535507
 30
0.0
 10
57.80382829312322
 20
26.92285450512611
 30
0.0
 10
57.78750997884555
 20
26.90738290637237
 30
0.0
 10
57.76073972556445
 20
26.8874288886664
 30
0.0
 10
57.73263264106801
 20
26.87048326956578
 30
0.0
 10
57.70305177196169
 20
26.85679402511533
 30
0.0
 10
57.67211991302796
 20
26.84573786648714
 30
0.0
 10
57.63959913293354
 20
26.83849635356263
 30
0.0
 10
57.60586080832495
 20
26.83335505517713
 30
0.0
 10
57.58285226623489
 20
26.83296756317307
 30
0.0
 10
57.57112000151823
 20
26.83276997747862
 30
0.0
  0
SPLINE
  5
8C
330
1F
100
AcDbEntity
  8
0
  6
Continuous
 62
     7
370
    25
100
AcDbSpline
210
0.0
220
0.0
230
1.0
 70
     8
 71
     3
 72
    15
 73
    11
 74
     0
 42
0.00000001
 43
0.00000001
 40
0.0
 40
0.0
 40
0.0
 40
0.0
 40
0.1401156952848858
 40
0.2734369515897445
 40
0.4007170918852059
 40
0.5244111544238695
 40
0.6451326608364114
 40
0.7627629456192484
 40
0.8809824433211497
 40
1.0
 40
1.0
 40
1.0
 40
1.0
 10
57.90992309032132
 20
27.19415993886858
 30
0.0
 10
57.9097263342919
 20
27.18066441937378
 30
0.0
 10
57.90934236325437
 20
27.15432780017294
 30
0.0
 10
57.90429253165209
 20
27.11602923874712
 30
0.0
 10
57.89703804888498
 20
27.07970754745446
 30
0.0
 10
57.88592767778875
 20
27.04563547412478
 30
0.0
 10
57.87247678349051
 20
27.01342972911375
 30
0.0
 10
57.85548920732339
 20
26.98352001647645
 30
0.0
 10
57.83539094518741
 20
26.95579399855483
 30
0.0
 10
57.81984550816769
 20
26.93904772775431
 30
0.0
 10
57.81204664244488
 20
26.93064642535507
 30
0.0
  0
SPLINE
  5
8D
330
1F
100
AcDbEntity
  8
0
  6
Continuous
 62
     7
370
    25
100
AcDbSpline
210
0.0
220
0.0
230
1.0
 70
     8
 71
     3
 72
    15
 73
    11
 74
     0
 42
0.00000001
 43
0.00000001
 40
0.0
 40
0.0
 40
0.0
 40
0.0
 40
0.1305450777958566
 40
0.257500661052901
 40
0.3807062916981834
 40
0.50300347270568
 40
0.6241056847467477
 40
0.7465907263580778
 40
0.8722950368812789
 40
1.0
 40
1.0
 40
1.0
 40
1.0
 10
57.81204664244488
 20
27.42755762226626
 30
0.0
 10
57.8198150603549
 20
27.41932056704844
 30
0.0
 10
57.83513829414465
 20
27.40307294439173
 30
0.0
 10
57.85526484574101
 20
27.37683463346668
 30
0.0
 10
57.87221807486703
 20
27.34927433047609
 30
0.0
 10
57.88571010475765
 20
27.32045576428035
 30
0.0
 10
57.89697361475219
 20
27.2907318448
 30
0.0
 10
57.90422252991228
 20
27.25949183791777
 30
0.0
 10
57.90929429036238
 20
27.22723052401467
 30
0.0
 10
57.90971239004351
 20
27.20524133507223
 30
0.0
 10
57.90992309032132
 20
27.19415993886858
 30
0.0
  0
SPLINE
  5
8E
330
1F
100
AcDbEntity
  8
0
  6
Continuous
 62
     7
370
    25
100
AcDbSpline
210
0.0
220
0.0
230
1.0
 70
     8
 71
     3
 72
    15
 73
    11
 74
     0
 42
0.00000001
 43
0.00000001
 40
0.0
 40
0.0
 40
0.0
 40
0.0
 40
0.1476270724396861
 40
0.2864810592714897
 40
0.418189465926807
 40
0.5428808841137355
 40
0.6619178330920034
 40
0.7770087505932007
 40
0.8893050437597245
 40
1.0
 40
1.0
 40
1.0
 40
1.0
 10
57.45818563858388
 20
27.54802094272959
 30
0.0
 10
57.47706786136068
 20
27.54764298349102
 30
0.0
 10
57.51371018646478
 20
27.54690952612959
 30
0.0
 10
57.5669784343303
 20
27.5413417943967
 30
0.0
 10
57.61668827487095
 20
27.53189355316161
 30
0.0
 10
57.66300886673231
 20
27.51895280449522
 30
0.0
 10
57.70566457072023
 20
27.50178804068409
 30
0.0
 10
57.74496369044467
 20
27.48118637234053
 30
0.0
 10
57.78078028948487
 20
27.45667082961586
 30
0.0
 10
57.80167453981034
 20
27.43721545396275
 30
0.0
 10
57.81204664244488
 20
27.42755762226626
 30
0.0
  0
LINE
  5
8F
330
1F
100
AcDbEntity
  8
0
  6
Continuous
 62
     7
370
    25
100
AcDbLine
 10
57.5259462563
 20
28.3460904408
 30
0.0
 11
57.5259462563
 21
28.5117275064
 31
0.0
  0
SPLINE
  5
90
330
1F
100
AcDbEntity
  8
0
  6
Continuous
 62
     7
370
    25
100
AcDbSpline
210
0.0
220
0.0
230
1.0
 70
     8
 71
     3
 72
    15
 73
    11
 74
     0
 42
0.00000001
 43
0.00000001
 40
0.0
 40
0.0
 40
0.0
 40
0.0
 40
0.1017738366845019
 40
0.2081280746103126
 40
0.3195222361320721
 40
0.4377158324105367
 40
0.5640612668215813
 40
0.700274150173624
 40
0.8452618826189011
 40
1.0
 40
1.0
 40
1.0
 40
1.0
 10
57.72169915209739
 20
28.27832982303847
 30
0.0
 10
57.71643274405558
 20
28.2832240043704
 30
0.0
 10
57.70566290967022
 20
28.29323263301792
 30
0.0
 10
57.68672704605055
 20
28.30563713212458
 30
0.0
 10
57.66563552268308
 20
28.31646718663698
 30
0.0
 10
57.64241092218692
 20
28.32614137783093
 30
0.0
 10
57.61651179118756
 20
28.3333956121845
 30
0.0
 10
57.58843691985085
 20
28.33966460960628
 30
0.0
 10
57.55791075829609
 20
28.34365851295495
 30
0.0
 10
57.53682968652138
 20
28.34526240609587
 30
0.0
 10
57.52594625634449
 20
28.34609044079908
 30
0.0
  0
SPLINE
  5
91
330
1F
100
AcDbEntity
  8
0
  6
Continuous
 62
     7
370
    25
100
AcDbSpline
210
0.0
220
0.0
230
1.0
 70
     8
 71
     3
 72
    11
 73
     7
 74
     0
 42
0.00000001
 43
0.00000001
 40
0.0
 40
0.0
 40
0.0
 40
0.0
 40
0.2450868805219052
 40
0.4875552456976453
 40
0.7346288455311497
 40
1.0
 40
1.0
 40
1.0
 40
1.0
 10
57.77440185480009
 20
28.15786650257515
 30
0.0
 10
57.77374715141735
 20
28.16890826654114
 30
0.0
 10
57.7724447395218
 20
28.19087382394638
 30
0.0
 10
57.76224114446055
 20
28.22265311323187
 30
0.0
 10
57.74541183959634
 20
28.25246966813792
 30
0.0
 10
57.72978932251714
 20
28.26950699094759
 30
0.0
 10
57.72169915209739
 20
28.27832982303847
 30
0.0
  0
SPLINE
  5
92
330
1F
100
AcDbEntity
  8
0
  6
Continuous
 62
     7
370
    25
100
AcDbSpline
210
0.0
220
0.0
230
1.0
 70
     8
 71
     3
 72
    11
 73
     7
 74
     0
 42
0.00000001
 43
0.00000001
 40
0.0
 40
0.0
 40
0.0
 40
0.0
 40
0.238820343026198
 40
0.4777994110081075
 40
0.7288233729769946
 40
1.0
 40
1.0
 40
1.0
 40
1.0
 10
57.72922810962634
 20
28.03740318211182
 30
0.0
 10
57.73621114590118
 20
28.04531105428032
 30
0.0
 10
57.75018185952169
 20
28.06113205435325
 30
0.0
 10
57.76446653729877
 20
28.09024231437312
 30
0.0
 10
57.77296810737215
 20
28.12289584193175
 30
0.0
 10
57.77391179939685
 20
28.14591351778227
 30
0.0
 10
57.77440185480009
 20
28.15786650257515
 30
0.0
  0
SPLINE
  5
93
330
1F
100
AcDbEntity
  8
0
  6
Continuous
 62
     7
370
    25
100
AcDbSpline
210
0.0
220
0.0
230
1.0
 70
     8
 71
     3
 72
    15
 73
    11
 74
     0
 42
0.00000001
 43
0.00000001
 40
0.0
 40
0.0
 40
0.0
 40
0.0
 40
0.1380420997033144
 40
0.2691721599589627
 40
0.3953313456434701
 40
0.5186017941434375
 40
0.6392985515224104
 40
0.7600805617867301
 40
0.8784957553092656
 40
1.0
 40
1.0
 40
1.0
 40
1.0
 10
57.57112000151823
 20
27.97717152188017
 30
0.0
 10
57.57912908498656
 20
27.97725765313312
 30
0.0
 10
57.59474622136085
 20
27.97742560287779
 30
0.0
 10
57.61742542127601
 20
27.98090086865828
 30
0.0
 10
57.63912857216035
 20
27.98499143179158
 30
0.0
 10
57.65946035173251
 20
27.99195444994049
 30
0.0
 10
57.67899201700614
 20
28.00014312049984
 30
0.0
 10
57.69688416460244
 20
28.01092966470838
 30
0.0
 10
57.71410465467229
 20
28.0228679869163
 30
0.0
 10
57.7241438717686
 20
28.03251670677221
 30
0.0
 10
57.72922810962634
 20
28.03740318211182
 30
0.0
  0
SPLINE
  5
94
330
1F
100
AcDbEntity
  8
0
  6
Continuous
 62
     7
370
    25
100
AcDbSpline
210
0.0
220
0.0
230
1.0
 70
     8
 71
     3
 72
    15
 73
    11
 74
     0
 42
0.00000001
 43
0.00000001
 40
0.0
 40
0.0
 40
0.0
 40
0.0
 40
0.1133059292696162
 40
0.2263015370273194
 40
0.3429947497841046
 40
0.461284974855394
 40
0.5864354642724741
 40
0.7160226876888951
 40
0.854754001970278
 40
0.9999999999999999
 40
0.9999999999999999
 40
0.9999999999999999
 40
0.9999999999999999
 10
57.39795397835221
 20
28.03740318211182
 30
0.0
 10
57.403117621779
 20
28.03249538512742
 30
0.0
 10
57.41343076648093
 20
28.02269323259977
 30
0.0
 10
57.43150170693663
 20
28.01087182889664
 30
0.0
 10
57.45051830803352
 20
28.00008047304524
 30
0.0
 10
57.47160145756554
 20
27.99180161191558
 30
0.0
 10
57.49403497527879
 20
27.98497938231088
 30
0.0
 10
57.51840377767048
 20
27.9808326548561
 30
0.0
 10
57.54416348394657
 20
27.97744156873795
 30
0.0
 10
57.56199811506944
 20
27.97726290374231
 30
0.0
 10
57.57112000151823
 20
27.97717152188017
 30
0.0
  0
SPLINE
  5
95
330
1F
100
AcDbEntity
  8
0
  6
Continuous
 62
     7
370
    25
100
AcDbSpline
210
0.0
220
0.0
230
1.0
 70
     8
 71
     3
 72
    11
 73
     7
 74
     0
 42
0.00000001
 43
0.00000001
 40
0.0
 40
0.0
 40
0.0
 40
0.0
 40
0.2322932923175274
 40
0.4682186081034734
 40
0.7217939329173714
 40
1.0
 40
1.0
 40
1.0
 40
1.0
 10
57.33772231812055
 20
28.1653954601041
 30
0.0
 10
57.33851844311523
 20
28.15414893654327
 30
0.0
 10
57.34012314092278
 20
28.13148004432033
 30
0.0
 10
57.35208879433078
 20
28.09827249513181
 30
0.0
 10
57.3714592724693
 20
28.06634374751673
 30
0.0
 10
57.38885385236818
 20
28.04734338648313
 30
0.0
 10
57.39795397835221
 20
28.03740318211182
 30
0.0
  0
LINE
  5
96
330
1F
100
AcDbEntity
  8
0
  6
Continuous
 62
     7
370
    25
100
AcDbLine
 10
57.3377223181
 20
28.2105692053
 30
0.0
 11
57.3377223181
 21
28.1653954601
 31
0.0
  0
LINE
  5
97
330
1F
100
AcDbEntity
  8
0
  6
Continuous
 62
     7
370
    25
100
AcDbLine
 10
57.2097300401
 20
28.2105692053
 30
0.0
 11
57.3377223181
 21
28.2105692053
 31
0.0
  0
LINE
  5
98
330
1F
100
AcDbEntity
  8
0
  6
Continuous
 62
     7
370
    25
100
AcDbLine
 10
57.2097300401
 20
28.150337545
 30
0.0
 11
57.2097300401
 21
28.2105692053
 31
0.0
  0
SPLINE
  5
99
330
1F
100
AcDbEntity
  8
0
  6
Continuous
 62
     7
370
    25
100
AcDbSpline
210
0.0
220
0.0
230
1.0
 70
     8
 71
     3
 72
    11
 73
     7
 74
     0
 42
0.00000001
 43
0.00000001
 40
0.0
 40
0.0
 40
0.0
 40
0.0
 40
0.2676320905605539
 40
0.5177929452577168
 40
0.7570315487829559
 40
1.0
 40
1.0
 40
1.0
 40
1.0
 10
57.14949837989661
 20
28.01481630952495
 30
0.0
 10
57.15880241592888
 20
28.02478258290299
 30
0.0
 10
57.17680311311672
 20
28.04406452340141
 30
0.0
 10
57.19534238743787
 20
28.07802111780889
 30
0.0
 10
57.20790688137382
 20
28.11339626829714
 30
0.0
 10
57.20911919481531
 20
28.13796045188193
 30
0.0
 10
57.20973004012828
 20
28.15033754504618
 30
0.0
  0
SPLINE
  5
9A
330
1F
100
AcDbEntity
  8
0
  6
Continuous
 62
     7
370
    25
100
AcDbSpline
210
0.0
220
0.0
230
1.0
 70
     8
 71
     3
 72
    15
 73
    11
 74
     0
 42
0.00000001
 43
0.00000001
 40
0.0
 40
0.0
 40
0.0
 40
0.0
 40
0.1417962611116215
 40
0.2768819513476973
 40
0.4055805706087828
 40
0.529822969078561
 40
0.6485572024501437
 40
0.7672114666371227
 40
0.8821786188665554
 40
1.0
 40
1.0
 40
1.0
 40
1.0
 10
56.98386131425955
 20
27.95458464929329
 30
0.0
 10
56.99242682057807
 20
27.95467269831929
 30
0.0
 10
57.0091524668339
 20
27.95484462941213
 30
0.0
 10
57.03341620989838
 20
27.95829349173246
 30
0.0
 10
57.0565019085149
 20
27.96238255663316
 30
0.0
 10
57.07790077518478
 20
27.9692544166898
 30
0.0
 10
57.09812254608227
 20
27.97757032774601
 30
0.0
 10
57.11654444897911
 20
27.98825926694942
 30
0.0
 10
57.13408367918629
 20
28.00028086506391
 30
0.0
 10
57.14431831723336
 20
28.00993171821427
 30
0.0
 10
57.14949837989661
 20
28.01481630952495
 30
0.0
  0
SPLINE
  5
9B
330
1F
100
AcDbEntity
  8
0
  6
Continuous
 62
     7
370
    25
100
AcDbSpline
210
0.0
220
0.0
230
1.0
 70
     8
 71
     3
 72
    15
 73
    11
 74
     0
 42
0.00000001
 43
0.00000001
 40
0.0
 40
0.0
 40
0.0
 40
0.0
 40
0.1062344532908176
 40
0.2134351374465933
 40
0.3266362515327423
 40
0.4454478074346346
 40
0.5709125865608571
 40
0.7047818913259155
 40
0.8472638984122982
 40
0.9999999999999999
 40
0.9999999999999999
 40
0.9999999999999999
 40
0.9999999999999999
 10
56.79563737603561
 20
28.01481630952495
 30
0.0
 10
56.80089025969623
 20
28.00990026506132
 30
0.0
 10
56.81144380340417
 20
28.00002346339022
 30
0.0
 10
56.83015622146043
 20
27.98816224950165
 30
0.0
 10
56.85039256598019
 20
27.97730314782235
 30
0.0
 10
56.87323407357793
 20
27.96925939642323
 30
0.0
 10
56.89785391158232
 20
27.9622782787485
 30
0.0
 10
56.92474970194729
 20
27.95828073509012
 30
0.0
 10
56.95356453313888
 20
27.9548200021009
 30
0.0
 10
56.97353121325141
 20
27.9546648960451
 30
0.0
 10
56.98386131425955
 20
27.95458464929329
 30
0.0
  0
SPLINE
  5
9C
330
1F
100
AcDbEntity
  8
0
  6
Continuous
 62
     7
370
    25
100
AcDbSpline
210
0.0
220
0.0
230
1.0
 70
     8
 71
     3
 72
    15
 73
    11
 74
     0
 42
0.00000001
 43
0.00000001
 40
0.0
 40
0.0
 40
0.0
 40
0.0
 40
0.1380420997033156
 40
0.2691721599589635
 40
0.3953313456434698
 40
0.5186017941434371
 40
0.6392985515224126
 40
0.7600805617867307
 40
0.8784957553092658
 40
1.0
 40
1.0
 40
1.0
 40
1.0
 10
56.73540571580395
 20
28.17292441763306
 30
0.0
 10
56.73549184705691
 20
28.16491533416474
 30
0.0
 10
56.73565979680158
 20
28.14929819779045
 30
0.0
 10
56.73913506258206
 20
28.12661899787529
 30
0.0
 10
56.74322562571536
 20
28.10491584699094
 30
0.0
 10
56.75018864386428
 20
28.08458406741878
 30
0.0
 10
56.75837731442362
 20
28.06505240214515
 30
0.0
 10
56.76916385863216
 20
28.04716025454886
 30
0.0
 10
56.78110218084008
 20
28.029939764479
 30
0.0
 10
56.79075090069599
 20
28.0199005473827
 30
0.0
 10
56.79563737603561
 20
28.01481630952495
 30
0.0
  0
SPLINE
  5
9D
330
1F
100
AcDbEntity
  8
0
  6
Continuous
 62
     7
370
    25
100
AcDbSpline
210
0.0
220
0.0
230
1.0
 70
     8
 71
     3
 72
    11
 73
     7
 74
     0
 42
0.00000001
 43
0.00000001
 40
0.0
 40
0.0
 40
0.0
 40
0.0
 40
0.2550921435312734
 40
0.4983791954134774
 40
0.7437399667914619
 40
0.9999999999999999
 40
0.9999999999999999
 40
0.9999999999999999
 40
0.9999999999999999
 10
56.78810841850665
 20
28.30091669562534
 30
0.0
 10
56.77998747150653
 20
28.29192215779613
 30
0.0
 10
56.76412139669964
 20
28.27434932915319
 30
0.0
 10
56.747383699893
 20
28.24299043448921
 30
0.0
 10
56.73726955587412
 20
28.20887095768732
 30
0.0
 10
56.73603593060086
 20
28.18507891618831
 30
0.0
 10
56.73540571580395
 20
28.17292441763306
 30
0.0
  0
SPLINE
  5
9E
330
1F
100
AcDbEntity
  8
0
  6
Continuous
 62
     7
370
    25
100
AcDbSpline
210
0.0
220
0.0
230
1.0
 70
     8
 71
     3
 72
    15
 73
    11
 74
     0
 42
0.00000001
 43
0.00000001
 40
0.0
 40
0.0
 40
0.0
 40
0.0
 40
0.1305521219623386
 40
0.2575145556980026
 40
0.3807268344757814
 40
0.5030306145961504
 40
0.6251462349433734
 40
0.7476378858044688
 40
0.8722881459663862
 40
0.9999999999999999
 40
0.9999999999999999
 40
0.9999999999999999
 40
0.9999999999999999
 10
56.95374548414372
 20
28.36867731338596
 30
0.0
 10
56.94574280959153
 20
28.36844285978089
 30
0.0
 10
56.92995750368667
 20
28.36798039915572
 30
0.0
 10
56.90677418312494
 20
28.36492645480596
 30
0.0
 10
56.88452067302424
 20
28.35961583219395
 30
0.0
 10
56.86329527510158
 20
28.35195763365357
 30
0.0
 10
56.84279245138461
 20
28.34259816309121
 30
0.0
 10
56.82354228335809
 20
28.33062752494465
 30
0.0
 10
56.80490453999398
 20
28.31710056363677
 30
0.0
 10
56.79375222469973
 20
28.30635477337322
 30
0.0
 10
56.78810841850665
 20
28.30091669562534
 30
0.0
  0
LINE
  5
9F
330
1F
100
AcDbEntity
  8
0
  6
Continuous
 62
     7
370
    25
100
AcDbLine
 10
57.0064481868
 20
28.3686773134
 30
0.0
 11
56.9537454841
 21
28.3686773134
 31
0.0
  0
LINE
  5
A0
330
1F
100
AcDbEntity
  8
0
  6
Continuous
 62
     7
370
    25
100
AcDbLine
 10
57.0064481868
 20
28.5468626416
 30
0.0
 11
57.0064481868
 21
28.3686773134
 31
0.0
  0
LINE
  5
A1
330
1F
100
AcDbEntity
  8
0
  6
Continuous
 62
     7
370
    25
100
AcDbLine
 10
56.9462165266
 20
28.5468626416
 30
0.0
 11
57.0064481868
 21
28.5468626416
 31
0.0
  0
SPLINE
  5
A2
330
1F
100
AcDbEntity
  8
0
  6
Continuous
 62
     7
370
    25
100
AcDbSpline
210
0.0
220
0.0
230
1.0
 70
     8
 71
     3
 72
    15
 73
    11
 74
     0
 42
0.00000001
 43
0.00000001
 40
0.0
 40
0.0
 40
0.0
 40
0.0
 40
0.1339120169181254
 40
0.2615284644313485
 40
0.3861887226529775
 40
0.5091929985924208
 40
0.6296768122270381
 40
0.7512559744353481
 40
0.8742965747069021
 40
1.0
 40
1.0
 40
1.0
 40
1.0
 10
56.69776092815916
 20
28.43643793114657
 30
0.0
 10
56.7066186799363
 20
28.44525506824979
 30
0.0
 10
56.72391775640382
 20
28.46247482477614
 30
0.0
 10
56.75213916956309
 20
28.48498317926791
 30
0.0
 10
56.78153554394204
 20
28.50408608383288
 30
0.0
 10
56.81218295956197
 20
28.51971906073082
 30
0.0
 10
56.84406885039606
 20
28.53187463693725
 30
0.0
 10
56.87707901855994
 20
28.54043246342343
 30
0.0
 10
56.91126448927239
 20
28.54600656704251
 30
0.0
 10
56.93448299550153
 20
28.54657525411458
 30
0.0
 10
56.94621652661476
 20
28.54686264157128
 30
0.0
  0
SPLINE
  5
A3
330
1F
100
AcDbEntity
  8
0
  6
Continuous
 62
     7
370
    25
100
AcDbSpline
210
0.0
220
0.0
230
1.0
 70
     8
 71
     3
 72
    15
 73
    11
 74
     0
 42
0.00000001
 43
0.00000001
 40
0.0
 40
0.0
 40
0.0
 40
0.0
 40
0.1330514903197369
 40
0.2614008608137404
 40
0.3859789426424555
 40
0.5084656149022186
 40
0.6295593452611163
 40
0.7509246542250767
 40
0.8741074588764661
 40
1.0
 40
1.0
 40
1.0
 40
1.0
 10
56.59235552275376
 20
28.17292441763306
 30
0.0
 10
56.59265476468821
 20
28.18586369042868
 30
0.0
 10
56.5932426731669
 20
28.21128495432395
 30
0.0
 10
56.59852996389046
 20
28.24849299525366
 30
0.0
 10
56.60636028522396
 20
28.28419352230402
 30
0.0
 10
56.61832169289966
 20
28.31799245228556
 30
0.0
 10
56.63301889621773
 20
28.35034833773211
 30
0.0
 10
56.65147681668547
 20
28.38077135462574
 30
0.0
 10
56.67242530225488
 20
28.41017229151532
 30
0.0
 10
56.68925468952516
 20
28.42761944766319
 30
0.0
 10
56.69776092815916
 20
28.43643793114657
 30
0.0
  0
SPLINE
  5
A4
330
1F
100
AcDbEntity
  8
0
  6
Continuous
 62
     7
370
    25
100
AcDbSpline
210
0.0
220
0.0
230
1.0
 70
     8
 71
     3
 72
    15
 73
    11
 74
     0
 42
0.00000001
 43
0.00000001
 40
0.0
 40
0.0
 40
0.0
 40
0.0
 40
0.1158830802717857
 40
0.2315534497979612
 40
0.3480625771524261
 40
0.4678553783950295
 40
0.5925908197539036
 40
0.7213115030172612
 40
0.8571441704632061
 40
1.0
 40
1.0
 40
1.0
 40
1.0
 10
56.69776092815916
 20
27.87929507400372
 30
0.0
 10
56.68922512465363
 20
27.88828092235563
 30
0.0
 10
56.67216918565143
 20
27.90623612496475
 30
0.0
 10
56.6512710232084
 20
27.93711856747202
 30
0.0
 10
56.63275990108503
 20
27.96988576913106
 30
0.0
 10
56.61812600115816
 20
28.00564220031673
 30
0.0
 10
56.60630413563024
 20
28.04377009394853
 30
0.0
 10
56.59844013276097
 20
28.08464556894122
 30
0.0
 10
56.5932292333018
 20
28.12789446426103
 30
0.0
 10
56.59265161177041
 20
28.15766435851644
 30
0.0
 10
56.59235552275376
 20
28.17292441763306
 30
0.0
  0
SPLINE
  5
A5
330
1F
100
AcDbEntity
  8
0
  6
Continuous
 62
     7
370
    25
100
AcDbSpline
210
0.0
220
0.0
230
1.0
 70
     8
 71
     3
 72
    15
 73
    11
 74
     0
 42
0.00000001
 43
0.00000001
 40
0.0
 40
0.0
 40
0.0
 40
0.0
 40
0.135465841810947
 40
0.2653728839126843
 40
0.3915266279918202
 40
0.5146179992444256
 40
0.6353652389705201
 40
0.7554358763572419
 40
0.8764282152102187
 40
1.0
 40
1.0
 40
1.0
 40
1.0
 10
56.96880339920163
 20
27.77388966859831
 30
0.0
 10
56.95530675434368
 20
27.77418514905571
 30
0.0
 10
56.92886729535374
 20
27.7747639850196
 30
0.0
 10
56.89017967893004
 20
27.78007194121253
 30
0.0
 10
56.85317483569131
 20
27.78785418372797
 30
0.0
 10
56.81824943881747
 20
27.79980413611882
 30
0.0
 10
56.78504662746928
 20
27.81448938785822
 30
0.0
 10
56.75403743638415
 20
27.83293145715056
 30
0.0
 10
56.72431713835086
 20
27.85395812946862
 30
0.0
 10
56.70667502269728
 20
27.87079024905835
 30
0.0
 10
56.69776092815916
 20
27.87929507400372
 30
0.0
  0
SPLINE
  5
A6
330
1F
100
AcDbEntity
  8
0
  6
Continuous
 62
     7
370
    25
100
AcDbSpline
210
0.0
220
0.0
230
1.0
 70
     8
 71
     3
 72
    15
 73
    11
 74
     0
 42
0.00000001
 43
0.00000001
 40
0.0
 40
0.0
 40
0.0
 40
0.0
 40
0.1195027114365306
 40
0.2380939422658884
 40
0.3566476293726334
 40
0.4775806195769141
 40
0.6003630199241494
 40
0.727832734004141
 40
0.8606471500295815
 40
1.0
 40
1.0
 40
1.0
 40
1.0
 10
57.20973004012828
 20
27.8642371589458
 30
0.0
 10
57.20207432628136
 20
27.85699649238015
 30
0.0
 10
57.18682129085848
 20
27.84257038583809
 30
0.0
 10
57.1612602415722
 20
27.82410885132977
 30
0.0
 10
57.13362645851473
 20
27.80879457054306
 30
0.0
 10
57.10439663840434
 20
27.79581538166841
 30
0.0
 10
57.07307901517477
 20
27.78619658387792
 30
0.0
 10
57.04010880603963
 20
27.77880537538269
 30
0.0
 10
57.00506646067935
 20
27.77466773570293
 30
0.0
 10
56.98108314147792
 20
27.77415314507076
 30
0.0
 10
56.96880339920163
 20
27.77388966859831
 30
0.0
  0
SPLINE
  5
A7
330
1F
100
AcDbEntity
  8
0
  6
Continuous
 62
     7
370
    25
100
AcDbSpline
210
0.0
220
0.0
230
1.0
 70
     8
 71
     3
 72
    11
 73
     7
 74
     0
 42
0.00000001
 43
0.00000001
 40
0.0
 40
0.0
 40
0.0
 40
0.0
 40
0.2570374775372509
 40
0.5073419159098039
 40
0.752312987577212
 40
1.0
 40
1.0
 40
1.0
 40
1.0
 10
57.28501961541784
 20
27.99222943693808
 30
0.0
 10
57.28096664306978
 20
27.98001739890478
 30
0.0
 10
57.2729668650767
 20
27.95591321443978
 30
0.0
 10
57.25563324214287
 20
27.9223977796179
 30
0.0
 10
57.23495251393562
 20
27.89139381754363
 30
0.0
 10
57.21816837410614
 20
27.87332258635954
 30
0.0
 10
57.20973004012828
 20
27.8642371589458
 30
0.0
  0
SPLINE
  5
A8
330
1F
100
AcDbEntity
  8
0
  6
Continuous
 62
     7
370
    25
100
AcDbSpline
210
0.0
220
0.0
230
1.0
 70
     8
 71
     3
 72
    11
 73
     7
 74
     0
 42
0.00000001
 43
0.00000001
 40
0.0
 40
0.0
 40
0.0
 40
0.0
 40
0.2731656445547256
 40
0.5274113090719864
 40
0.7672619830757357
 40
1.0
 40
1.0
 40
1.0
 40
1.0
 10
57.34525127564951
 20
27.87929507400372
 30
0.0
 10
57.3371431849034
 20
27.88798035083656
 30
0.0
 10
57.32148858543337
 20
27.90474934545714
 30
0.0
 10
57.30360006710917
 20
27.9330152997252
 30
0.0
 10
57.29063746097079
 20
27.96203705823274
 30
0.0
 10
57.28687334677216
 20
27.98226679938604
 30
0.0
 10
57.28501961541784
 20
27.99222943693808
 30
0.0
  0
SPLINE
  5
A9
330
1F
100
AcDbEntity
  8
0
  6
Continuous
 62
     7
370
    25
100
AcDbSpline
210
0.0
220
0.0
230
1.0
 70
     8
 71
     3
 72
    15
 73
    11
 74
     0
 42
0.00000001
 43
0.00000001
 40
0.0
 40
0.0
 40
0.0
 40
0.0
 40
0.1495888260512936
 40
0.2896239650819628
 40
0.4219290861937188
 40
0.5465682968532926
 40
0.6661289243466403
 40
0.779997135527019
 40
0.8908038749321936
 40
1.0
 40
1.0
 40
1.0
 40
1.0
 10
57.57112000151823
 20
27.80400549871414
 30
0.0
 10
57.55893166012855
 20
27.80417253108438
 30
0.0
 10
57.53533340179446
 20
27.80449592808296
 30
0.0
 10
57.50114967901423
 20
27.8083217993119
 30
0.0
 10
57.46924903059485
 20
27.8138734603876
 30
0.0
 10
57.43981680587454
 20
27.82257158686707
 30
0.0
 10
57.41229226777526
 20
27.83241080701924
 30
0.0
 10
57.38763347482894
 20
27.84590347346047
 30
0.0
 10
57.36500347949733
 20
27.86111467296631
 30
0.0
 10
57.35180313088072
 20
27.87326458968105
 30
0.0
 10
57.34525127564951
 20
27.87929507400372
 30
0.0
  0
SPLINE
  5
AA
330
1F
100
AcDbEntity
  8
0
  6
Continuous
 62
     7
370
    25
100
AcDbSpline
210
0.0
220
0.0
230
1.0
 70
     8
 71
     3
 72
    15
 73
    11
 74
     0
 42
0.00000001
 43
0.00000001
 40
0.0
 40
0.0
 40
0.0
 40
0.0
 40
0.1195027114365309
 40
0.2380939422658886
 40
0.3566476293726337
 40
0.4775806195769135
 40
0.600363019924149
 40
0.7278327340041408
 40
0.8606471500295814
 40
1.0
 40
1.0
 40
1.0
 40
1.0
 10
57.81204664244488
 20
27.89435298906163
 30
0.0
 10
57.80439092859796
 20
27.88711232249598
 30
0.0
 10
57.78913789317509
 20
27.87268621595392
 30
0.0
 10
57.76357684388881
 20
27.8542246814456
 30
0.0
 10
57.73594306083134
 20
27.83891040065889
 30
0.0
 10
57.70671324072094
 20
27.82593121178424
 30
0.0
 10
57.67539561749137
 20
27.81631241399375
 30
0.0
 10
57.64242540835622
 20
27.80892120549852
 30
0.0
 10
57.60738306299595
 20
27.80478356581876
 30
0.0
 10
57.58339974379452
 20
27.80426897518659
 30
0.0
 10
57.57112000151823
 20
27.80400549871414
 30
0.0
  0
SPLINE
  5
AB
330
1F
100
AcDbEntity
  8
0
  6
Continuous
 62
     7
370
    25
100
AcDbSpline
210
0.0
220
0.0
230
1.0
 70
     8
 71
     3
 72
    15
 73
    11
 74
     0
 42
0.00000001
 43
0.00000001
 40
0.0
 40
0.0
 40
0.0
 40
0.0
 40
0.1401156952848858
 40
0.2734369515897445
 40
0.4007170918852059
 40
0.5244111544238695
 40
0.6451326608364114
 40
0.7627629456192484
 40
0.8809824433211497
 40
1.0
 40
1.0
 40
1.0
 40
1.0
 10
57.90992309032132
 20
28.15786650257515
 30
0.0
 10
57.9097263342919
 20
28.14437098308035
 30
0.0
 10
57.90934236325437
 20
28.11803436387951
 30
0.0
 10
57.90429253165209
 20
28.07973580245369
 30
0.0
 10
57.89703804888498
 20
28.04341411116103
 30
0.0
 10
57.88592767778875
 20
28.00934203783135
 30
0.0
 10
57.87247678349051
 20
27.97713629282032
 30
0.0
 10
57.85548920732339
 20
27.94722658018302
 30
0.0
 10
57.83539094518741
 20
27.91950056226139
 30
0.0
 10
57.81984550816769
 20
27.90275429146088
 30
0.0
 10
57.81204664244488
 20
27.89435298906163
 30
0.0
  0
SPLINE
  5
AC
330
1F
100
AcDbEntity
  8
0
  6
Continuous
 62
     7
370
    25
100
AcDbSpline
210
0.0
220
0.0
230
1.0
 70
     8
 71
     3
 72
    15
 73
    11
 74
     0
 42
0.00000001
 43
0.00000001
 40
0.0
 40
0.0
 40
0.0
 40
0.0
 40
0.1270527522076893
 40
0.2522753243044991
 40
0.3739697899787135
 40
0.49488326292777
 40
0.6176556772794566
 40
0.7419399124466155
 40
0.8684128160693878
 40
1.0
 40
1.0
 40
1.0
 40
1.0
 10
57.81204664244488
 20
28.39879314350178
 30
0.0
 10
57.81983856267384
 20
28.39057479418013
 30
0.0
 10
57.83531016142757
 20
28.37425647990246
 30
0.0
 10
57.85526417913354
 20
28.34748622662136
 30
0.0
 10
57.87220979823416
 20
28.31937914212492
 30
0.0
 10
57.88589904268461
 20
28.2897982730186
 30
0.0
 10
57.8969552013128
 20
28.25886641408486
 30
0.0
 10
57.90419671423731
 20
28.22634563399046
 30
0.0
 10
57.90933801262282
 20
28.19260730938186
 30
0.0
 10
57.90972550462687
 20
28.1695987672918
 30
0.0
 10
57.90992309032132
 20
28.15786650257515
 30
0.0
  0
SPLINE
  5
AD
330
1F
100
AcDbEntity
  8
0
  6
Continuous
 62
     7
370
    25
100
AcDbSpline
210
0.0
220
0.0
230
1.0
 70
     8
 71
     3
 72
    15
 73
    11
 74
     0
 42
0.00000001
 43
0.00000001
 40
0.0
 40
0.0
 40
0.0
 40
0.0
 40
0.1342207616992956
 40
0.2632543584014017
 40
0.3882486178889515
 40
0.5110181775835606
 40
0.6322369822528026
 40
0.7532951172272376
 40
0.8750618099117065
 40
1.0
 40
1.0
 40
1.0
 40
1.0
 10
57.52594625634449
 20
28.51172750643615
 30
0.0
 10
57.5400912117813
 20
28.51143811259316
 30
0.0
 10
57.56783446938908
 20
28.51087050897136
 30
0.0
 10
57.60846880247361
 20
28.50546674261156
 30
0.0
 10
57.64717584379267
 20
28.4964610207318
 30
0.0
 10
57.68415409831661
 20
28.4842786144766
 30
0.0
 10
57.71923015589237
 20
28.46830365376641
 30
0.0
 10
57.75219937616148
 20
28.44860630742869
 30
0.0
 10
57.78355412390484
 20
28.42569137348261
 30
0.0
 10
57.80246808721972
 20
28.40783573413724
 30
0.0
 10
57.81204664244488
 20
28.39879314350178
 30
0.0
  0
LINE
  5
AE
330
1F
100
AcDbEntity
  8
0
  6
Continuous
 62
     7
370
    25
100
AcDbLine
 10
57.5259462563
 20
29.3097970045
 30
0.0
 11
57.5259462563
 21
29.4754340701
 31
0.0
  0
SPLINE
  5
AF
330
1F
100
AcDbEntity
  8
0
  6
Continuous
 62
     7
370
    25
100
AcDbSpline
210
0.0
220
0.0
230
1.0
 70
     8
 71
     3
 72
    15
 73
    11
 74
     0
 42
0.00000001
 43
0.00000001
 40
0.0
 40
0.0
 40
0.0
 40
0.0
 40
0.1017738366845019
 40
0.2081280746103131
 40
0.3195222361320725
 40
0.4377158324105371
 40
0.5640612668215815
 40
0.7002741501736239
 40
0.8452618826189012
 40
1.0
 40
1.0
 40
1.0
 40
1.0
 10
57.72169915209739
 20
29.24203638674503
 30
0.0
 10
57.71643274405558
 20
29.24693056807696
 30
0.0
 10
57.70566290967022
 20
29.25693919672449
 30
0.0
 10
57.68672704605055
 20
29.26934369583114
 30
0.0
 10
57.66563552268308
 20
29.28017375034355
 30
0.0
 10
57.64241092218692
 20
29.2898479415375
 30
0.0
 10
57.61651179118756
 20
29.29710217589107
 30
0.0
 10
57.58843691985085
 20
29.30337117331284
 30
0.0
 10
57.55791075829609
 20
29.30736507666152
 30
0.0
 10
57.53682968652138
 20
29.30896896980244
 30
0.0
 10
57.52594625634449
 20
29.30979700450565
 30
0.0
  0
SPLINE
  5
B0
330
1F
100
AcDbEntity
  8
0
  6
Continuous
 62
     7
370
    25
100
AcDbSpline
210
0.0
220
0.0
230
1.0
 70
     8
 71
     3
 72
    11
 73
     7
 74
     0
 42
0.00000001
 43
0.00000001
 40
0.0
 40
0.0
 40
0.0
 40
0.0
 40
0.2450868805219025
 40
0.487555245697643
 40
0.7346288455311493
 40
1.0
 40
1.0
 40
1.0
 40
1.0
 10
57.77440185480009
 20
29.12157306628171
 30
0.0
 10
57.77374715141735
 20
29.1326148302477
 30
0.0
 10
57.7724447395218
 20
29.15458038765295
 30
0.0
 10
57.76224114446055
 20
29.18635967693844
 30
0.0
 10
57.74541183959634
 20
29.21617623184449
 30
0.0
 10
57.72978932251714
 20
29.23321355465415
 30
0.0
 10
57.72169915209739
 20
29.24203638674503
 30
0.0
  0
SPLINE
  5
B1
330
1F
100
AcDbEntity
  8
0
  6
Continuous
 62
     7
370
    25
100
AcDbSpline
210
0.0
220
0.0
230
1.0
 70
     8
 71
     3
 72
    11
 73
     7
 74
     0
 42
0.00000001
 43
0.00000001
 40
0.0
 40
0.0
 40
0.0
 40
0.0
 40
0.2388203430261976
 40
0.4777994110081066
 40
0.7288233729769934
 40
0.9999999999999999
 40
0.9999999999999999
 40
0.9999999999999999
 40
0.9999999999999999
 10
57.72922810962634
 20
29.00110974581839
 30
0.0
 10
57.73621114590118
 20
29.00901761798688
 30
0.0
 10
57.75018185952169
 20
29.02483861805982
 30
0.0
 10
57.76446653729877
 20
29.05394887807969
 30
0.0
 10
57.77296810737214
 20
29.08660240563831
 30
0.0
 10
57.77391179939685
 20
29.10962008148883
 30
0.0
 10
57.77440185480009
 20
29.12157306628171
 30
0.0
  0
SPLINE
  5
B2
330
1F
100
AcDbEntity
  8
0
  6
Continuous
 62
     7
370
    25
100
AcDbSpline
210
0.0
220
0.0
230
1.0
 70
     8
 71
     3
 72
    15
 73
    11
 74
     0
 42
0.00000001
 43
0.00000001
 40
0.0
 40
0.0
 40
0.0
 40
0.0
 40
0.1380420997033145
 40
0.2691721599589625
 40
0.3953313456434699
 40
0.5186017941434374
 40
0.6392985515224104
 40
0.7600805617867301
 40
0.8784957553092655
 40
1.0
 40
1.0
 40
1.0
 40
1.0
 10
57.57112000151823
 20
28.94087808558673
 30
0.0
 10
57.57912908498656
 20
28.94096421683969
 30
0.0
 10
57.59474622136085
 20
28.94113216658435
 30
0.0
 10
57.61742542127601
 20
28.94460743236485
 30
0.0
 10
57.63912857216035
 20
28.94869799549814
 30
0.0
 10
57.65946035173251
 20
28.95566101364705
 30
0.0
 10
57.67899201700614
 20
28.9638496842064
 30
0.0
 10
57.69688416460244
 20
28.97463622841494
 30
0.0
 10
57.71410465467229
 20
28.98657455062287
 30
0.0
 10
57.7241438717686
 20
28.99622327047877
 30
0.0
 10
57.72922810962634
 20
29.00110974581839
 30
0.0
  0
SPLINE
  5
B3
330
1F
100
AcDbEntity
  8
0
  6
Continuous
 62
     7
370
    25
100
AcDbSpline
210
0.0
220
0.0
230
1.0
 70
     8
 71
     3
 72
    15
 73
    11
 74
     0
 42
0.00000001
 43
0.00000001
 40
0.0
 40
0.0
 40
0.0
 40
0.0
 40
0.1133059292696162
 40
0.2263015370273195
 40
0.3429947497841047
 40
0.4612849748553941
 40
0.5864354642724742
 40
0.7160226876888952
 40
0.854754001970278
 40
1.0
 40
1.0
 40
1.0
 40
1.0
 10
57.39795397835221
 20
29.00110974581839
 30
0.0
 10
57.403117621779
 20
28.99620194883398
 30
0.0
 10
57.41343076648093
 20
28.98639979630634
 30
0.0
 10
57.43150170693663
 20
28.9745783926032
 30
0.0
 10
57.45051830803352
 20
28.9637870367518
 30
0.0
 10
57.47160145756553
 20
28.95550817562214
 30
0.0
 10
57.49403497527879
 20
28.94868594601745
 30
0.0
 10
57.51840377767048
 20
28.94453921856266
 30
0.0
 10
57.54416348394657
 20
28.94114813244452
 30
0.0
 10
57.56199811506944
 20
28.94096946744887
 30
0.0
 10
57.57112000151823
 20
28.94087808558673
 30
0.0
  0
SPLINE
  5
B4
330
1F
100
AcDbEntity
  8
0
  6
Continuous
 62
     7
370
    25
100
AcDbSpline
210
0.0
220
0.0
230
1.0
 70
     8
 71
     3
 72
    11
 73
     7
 74
     0
 42
0.00000001
 43
0.00000001
 40
0.0
 40
0.0
 40
0.0
 40
0.0
 40
0.2322932923175289
 40
0.4682186081034734
 40
0.7217939329173702
 40
1.0
 40
1.0
 40
1.0
 40
1.0
 10
57.33772231812055
 20
29.12910202381067
 30
0.0
 10
57.33851844311523
 20
29.11785550024983
 30
0.0
 10
57.34012314092278
 20
29.09518660802689
 30
0.0
 10
57.35208879433078
 20
29.06197905883837
 30
0.0
 10
57.3714592724693
 20
29.03005031122329
 30
0.0
 10
57.38885385236818
 20
29.01104995018969
 30
0.0
 10
57.39795397835221
 20
29.00110974581839
 30
0.0
  0
LINE
  5
B5
330
1F
100
AcDbEntity
  8
0
  6
Continuous
 62
     7
370
    25
100
AcDbLine
 10
57.3377223181
 20
29.174275769
 30
0.0
 11
57.3377223181
 21
29.1291020238
 31
0.0
  0
LINE
  5
B6
330
1F
100
AcDbEntity
  8
0
  6
Continuous
 62
     7
370
    25
100
AcDbLine
 10
57.2097300401
 20
29.174275769
 30
0.0
 11
57.3377223181
 21
29.174275769
 31
0.0
  0
LINE
  5
B7
330
1F
100
AcDbEntity
  8
0
  6
Continuous
 62
     7
370
    25
100
AcDbLine
 10
57.2097300401
 20
29.1140441088
 30
0.0
 11
57.2097300401
 21
29.174275769
 31
0.0
  0
SPLINE
  5
B8
330
1F
100
AcDbEntity
  8
0
  6
Continuous
 62
     7
370
    25
100
AcDbSpline
210
0.0
220
0.0
230
1.0
 70
     8
 71
     3
 72
    11
 73
     7
 74
     0
 42
0.00000001
 43
0.00000001
 40
0.0
 40
0.0
 40
0.0
 40
0.0
 40
0.2676320905605547
 40
0.5177929452577186
 40
0.757031548782956
 40
0.9999999999999999
 40
0.9999999999999999
 40
0.9999999999999999
 40
0.9999999999999999
 10
57.14949837989661
 20
28.97852287323152
 30
0.0
 10
57.15880241592888
 20
28.98848914660955
 30
0.0
 10
57.17680311311672
 20
29.00777108710797
 30
0.0
 10
57.19534238743787
 20
29.04172768151546
 30
0.0
 10
57.20790688137382
 20
29.0771028320037
 30
0.0
 10
57.20911919481531
 20
29.10166701558849
 30
0.0
 10
57.20973004012828
 20
29.11404410875275
 30
0.0
  0
SPLINE
  5
B9
330
1F
100
AcDbEntity
  8
0
  6
Continuous
 62
     7
370
    25
100
AcDbSpline
210
0.0
220
0.0
230
1.0
 70
     8
 71
     3
 72
    15
 73
    11
 74
     0
 42
0.00000001
 43
0.00000001
 40
0.0
 40
0.0
 40
0.0
 40
0.0
 40
0.1417962611116216
 40
0.2768819513476974
 40
0.4055805706087828
 40
0.5298229690785615
 40
0.6485572024501448
 40
0.7672114666371231
 40
0.8821786188665559
 40
0.9999999999999999
 40
0.9999999999999999
 40
0.9999999999999999
 40
0.9999999999999999
 10
56.98386131425955
 20
28.91829121299986
 30
0.0
 10
56.99242682057807
 20
28.91837926202586
 30
0.0
 10
57.0091524668339
 20
28.91855119311869
 30
0.0
 10
57.03341620989838
 20
28.92200005543902
 30
0.0
 10
57.0565019085149
 20
28.92608912033972
 30
0.0
 10
57.07790077518478
 20
28.93296098039636
 30
0.0
 10
57.09812254608227
 20
28.94127689145257
 30
0.0
 10
57.11654444897911
 20
28.95196583065599
 30
0.0
 10
57.13408367918629
 20
28.96398742877048
 30
0.0
 10
57.14431831723336
 20
28.97363828192083
 30
0.0
 10
57.14949837989661
 20
28.97852287323152
 30
0.0
  0
SPLINE
  5
BA
330
1F
100
AcDbEntity
  8
0
  6
Continuous
 62
     7
370
    25
100
AcDbSpline
210
0.0
220
0.0
230
1.0
 70
     8
 71
     3
 72
    15
 73
    11
 74
     0
 42
0.00000001
 43
0.00000001
 40
0.0
 40
0.0
 40
0.0
 40
0.0
 40
0.106234453290817
 40
0.2134351374465928
 40
0.3266362515327414
 40
0.4454478074346341
 40
0.570912586560857
 40
0.7047818913259153
 40
0.8472638984122982
 40
1.0
 40
1.0
 40
1.0
 40
1.0
 10
56.79563737603561
 20
28.97852287323152
 30
0.0
 10
56.80089025969622
 20
28.97360682876788
 30
0.0
 10
56.81144380340417
 20
28.96373002709679
 30
0.0
 10
56.83015622146043
 20
28.95186881320821
 30
0.0
 10
56.85039256598019
 20
28.94100971152892
 30
0.0
 10
56.87323407357793
 20
28.93296596012979
 30
0.0
 10
56.89785391158232
 20
28.92598484245506
 30
0.0
 10
56.92474970194729
 20
28.92198729879669
 30
0.0
 10
56.95356453313888
 20
28.91852656580746
 30
0.0
 10
56.97353121325141
 20
28.91837145975166
 30
0.0
 10
56.98386131425955
 20
28.91829121299986
 30
0.0
  0
SPLINE
  5
BB
330
1F
100
AcDbEntity
  8
0
  6
Continuous
 62
     7
370
    25
100
AcDbSpline
210
0.0
220
0.0
230
1.0
 70
     8
 71
     3
 72
    15
 73
    11
 74
     0
 42
0.00000001
 43
0.00000001
 40
0.0
 40
0.0
 40
0.0
 40
0.0
 40
0.1380420997033144
 40
0.2691721599589623
 40
0.3953313456434699
 40
0.5186017941434361
 40
0.6392985515224104
 40
0.7600805617867297
 40
0.8784957553092648
 40
1.0
 40
1.0
 40
1.0
 40
1.0
 10
56.73540571580395
 20
29.13663098133962
 30
0.0
 10
56.73549184705691
 20
29.1286218978713
 30
0.0
 10
56.73565979680158
 20
29.11300476149701
 30
0.0
 10
56.73913506258206
 20
29.09032556158185
 30
0.0
 10
56.74322562571536
 20
29.06862241069751
 30
0.0
 10
56.75018864386428
 20
29.04829063112534
 30
0.0
 10
56.75837731442362
 20
29.02875896585172
 30
0.0
 10
56.76916385863216
 20
29.01086681825542
 30
0.0
 10
56.78110218084008
 20
28.99364632818557
 30
0.0
 10
56.79075090069599
 20
28.98360711108926
 30
0.0
 10
56.79563737603561
 20
28.97852287323152
 30
0.0
  0
SPLINE
  5
BC
330
1F
100
AcDbEntity
  8
0
  6
Continuous
 62
     7
370
    25
100
AcDbSpline
210
0.0
220
0.0
230
1.0
 70
     8
 71
     3
 72
    11
 73
     7
 74
     0
 42
0.00000001
 43
0.00000001
 40
0.0
 40
0.0
 40
0.0
 40
0.0
 40
0.2550921435312739
 40
0.4983791954134787
 40
0.7437399667914611
 40
1.0
 40
1.0
 40
1.0
 40
1.0
 10
56.78810841850665
 20
29.2646232593319
 30
0.0
 10
56.77998747150653
 20
29.2556287215027
 30
0.0
 10
56.76412139669964
 20
29.23805589285976
 30
0.0
 10
56.747383699893
 20
29.20669699819577
 30
0.0
 10
56.73726955587412
 20
29.17257752139388
 30
0.0
 10
56.73603593060086
 20
29.14878547989488
 30
0.0
 10
56.73540571580395
 20
29.13663098133962
 30
0.0
  0
SPLINE
  5
BD
330
1F
100
AcDbEntity
  8
0
  6
Continuous
 62
     7
370
    25
100
AcDbSpline
210
0.0
220
0.0
230
1.0
 70
     8
 71
     3
 72
    15
 73
    11
 74
     0
 42
0.00000001
 43
0.00000001
 40
0.0
 40
0.0
 40
0.0
 40
0.0
 40
0.1305521219623386
 40
0.2575145556980029
 40
0.3807268344757819
 40
0.5030306145961514
 40
0.6251462349433738
 40
0.7476378858044694
 40
0.8722881459663868
 40
1.0
 40
1.0
 40
1.0
 40
1.0
 10
56.95374548414372
 20
29.33238387709252
 30
0.0
 10
56.94574280959153
 20
29.33214942348745
 30
0.0
 10
56.92995750368667
 20
29.33168696286229
 30
0.0
 10
56.90677418312494
 20
29.32863301851252
 30
0.0
 10
56.88452067302424
 20
29.32332239590051
 30
0.0
 10
56.86329527510158
 20
29.31566419736014
 30
0.0
 10
56.84279245138461
 20
29.30630472679777
 30
0.0
 10
56.82354228335809
 20
29.29433408865121
 30
0.0
 10
56.80490453999398
 20
29.28080712734334
 30
0.0
 10
56.79375222469973
 20
29.27006133707978
 30
0.0
 10
56.78810841850665
 20
29.2646232593319
 30
0.0
  0
LINE
  5
BE
330
1F
100
AcDbEntity
  8
0
  6
Continuous
 62
     7
370
    25
100
AcDbLine
 10
57.0064481868
 20
29.3323838771
 30
0.0
 11
56.9537454841
 21
29.3323838771
 31
0.0
  0
LINE
  5
BF
330
1F
100
AcDbEntity
  8
0
  6
Continuous
 62
     7
370
    25
100
AcDbLine
 10
57.0064481868
 20
29.5105692053
 30
0.0
 11
57.0064481868
 21
29.3323838771
 31
0.0
  0
LINE
  5
C0
330
1F
100
AcDbEntity
  8
0
  6
Continuous
 62
     7
370
    25
100
AcDbLine
 10
56.9462165266
 20
29.5105692053
 30
0.0
 11
57.0064481868
 21
29.5105692053
 31
0.0
  0
SPLINE
  5
C1
330
1F
100
AcDbEntity
  8
0
  6
Continuous
 62
     7
370
    25
100
AcDbSpline
210
0.0
220
0.0
230
1.0
 70
     8
 71
     3
 72
    15
 73
    11
 74
     0
 42
0.00000001
 43
0.00000001
 40
0.0
 40
0.0
 40
0.0
 40
0.0
 40
0.1339120169181254
 40
0.2615284644313485
 40
0.3861887226529775
 40
0.5091929985924205
 40
0.6296768122270384
 40
0.7512559744353482
 40
0.8742965747069021
 40
1.0
 40
1.0
 40
1.0
 40
1.0
 10
56.69776092815916
 20
29.40014449485314
 30
0.0
 10
56.7066186799363
 20
29.40896163195635
 30
0.0
 10
56.72391775640382
 20
29.42618138848271
 30
0.0
 10
56.75213916956309
 20
29.44868974297447
 30
0.0
 10
56.78153554394204
 20
29.46779264753944
 30
0.0
 10
56.81218295956197
 20
29.48342562443738
 30
0.0
 10
56.84406885039606
 20
29.49558120064382
 30
0.0
 10
56.87707901855994
 20
29.50413902713
 30
0.0
 10
56.91126448927239
 20
29.50971313074908
 30
0.0
 10
56.93448299550153
 20
29.51028181782114
 30
0.0
 10
56.94621652661476
 20
29.51056920527785
 30
0.0
  0
SPLINE
  5
C2
330
1F
100
AcDbEntity
  8
0
  6
Continuous
 62
     7
370
    25
100
AcDbSpline
210
0.0
220
0.0
230
1.0
 70
     8
 71
     3
 72
    15
 73
    11
 74
     0
 42
0.00000001
 43
0.00000001
 40
0.0
 40
0.0
 40
0.0
 40
0.0
 40
0.1330514903197376
 40
0.261400860813741
 40
0.3859789426424559
 40
0.508465614902219
 40
0.6295593452611172
 40
0.7509246542250769
 40
0.8741074588764661
 40
0.9999999999999999
 40
0.9999999999999999
 40
0.9999999999999999
 40
0.9999999999999999
 10
56.59235552275376
 20
29.13663098133962
 30
0.0
 10
56.59265476468821
 20
29.14957025413524
 30
0.0
 10
56.5932426731669
 20
29.17499151803051
 30
0.0
 10
56.59852996389046
 20
29.21219955896023
 30
0.0
 10
56.60636028522396
 20
29.24790008601059
 30
0.0
 10
56.61832169289966
 20
29.28169901599212
 30
0.0
 10
56.63301889621773
 20
29.31405490143867
 30
0.0
 10
56.65147681668547
 20
29.34447791833231
 30
0.0
 10
56.67242530225488
 20
29.37387885522189
 30
0.0
 10
56.68925468952516
 20
29.39132601136976
 30
0.0
 10
56.69776092815916
 20
29.40014449485314
 30
0.0
  0
SPLINE
  5
C3
330
1F
100
AcDbEntity
  8
0
  6
Continuous
 62
     7
370
    25
100
AcDbSpline
210
0.0
220
0.0
230
1.0
 70
     8
 71
     3
 72
    15
 73
    11
 74
     0
 42
0.00000001
 43
0.00000001
 40
0.0
 40
0.0
 40
0.0
 40
0.0
 40
0.1158830802717858
 40
0.2315534497979614
 40
0.3480625771524271
 40
0.4678553783950305
 40
0.5925908197539047
 40
0.7213115030172618
 40
0.8571441704632067
 40
1.0
 40
1.0
 40
1.0
 40
1.0
 10
56.69776092815916
 20
28.84300163771028
 30
0.0
 10
56.68922512465363
 20
28.8519874860622
 30
0.0
 10
56.67216918565143
 20
28.86994268867131
 30
0.0
 10
56.6512710232084
 20
28.90082513117857
 30
0.0
 10
56.63275990108503
 20
28.93359233283762
 30
0.0
 10
56.61812600115816
 20
28.9693487640233
 30
0.0
 10
56.60630413563024
 20
29.00747665765509
 30
0.0
 10
56.59844013276097
 20
29.04835213264779
 30
0.0
 10
56.5932292333018
 20
29.0916010279676
 30
0.0
 10
56.59265161177041
 20
29.121370922223
 30
0.0
 10
56.59235552275376
 20
29.13663098133962
 30
0.0
  0
SPLINE
  5
C4
330
1F
100
AcDbEntity
  8
0
  6
Continuous
 62
     7
370
    25
100
AcDbSpline
210
0.0
220
0.0
230
1.0
 70
     8
 71
     3
 72
    15
 73
    11
 74
     0
 42
0.00000001
 43
0.00000001
 40
0.0
 40
0.0
 40
0.0
 40
0.0
 40
0.135465841810947
 40
0.2653728839126842
 40
0.39152662799182
 40
0.5146179992444258
 40
0.6353652389705202
 40
0.755435876357242
 40
0.8764282152102189
 40
1.0
 40
1.0
 40
1.0
 40
1.0
 10
56.96880339920163
 20
28.73759623230488
 30
0.0
 10
56.95530675434368
 20
28.73789171276227
 30
0.0
 10
56.92886729535374
 20
28.73847054872617
 30
0.0
 10
56.89017967893004
 20
28.74377850491909
 30
0.0
 10
56.85317483569131
 20
28.75156074743453
 30
0.0
 10
56.81824943881747
 20
28.76351069982538
 30
0.0
 10
56.78504662746928
 20
28.77819595156478
 30
0.0
 10
56.75403743638415
 20
28.79663802085713
 30
0.0
 10
56.72431713835086
 20
28.81766469317519
 30
0.0
 10
56.70667502269728
 20
28.83449681276491
 30
0.0
 10
56.69776092815916
 20
28.84300163771028
 30
0.0
  0
SPLINE
  5
C5
330
1F
100
AcDbEntity
  8
0
  6
Continuous
 62
     7
370
    25
100
AcDbSpline
210
0.0
220
0.0
230
1.0
 70
     8
 71
     3
 72
    15
 73
    11
 74
     0
 42
0.00000001
 43
0.00000001
 40
0.0
 40
0.0
 40
0.0
 40
0.0
 40
0.1195027114365311
 40
0.2380939422658885
 40
0.3566476293726335
 40
0.4775806195769141
 40
0.6003630199241494
 40
0.7278327340041408
 40
0.8606471500295814
 40
1.0
 40
1.0
 40
1.0
 40
1.0
 10
57.20973004012828
 20
28.82794372265237
 30
0.0
 10
57.20207432628136
 20
28.82070305608671
 30
0.0
 10
57.18682129085848
 20
28.80627694954465
 30
0.0
 10
57.1612602415722
 20
28.78781541503634
 30
0.0
 10
57.13362645851473
 20
28.77250113424962
 30
0.0
 10
57.10439663840434
 20
28.75952194537497
 30
0.0
 10
57.07307901517477
 20
28.74990314758448
 30
0.0
 10
57.04010880603963
 20
28.74251193908925
 30
0.0
 10
57.00506646067935
 20
28.73837429940949
 30
0.0
 10
56.98108314147792
 20
28.73785970877733
 30
0.0
 10
56.96880339920163
 20
28.73759623230488
 30
0.0
  0
SPLINE
  5
C6
330
1F
100
AcDbEntity
  8
0
  6
Continuous
 62
     7
370
    25
100
AcDbSpline
210
0.0
220
0.0
230
1.0
 70
     8
 71
     3
 72
    11
 73
     7
 74
     0
 42
0.00000001
 43
0.00000001
 40
0.0
 40
0.0
 40
0.0
 40
0.0
 40
0.2570374775372509
 40
0.5073419159098038
 40
0.7523129875772131
 40
1.0
 40
1.0
 40
1.0
 40
1.0
 10
57.28501961541784
 20
28.95593600064464
 30
0.0
 10
57.28096664306978
 20
28.94372396261135
 30
0.0
 10
57.2729668650767
 20
28.91961977814634
 30
0.0
 10
57.25563324214287
 20
28.88610434332447
 30
0.0
 10
57.23495251393562
 20
28.8551003812502
 30
0.0
 10
57.21816837410614
 20
28.8370291500661
 30
0.0
 10
57.20973004012828
 20
28.82794372265237
 30
0.0
  0
SPLINE
  5
C7
330
1F
100
AcDbEntity
  8
0
  6
Continuous
 62
     7
370
    25
100
AcDbSpline
210
0.0
220
0.0
230
1.0
 70
     8
 71
     3
 72
    11
 73
     7
 74
     0
 42
0.00000001
 43
0.00000001
 40
0.0
 40
0.0
 40
0.0
 40
0.0
 40
0.2731656445547256
 40
0.5274113090719864
 40
0.7672619830757357
 40
1.0
 40
1.0
 40
1.0
 40
1.0
 10
57.34525127564951
 20
28.84300163771028
 30
0.0
 10
57.3371431849034
 20
28.85168691454313
 30
0.0
 10
57.32148858543337
 20
28.8684559091637
 30
0.0
 10
57.30360006710917
 20
28.89672186343176
 30
0.0
 10
57.29063746097079
 20
28.9257436219393
 30
0.0
 10
57.28687334677216
 20
28.9459733630926
 30
0.0
 10
57.28501961541784
 20
28.95593600064464
 30
0.0
  0
SPLINE
  5
C8
330
1F
100
AcDbEntity
  8
0
  6
Continuous
 62
     7
370
    25
100
AcDbSpline
210
0.0
220
0.0
230
1.0
 70
     8
 71
     3
 72
    15
 73
    11
 74
     0
 42
0.00000001
 43
0.00000001
 40
0.0
 40
0.0
 40
0.0
 40
0.0
 40
0.1495888260512937
 40
0.2896239650819629
 40
0.421929086193719
 40
0.5465682968532926
 40
0.6661289243466403
 40
0.7799971355270189
 40
0.8908038749321936
 40
1.0
 40
1.0
 40
1.0
 40
1.0
 10
57.57112000151823
 20
28.76771206242071
 30
0.0
 10
57.55893166012855
 20
28.76787909479095
 30
0.0
 10
57.53533340179445
 20
28.76820249178953
 30
0.0
 10
57.50114967901423
 20
28.77202836301846
 30
0.0
 10
57.46924903059485
 20
28.77758002409417
 30
0.0
 10
57.43981680587454
 20
28.78627815057364
 30
0.0
 10
57.41229226777526
 20
28.7961173707258
 30
0.0
 10
57.38763347482894
 20
28.80961003716704
 30
0.0
 10
57.36500347949733
 20
28.82482123667287
 30
0.0
 10
57.35180313088072
 20
28.83697115338761
 30
0.0
 10
57.34525127564951
 20
28.84300163771028
 30
0.0
  0
SPLINE
  5
C9
330
1F
100
AcDbEntity
  8
0
  6
Continuous
 62
     7
370
    25
100
AcDbSpline
210
0.0
220
0.0
230
1.0
 70
     8
 71
     3
 72
    15
 73
    11
 74
     0
 42
0.00000001
 43
0.00000001
 40
0.0
 40
0.0
 40
0.0
 40
0.0
 40
0.1195027114365314
 40
0.2380939422658887
 40
0.3566476293726337
 40
0.477580619576914
 40
0.6003630199241492
 40
0.7278327340041411
 40
0.8606471500295816
 40
1.0
 40
1.0
 40
1.0
 40
1.0
 10
57.81204664244488
 20
28.8580595527682
 30
0.0
 10
57.80439092859796
 20
28.85081888620255
 30
0.0
 10
57.78913789317509
 20
28.83639277966049
 30
0.0
 10
57.76357684388881
 20
28.81793124515217
 30
0.0
 10
57.73594306083134
 20
28.80261696436545
 30
0.0
 10
57.70671324072094
 20
28.78963777549081
 30
0.0
 10
57.67539561749137
 20
28.78001897770032
 30
0.0
 10
57.64242540835622
 20
28.77262776920509
 30
0.0
 10
57.60738306299595
 20
28.76849012952532
 30
0.0
 10
57.58339974379452
 20
28.76797553889316
 30
0.0
 10
57.57112000151823
 20
28.76771206242071
 30
0.0
  0
SPLINE
  5
CA
330
1F
100
AcDbEntity
  8
0
  6
Continuous
 62
     7
370
    25
100
AcDbSpline
210
0.0
220
0.0
230
1.0
 70
     8
 71
     3
 72
    15
 73
    11
 74
     0
 42
0.00000001
 43
0.00000001
 40
0.0
 40
0.0
 40
0.0
 40
0.0
 40
0.1401156952848865
 40
0.2734369515897451
 40
0.4007170918852056
 40
0.5244111544238707
 40
0.6451326608364117
 40
0.7627629456192486
 40
0.8809824433211498
 40
1.0
 40
1.0
 40
1.0
 40
1.0
 10
57.90992309032132
 20
29.12157306628171
 30
0.0
 10
57.9097263342919
 20
29.10807754678691
 30
0.0
 10
57.90934236325437
 20
29.08174092758607
 30
0.0
 10
57.90429253165209
 20
29.04344236616025
 30
0.0
 10
57.89703804888498
 20
29.00712067486759
 30
0.0
 10
57.88592767778875
 20
28.97304860153791
 30
0.0
 10
57.87247678349051
 20
28.94084285652688
 30
0.0
 10
57.85548920732339
 20
28.91093314388958
 30
0.0
 10
57.83539094518741
 20
28.88320712596796
 30
0.0
 10
57.81984550816769
 20
28.86646085516744
 30
0.0
 10
57.81204664244488
 20
28.8580595527682
 30
0.0
  0
SPLINE
  5
CB
330
1F
100
AcDbEntity
  8
0
  6
Continuous
 62
     7
370
    25
100
AcDbSpline
210
0.0
220
0.0
230
1.0
 70
     8
 71
     3
 72
    15
 73
    11
 74
     0
 42
0.00000001
 43
0.00000001
 40
0.0
 40
0.0
 40
0.0
 40
0.0
 40
0.1270527522076893
 40
0.2522753243044992
 40
0.3739697899787136
 40
0.4948832629277702
 40
0.6176556772794561
 40
0.741939912446616
 40
0.8684128160693884
 40
1.0
 40
1.0
 40
1.0
 40
1.0
 10
57.81204664244488
 20
29.36249970720835
 30
0.0
 10
57.81983856267384
 20
29.35428135788669
 30
0.0
 10
57.83531016142757
 20
29.33796304360903
 30
0.0
 10
57.85526417913354
 20
29.31119279032793
 30
0.0
 10
57.87220979823416
 20
29.28308570583149
 30
0.0
 10
57.88589904268461
 20
29.25350483672516
 30
0.0
 10
57.8969552013128
 20
29.22257297779143
 30
0.0
 10
57.90419671423731
 20
29.19005219769702
 30
0.0
 10
57.90933801262282
 20
29.15631387308843
 30
0.0
 10
57.90972550462687
 20
29.13330533099836
 30
0.0
 10
57.90992309032132
 20
29.12157306628171
 30
0.0
  0
SPLINE
  5
CC
330
1F
100
AcDbEntity
  8
0
  6
Continuous
 62
     7
370
    25
100
AcDbSpline
210
0.0
220
0.0
230
1.0
 70
     8
 71
     3
 72
    15
 73
    11
 74
     0
 42
0.00000001
 43
0.00000001
 40
0.0
 40
0.0
 40
0.0
 40
0.0
 40
0.1342207616992956
 40
0.2632543584014017
 40
0.3882486178889513
 40
0.5110181775835605
 40
0.6322369822528026
 40
0.7532951172272373
 40
0.8750618099117069
 40
1.0
 40
1.0
 40
1.0
 40
1.0
 10
57.52594625634449
 20
29.47543407014271
 30
0.0
 10
57.5400912117813
 20
29.47514467629973
 30
0.0
 10
57.56783446938908
 20
29.47457707267793
 30
0.0
 10
57.6084688024736
 20
29.46917330631812
 30
0.0
 10
57.64717584379267
 20
29.46016758443836
 30
0.0
 10
57.68415409831661
 20
29.44798517818317
 30
0.0
 10
57.71923015589237
 20
29.43201021747297
 30
0.0
 10
57.75219937616148
 20
29.41231287113526
 30
0.0
 10
57.78355412390484
 20
29.38939793718917
 30
0.0
 10
57.80246808721972
 20
29.3715422978438
 30
0.0
 10
57.81204664244488
 20
29.36249970720835
 30
0.0
  0
LINE
  5
CD
330
1F
100
AcDbEntity
  8
0
  6
Continuous
 62
     7
370
    25
100
AcDbLine
 10
57.7523726828
 20
30.4391406338
 30
0.0
 11
57.8948651753
 21
30.4391406338
 31
0.0
  0
LINE
  5
CE
330
1F
100
AcDbEntity
  8
0
  6
Continuous
 62
     7
370
    25
100
AcDbLine
 10
57.7523726828
 20
29.8895267342
 30
0.0
 11
57.7523726828
 21
30.4391406338
 31
0.0
  0
LINE
  5
CF
330
1F
100
AcDbEntity
  8
0
  6
Continuous
 62
     7
370
    25
100
AcDbLine
 10
56.6074134378
 20
30.2509166956
 30
0.0
 11
57.7523726828
 21
29.8895267342
 31
0.0
  0
LINE
  5
D0
330
1F
100
AcDbEntity
  8
0
  6
Continuous
 62
     7
370
    25
100
AcDbLine
 10
56.6074134378
 20
30.08527963
 30
0.0
 11
56.6074134378
 21
30.2509166956
 31
0.0
  0
LINE
  5
D1
330
1F
100
AcDbEntity
  8
0
  6
Continuous
 62
     7
370
    25
100
AcDbLine
 10
57.7292281096
 20
29.7238896686
 30
0.0
 11
56.6074134378
 21
30.08527963
 31
0.0
  0
LINE
  5
D2
330
1F
100
AcDbEntity
  8
0
  6
Continuous
 62
     7
370
    25
100
AcDbLine
 10
57.8948651753
 20
29.7238896686
 30
0.0
 11
57.7292281096
 21
29.7238896686
 31
0.0
  0
LINE
  5
D3
330
1F
100
AcDbEntity
  8
0
  6
Continuous
 62
     7
370
    25
100
AcDbLine
 10
57.8948651753
 20
30.4391406338
 30
0.0
 11
57.8948651753
 21
29.7238896686
 31
0.0
  0
LINE
  5
D4
330
1F
100
AcDbEntity
  8
0
  6
Continuous
 62
     7
370
    25
100
AcDbLine
 10
57.2055472859
 20
31.4781367728
 30
0.0
 11
57.3301933606
 21
31.4781367728
 31
0.0
  0
LINE
  5
D5
330
1F
100
AcDbEntity
  8
0
  6
Continuous
 62
     7
370
    25
100
AcDbLine
 10
57.2055472859
 20
30.6198356145
 30
0.0
 11
57.2055472859
 21
31.4781367728
 31
0.0
  0
LINE
  5
D6
330
1F
100
AcDbEntity
  8
0
  6
Continuous
 62
     7
370
    25
100
AcDbLine
 10
57.3301933606
 20
30.6198356145
 30
0.0
 11
57.2055472859
 21
30.6198356145
 31
0.0
  0
LINE
  5
D7
330
1F
100
AcDbEntity
  8
0
  6
Continuous
 62
     7
370
    25
100
AcDbLine
 10
57.3301933606
 20
31.4781367728
 30
0.0
 11
57.3301933606
 21
30.6198356145
 31
0.0
  0
LINE
  5
D8
330
1F
100
AcDbEntity
  8
0
  6
Continuous
 62
     7
370
    25
100
AcDbLine
 10
56.6079711384
 20
32.639269334
 30
0.0
 11
57.8948651753
 21
32.639269334
 31
0.0
  0
LINE
  5
D9
330
1F
100
AcDbEntity
  8
0
  6
Continuous
 62
     7
370
    25
100
AcDbLine
 10
56.6079711384
 20
32.0394623842
 30
0.0
 11
56.6079711384
 21
32.639269334
 31
0.0
  0
SPLINE
  5
DA
330
1F
100
AcDbEntity
  8
0
  6
Continuous
 62
     7
370
    25
100
AcDbSpline
210
0.0
220
0.0
230
1.0
 70
     8
 71
     3
 72
    15
 73
    11
 74
     0
 42
0.00000001
 43
0.00000001
 40
0.0
 40
0.0
 40
0.0
 40
0.0
 40
0.1086277469152497
 40
0.2195300404679353
 40
0.3340583594962493
 40
0.4525037346025803
 40
0.578166032102879
 40
0.7098017975268052
 40
0.8504665399585412
 40
1.0
 40
1.0
 40
1.0
 40
1.0
 10
56.69776092815916
 20
31.76841991312856
 30
0.0
 10
56.69060051918295
 20
31.77625707136059
 30
0.0
 10
56.67612977007001
 20
31.79209548937709
 30
0.0
 10
56.65763635166999
 20
31.8191156012371
 30
0.0
 10
56.64241862009041
 20
31.84912539712476
 30
0.0
 10
56.62982382585867
 20
31.88185069477518
 30
0.0
 10
56.61977123972895
 20
31.91719696048083
 30
0.0
 10
56.61293927591824
 20
31.95549729855187
 30
0.0
 10
56.60870613500638
 20
31.99651634559082
 30
0.0
 10
56.60822107850245
 20
32.02485831925733
 30
0.0
 10
56.60797113836937
 20
32.03946238417102
 30
0.0
  0
SPLINE
  5
DB
330
1F
100
AcDbEntity
  8
0
  6
Continuous
 62
     7
370
    25
100
AcDbSpline
210
0.0
220
0.0
230
1.0
 70
     8
 71
     3
 72
    15
 73
    11
 74
     0
 42
0.00000001
 43
0.00000001
 40
0.0
 40
0.0
 40
0.0
 40
0.0
 40
0.1319114978615548
 40
0.25855939557945
 40
0.3829282045992123
 40
0.5051155152535455
 40
0.6266776175559877
 40
0.748984922324664
 40
0.872841572096447
 40
0.9999999999999999
 40
0.9999999999999999
 40
0.9999999999999999
 40
0.9999999999999999
 10
56.97633235673059
 20
31.65548555019419
 30
0.0
 10
56.96274359419468
 20
31.65577075270074
 30
0.0
 10
56.93610829488479
 20
31.65632977741736
 30
0.0
 10
56.89696933330177
 20
31.66180923968883
 30
0.0
 10
56.859546395103
 20
31.67074122479101
 30
0.0
 10
56.82361010466653
 20
31.68299346841302
 30
0.0
 10
56.78938221060509
 20
31.69897301442934
 30
0.0
 10
56.75699860343084
 20
31.71868726124384
 30
0.0
 10
56.72596418720939
 20
31.74152264119865
 30
0.0
 10
56.70724409403323
 20
31.75937587708942
 30
0.0
 10
56.69776092815916
 20
31.76841991312856
 30
0.0
  0
SPLINE
  5
DC
330
1F
100
AcDbEntity
  8
0
  6
Continuous
 62
     7
370
    25
100
AcDbSpline
210
0.0
220
0.0
230
1.0
 70
     8
 71
     3
 72
    15
 73
    11
 74
     0
 42
0.00000001
 43
0.00000001
 40
0.0
 40
0.0
 40
0.0
 40
0.0
 40
0.1263812889588913
 40
0.2491049464973166
 40
0.3706105362999228
 40
0.4913917559424306
 40
0.6138158455532664
 40
0.7388355742356975
 40
0.867118175426879
 40
1.0
 40
1.0
 40
1.0
 40
1.0
 10
57.20220108259932
 20
31.74583304054168
 30
0.0
 10
57.19451858559105
 20
31.7386274315145
 30
0.0
 10
57.1793759325767
 20
31.72442475273204
 30
0.0
 10
57.15467424490161
 20
31.70574640007665
 30
0.0
 10
57.12824916430174
 20
31.69061335623081
 30
0.0
 10
57.10082937831535
 20
31.6773853513813
 30
0.0
 10
57.07159034596224
 20
31.66788192883747
 30
0.0
 10
57.04115208519647
 20
31.66044127576699
 30
0.0
 10
57.00916600971672
 20
31.65627745679625
 30
0.0
 10
56.98740465017955
 20
31.6557526000496
 30
0.0
 10
56.97633235673059
 20
31.65548555019419
 30
0.0
  0
SPLINE
  5
DD
330
1F
100
AcDbEntity
  8
0
  6
Continuous
 62
     7
370
    25
100
AcDbSpline
210
0.0
220
0.0
230
1.0
 70
     8
 71
     3
 72
    11
 73
     7
 74
     0
 42
0.00000001
 43
0.00000001
 40
0.0
 40
0.0
 40
0.0
 40
0.0
 40
0.2758864184465408
 40
0.5310076877713105
 40
0.7722766677115255
 40
1.0
 40
1.0
 40
1.0
 40
1.0
 10
57.28501961541784
 20
31.88888323359188
 30
0.0
 10
57.27984952388606
 20
31.87443692064419
 30
0.0
 10
57.26989847821545
 20
31.846631625703
 30
0.0
 10
57.25035132549806
 20
31.80832625447486
 30
0.0
 10
57.22830144944558
 20
31.77449443696421
 30
0.0
 10
57.21073205582915
 20
31.75520109299284
 30
0.0
 10
57.20220108259932
 20
31.74583304054168
 30
0.0
  0
SPLINE
  5
DE
330
1F
100
AcDbEntity
  8
0
  6
Continuous
 62
     7
370
    25
100
AcDbSpline
210
0.0
220
0.0
230
1.0
 70
     8
 71
     3
 72
    11
 73
     7
 74
     0
 42
0.00000001
 43
0.00000001
 40
0.0
 40
0.0
 40
0.0
 40
0.0
 40
0.2409277974217339
 40
0.4854864172424137
 40
0.7380410464993907
 40
1.0
 40
1.0
 40
1.0
 40
1.0
 10
57.35278023317847
 20
31.77594887065752
 30
0.0
 10
57.34551003576925
 20
31.78377207066227
 30
0.0
 10
57.330860077854
 20
31.79953636761067
 30
0.0
 10
57.3124036985972
 20
31.82665894761818
 30
0.0
 10
57.29707967862045
 20
31.85666497089128
 30
0.0
 10
57.28908832536982
 20
31.87801374112879
 30
0.0
 10
57.28501961541784
 20
31.88888323359188
 30
0.0
  0
SPLINE
  5
DF
330
1F
100
AcDbEntity
  8
0
  6
Continuous
 62
     7
370
    25
100
AcDbSpline
210
0.0
220
0.0
230
1.0
 70
     8
 71
     3
 72
    15
 73
    11
 74
     0
 42
0.00000001
 43
0.00000001
 40
0.0
 40
0.0
 40
0.0
 40
0.0
 40
0.1312072932871416
 40
0.2585055422472042
 40
0.3817646425439861
 40
0.5033692670500662
 40
0.625049297490123
 40
0.7476118725723035
 40
0.8722462138971593
 40
0.9999999999999999
 40
0.9999999999999999
 40
0.9999999999999999
 40
0.9999999999999999
 10
57.55606208646032
 20
31.69313033783898
 30
0.0
 10
57.54619660269665
 20
31.69341153749346
 30
0.0
 10
57.52675955643219
 20
31.69396555905232
 30
0.0
 10
57.49827433362105
 20
31.69794040129836
 30
0.0
 10
57.47101356956841
 20
31.70438190517642
 30
0.0
 10
57.44487544861729
 20
31.71327535171108
 30
0.0
 10
57.41998384526628
 20
31.72511159106509
 30
0.0
 10
57.39621330758647
 20
31.7394429478556
 30
0.0
 10
57.37336510496124
 20
31.75608271947584
 30
0.0
 10
57.35969816359626
 20
31.76927247971399
 30
0.0
 10
57.35278023317847
 20
31.77594887065752
 30
0.0
  0
SPLINE
  5
E0
330
1F
100
AcDbEntity
  8
0
  6
Continuous
 62
     7
370
    25
100
AcDbSpline
210
0.0
220
0.0
230
1.0
 70
     8
 71
     3
 72
    15
 73
    11
 74
     0
 42
0.00000001
 43
0.00000001
 40
0.0
 40
0.0
 40
0.0
 40
0.0
 40
0.1195027114365314
 40
0.2380939422658886
 40
0.356647629372634
 40
0.4775806195769142
 40
0.6003630199241491
 40
0.727832734004141
 40
0.8606471500295814
 40
1.0
 40
1.0
 40
1.0
 40
1.0
 10
57.79698872738696
 20
31.78347782818647
 30
0.0
 10
57.78933301354004
 20
31.77623716162082
 30
0.0
 10
57.77407997811717
 20
31.76181105507876
 30
0.0
 10
57.74851892883088
 20
31.74334952057044
 30
0.0
 10
57.72088514577342
 20
31.72803523978373
 30
0.0
 10
57.69165532566302
 20
31.71505605090908
 30
0.0
 10
57.66033770243346
 20
31.70543725311859
 30
0.0
 10
57.6273674932983
 20
31.69804604462336
 30
0.0
 10
57.59232514793803
 20
31.6939084049436
 30
0.0
 10
57.5683418287366
 20
31.69339381431143
 30
0.0
 10
57.55606208646032
 20
31.69313033783898
 30
0.0
  0
SPLINE
  5
E1
330
1F
100
AcDbEntity
  8
0
  6
Continuous
 62
     7
370
    25
100
AcDbSpline
210
0.0
220
0.0
230
1.0
 70
     8
 71
     3
 72
    15
 73
    11
 74
     0
 42
0.00000001
 43
0.00000001
 40
0.0
 40
0.0
 40
0.0
 40
0.0
 40
0.1342477572737634
 40
0.2634617725756838
 40
0.3884666271730288
 40
0.511879051186958
 40
0.6324080741525895
 40
0.7535525248235476
 40
0.8755084805282747
 40
1.0
 40
1.0
 40
1.0
 40
1.0
 10
57.8948651752634
 20
32.03193342664207
 30
0.0
 10
57.89466356409654
 20
32.01964517424579
 30
0.0
 10
57.8942679013572
 20
31.99552942867263
 30
0.0
 10
57.88920155502206
 20
31.96029244024286
 30
0.0
 10
57.88188348972182
 20
31.92649494676606
 30
0.0
 10
57.87091471507108
 20
31.89450466732272
 30
0.0
 10
57.85712156771046
 20
31.86405124055796
 30
0.0
 10
57.84046688892855
 20
31.83518222302605
 30
0.0
 10
57.82014547231779
 20
31.80828917567386
 30
0.0
 10
57.80476040522092
 20
31.79180481023315
 30
0.0
 10
57.79698872738696
 20
31.78347782818647
 30
0.0
  0
LINE
  5
E2
330
1F
100
AcDbEntity
  8
0
  6
Continuous
 62
     7
370
    25
100
AcDbLine
 10
57.8948651753
 20
32.639269334
 30
0.0
 11
57.8948651753
 21
32.0319334266
 31
0.0
  0
LINE
  5
E3
330
1F
100
AcDbEntity
  8
0
  6
Continuous
 62
     7
370
    25
100
AcDbLine
 10
56.6074134378
 20
33.6849578797
 30
0.0
 11
56.6074134378
 21
33.8631432079
 31
0.0
  0
LINE
  5
E4
330
1F
100
AcDbEntity
  8
0
  6
Continuous
 62
     7
370
    25
100
AcDbLine
 10
57.6238227042
 20
33.6849578797
 30
0.0
 11
56.6074134378
 21
33.6849578797
 31
0.0
  0
LINE
  5
E5
330
1F
100
AcDbEntity
  8
0
  6
Continuous
 62
     7
370
    25
100
AcDbLine
 10
56.6074134378
 20
32.8944173391
 30
0.0
 11
56.6074134378
 21
33.0826412773
 31
0.0
  0
LINE
  5
E6
330
1F
100
AcDbEntity
  8
0
  6
Continuous
 62
     7
370
    25
100
AcDbLine
 10
57.8948651753
 20
32.8944173391
 30
0.0
 11
56.6074134378
 21
32.8944173391
 31
0.0
  0
LINE
  5
E7
330
1F
100
AcDbEntity
  8
0
  6
Continuous
 62
     7
370
    25
100
AcDbLine
 10
57.8948651753
 20
33.0726026673
 30
0.0
 11
57.8948651753
 21
32.8944173391
 31
0.0
  0
LINE
  5
E8
330
1F
100
AcDbEntity
  8
0
  6
Continuous
 62
     7
370
    25
100
AcDbLine
 10
56.8784559089
 20
33.0726026673
 30
0.0
 11
57.8948651753
 21
33.0726026673
 31
0.0
  0
LINE
  5
E9
330
1F
100
AcDbEntity
  8
0
  6
Continuous
 62
     7
370
    25
100
AcDbLine
 10
57.8948651753
 20
33.6698999646
 30
0.0
 11
56.8784559089
 21
33.0726026673
 31
0.0
  0
LINE
  5
EA
330
1F
100
AcDbEntity
  8
0
  6
Continuous
 62
     7
370
    25
100
AcDbLine
 10
56.6074134378
 20
33.0826412773
 30
0.0
 11
57.6238227042
 21
33.6849578797
 31
0.0
  0
LINE
  5
EB
330
1F
100
AcDbEntity
  8
0
  6
Continuous
 62
     7
370
    25
100
AcDbLine
 10
57.8948651753
 20
33.8631432079
 30
0.0
 11
57.8948651753
 21
33.6698999646
 31
0.0
  0
LINE
  5
EC
330
1F
100
AcDbEntity
  8
0
  6
Continuous
 62
     7
370
    25
100
AcDbLine
 10
56.6074134378
 20
33.8631432079
 30
0.0
 11
57.8948651753
 21
33.8631432079
 31
0.0
  0
LINE
  5
ED
330
1F
100
AcDbEntity
  8
0
  6
Continuous
 62
     7
370
    25
100
AcDbLine
 10
57.2102877407
 20
32.4610840058
 30
0.0
 11
56.7504636309
 21
32.4610840058
 31
0.0
  0
LINE
  5
EE
330
1F
100
AcDbEntity
  8
0
  6
Continuous
 62
     7
370
    25
100
AcDbLine
 10
57.2102877407
 20
32.0771071718
 30
0.0
 11
57.2102877407
 21
32.4610840058
 31
0.0
  0
SPLINE
  5
EF
330
1F
100
AcDbEntity
  8
0
  6
Continuous
 62
     7
370
    25
100
AcDbSpline
210
0.0
220
0.0
230
1.0
 70
     8
 71
     3
 72
    15
 73
    11
 74
     0
 42
0.00000001
 43
0.00000001
 40
0.0
 40
0.0
 40
0.0
 40
0.0
 40
0.1193556939378555
 40
0.2390663805212362
 40
0.3573840708360864
 40
0.4787728926029034
 40
0.601391163443813
 40
0.7292416297469773
 40
0.8608048514681803
 40
1.0
 40
1.0
 40
1.0
 40
1.0
 10
57.14196942236766
 20
31.89641219112083
 30
0.0
 10
57.14740642777872
 20
31.90215037572064
 30
0.0
 10
57.15829660956739
 20
31.91364381166644
 30
0.0
 10
57.17207826832575
 20
31.93294271501382
 30
0.0
 10
57.18399465154094
 20
31.95356024132798
 30
0.0
 10
57.19368266673124
 20
31.97553840340606
 30
0.0
 10
57.20133538889942
 20
31.99896824905978
 30
0.0
 10
57.20651893493659
 20
32.02374979920599
 30
0.0
 10
57.20962741097952
 20
32.04997962189132
 30
0.0
 10
57.21006353309326
 20
32.06789631456488
 30
0.0
 10
57.21028774068597
 20
32.07710717181581
 30
0.0
  0
SPLINE
  5
F0
330
1F
100
AcDbEntity
  8
0
  6
Continuous
 62
     7
370
    25
100
AcDbSpline
210
0.0
220
0.0
230
1.0
 70
     8
 71
     3
 72
    15
 73
    11
 74
     0
 42
0.00000001
 43
0.00000001
 40
0.0
 40
0.0
 40
0.0
 40
0.0
 40
0.1417962611116216
 40
0.2768819513476975
 40
0.4055805706087828
 40
0.5298229690785612
 40
0.6485572024501447
 40
0.7672114666371233
 40
0.8821786188665549
 40
1.0
 40
1.0
 40
1.0
 40
1.0
 10
56.97633235673059
 20
31.83618053088917
 30
0.0
 10
56.98489786304911
 20
31.83626857991517
 30
0.0
 10
57.00162350930495
 20
31.83644051100801
 30
0.0
 10
57.02588725236943
 20
31.83988937332834
 30
0.0
 10
57.04897295098594
 20
31.84397843822904
 30
0.0
 10
57.07037181765582
 20
31.85085029828568
 30
0.0
 10
57.09059358855331
 20
31.85916620934189
 30
0.0
 10
57.10901549145014
 20
31.86985514854531
 30
0.0
 10
57.12655472165734
 20
31.88187674665979
 30
0.0
 10
57.1367893597044
 20
31.89152759981015
 30
0.0
 10
57.14196942236766
 20
31.89641219112083
 30
0.0
  0
SPLINE
  5
F1
330
1F
100
AcDbEntity
  8
0
  6
Continuous
 62
     7
370
    25
100
AcDbSpline
210
0.0
220
0.0
230
1.0
 70
     8
 71
     3
 72
    15
 73
    11
 74
     0
 42
0.00000001
 43
0.00000001
 40
0.0
 40
0.0
 40
0.0
 40
0.0
 40
0.1277118540336132
 40
0.2523621141955307
 40
0.3748537650566253
 40
0.4969693854038486
 40
0.6192731655242182
 40
0.7424854443019965
 40
0.8694478780376609
 40
0.9999999999999999
 40
0.9999999999999999
 40
0.9999999999999999
 40
0.9999999999999999
 10
56.81069529109352
 20
31.90394114864979
 30
0.0
 10
56.8163390972866
 20
31.89850307090191
 30
0.0
 10
56.82749141258086
 20
31.88775728063836
 30
0.0
 10
56.84612915594496
 20
31.87423031933048
 30
0.0
 10
56.86537932397149
 20
31.86225968118392
 30
0.0
 10
56.88588214768846
 20
31.85290021062156
 30
0.0
 10
56.90710754561111
 20
31.84524201208118
 30
0.0
 10
56.92936105571182
 20
31.83993138946918
 30
0.0
 10
56.95254437627354
 20
31.83687744511941
 30
0.0
 10
56.96832968217839
 20
31.83641498449424
 30
0.0
 10
56.97633235673059
 20
31.83618053088917
 30
0.0
  0
SPLINE
  5
F2
330
1F
100
AcDbEntity
  8
0
  6
Continuous
 62
     7
370
    25
100
AcDbSpline
210
0.0
220
0.0
230
1.0
 70
     8
 71
     3
 72
    15
 73
    11
 74
     0
 42
0.00000001
 43
0.00000001
 40
0.0
 40
0.0
 40
0.0
 40
0.0
 40
0.145245998029722
 40
0.2839773123111047
 40
0.4135645357275248
 40
0.5387150251446058
 40
0.6570052502158948
 40
0.7736984629726797
 40
0.8866940707303826
 40
1.0
 40
1.0
 40
1.0
 40
1.0
 10
56.75046363086187
 20
32.07710717181581
 30
0.0
 10
56.75055501272401
 20
32.06798528536702
 30
0.0
 10
56.75073367771966
 20
32.05015065424414
 30
0.0
 10
56.75412476383779
 20
32.02439094796806
 30
0.0
 10
56.75827149129258
 20
32.00002214557637
 30
0.0
 10
56.76509372089728
 20
31.97758862786312
 30
0.0
 10
56.77337258202694
 20
31.9565054783311
 30
0.0
 10
56.78416393787833
 20
31.93748887723421
 30
0.0
 10
56.79598534158146
 20
31.91941793677852
 30
0.0
 10
56.80578749410913
 20
31.90910479207659
 30
0.0
 10
56.81069529109352
 20
31.90394114864979
 30
0.0
  0
LINE
  5
F3
330
1F
100
AcDbEntity
  8
0
  6
Continuous
 62
     7
370
    25
100
AcDbLine
 10
56.7504636309
 20
32.4610840058
 30
0.0
 11
56.7504636309
 21
32.0771071718
 31
0.0
  0
LINE
  5
F4
330
1F
100
AcDbEntity
  8
0
  6
Continuous
 62
     7
370
    25
100
AcDbLine
 10
57.7523726828
 20
32.4610840058
 30
0.0
 11
57.3527802332
 21
32.4610840058
 31
0.0
  0
LINE
  5
F5
330
1F
100
AcDbEntity
  8
0
  6
Continuous
 62
     7
370
    25
100
AcDbLine
 10
57.7523726828
 20
32.0394623842
 30
0.0
 11
57.7523726828
 21
32.4610840058
 31
0.0
  0
SPLINE
  5
F6
330
1F
100
AcDbEntity
  8
0
  6
Continuous
 62
     7
370
    25
100
AcDbSpline
210
0.0
220
0.0
230
1.0
 70
     8
 71
     3
 72
    11
 73
     7
 74
     0
 42
0.00000001
 43
0.00000001
 40
0.0
 40
0.0
 40
0.0
 40
0.0
 40
0.2499695538886856
 40
0.492239985127339
 40
0.7405148106355965
 40
0.9999999999999999
 40
0.9999999999999999
 40
0.9999999999999999
 40
0.9999999999999999
 10
57.70664123703947
 20
31.92652802123667
 30
0.0
 10
57.71371552220166
 20
31.93424351786118
 30
0.0
 10
57.72764620283398
 20
31.94943687195018
 30
0.0
 10
57.74192003177795
 20
31.97716233245647
 30
0.0
 10
57.75095841513548
 20
32.00738315209015
 30
0.0
 10
57.75189437218237
 20
32.02861306824803
 30
0.0
 10
57.75237268277091
 20
32.03946238417102
 30
0.0
  0
SPLINE
  5
F7
330
1F
100
AcDbEntity
  8
0
  6
Continuous
 62
     7
370
    25
100
AcDbSpline
210
0.0
220
0.0
230
1.0
 70
     8
 71
     3
 72
    11
 73
     7
 74
     0
 42
0.00000001
 43
0.00000001
 40
0.0
 40
0.0
 40
0.0
 40
0.0
 40
0.2516095171558487
 40
0.496493079866558
 40
0.7426069856111284
 40
0.9999999999999999
 40
0.9999999999999999
 40
0.9999999999999999
 40
0.9999999999999999
 10
57.56359104398928
 20
31.86629636100501
 30
0.0
 10
57.57696209090287
 20
31.86706835560499
 30
0.0
 10
57.60334675368598
 20
31.86859170806366
 30
0.0
 10
57.64142692945828
 20
31.88011817050946
 30
0.0
 10
57.67654829948613
 20
31.89942574243679
 30
0.0
 10
57.6964615648418
 20
31.91736001251357
 30
0.0
 10
57.70664123703947
 20
31.92652802123667
 30
0.0
  0
SPLINE
  5
F8
330
1F
100
AcDbEntity
  8
0
  6
Continuous
 62
     7
370
    25
100
AcDbSpline
210
0.0
220
0.0
230
1.0
 70
     8
 71
     3
 72
    15
 73
    11
 74
     0
 42
0.00000001
 43
0.00000001
 40
0.0
 40
0.0
 40
0.0
 40
0.0
 40
0.1215042446907352
 40
0.2399194382132711
 40
0.3607014484775901
 40
0.481398205856563
 40
0.6046686543565305
 40
0.7308278400410387
 40
0.8619579002966855
 40
1.0
 40
1.0
 40
1.0
 40
1.0
 10
57.40548293588117
 20
31.92652802123667
 30
0.0
 10
57.41056717373891
 20
31.92164154589704
 30
0.0
 10
57.42060639083522
 20
31.91199282604114
 30
0.0
 10
57.43782688090508
 20
31.90005450383322
 30
0.0
 10
57.45571902850137
 20
31.88926795962468
 30
0.0
 10
57.475250693775
 20
31.88107928906533
 30
0.0
 10
57.49558247334716
 20
31.87411627091642
 30
0.0
 10
57.5172856242315
 20
31.87002570778312
 30
0.0
 10
57.53996482414667
 20
31.86655044200263
 30
0.0
 10
57.55558196052095
 20
31.86638249225796
 30
0.0
 10
57.56359104398928
 20
31.86629636100501
 30
0.0
  0
SPLINE
  5
F9
330
1F
100
AcDbEntity
  8
0
  6
Continuous
 62
     7
370
    25
100
AcDbSpline
210
0.0
220
0.0
230
1.0
 70
     8
 71
     3
 72
    11
 73
     7
 74
     0
 42
0.00000001
 43
0.00000001
 40
0.0
 40
0.0
 40
0.0
 40
0.0
 40
0.2562600332085403
 40
0.5016208045865226
 40
0.7449078564687275
 40
1.0
 40
1.0
 40
1.0
 40
1.0
 10
57.35278023317847
 20
32.05452029922894
 30
0.0
 10
57.35341044797539
 20
32.04236580067369
 30
0.0
 10
57.35464407324864
 20
32.01857375917469
 30
0.0
 10
57.36475821726751
 20
31.98445428237279
 30
0.0
 10
57.38149591407416
 20
31.95309538770881
 30
0.0
 10
57.39736198888104
 20
31.93552255906587
 30
0.0
 10
57.40548293588117
 20
31.92652802123667
 30
0.0
  0
LINE
  5
FA
330
1F
100
AcDbEntity
  8
0
  6
Continuous
 62
     7
370
    25
100
AcDbLine
 10
57.3527802332
 20
32.4610840058
 30
0.0
 11
57.3527802332
 21
32.0545202992
 31
0.0
  0
LINE
  5
FB
330
1F
100
AcDbEntity
  8
0
  6
Continuous
 62
     7
370
    25
100
AcDbLine
 10
55.0776699086
 20
19.5391624664
 30
0.0
 11
59.0919832219
 21
19.5391624664
 31
0.0
  0
LINE
  5
FC
330
1F
100
AcDbEntity
  8
0
  6
Continuous
 62
     7
370
    25
100
AcDbLine
 10
42.0861168878
 20
38.6726704036
 30
0.0
 11
42.0861168878
 21
22.3449647585
 31
0.0
  0
LINE
  5
FD
330
1F
100
AcDbEntity
  8
0
  6
Continuous
 62
     7
370
    25
100
AcDbLine
 10
41.0848265652
 20
23.3462550811
 30
0.0
 11
41.0848265652
 21
37.6713800811
 31
0.0
  0
LINE
  5
FE
330
1F
100
AcDbEntity
  8
0
  6
Continuous
 62
     7
370
    18
100
AcDbLine
 10
41.3404423899
 20
37.9269959058
 30
0.0
 11
52.4748265652
 21
38.2749454113
 31
0.0
  0
LINE
  5
FF
330
1F
100
AcDbEntity
  8
0
  6
Continuous
 62
     7
370
    18
100
AcDbLine
 10
41.3404423899
 20
23.0906392563
 30
0.0
 11
52.4748265652
 21
22.7426897509
 31
0.0
  0
LINE
  5
100
330
1F
100
AcDbEntity
  8
0
  6
Continuous
 62
     7
370
    25
100
AcDbLine
 10
52.4748265652
 20
22.0203175811
 30
0.0
 11
52.4748265652
 21
38.9973175811
 31
0.0
  0
LINE
  5
101
330
1F
100
AcDbEntity
  8
FORMAT
  6
CENTERX2
370
    18
100
AcDbLine
 10
60.9720510639
 20
30.5088175811
 30
0.0
 11
40.0848265652
 21
30.5088175811
 31
0.0
  0
SPLINE
  5
102
330
1F
100
AcDbEntity
  8
0
  6
Continuous
 62
     7
370
    25
100
AcDbSpline
210
0.0
220
0.0
230
1.0
 70
    24
 71
     3
 72
    16
 73
    12
 74
     0
 42
0.00000001
 43
0.00000001
 40
0.0
 40
0.0
 40
0.0
 40
0.0
 40
0.2499999999999999
 40
0.2499999999999999
 40
0.4999999999999998
 40
0.4999999999999998
 40
0.6249999999999998
 40
0.6249999999999998
 40
0.7499999999999997
 40
0.7499999999999997
 40
1.0
 40
1.0
 40
1.0
 40
1.0
 10
69.16554364203813
 20
35.99364513835376
 30
0.0
 10
69.94112846848516
 20
36.44142924668234
 30
0.0
 10
70.72236794477385
 20
36.89247806861918
 30
0.0
 10
72.30114019049502
 20
37.8039826496754
 30
0.0
 10
73.09879408681454
 20
38.26450834143563
 30
0.0
 10
74.31030318259005
 20
38.96397344400731
 30
0.0
 10
74.71603977716428
 20
39.19822557610482
 30
0.0
 10
75.51862954864596
 20
39.66160099671862
 30
0.0
 10
75.91723364940593
 20
39.89173518159247
 30
0.0
 10
77.10594935114038
 20
40.57804051197879
 30
0.0
 10
77.8889920034666
 20
41.03013039808629
 30
0.0
 10
78.66554364203819
 20
41.47847269565524
 30
0.0
  0
SPLINE
  5
103
330
1F
100
AcDbEntity
  8
0
  6
Continuous
 62
     7
370
    25
100
AcDbSpline
210
0.0
220
0.0
230
1.0
 70
    24
 71
     3
 72
    16
 73
    12
 74
     0
 42
0.00000001
 43
0.00000001
 40
0.0
 40
0.0
 40
0.0
 40
0.0
 40
0.2500000000000001
 40
0.2500000000000001
 40
0.5000000000000002
 40
0.5000000000000002
 40
0.6250000000000001
 40
0.6250000000000001
 40
0.7500000000000001
 40
0.7500000000000001
 40
1.0
 40
1.0
 40
1.0
 40
1.0
 10
78.66554364203812
 20
41.47847269565525
 30
0.0
 10
79.44112846848515
 20
41.03068858732667
 30
0.0
 10
80.22236794477385
 20
40.57963976538982
 30
0.0
 10
81.80114019049502
 20
39.6681351843336
 30
0.0
 10
82.59879408681455
 20
39.20760949257337
 30
0.0
 10
83.81030318259005
 20
38.5081443900017
 30
0.0
 10
84.21603977716428
 20
38.27389225790418
 30
0.0
 10
85.01862954864598
 20
37.81051683729039
 30
0.0
 10
85.41723364940593
 20
37.58038265241653
 30
0.0
 10
86.6059493511404
 20
36.89407732203021
 30
0.0
 10
87.38899200346658
 20
36.44198743592273
 30
0.0
 10
88.1655436420382
 20
35.99364513835376
 30
0.0
  0
SPLINE
  5
104
330
1F
100
AcDbEntity
  8
0
  6
Continuous
 62
     7
370
    25
100
AcDbSpline
210
0.0
220
0.0
230
1.0
 70
    24
 71
     3
 72
    14
 73
    10
 74
     0
 42
0.00000001
 43
0.00000001
 40
0.0
 40
0.0
 40
0.0
 40
0.0
 40
0.25
 40
0.25
 40
0.5
 40
0.5
 40
0.75
 40
0.75
 40
1.0
 40
1.0
 40
1.0
 40
1.0
 10
88.16554364203817
 20
35.99364513835378
 30
0.0
 10
88.16554364203817
 20
35.10079197108494
 30
0.0
 10
88.16554364203817
 20
34.19969061035221
 30
0.0
 10
88.16554364203817
 20
32.37336640389919
 30
0.0
 10
88.16554364203817
 20
31.44703487918021
 30
0.0
 10
88.16554364203817
 20
29.56783821800942
 30
0.0
 10
88.16554364203817
 20
28.64308781184165
 30
0.0
 10
88.16554364203817
 20
26.81763733554131
 30
0.0
 10
88.16554364203817
 20
25.916757979434
 30
0.0
 10
88.16554364203817
 20
25.02399002375089
 30
0.0
  0
SPLINE
  5
105
330
1F
100
AcDbEntity
  8
0
  6
Continuous
 62
     7
370
    25
100
AcDbSpline
210
0.0
220
0.0
230
1.0
 70
    24
 71
     3
 72
    16
 73
    12
 74
     0
 42
0.00000001
 43
0.00000001
 40
0.0
 40
0.0
 40
0.0
 40
0.0
 40
0.2500000000000002
 40
0.2500000000000002
 40
0.5000000000000001
 40
0.5000000000000001
 40
0.6250000000000001
 40
0.6250000000000001
 40
0.75
 40
0.75
 40
1.0
 40
1.0
 40
1.0
 40
1.0
 10
88.16554364203822
 20
25.02399002375092
 30
0.0
 10
87.38995881559119
 20
24.57620591542233
 30
0.0
 10
86.60871933930248
 20
24.12515709348549
 30
0.0
 10
85.02994709358131
 20
23.21365251242926
 30
0.0
 10
84.2322931972618
 20
22.75312682066903
 30
0.0
 10
83.02078410148627
 20
22.05366171809736
 30
0.0
 10
82.61504750691205
 20
21.81940958599984
 30
0.0
 10
81.81245773543036
 20
21.35603416538605
 30
0.0
 10
81.4138536346704
 20
21.12589998051219
 30
0.0
 10
80.22513793293594
 20
20.43959465012587
 30
0.0
 10
79.44209528060975
 20
19.98750476401839
 30
0.0
 10
78.66554364203813
 20
19.53916246644943
 30
0.0
  0
SPLINE
  5
106
330
1F
100
AcDbEntity
  8
0
  6
Continuous
 62
     7
370
    25
100
AcDbSpline
210
0.0
220
0.0
230
1.0
 70
    24
 71
     3
 72
    16
 73
    12
 74
     0
 42
0.00000001
 43
0.00000001
 40
0.0
 40
0.0
 40
0.0
 40
0.0
 40
0.25
 40
0.25
 40
0.5
 40
0.5
 40
0.625
 40
0.625
 40
0.75
 40
0.75
 40
1.0
 40
1.0
 40
1.0
 40
1.0
 10
78.66554364203822
 20
19.53916246644941
 30
0.0
 10
77.88995881559119
 20
19.986946574778
 30
0.0
 10
77.10871933930248
 20
20.43799539671484
 30
0.0
 10
75.52994709358131
 20
21.34949997777107
 30
0.0
 10
74.7322931972618
 20
21.8100256695313
 30
0.0
 10
73.52078410148629
 20
22.50949077210296
 30
0.0
 10
73.11504750691206
 20
22.74374290420048
 30
0.0
 10
72.31245773543037
 20
23.20711832481427
 30
0.0
 10
71.9138536346704
 20
23.43725250968813
 30
0.0
 10
70.72513793293595
 20
24.12355784007444
 30
0.0
 10
69.94209528060975
 20
24.57564772618193
 30
0.0
 10
69.16554364203814
 20
25.0239900237509
 30
0.0
  0
SPLINE
  5
107
330
1F
100
AcDbEntity
  8
0
  6
Continuous
 62
     7
370
    25
100
AcDbSpline
210
0.0
220
0.0
230
1.0
 70
    24
 71
     3
 72
    14
 73
    10
 74
     0
 42
0.00000001
 43
0.00000001
 40
0.0
 40
0.0
 40
0.0
 40
0.0
 40
0.25
 40
0.25
 40
0.5
 40
0.5
 40
0.75
 40
0.75
 40
1.0
 40
1.0
 40
1.0
 40
1.0
 10
69.16554364203817
 20
25.02399002375088
 30
0.0
 10
69.16554364203817
 20
25.91684319101972
 30
0.0
 10
69.16554364203817
 20
26.81794455175245
 30
0.0
 10
69.16554364203817
 20
28.64426875820547
 30
0.0
 10
69.16554364203817
 20
29.57060028292445
 30
0.0
 10
69.16554364203817
 20
31.44979694409524
 30
0.0
 10
69.16554364203817
 20
32.37454735026301
 30
0.0
 10
69.16554364203817
 20
34.19999782656335
 30
0.0
 10
69.16554364203817
 20
35.10087718267066
 30
0.0
 10
69.16554364203817
 20
35.99364513835378
 30
0.0
  0
CIRCLE
  5
108
330
1F
100
AcDbEntity
  8
0
  6
Continuous
 62
     7
370
    25
100
AcDbCircle
 10
78.665543642
 20
30.5088175811
 30
0.0
 40
9.249999999999986
  0
CIRCLE
  5
109
330
1F
100
AcDbEntity
  8
0
  6
Continuous
 62
     7
370
    25
100
AcDbCircle
 10
78.665543642
 20
30.5088175811
 30
0.0
 40
8.400000000000006
  0
CIRCLE
  5
10A
330
1F
100
AcDbEntity
  8
0
  6
Continuous
 62
     7
370
    25
100
AcDbCircle
 10
78.665543642
 20
30.5088175811
 30
0.0
 40
8.249999999999986
  0
CIRCLE
  5
10B
330
1F
100
AcDbEntity
  8
0
  6
Continuous
 62
     7
370
    25
100
AcDbCircle
 10
78.665543642
 20
30.5088175811
 30
0.0
 40
8.099999999999994
  0
CIRCLE
  5
10C
330
1F
100
AcDbEntity
  8
0
  6
Continuous
 62
     7
370
    25
100
AcDbCircle
 10
78.665543642
 20
30.5088175811
 30
0.0
 40
7.0619741
  0
CIRCLE
  5
10D
330
1F
100
AcDbEntity
  8
0
  6
Continuous
 62
     7
370
    25
100
AcDbCircle
 10
78.665543642
 20
30.5088175811
 30
0.0
 40
6.062034571424917
  0
CIRCLE
  5
10E
330
1F
100
AcDbEntity
  8
0
  6
Continuous
 62
     7
370
    25
100
AcDbCircle
 10
78.665543642
 20
30.5088175811
 30
0.0
 40
5.67578948552962
  0
CIRCLE
  5
10F
330
1F
100
AcDbEntity
  8
0
  6
Continuous
 62
     7
370
    25
100
AcDbCircle
 10
78.665543642
 20
30.5088175811
 30
0.0
 40
5.649999999999991
  0
INSERT
  5
11B
330
1F
100
AcDbEntity
  8
FORMAT
100
AcDbBlockReference
  2
SW_CENTERMARKSYMBOL_0
 10
78.665543642
 20
30.5088175811
 30
0.0
  0
ARC
  5
11C
330
1F
100
AcDbEntity
  8
0
  6
Continuous
 62
     7
370
    18
100
AcDbCircle
 10
78.665543642
 20
30.5088175811
 30
0.0
 40
6.873116442440487
100
AcDbArc
 50
75.0
 51
345.0
  0
LINE
  5
11D
330
1F
100
AcDbEntity
  8
0
  6
Continuous
 62
     7
370
    25
100
AcDbLine
 10
59.9404889979
 20
46.7127968489
 30
0.0
 11
60.0848265652
 21
46.9627968489
 31
0.0
  0
LINE
  5
11E
330
1F
100
AcDbEntity
  8
0
  6
Continuous
 62
     7
370
    25
100
AcDbLine
 10
60.0848265652
 20
65.4627968489
 30
0.0
 11
59.9404889979
 21
65.7127968489
 31
0.0
  0
LINE
  5
11F
330
1F
100
AcDbEntity
  8
0
  6
Continuous
 62
     7
370
    25
100
AcDbLine
 10
54.2291641325
 20
65.7127968489
 30
0.0
 11
54.0848265652
 21
65.4627968489
 31
0.0
  0
LINE
  5
120
330
1F
100
AcDbEntity
  8
0
  6
Continuous
 62
     7
370
    25
100
AcDbLine
 10
54.0848265652
 20
46.9627968489
 30
0.0
 11
54.2291641325
 21
46.7127968489
 31
0.0
  0
LINE
  5
121
330
1F
100
AcDbEntity
  8
0
  6
Continuous
 62
     7
370
    25
100
AcDbLine
 10
54.0848265652
 20
64.7516093489
 30
0.0
 11
42.0861168878
 21
64.3766496714
 31
0.0
  0
LINE
  5
122
330
1F
100
AcDbEntity
  8
0
  6
Continuous
 62
     7
370
    25
100
AcDbLine
 10
42.0861168878
 20
48.0489440263
 30
0.0
 11
54.0848265652
 21
47.6739843489
 31
0.0
  0
LINE
  5
123
330
1F
100
AcDbEntity
  8
0
  6
Continuous
 62
     7
370
    25
100
AcDbLine
 10
42.0861168878
 20
64.3766496714
 30
0.0
 11
41.0848265652
 21
63.3753593489
 31
0.0
  0
LINE
  5
124
330
1F
100
AcDbEntity
  8
0
  6
Continuous
 62
     7
370
    25
100
AcDbLine
 10
41.0848265652
 20
49.0502343489
 30
0.0
 11
42.0861168878
 21
48.0489440263
 31
0.0
  0
SPLINE
  5
125
330
1F
100
AcDbEntity
  8
0
  6
Continuous
 62
     7
370
    25
100
AcDbSpline
210
0.0
220
0.0
230
1.0
 70
     8
 71
     3
 72
    16
 73
    12
 74
     0
 42
0.00000001
 43
0.00000001
 40
0.0
 40
0.0
 40
0.0
 40
0.0
 40
0.2499999999999999
 40
0.2499999999999999
 40
0.4999999999999998
 40
0.4999999999999998
 40
0.6249999999999998
 40
0.6249999999999998
 40
0.7499999999999997
 40
0.7499999999999997
 40
1.0
 40
1.0
 40
1.0
 40
1.0
 10
59.09198322189587
 20
46.71279684885641
 30
0.0
 10
59.35051149737821
 20
47.48838167530344
 30
0.0
 10
59.56358564412087
 20
48.26962115159214
 30
0.0
 10
59.85876253090775
 20
49.8483933973133
 30
0.0
 10
59.93989160905034
 20
50.64604729363283
 30
0.0
 10
59.94078268529743
 20
51.85755638940834
 30
0.0
 10
59.92094976858078
 20
52.26329298398257
 30
0.0
 10
59.84361186794877
 20
53.06588275546426
 30
0.0
 10
59.7861853706844
 20
53.46448685622421
 30
0.0
 10
59.56443525271689
 20
54.65320255795868
 30
0.0
 10
59.35083376808623
 20
55.43624521028487
 30
0.0
 10
59.09198322189569
 20
56.21279684885648
 30
0.0
  0
SPLINE
  5
126
330
1F
100
AcDbEntity
  8
0
  6
Continuous
 62
     7
370
    25
100
AcDbSpline
210
0.0
220
0.0
230
1.0
 70
     8
 71
     3
 72
    16
 73
    12
 74
     0
 42
0.00000001
 43
0.00000001
 40
0.0
 40
0.0
 40
0.0
 40
0.0
 40
0.2500000000000001
 40
0.2500000000000001
 40
0.5000000000000002
 40
0.5000000000000002
 40
0.6250000000000001
 40
0.6250000000000001
 40
0.7500000000000001
 40
0.7500000000000001
 40
1.0
 40
1.0
 40
1.0
 40
1.0
 10
59.09198322189587
 20
56.21279684885641
 30
0.0
 10
59.35051149737821
 20
56.98838167530344
 30
0.0
 10
59.56358564412086
 20
57.76962115159213
 30
0.0
 10
59.85876253090775
 20
59.3483933973133
 30
0.0
 10
59.93989160905035
 20
60.14604729363282
 30
0.0
 10
59.94078268529743
 20
61.35755638940833
 30
0.0
 10
59.92094976858078
 20
61.76329298398257
 30
0.0
 10
59.84361186794877
 20
62.56588275546425
 30
0.0
 10
59.7861853706844
 20
62.96448685622422
 30
0.0
 10
59.56443525271689
 20
64.15320255795868
 30
0.0
 10
59.35083376808623
 20
64.93624521028488
 30
0.0
 10
59.09198322189569
 20
65.71279684885647
 30
0.0
  0
SPLINE
  5
127
330
1F
100
AcDbEntity
  8
0
  6
Continuous
 62
     7
370
    25
100
AcDbSpline
210
0.0
220
0.0
230
1.0
 70
    24
 71
     3
 72
    14
 73
    10
 74
     0
 42
0.00000001
 43
0.00000001
 40
0.0
 40
0.0
 40
0.0
 40
0.0
 40
0.1638447530288202
 40
0.3277351479048675
 40
0.4915418296821907
 40
0.6583819880824048
 40
0.8253261305668617
 40
0.9921355565083834
 40
1.0
 40
1.0
 40
1.0
 40
1.0
 10
59.0919832218955
 20
65.71279684885644
 30
0.0
 10
59.17363243808564
 20
65.71279684885644
 30
0.0
 10
59.33695361529591
 20
65.71279684885644
 30
0.0
 10
59.54189232698099
 20
65.71279684885644
 30
0.0
 10
59.7122010545659
 20
65.71279684885644
 30
0.0
 10
59.84071880935179
 20
65.71279684885644
 30
0.0
 10
59.91620256825364
 20
65.71279684885644
 30
0.0
 10
59.94841517152886
 20
65.71279684885644
 30
0.0
 10
59.93969645905177
 20
65.71279684885644
 30
0.0
 10
59.93930391137525
 20
65.71279684885644
 30
0.0
  0
SPLINE
  5
128
330
1F
100
AcDbEntity
  8
0
  6
Continuous
 62
     7
370
    25
100
AcDbSpline
210
0.0
220
0.0
230
1.0
 70
    24
 71
     3
 72
    13
 73
     9
 74
     0
 42
0.00000001
 43
0.00000001
 40
0.0
 40
0.0
 40
0.0
 40
0.0
 40
0.1582112064824755
 40
0.3244199911213988
 40
0.4905240809157955
 40
0.6603029235795917
 40
0.8301769608714257
 40
1.0
 40
1.0
 40
1.0
 40
1.0
 10
59.93930391137526
 20
46.71279684885646
 30
0.0
 10
59.9351020407678
 20
46.71279684885646
 30
0.0
 10
59.92648589494939
 20
46.71279684885645
 30
0.0
 10
59.84950868811006
 20
46.71279684885645
 30
0.0
 10
59.72695203166474
 20
46.71279684885646
 30
0.0
 10
59.55587385144971
 20
46.71279684885645
 30
0.0
 10
59.34562235436957
 20
46.71279684885645
 30
0.0
 10
59.17652113709101
 20
46.71279684885645
 30
0.0
 10
59.0919832218955
 20
46.71279684885645
 30
0.0
  0
LINE
  5
129
330
1F
100
AcDbEntity
  8
0
  6
Continuous
 62
     7
370
    25
100
AcDbLine
 10
60.0848265652
 20
46.9627968489
 30
0.0
 11
60.0848265652
 21
65.4627968489
 31
0.0
  0
SPLINE
  5
12A
330
1F
100
AcDbEntity
  8
0
  6
Continuous
 62
     7
370
    25
100
AcDbSpline
210
0.0
220
0.0
230
1.0
 70
    24
 71
     3
 72
    13
 73
     9
 74
     0
 42
0.00000001
 43
0.00000001
 40
0.0
 40
0.0
 40
0.0
 40
0.0
 40
0.1582112064824755
 40
0.3244199911213988
 40
0.4905240809157955
 40
0.6603029235795917
 40
0.8301769608714257
 40
1.0
 40
1.0
 40
1.0
 40
1.0
 10
54.23034921907435
 20
46.71279684885646
 30
0.0
 10
54.23455108968179
 20
46.71279684885646
 30
0.0
 10
54.2431672355002
 20
46.71279684885645
 30
0.0
 10
54.32014444233953
 20
46.71279684885645
 30
0.0
 10
54.44270109878484
 20
46.71279684885646
 30
0.0
 10
54.61377927899988
 20
46.71279684885645
 30
0.0
 10
54.82403077608001
 20
46.71279684885645
 30
0.0
 10
54.99313199335859
 20
46.71279684885645
 30
0.0
 10
55.07766990855409
 20
46.71279684885645
 30
0.0
  0
SPLINE
  5
12B
330
1F
100
AcDbEntity
  8
0
  6
Continuous
 62
     7
370
    25
100
AcDbSpline
210
0.0
220
0.0
230
1.0
 70
    24
 71
     3
 72
    14
 73
    10
 74
     0
 42
0.00000001
 43
0.00000001
 40
0.0
 40
0.0
 40
0.0
 40
0.0
 40
0.1638447530288202
 40
0.3277351479048675
 40
0.4915418296821907
 40
0.6583819880824048
 40
0.8253261305668617
 40
0.9921355565083834
 40
1.0
 40
1.0
 40
1.0
 40
1.0
 10
55.07766990855409
 20
65.71279684885644
 30
0.0
 10
54.99602069236395
 20
65.71279684885644
 30
0.0
 10
54.83269951515369
 20
65.71279684885644
 30
0.0
 10
54.6277608034686
 20
65.71279684885644
 30
0.0
 10
54.45745207588369
 20
65.71279684885644
 30
0.0
 10
54.3289343210978
 20
65.71279684885644
 30
0.0
 10
54.25345056219596
 20
65.71279684885644
 30
0.0
 10
54.22123795892072
 20
65.71279684885644
 30
0.0
 10
54.22995667139782
 20
65.71279684885644
 30
0.0
 10
54.23034921907435
 20
65.71279684885644
 30
0.0
  0
SPLINE
  5
12C
330
1F
100
AcDbEntity
  8
0
  6
Continuous
 62
     7
370
    25
100
AcDbSpline
210
0.0
220
0.0
230
1.0
 70
     8
 71
     3
 72
    16
 73
    12
 74
     0
 42
0.00000001
 43
0.00000001
 40
0.0
 40
0.0
 40
0.0
 40
0.0
 40
0.2500000000000001
 40
0.2500000000000001
 40
0.5000000000000002
 40
0.5000000000000002
 40
0.6250000000000001
 40
0.6250000000000001
 40
0.7500000000000001
 40
0.7500000000000001
 40
1.0
 40
1.0
 40
1.0
 40
1.0
 10
55.07766990855373
 20
56.21279684885641
 30
0.0
 10
54.81914163307138
 20
56.98838167530344
 30
0.0
 10
54.60606748632873
 20
57.76962115159213
 30
0.0
 10
54.31089059954186
 20
59.3483933973133
 30
0.0
 10
54.22976152139925
 20
60.14604729363282
 30
0.0
 10
54.22887044515216
 20
61.35755638940833
 30
0.0
 10
54.24870336186881
 20
61.76329298398257
 30
0.0
 10
54.32604126250082
 20
62.56588275546425
 30
0.0
 10
54.3834677597652
 20
62.96448685622422
 30
0.0
 10
54.60521787773271
 20
64.15320255795868
 30
0.0
 10
54.81881936236336
 20
64.93624521028488
 30
0.0
 10
55.0776699085539
 20
65.71279684885647
 30
0.0
  0
SPLINE
  5
12D
330
1F
100
AcDbEntity
  8
0
  6
Continuous
 62
     7
370
    25
100
AcDbSpline
210
0.0
220
0.0
230
1.0
 70
     8
 71
     3
 72
    16
 73
    12
 74
     0
 42
0.00000001
 43
0.00000001
 40
0.0
 40
0.0
 40
0.0
 40
0.0
 40
0.2499999999999999
 40
0.2499999999999999
 40
0.4999999999999998
 40
0.4999999999999998
 40
0.6249999999999998
 40
0.6249999999999998
 40
0.7499999999999997
 40
0.7499999999999997
 40
1.0
 40
1.0
 40
1.0
 40
1.0
 10
55.07766990855373
 20
46.71279684885641
 30
0.0
 10
54.81914163307138
 20
47.48838167530344
 30
0.0
 10
54.60606748632873
 20
48.26962115159214
 30
0.0
 10
54.31089059954186
 20
49.8483933973133
 30
0.0
 10
54.22976152139925
 20
50.64604729363283
 30
0.0
 10
54.22887044515216
 20
51.85755638940834
 30
0.0
 10
54.24870336186881
 20
52.26329298398257
 30
0.0
 10
54.32604126250082
 20
53.06588275546426
 30
0.0
 10
54.3834677597652
 20
53.46448685622421
 30
0.0
 10
54.60521787773271
 20
54.65320255795868
 30
0.0
 10
54.81881936236337
 20
55.43624521028487
 30
0.0
 10
55.07766990855391
 20
56.21279684885648
 30
0.0
  0
LINE
  5
12E
330
1F
100
AcDbEntity
  8
0
  6
Continuous
 62
     7
370
    25
100
AcDbLine
 10
54.0848265652
 20
46.9627968489
 30
0.0
 11
54.0848265652
 21
65.4627968489
 31
0.0
  0
LINE
  5
12F
330
1F
100
AcDbEntity
  8
0
  6
Continuous
 62
     7
370
    25
100
AcDbLine
 10
55.0776699086
 20
65.7127968489
 30
0.0
 11
59.0919832219
 21
65.7127968489
 31
0.0
  0
LINE
  5
130
330
1F
100
AcDbEntity
  8
0
  6
Continuous
 62
     7
370
    25
100
AcDbLine
 10
55.0776699086
 20
56.2127968489
 30
0.0
 11
59.0919832219
 21
56.2127968489
 31
0.0
  0
LINE
  5
131
330
1F
100
AcDbEntity
  8
0
  6
Continuous
 62
     7
370
    25
100
AcDbLine
 10
55.0776699086
 20
46.7127968489
 30
0.0
 11
59.0919832219
 21
46.7127968489
 31
0.0
  0
LINE
  5
132
330
1F
100
AcDbEntity
  8
0
  6
Continuous
 62
     7
370
    25
100
AcDbLine
 10
42.0861168878
 20
64.3766496714
 30
0.0
 11
42.0861168878
 21
48.0489440263
 31
0.0
  0
LINE
  5
133
330
1F
100
AcDbEntity
  8
0
  6
Continuous
 62
     7
370
    25
100
AcDbLine
 10
41.0848265652
 20
56.2127968489
 30
0.0
 11
41.0848265652
 21
63.3753593489
 31
0.0
  0
LINE
  5
134
330
1F
100
AcDbEntity
  8
0
  6
Continuous
 62
     7
370
    25
100
AcDbLine
 10
41.0848265652
 20
49.0502343489
 30
0.0
 11
41.0848265652
 21
56.2127968489
 31
0.0
  0
LINE
  5
135
330
1F
100
AcDbEntity
  8
0
  6
Continuous
 62
     7
370
    18
100
AcDbLine
 10
41.3404423899
 20
63.6309751736
 30
0.0
 11
52.4748265652
 21
63.9789246791
 31
0.0
  0
LINE
  5
136
330
1F
100
AcDbEntity
  8
0
  6
Continuous
 62
     7
370
    18
100
AcDbLine
 10
41.3404423899
 20
48.7946185241
 30
0.0
 11
52.4748265652
 21
48.4466690187
 31
0.0
  0
LINE
  5
137
330
1F
100
AcDbEntity
  8
0
  6
Continuous
 62
     7
370
    25
100
AcDbLine
 10
52.4748265652
 20
47.7242968489
 30
0.0
 11
52.4748265652
 21
64.7012968489
 31
0.0
  0
LINE
  5
138
330
1F
100
AcDbEntity
  8
FORMAT
  6
CENTERX2
370
    18
100
AcDbLine
 10
60.6929798159
 20
56.2127968489
 30
0.0
 11
40.0848265652
 21
56.2127968489
 31
0.0
  0
ENDSEC
  0
SECTION
  2
OBJECTS
  0
DICTIONARY
  5
C
330
0
100
AcDbDictionary
281
     1
  3
ACAD_GROUP
350
D
  3
ACAD_LAYOUT
350
1A
  3
ACAD_MLINESTYLE
350
17
  3
ACAD_PLOTSETTINGS
350
19
  3
ACAD_PLOTSTYLENAME
350
E
  3
ACAD_SCALELIST
350
47
  3
DWGPROPS
350
139
  0
DICTIONARY
  5
D
102
{ACAD_REACTORS
330
C
102
}
330
C
100
AcDbDictionary
281
     1
  0
DICTIONARY
  5
1A
102
{ACAD_REACTORS
330
C
102
}
330
C
100
AcDbDictionary
281
     1
  3
Layout1
350
1E
  3
Layout2
350
26
  3
Model
350
22
  0
DICTIONARY
  5
17
102
{ACAD_REACTORS
330
C
102
}
330
C
100
AcDbDictionary
281
     1
  3
Standard
350
18
  0
DICTIONARY
  5
19
102
{ACAD_REACTORS
330
C
102
}
330
C
100
AcDbDictionary
281
     1
  0
ACDBDICTIONARYWDFLT
  5
E
102
{ACAD_REACTORS
330
C
102
}
330
C
100
AcDbDictionary
281
     1
  3
Normal
350
F
100
AcDbDictionaryWithDefault
340
F
  0
DICTIONARY
  5
47
102
{ACAD_REACTORS
330
C
102
}
330
C
100
AcDbDictionary
281
     1
  3
A0
350
48
  3
A1
350
49
  3
A2
350
4A
  3
A3
350
4B
  3
A4
350
4C
  3
A5
350
4D
  3
A6
350
4E
  3
A7
350
4F
  3
A8
350
50
  3
A9
350
51
  3
B0
350
52
  3
B1
350
53
  3
B2
350
54
  3
B3
350
55
  3
B4
350
56
  3
B5
350
57
  3
B6
350
58
  0
XRECORD
  5
139
102
{ACAD_REACTORS
330
C
102
}
330
C
100
AcDbXrecord
280
     1
  1
DWGPROPS COOKIE
  2

  3

  4

  6

  7

  8
user28
  9

300
=
301
=
302
=
303
=
304
=
305
=
306
=
307
=
308
=
309
=
 40
0.0
 41
2460398.298550718
 42
2460398.29855125
  1

 90
        0
  0
LAYOUT
  5
1E
102
{ACAD_REACTORS
330
1A
102
}
330
1A
100
AcDbPlotSettings
  1

  2
none_device
  4

  6

 40
0.0
 41
0.0
 42
0.0
 43
0.0
 44
0.0
 45
0.0
 46
0.0
 47
0.0
 48
0.0
 49
0.0
140
0.0
141
0.0
142
1.0
143
1.0
 70
   688
 72
     1
 73
     0
 74
     5
  7

 75
    16
147
1.0
148
0.0
149
0.0
100
AcDbLayout
  1
Layout1
 70
     1
 71
     1
 10
0.0
 20
0.0
 11
420.0
 21
297.0
 12
0.0
 22
0.0
 32
0.0
 14
1.0000000000E+20
 24
1.0000000000E+20
 34
1.0000000000E+20
 15
-1.0000000000E+20
 25
-1.0000000000E+20
 35
-1.0000000000E+20
146
0.0
 13
0.0
 23
0.0
 33
0.0
 16
1.0
 26
0.0
 36
0.0
 17
0.0
 27
1.0
 37
0.0
 76
     0
330
1B
  0
LAYOUT
  5
26
102
{ACAD_REACTORS
330
1A
102
}
330
1A
100
AcDbPlotSettings
  1

  2
none_device
  4

  6

 40
0.0
 41
0.0
 42
0.0
 43
0.0
 44
0.0
 45
0.0
 46
0.0
 47
0.0
 48
0.0
 49
0.0
140
0.0
141
0.0
142
1.0
143
1.0
 70
   688
 72
     1
 73
     0
 74
     5
  7

 75
    16
147
1.0
148
0.0
149
0.0
100
AcDbLayout
  1
Layout2
 70
     1
 71
     2
 10
0.0
 20
0.0
 11
0.0
 21
0.0
 12
0.0
 22
0.0
 32
0.0
 14
0.0
 24
0.0
 34
0.0
 15
0.0
 25
0.0
 35
0.0
146
0.0
 13
0.0
 23
0.0
 33
0.0
 16
1.0
 26
0.0
 36
0.0
 17
0.0
 27
1.0
 37
0.0
 76
     0
330
23
  0
LAYOUT
  5
22
102
{ACAD_REACTORS
330
1A
102
}
330
1A
100
AcDbPlotSettings
  1

  2
none_device
  4
Letter_(8.50_x_11.00_Inches)
  6

 40
6.35
 41
6.35
 42
6.35000508
 43
6.35000508
 44
215.9
 45
279.4
 46
0.0
 47
0.0
 48
0.0
 49
0.0
140
0.0
141
0.0
142
1.0
143
1.0
 70
  1712
 72
     1
 73
     0
 74
     0
  7

 75
     0
147
1.0
148
0.0
149
0.0
100
AcDbLayout
  1
Model
 70
     1
 71
     0
 10
0.0
 20
0.0
 11
148.5
 21
105.0
 12
0.0
 22
0.0
 32
0.0
 14
0.0
 24
0.0
 34
0.0
 15
148.5
 25
105.0
 35
0.0
146
0.0
 13
0.0
 23
0.0
 33
0.0
 16
1.0
 26
0.0
 36
0.0
 17
0.0
 27
1.0
 37
0.0
 76
     0
330
1F
331
29
  0
MLINESTYLE
  5
18
102
{ACAD_REACTORS
330
17
102
}
330
17
100
AcDbMlineStyle
  2
Standard
 70
     0
  3

 62
   256
 51
90.0
 52
90.0
 71
     2
 49
0.5
 62
   256
  6
BYLAYER
 49
-0.5
 62
   256
  6
BYLAYER
  0
ACDBPLACEHOLDER
  5
F
102
{ACAD_REACTORS
330
E
102
}
330
E
  0
SCALE
  5
48
102
{ACAD_REACTORS
330
47
102
}
330
47
100
AcDbScale
 70
     0
300
1:1
140
1.0
141
1.0
290
     1
  0
SCALE
  5
49
102
{ACAD_REACTORS
330
47
102
}
330
47
100
AcDbScale
 70
     0
300
1:2
140
1.0
141
2.0
290
     0
  0
SCALE
  5
4A
102
{ACAD_REACTORS
330
47
102
}
330
47
100
AcDbScale
 70
     0
300
1:4
140
1.0
141
4.0
290
     0
  0
SCALE
  5
4B
102
{ACAD_REACTORS
330
47
102
}
330
47
100
AcDbScale
 70
     0
300
1:5
140
1.0
141
5.0
290
     0
  0
SCALE
  5
4C
102
{ACAD_REACTORS
330
47
102
}
330
47
100
AcDbScale
 70
     0
300
1:8
140
1.0
141
8.0
290
     0
  0
SCALE
  5
4D
102
{ACAD_REACTORS
330
47
102
}
330
47
100
AcDbScale
 70
     0
300
1:10
140
1.0
141
10.0
290
     0
  0
SCALE
  5
4E
102
{ACAD_REACTORS
330
47
102
}
330
47
100
AcDbScale
 70
     0
300
1:16
140
1.0
141
16.0
290
     0
  0
SCALE
  5
4F
102
{ACAD_REACTORS
330
47
102
}
330
47
100
AcDbScale
 70
     0
300
1:20
140
1.0
141
20.0
290
     0
  0
SCALE
  5
50
102
{ACAD_REACTORS
330
47
102
}
330
47
100
AcDbScale
 70
     0
300
1:30
140
1.0
141
30.0
290
     0
  0
SCALE
  5
51
102
{ACAD_REACTORS
330
47
102
}
330
47
100
AcDbScale
 70
     0
300
1:40
140
1.0
141
40.0
290
     0
  0
SCALE
  5
52
102
{ACAD_REACTORS
330
47
102
}
330
47
100
AcDbScale
 70
     0
300
1:50
140
1.0
141
50.0
290
     0
  0
SCALE
  5
53
102
{ACAD_REACTORS
330
47
102
}
330
47
100
AcDbScale
 70
     0
300
1:100
140
1.0
141
100.0
290
     0
  0
SCALE
  5
54
102
{ACAD_REACTORS
330
47
102
}
330
47
100
AcDbScale
 70
     0
300
2:1
140
2.0
141
1.0
290
     0
  0
SCALE
  5
55
102
{ACAD_REACTORS
330
47
102
}
330
47
100
AcDbScale
 70
     0
300
4:1
140
4.0
141
1.0
290
     0
  0
SCALE
  5
56
102
{ACAD_REACTORS
330
47
102
}
330
47
100
AcDbScale
 70
     0
300
8:1
140
8.0
141
1.0
290
     0
  0
SCALE
  5
57
102
{ACAD_REACTORS
330
47
102
}
330
47
100
AcDbScale
 70
     0
300
10:1
140
10.0
141
1.0
290
     0
  0
SCALE
  5
58
102
{ACAD_REACTORS
330
47
102
}
330
47
100
AcDbScale
 70
     0
300
100:1
140
100.0
141
1.0
290
     0
  0
ENDSEC
  0
EOF
