  0
SECTION
  2
HEADER
  9
$ACADVER
  1
AC1015
  9
$ACADMAINTVER
 70
     6
  9
$DWGCODEPAGE
  3
DOS932
  9
$INSBASE
 10
0.0
 20
0.0
 30
0.0
  9
$EXTMIN
 10
0.0
 20
0.0
 30
0.0
  9
$EXTMAX
 10
148.5
 20
105.0
 30
0.0
  9
$LIMMIN
 10
0.0
 20
0.0
  9
$LIMMAX
 10
148.5
 20
105.0
  9
$ORTHOMODE
 70
     0
  9
$REGENMODE
 70
     1
  9
$FILLMODE
 70
     1
  9
$QTEXTMODE
 70
     0
  9
$MIRRTEXT
 70
     1
  9
$LTSCALE
 40
0.5
  9
$ATTMODE
 70
     1
  9
$TEXTSIZE
 40
1.7638888889
  9
$TRACEWID
 40
1.0
  9
$TEXTSTYLE
  7
Standard
  9
$CLAYER
  8
0
  9
$CELTYPE
  6
ByLayer
  9
$CECOLOR
 62
   256
  9
$CELTSCALE
 40
1.0
  9
$DISPSILH
 70
     0
  9
$DIMSCALE
 40
1.0
  9
$DIMASZ
 40
1.3642578125
  9
$DIMEXO
 40
0.5
  9
$DIMDLI
 40
3.75
  9
$DIMRND
 40
0.0
  9
$DIMDLE
 40
0.0
  9
$DIMEXE
 40
0.5
  9
$DIMTP
 40
0.0
  9
$DIMTM
 40
0.0
  9
$DIMTXT
 40
1.7638888889
  9
$DIMCEN
 40
2.5
  9
$DIMTSZ
 40
0.0
  9
$DIMTOL
 70
     0
  9
$DIMLIM
 70
     0
  9
$DIMTIH
 70
     1
  9
$DIMTOH
 70
     1
  9
$DIMSE1
 70
     0
  9
$DIMSE2
 70
     0
  9
$DIMTAD
 70
     1
  9
$DIMZIN
 70
     0
  9
$DIMBLK
  1

  9
$DIMASO
 70
     1
  9
$DIMSHO
 70
     1
  9
$DIMPOST
  1

  9
$DIMAPOST
  1

  9
$DIMALT
 70
     0
  9
$DIMALTD
 70
     3
  9
$DIMALTF
 40
0.0393700787
  9
$DIMLFAC
 40
1.0
  9
$DIMTOFL
 70
     1
  9
$DIMTVP
 40
0.0
  9
$DIMTIX
 70
     0
  9
$DIMSOXD
 70
     0
  9
$DIMSAH
 70
     0
  9
$DIMBLK1
  1

  9
$DIMBLK2
  1

  9
$DIMSTYLE
  2
ISO-25
  9
$DIMCLRD
 70
     0
  9
$DIMCLRE
 70
     0
  9
$DIMCLRT
 70
     0
  9
$DIMTFAC
 40
1.0
  9
$DIMGAP
 40
0.762
  9
$DIMJUST
 70
     0
  9
$DIMSD1
 70
     0
  9
$DIMSD2
 70
     0
  9
$DIMTOLJ
 70
     0
  9
$DIMTZIN
 70
     0
  9
$DIMALTZ
 70
     0
  9
$DIMALTTZ
 70
     0
  9
$DIMUPT
 70
     0
  9
$DIMDEC
 70
     2
  9
$DIMTDEC
 70
     2
  9
$DIMALTU
 70
     2
  9
$DIMALTTD
 70
     3
  9
$DIMTXSTY
  7
Standard
  9
$DIMAUNIT
 70
     0
  9
$DIMADEC
 70
     2
  9
$DIMALTRND
 40
0.0
  9
$DIMAZIN
 70
     0
  9
$DIMDSEP
 70
    44
  9
$DIMATFIT
 70
     3
  9
$DIMFRAC
 70
     0
  9
$DIMLDRBLK
  1

  9
$DIMLUNIT
 70
     2
  9
$DIMLWD
 70
    -2
  9
$DIMLWE
 70
    -2
  9
$DIMTMOVE
 70
     0
  9
$LUNITS
 70
     2
  9
$LUPREC
 70
     2
  9
$SKETCHINC
 40
1.0
  9
$FILLETRAD
 40
0.0
  9
$AUNITS
 70
     0
  9
$AUPREC
 70
     2
  9
$MENU
  1
.
  9
$ELEVATION
 40
0.0
  9
$PELEVATION
 40
0.0
  9
$THICKNESS
 40
0.0
  9
$LIMCHECK
 70
     0
  9
$CHAMFERA
 40
0.0
  9
$CHAMFERB
 40
0.0
  9
$CHAMFERC
 40
0.0
  9
$CHAMFERD
 40
0.0
  9
$SKPOLY
 70
     0
  9
$TDCREATE
 40
2460398.672720578
  9
$TDUCREATE
 40
2460398.297720578
  9
$TDUPDATE
 40
2460398.672721447
  9
$TDUUPDATE
 40
2460398.297721447
  9
$TDINDWG
 40
0.0000000116
  9
$TDUSRTIMER
 40
0.0000000116
  9
$USRTIMER
 70
     1
  9
$ANGBASE
 50
0.0
  9
$ANGDIR
 70
     0
  9
$PDMODE
 70
     0
  9
$PDSIZE
 40
-1.0
  9
$PLINEWID
 40
0.0
  9
$SPLFRAME
 70
     0
  9
$SPLINETYPE
 70
     6
  9
$SPLINESEGS
 70
     8
  9
$HANDSEED
  5
124
  9
$SURFTAB1
 70
     6
  9
$SURFTAB2
 70
     6
  9
$SURFTYPE
 70
     6
  9
$SURFU
 70
     6
  9
$SURFV
 70
     6
  9
$UCSBASE
  2

  9
$UCSNAME
  2

  9
$UCSORG
 10
0.0
 20
0.0
 30
0.0
  9
$UCSXDIR
 10
1.0
 20
0.0
 30
0.0
  9
$UCSYDIR
 10
0.0
 20
1.0
 30
0.0
  9
$UCSORTHOREF
  2

  9
$UCSORTHOVIEW
 70
     0
  9
$UCSORGTOP
 10
0.0
 20
0.0
 30
0.0
  9
$UCSORGBOTTOM
 10
0.0
 20
0.0
 30
0.0
  9
$UCSORGLEFT
 10
0.0
 20
0.0
 30
0.0
  9
$UCSORGRIGHT
 10
0.0
 20
0.0
 30
0.0
  9
$UCSORGFRONT
 10
0.0
 20
0.0
 30
0.0
  9
$UCSORGBACK
 10
0.0
 20
0.0
 30
0.0
  9
$PUCSBASE
  2

  9
$PUCSNAME
  2

  9
$PUCSORG
 10
0.0
 20
0.0
 30
0.0
  9
$PUCSXDIR
 10
1.0
 20
0.0
 30
0.0
  9
$PUCSYDIR
 10
0.0
 20
1.0
 30
0.0
  9
$PUCSORTHOREF
  2

  9
$PUCSORTHOVIEW
 70
     0
  9
$PUCSORGTOP
 10
0.0
 20
0.0
 30
0.0
  9
$PUCSORGBOTTOM
 10
0.0
 20
0.0
 30
0.0
  9
$PUCSORGLEFT
 10
0.0
 20
0.0
 30
0.0
  9
$PUCSORGRIGHT
 10
0.0
 20
0.0
 30
0.0
  9
$PUCSORGFRONT
 10
0.0
 20
0.0
 30
0.0
  9
$PUCSORGBACK
 10
0.0
 20
0.0
 30
0.0
  9
$USERI1
 70
     0
  9
$USERI2
 70
     0
  9
$USERI3
 70
     0
  9
$USERI4
 70
     0
  9
$USERI5
 70
     0
  9
$USERR1
 40
0.0
  9
$USERR2
 40
0.0
  9
$USERR3
 40
0.0
  9
$USERR4
 40
0.0
  9
$USERR5
 40
0.0
  9
$WORLDVIEW
 70
     1
  9
$SHADEDGE
 70
     3
  9
$SHADEDIF
 70
    70
  9
$TILEMODE
 70
     1
  9
$MAXACTVP
 70
    64
  9
$PINSBASE
 10
0.0
 20
0.0
 30
0.0
  9
$PLIMCHECK
 70
     0
  9
$PEXTMIN
 10
1.0000000000E+20
 20
1.0000000000E+20
 30
1.0000000000E+20
  9
$PEXTMAX
 10
-1.0000000000E+20
 20
-1.0000000000E+20
 30
-1.0000000000E+20
  9
$PLIMMIN
 10
0.0
 20
0.0
  9
$PLIMMAX
 10
420.0
 20
297.0
  9
$UNITMODE
 70
     0
  9
$VISRETAIN
 70
     1
  9
$PLINEGEN
 70
     0
  9
$PSLTSCALE
 70
     1
  9
$TREEDEPTH
 70
  3020
  9
$CMLSTYLE
  2
Standard
  9
$CMLJUST
 70
     0
  9
$CMLSCALE
 40
20.0
  9
$PROXYGRAPHICS
 70
     1
  9
$MEASUREMENT
 70
     1
  9
$CELWEIGHT
370
    -1
  9
$ENDCAPS
280
     0
  9
$JOINSTYLE
280
     0
  9
$LWDISPLAY
290
     1
  9
$INSUNITS
 70
     4
  9
$HYPERLINKBASE
  1

  9
$STYLESHEET
  1

  9
$XEDIT
290
     1
  9
$CEPSNTYPE
380
     0
  9
$PSTYLEMODE
290
     1
  9
$FINGERPRINTGUID
  2
{6289475f-a5cf-44b6-8956-96739680dd3d}
  9
$VERSIONGUID
  2
{FAEB1C32-E019-11D5-929B-00C0DF256EC4}
  9
$EXTNAMES
290
     1
  9
$PSVPSCALE
 40
0.0
  9
$OLESTARTUP
290
     0
  0
ENDSEC
  0
SECTION
  2
CLASSES
  0
CLASS
  1
ACDBDICTIONARYWDFLT
  2
AcDbDictionaryWithDefault
  3
ObjectDBX Classes
 90
        0
280
     0
281
     0
  0
CLASS
  1
VISUALSTYLE
  2
AcDbVisualStyle
  3
ObjectDBX Classes
 90
     4095
280
     0
281
     0
  0
CLASS
  1
MATERIAL
  2
AcDbMaterial
  3
ObjectDBX Classes
 90
     1153
280
     0
281
     0
  0
CLASS
  1
SCALE
  2
AcDbScale
  3
ObjectDBX Classes
 90
     1153
280
     0
281
     0
  0
CLASS
  1
TABLESTYLE
  2
AcDbTableStyle
  3
ObjectDBX Classes
 90
     4095
280
     0
281
     0
  0
CLASS
  1
MLEADERSTYLE
  2
AcDbMLeaderStyle
  3
ACDB_MLEADERSTYLE_CLASS
 90
     4095
280
     0
281
     0
  0
CLASS
  1
SUN
  2
AcDbSun
  3
SCENEOE
 90
     1153
280
     0
281
     0
  0
CLASS
  1
ACDBPLACEHOLDER
  2
AcDbPlaceHolder
  3
ObjectDBX Classes
 90
        0
280
     0
281
     0
  0
CLASS
  1
LAYOUT
  2
AcDbLayout
  3
ObjectDBX Classes
 90
        0
280
     0
281
     0
  0
ENDSEC
  0
SECTION
  2
TABLES
  0
TABLE
  2
VPORT
  5
8
330
0
100
AcDbSymbolTable
 70
     1
  0
VPORT
  5
29
330
8
100
AcDbSymbolTableRecord
100
AcDbViewportTableRecord
  2
*Active
 70
     0
 10
0.0
 20
0.0
 11
1.0
 21
1.0
 12
74.25
 22
52.5
 13
0.0
 23
0.0
 14
10.0
 24
10.0
 15
10.0
 25
10.0
 16
0.0
 26
0.0
 36
1.0
 17
0.0
 27
0.0
 37
0.0
 40
105.0
 41
1.4142857143
 42
50.0
 43
0.0
 44
0.0
 50
0.0
 51
0.0
 71
     0
 72
  2000
 73
     1
 74
     3
 75
     0
 76
     0
 77
     0
 78
     0
281
     0
 65
     1
110
0.0
120
0.0
130
0.0
111
1.0
121
0.0
131
0.0
112
0.0
122
1.0
132
0.0
 79
     0
146
0.0
  0
ENDTAB
  0
TABLE
  2
LTYPE
  5
5
330
0
100
AcDbSymbolTable
 70
     6
  0
LTYPE
  5
14
330
5
100
AcDbSymbolTableRecord
100
AcDbLinetypeTableRecord
  2
ByBlock
 70
     0
  3

 72
    65
 73
     0
 40
0.0
  0
LTYPE
  5
15
330
5
100
AcDbSymbolTableRecord
100
AcDbLinetypeTableRecord
  2
ByLayer
 70
     0
  3

 72
    65
 73
     0
 40
0.0
  0
LTYPE
  5
16
330
5
100
AcDbSymbolTableRecord
100
AcDbLinetypeTableRecord
  2
Continuous
 70
     0
  3
Solid line
 72
    65
 73
     0
 40
0.0
  0
LTYPE
  5
5E
330
5
100
AcDbSymbolTableRecord
100
AcDbLinetypeTableRecord
  2
HIDDEN
 70
     0
  3
Hidden __ __ __ __ __ __ __ __ __ __ __ __ __ __
 72
    65
 73
     2
 40
1.905
 49
1.27
 74
     0
 49
-0.635
 74
     0
  0
LTYPE
  5
5F
330
5
100
AcDbSymbolTableRecord
100
AcDbLinetypeTableRecord
  2
PHANTOM
 70
     0
  3
Phantom ______  __  __  ______  __  __  ______
 72
    65
 73
     6
 40
12.7
 49
6.35
 74
     0
 49
-1.27
 74
     0
 49
1.27
 74
     0
 49
-1.27
 74
     0
 49
1.27
 74
     0
 49
-1.27
 74
     0
  0
LTYPE
  5
60
330
5
100
AcDbSymbolTableRecord
100
AcDbLinetypeTableRecord
  2
CENTER
 70
     0
  3
Center ____ _ ____ _ ____ _ ____ _ ____ _ ____
 72
    65
 73
     4
 40
10.16
 49
6.35
 74
     0
 49
-1.27
 74
     0
 49
1.27
 74
     0
 49
-1.27
 74
     0
  0
LTYPE
  5
61
330
5
100
AcDbSymbolTableRecord
100
AcDbLinetypeTableRecord
  2
CENTERX2
 70
     0
  3
Center (2x) ________  __  ________  __  _____
 72
    65
 73
     4
 40
20.32
 49
12.7
 74
     0
 49
-2.54
 74
     0
 49
2.54
 74
     0
 49
-2.54
 74
     0
  0
LTYPE
  5
62
330
5
100
AcDbSymbolTableRecord
100
AcDbLinetypeTableRecord
  2
DOT2
 70
     0
  3
Dot (.5x) ........................................
 72
    65
 73
     2
 40
0.635
 49
0.0
 74
     0
 49
-0.635
 74
     0
  0
ENDTAB
  0
TABLE
  2
LAYER
  5
2
330
0
100
AcDbSymbolTable
 70
     2
  0
LAYER
  5
10
330
2
100
AcDbSymbolTableRecord
100
AcDbLayerTableRecord
  2
0
 70
     0
 62
     7
  6
Continuous
370
    -3
390
F
  0
LAYER
  5
63
330
2
100
AcDbSymbolTableRecord
100
AcDbLayerTableRecord
  2
FORMAT
 70
     0
 62
     7
  6
Continuous
370
    -3
390
F
  0
ENDTAB
  0
TABLE
  2
STYLE
  5
3
330
0
100
AcDbSymbolTable
 70
     2
  0
STYLE
  5
11
330
3
100
AcDbSymbolTableRecord
100
AcDbTextStyleTableRecord
  2
Standard
 70
     0
 40
0.0
 41
1.0
 50
0.0
 71
     0
 42
1.7638888889
  3
txt
  4
bigfont
  0
STYLE
  5
64
330
3
100
AcDbSymbolTableRecord
100
AcDbTextStyleTableRecord
  2
SLDTEXTSTYLE0
 70
     0
 40
0.0
 41
0.7
 50
0.0
 71
     0
 42
1.7638888889
  3
TXT
  4
bigfont
  0
ENDTAB
  0
TABLE
  2
VIEW
  5
6
330
0
100
AcDbSymbolTable
 70
     0
  0
ENDTAB
  0
TABLE
  2
UCS
  5
7
330
0
100
AcDbSymbolTable
 70
     0
  0
ENDTAB
  0
TABLE
  2
APPID
  5
9
330
0
100
AcDbSymbolTable
 70
     1
  0
APPID
  5
12
330
9
100
AcDbSymbolTableRecord
100
AcDbRegAppTableRecord
  2
ACAD
 70
     0
  0
ENDTAB
  0
TABLE
  2
DIMSTYLE
  5
A
330
0
100
AcDbSymbolTable
 70
     1
100
AcDbDimStyleTable
  0
DIMSTYLE
105
27
330
A
100
AcDbSymbolTableRecord
100
AcDbDimStyleTableRecord
  2
ISO-25
 70
     0
 41
2.5
 42
0.625
 43
3.75
 44
1.25
 73
     0
 74
     0
 77
     1
 78
     8
140
2.5
141
2.5
143
0.0393700787
147
0.625
171
     3
172
     1
178
     0
271
     2
272
     2
274
     3
278
    44
283
     0
284
     8
340
11
  0
ENDTAB
  0
TABLE
  2
BLOCK_RECORD
  5
1
330
0
100
AcDbSymbolTable
 70
     2
  0
BLOCK_RECORD
  5
1F
330
1
100
AcDbSymbolTableRecord
100
AcDbBlockTableRecord
  2
*Model_Space
340
22
  0
BLOCK_RECORD
  5
1B
330
1
100
AcDbSymbolTableRecord
100
AcDbBlockTableRecord
  2
*Paper_Space
340
1E
  0
BLOCK_RECORD
  5
23
330
1
100
AcDbSymbolTableRecord
100
AcDbBlockTableRecord
  2
*Paper_Space0
340
26
  0
BLOCK_RECORD
  5
FA
330
1
100
AcDbSymbolTableRecord
100
AcDbBlockTableRecord
  2
SW_CENTERMARKSYMBOL_0
340
0
102
{BLKREFS
331
105
102
}
  0
ENDTAB
  0
ENDSEC
  0
SECTION
  2
BLOCKS
  0
BLOCK
  5
20
330
1F
100
AcDbEntity
  8
0
100
AcDbBlockBegin
  2
*Model_Space
 70
     0
 10
0.0
 20
0.0
 30
0.0
  3
*Model_Space
  1

  0
ENDBLK
  5
21
330
1F
100
AcDbEntity
  8
0
100
AcDbBlockEnd
  0
BLOCK
  5
1C
330
1B
100
AcDbEntity
 67
     1
  8
0
100
AcDbBlockBegin
  2
*Paper_Space
 70
     0
 10
0.0
 20
0.0
 30
0.0
  3
*Paper_Space
  1

  0
ENDBLK
  5
1D
330
1B
100
AcDbEntity
 67
     1
  8
0
100
AcDbBlockEnd
  0
BLOCK
  5
24
330
23
100
AcDbEntity
  8
0
100
AcDbBlockBegin
  2
*Paper_Space0
 70
     0
 10
0.0
 20
0.0
 30
0.0
  3
*Paper_Space0
  1

  0
ENDBLK
  5
25
330
23
100
AcDbEntity
  8
0
100
AcDbBlockEnd
  0
BLOCK
  5
FB
330
FA
100
AcDbEntity
  8
0
100
AcDbBlockBegin
  2
SW_CENTERMARKSYMBOL_0
 70
     0
 10
0.0
 20
0.0
 30
0.0
  3
SW_CENTERMARKSYMBOL_0
  1

  0
LINE
  5
FD
330
FA
100
AcDbEntity
  8
FORMAT
 62
     0
100
AcDbLine
 10
0.0
 20
0.0
 30
0.0
 11
0.0
 21
2.5
 31
0.0
  0
LINE
  5
FE
330
FA
100
AcDbEntity
  8
FORMAT
 62
     0
100
AcDbLine
 10
0.0
 20
0.0
 30
0.0
 11
-2.5
 21
0.0
 31
0.0
  0
LINE
  5
FF
330
FA
100
AcDbEntity
  8
FORMAT
 62
     0
100
AcDbLine
 10
0.0
 20
0.0
 30
0.0
 11
0.0
 21
-2.5
 31
0.0
  0
LINE
  5
100
330
FA
100
AcDbEntity
  8
FORMAT
 62
     0
100
AcDbLine
 10
0.0
 20
0.0
 30
0.0
 11
2.5
 21
0.0
 31
0.0
  0
LINE
  5
101
330
FA
100
AcDbEntity
  8
FORMAT
 62
     0
100
AcDbLine
 10
0.0
 20
5.0
 30
0.0
 11
0.0
 21
10.75
 31
0.0
  0
LINE
  5
102
330
FA
100
AcDbEntity
  8
FORMAT
 62
     0
100
AcDbLine
 10
-5.0
 20
0.0
 30
0.0
 11
-10.75
 21
0.0
 31
0.0
  0
LINE
  5
103
330
FA
100
AcDbEntity
  8
FORMAT
 62
     0
100
AcDbLine
 10
0.0
 20
-5.0
 30
0.0
 11
0.0
 21
-10.75
 31
0.0
  0
LINE
  5
104
330
FA
100
AcDbEntity
  8
FORMAT
 62
     0
100
AcDbLine
 10
5.0
 20
0.0
 30
0.0
 11
10.75
 21
0.0
 31
0.0
  0
ENDBLK
  5
FC
330
FA
100
AcDbEntity
  8
0
100
AcDbBlockEnd
  0
ENDSEC
  0
SECTION
  2
ENTITIES
  0
MTEXT
  5
65
330
1F
100
AcDbEntity
  8
FORMAT
100
AcDbMText
 10
64.0569660089
 20
48.8742845796
 30
0.0
 40
2.1166666667
 41
0.0
 71
     1
 72
     1
  1
5NB-7321
  7
SLDTEXTSTYLE0
 73
     1
 44
1.0
  0
LINE
  5
66
330
1F
100
AcDbEntity
  8
0
  6
Continuous
 62
     7
370
    25
100
AcDbLine
 10
50.5799703639
 20
41.0433610427
 30
0.0
 11
49.676443418
 21
39.4784064665
 31
0.0
  0
LINE
  5
67
330
1F
100
AcDbEntity
  8
0
  6
Continuous
 62
     7
370
    25
100
AcDbLine
 10
49.676443418
 20
22.9784064665
 30
0.0
 11
50.5799703639
 21
21.4134518903
 31
0.0
  0
LINE
  5
68
330
1F
100
AcDbEntity
  8
0
  6
Continuous
 62
     7
370
    25
100
AcDbLine
 10
53.7729164722
 20
21.4134518903
 30
0.0
 11
54.676443418
 21
22.9784064665
 31
0.0
  0
LINE
  5
69
330
1F
100
AcDbEntity
  8
0
  6
Continuous
 62
     7
370
    25
100
AcDbLine
 10
54.676443418
 20
39.4784064665
 30
0.0
 11
53.7729164722
 21
41.0433610427
 31
0.0
  0
LINE
  5
6A
330
1F
100
AcDbEntity
  8
0
  6
Continuous
 62
     7
370
    25
100
AcDbLine
 10
49.676443418
 20
37.9940939665
 30
0.0
 11
38.6777337406
 21
37.6503842891
 31
0.0
  0
LINE
  5
6B
330
1F
100
AcDbEntity
  8
0
  6
Continuous
 62
     7
370
    25
100
AcDbLine
 10
38.6777337406
 20
24.8064286439
 30
0.0
 11
49.676443418
 21
24.4627189665
 31
0.0
  0
LINE
  5
6C
330
1F
100
AcDbEntity
  8
0
  6
Continuous
 62
     7
370
    25
100
AcDbLine
 10
38.6777337406
 20
37.6503842891
 30
0.0
 11
37.676443418
 21
36.6490939665
 31
0.0
  0
LINE
  5
6D
330
1F
100
AcDbEntity
  8
0
  6
Continuous
 62
     7
370
    25
100
AcDbLine
 10
37.676443418
 20
25.8077189665
 30
0.0
 11
38.6777337406
 21
24.8064286439
 31
0.0
  0
SPLINE
  5
6E
330
1F
100
AcDbEntity
  8
0
  6
Continuous
 62
     7
370
    25
100
AcDbSpline
210
0.0
220
0.0
230
1.0
 70
     8
 71
     3
 72
    16
 73
    12
 74
     0
 42
0.00000001
 43
0.00000001
 40
0.0
 40
0.0
 40
0.0
 40
0.0
 40
0.2500000000000001
 40
0.2500000000000001
 40
0.5
 40
0.5
 40
0.625
 40
0.625
 40
0.75
 40
0.75
 40
1.0
 40
1.0
 40
1.0
 40
1.0
 10
50.57997036386568
 20
21.41345189028903
 30
0.0
 10
50.34865561018305
 20
21.81410079620762
 30
0.0
 10
50.15801031685261
 20
22.21767078589247
 30
0.0
 10
49.89390466044531
 20
23.03322757223356
 30
0.0
 10
49.82131546913134
 20
23.44527694079687
 30
0.0
 10
49.82051822304039
 20
24.07111430884648
 30
0.0
 10
49.83826347966384
 20
24.28070829230959
 30
0.0
 10
49.90746056319363
 20
24.69530730968583
 30
0.0
 10
49.95884216925591
 20
24.901216821708
 30
0.0
 10
50.15725016799252
 20
25.51527941976116
 30
0.0
 10
50.34836726969649
 20
25.91978085210934
 30
0.0
 10
50.57997036386588
 20
26.3209291784009
 30
0.0
  0
LINE
  5
6F
330
1F
100
AcDbEntity
  8
0
  6
Continuous
 62
     7
370
    25
100
AcDbLine
 10
50.5799703639
 20
26.3209291784
 30
0.0
 11
53.7729164722
 21
26.3209291784
 31
0.0
  0
SPLINE
  5
70
330
1F
100
AcDbEntity
  8
0
  6
Continuous
 62
     7
370
    25
100
AcDbSpline
210
0.0
220
0.0
230
1.0
 70
     8
 71
     3
 72
    16
 73
    12
 74
     0
 42
0.00000001
 43
0.00000001
 40
0.0
 40
0.0
 40
0.0
 40
0.0
 40
0.2500000000000001
 40
0.2500000000000001
 40
0.5
 40
0.5
 40
0.625
 40
0.625
 40
0.75
 40
0.75
 40
1.0
 40
1.0
 40
1.0
 40
1.0
 10
53.772916472162
 20
21.41345189028903
 30
0.0
 10
54.00423122584462
 20
21.81410079620762
 30
0.0
 10
54.19487651917506
 20
22.21767078589247
 30
0.0
 10
54.45898217558237
 20
23.03322757223356
 30
0.0
 10
54.53157136689633
 20
23.44527694079687
 30
0.0
 10
54.53236861298728
 20
24.07111430884648
 30
0.0
 10
54.51462335636383
 20
24.28070829230959
 30
0.0
 10
54.44542627283405
 20
24.69530730968583
 30
0.0
 10
54.39404466677176
 20
24.901216821708
 30
0.0
 10
54.19563666803515
 20
25.51527941976116
 30
0.0
 10
54.00451956633119
 20
25.91978085210934
 30
0.0
 10
53.7729164721618
 20
26.3209291784009
 30
0.0
  0
LINE
  5
71
330
1F
100
AcDbEntity
  8
0
  6
Continuous
 62
     7
370
    25
100
AcDbLine
 10
50.5799703639
 20
21.4134518903
 30
0.0
 11
53.7729164722
 21
21.4134518903
 31
0.0
  0
SPLINE
  5
72
330
1F
100
AcDbEntity
  8
0
  6
Continuous
 62
     7
370
    25
100
AcDbSpline
210
0.0
220
0.0
230
1.0
 70
     8
 71
     3
 72
    14
 73
    10
 74
     0
 42
0.00000001
 43
0.00000001
 40
0.0
 40
0.0
 40
0.0
 40
0.0
 40
0.2500000000000001
 40
0.2500000000000001
 40
0.5000000000000001
 40
0.5000000000000001
 40
0.7500000000000002
 40
0.7500000000000002
 40
1.0
 40
1.0
 40
1.0
 40
1.0
 10
50.57997036386608
 20
26.32092917840088
 30
0.0
 10
50.34935745221848
 20
27.11979573811097
 30
0.0
 10
50.15863859966205
 20
27.92604413245406
 30
0.0
 10
49.89387149785745
 20
29.56012917562661
 30
0.0
 10
49.82070945908036
 20
30.38897453575107
 30
0.0
 10
49.82085261827322
 20
32.07034546035572
 30
0.0
 10
49.89401128558968
 20
32.89774884568654
 30
0.0
 10
50.15871555263595
 20
34.53104122307042
 30
0.0
 10
50.34937864056952
 20
35.3370905935155
 30
0.0
 10
50.57997036386608
 20
36.13588375462452
 30
0.0
  0
LINE
  5
73
330
1F
100
AcDbEntity
  8
0
  6
Continuous
 62
     7
370
    25
100
AcDbLine
 10
50.5799703639
 20
36.1358837546
 30
0.0
 11
53.7729164722
 21
36.1358837546
 31
0.0
  0
SPLINE
  5
74
330
1F
100
AcDbEntity
  8
0
  6
Continuous
 62
     7
370
    25
100
AcDbSpline
210
0.0
220
0.0
230
1.0
 70
     8
 71
     3
 72
    14
 73
    10
 74
     0
 42
0.00000001
 43
0.00000001
 40
0.0
 40
0.0
 40
0.0
 40
0.0
 40
0.2500000000000001
 40
0.2500000000000001
 40
0.5000000000000001
 40
0.5000000000000001
 40
0.7500000000000002
 40
0.7500000000000002
 40
1.0
 40
1.0
 40
1.0
 40
1.0
 10
53.77291647216158
 20
26.32092917840088
 30
0.0
 10
54.00352938380919
 20
27.11979573811097
 30
0.0
 10
54.19424823636563
 20
27.92604413245406
 30
0.0
 10
54.45901533817022
 20
29.56012917562661
 30
0.0
 10
54.53217737694732
 20
30.38897453575107
 30
0.0
 10
54.53203421775445
 20
32.07034546035572
 30
0.0
 10
54.45887555043799
 20
32.89774884568654
 30
0.0
 10
54.19417128339172
 20
34.53104122307042
 30
0.0
 10
54.00350819545815
 20
35.3370905935155
 30
0.0
 10
53.77291647216158
 20
36.13588375462452
 30
0.0
  0
LINE
  5
75
330
1F
100
AcDbEntity
  8
0
  6
Continuous
 62
     7
370
    25
100
AcDbLine
 10
51.6972928389
 20
34.4217013792
 30
0.0
 11
52.8857098273
 21
34.4217013792
 31
0.0
  0
LINE
  5
76
330
1F
100
AcDbEntity
  8
0
  6
Continuous
 62
     7
370
    25
100
AcDbLine
 10
51.6972928389
 20
34.2572226147
 30
0.0
 11
51.6972928389
 21
34.4217013792
 31
0.0
  0
LINE
  5
77
330
1F
100
AcDbEntity
  8
0
  6
Continuous
 62
     7
370
    25
100
AcDbLine
 10
52.6355167771
 20
34.2572226147
 30
0.0
 11
51.6972928389
 21
34.2572226147
 31
0.0
  0
LINE
  5
78
330
1F
100
AcDbEntity
  8
0
  6
Continuous
 62
     7
370
    25
100
AcDbLine
 10
51.6972928389
 20
33.7012380587
 30
0.0
 11
52.6355167771
 21
34.2572226147
 31
0.0
  0
LINE
  5
79
330
1F
100
AcDbEntity
  8
0
  6
Continuous
 62
     7
370
    25
100
AcDbLine
 10
51.6972928389
 20
33.527492885
 30
0.0
 11
51.6972928389
 21
33.7012380587
 31
0.0
  0
LINE
  5
7A
330
1F
100
AcDbEntity
  8
0
  6
Continuous
 62
     7
370
    25
100
AcDbLine
 10
52.8857098273
 20
33.527492885
 30
0.0
 11
51.6972928389
 21
33.527492885
 31
0.0
  0
LINE
  5
7B
330
1F
100
AcDbEntity
  8
0
  6
Continuous
 62
     7
370
    25
100
AcDbLine
 10
52.8857098273
 20
33.6919716494
 30
0.0
 11
52.8857098273
 21
33.527492885
 31
0.0
  0
LINE
  5
7C
330
1F
100
AcDbEntity
  8
0
  6
Continuous
 62
     7
370
    25
100
AcDbLine
 10
51.9474858891
 20
33.6919716494
 30
0.0
 11
52.8857098273
 21
33.6919716494
 31
0.0
  0
LINE
  5
7D
330
1F
100
AcDbEntity
  8
0
  6
Continuous
 62
     7
370
    25
100
AcDbLine
 10
52.8857098273
 20
34.2433230008
 30
0.0
 11
51.9474858891
 21
33.6919716494
 31
0.0
  0
LINE
  5
7E
330
1F
100
AcDbEntity
  8
0
  6
Continuous
 62
     7
370
    25
100
AcDbLine
 10
52.8857098273
 20
34.4217013792
 30
0.0
 11
52.8857098273
 21
34.2433230008
 31
0.0
  0
LINE
  5
7F
330
1F
100
AcDbEntity
  8
0
  6
Continuous
 62
     7
370
    25
100
AcDbLine
 10
51.6978076394
 20
33.2919716494
 30
0.0
 11
52.8857098273
 21
33.2919716494
 31
0.0
  0
LINE
  5
80
330
1F
100
AcDbEntity
  8
0
  6
Continuous
 62
     7
370
    25
100
AcDbLine
 10
51.6978076394
 20
32.7383036958
 30
0.0
 11
51.6978076394
 21
33.2919716494
 31
0.0
  0
SPLINE
  5
81
330
1F
100
AcDbEntity
  8
0
  6
Continuous
 62
     7
370
    25
100
AcDbSpline
210
0.0
220
0.0
230
1.0
 70
     8
 71
     3
 72
    15
 73
    11
 74
     0
 42
0.00000001
 43
0.00000001
 40
0.0
 40
0.0
 40
0.0
 40
0.0
 40
0.108617826015526
 40
0.2195099909356598
 40
0.334027850168933
 40
0.4528099871273251
 40
0.578204557918009
 40
0.709828301135216
 40
0.8504801967497816
 40
1.0
 40
1.0
 40
1.0
 40
1.0
 10
51.78069052226094
 20
32.48811064558235
 30
0.0
 10
51.7740829277446
 20
32.4953456886727
 30
0.0
 10
51.76072938288375
 20
32.50996726877094
 30
0.0
 10
51.74362718181132
 20
32.53489733951047
 30
0.0
 10
51.72969082254108
 20
32.56267281480854
 30
0.0
 10
51.71757029489818
 20
32.59270734949185
 30
0.0
 10
51.70881250128854
 20
32.6255014713738
 30
0.0
 10
51.70235954002469
 20
32.66078711150183
 30
0.0
 10
51.69849549502337
 20
32.69866405354581
 30
0.0
 10
51.69804154892658
 20
32.72482399130404
 30
0.0
 10
51.69780763937806
 20
32.7383036957754
 30
0.0
  0
SPLINE
  5
82
330
1F
100
AcDbEntity
  8
0
  6
Continuous
 62
     7
370
    25
100
AcDbSpline
210
0.0
220
0.0
230
1.0
 70
     8
 71
     3
 72
    15
 73
    11
 74
     0
 42
0.00000001
 43
0.00000001
 40
0.0
 40
0.0
 40
0.0
 40
0.0
 40
0.1319114978615548
 40
0.2585593955794498
 40
0.3829282045992123
 40
0.5051155152535458
 40
0.6266776175559874
 40
0.7489849223246644
 40
0.8728415720964469
 40
1.0
 40
1.0
 40
1.0
 40
1.0
 10
52.0378333794038
 20
32.38386354133524
 30
0.0
 10
52.02528990629372
 20
32.38412680518744
 30
0.0
 10
52.00070347616152
 20
32.38464282800278
 30
0.0
 10
51.96457520393104
 20
32.38970079317644
 30
0.0
 10
51.93003095328603
 20
32.39794570250152
 30
0.0
 10
51.89685899288312
 20
32.40925546584493
 30
0.0
 10
51.8652640137495
 20
32.42400581601384
 30
0.0
 10
51.83537145328095
 20
32.44220358230415
 30
0.0
 10
51.80672429984577
 20
32.46328239457013
 30
0.0
 10
51.78944421383701
 20
32.47976230462315
 30
0.0
 10
51.78069052226094
 20
32.48811064558235
 30
0.0
  0
SPLINE
  5
83
330
1F
100
AcDbEntity
  8
0
  6
Continuous
 62
     7
370
    25
100
AcDbSpline
210
0.0
220
0.0
230
1.0
 70
     8
 71
     3
 72
    15
 73
    11
 74
     0
 42
0.00000001
 43
0.00000001
 40
0.0
 40
0.0
 40
0.0
 40
0.0
 40
0.1263871035702698
 40
0.2491164074380003
 40
0.370627587528464
 40
0.492425278588687
 40
0.6137980778061807
 40
0.7388235584566673
 40
0.8671120617357184
 40
1.0
 40
1.0
 40
1.0
 40
1.0
 10
52.246327587898
 20
32.46726122473292
 30
0.0
 10
52.23923648140901
 20
32.46060892591458
 30
0.0
 10
52.22525949385729
 20
32.44749685406536
 30
0.0
 10
52.20245175202284
 20
32.43026923598713
 30
0.0
 10
52.17801496570741
 20
32.41620941137494
 30
0.0
 10
52.1526172322409
 20
32.40420260438451
 30
0.0
 10
52.12570037504496
 20
32.39524477778251
 30
0.0
 10
52.09766265149399
 20
32.38844978500028
 30
0.0
 10
52.0681425049732
 20
32.38459144455656
 30
0.0
 10
52.04805434179953
 20
32.38410900771915
 30
0.0
 10
52.0378333794038
 20
32.38386354133524
 30
0.0
  0
SPLINE
  5
84
330
1F
100
AcDbEntity
  8
0
  6
Continuous
 62
     7
370
    25
100
AcDbSpline
210
0.0
220
0.0
230
1.0
 70
     8
 71
     3
 72
    11
 73
     7
 74
     0
 42
0.00000001
 43
0.00000001
 40
0.0
 40
0.0
 40
0.0
 40
0.0
 40
0.2758864184465399
 40
0.53100768777131
 40
0.772276667711526
 40
1.0
 40
1.0
 40
1.0
 40
1.0
 10
52.32277546434588
 20
32.59930755677926
 30
0.0
 10
52.3180030721627
 20
32.5859724986737
 30
0.0
 10
52.30881749154366
 20
32.56030607257414
 30
0.0
 10
52.29077396595839
 20
32.52494726836355
 30
0.0
 10
52.27042023421764
 20
32.49371789835372
 30
0.0
 10
52.25420233241785
 20
32.47590865776476
 30
0.0
 10
52.246327587898
 20
32.46726122473292
 30
0.0
  0
SPLINE
  5
85
330
1F
100
AcDbEntity
  8
0
  6
Continuous
 62
     7
370
    25
100
AcDbSpline
210
0.0
220
0.0
230
1.0
 70
     8
 71
     3
 72
    11
 73
     7
 74
     0
 42
0.00000001
 43
0.00000001
 40
0.0
 40
0.0
 40
0.0
 40
0.0
 40
0.2409277974217338
 40
0.4854864172424139
 40
0.7380410464993928
 40
1.0
 40
1.0
 40
1.0
 40
1.0
 10
52.38532372689415
 20
32.49506045253216
 30
0.0
 10
52.37861277543949
 20
32.50228186792116
 30
0.0
 10
52.36508973736387
 20
32.51683352664275
 30
0.0
 10
52.34805307958836
 20
32.54186975434201
 30
0.0
 10
52.33390783037905
 20
32.56956762197871
 30
0.0
 10
52.32653119660924
 20
32.58927417912102
 30
0.0
 10
52.32277546434588
 20
32.59930755677926
 30
0.0
  0
SPLINE
  5
86
330
1F
100
AcDbEntity
  8
0
  6
Continuous
 62
     7
370
    25
100
AcDbSpline
210
0.0
220
0.0
230
1.0
 70
     8
 71
     3
 72
    15
 73
    11
 74
     0
 42
0.00000001
 43
0.00000001
 40
0.0
 40
0.0
 40
0.0
 40
0.0
 40
0.131207293287142
 40
0.2585055422472043
 40
0.3817646425439863
 40
0.5033692670500669
 40
0.6250492974901232
 40
0.7476118725723039
 40
0.8722462138971596
 40
1.0
 40
1.0
 40
1.0
 40
1.0
 10
52.57296851453894
 20
32.41861257608428
 30
0.0
 10
52.5638619141417
 20
32.41887214499611
 30
0.0
 10
52.54592002528219
 20
32.41938354951198
 30
0.0
 10
52.51962597345653
 20
32.42305263466217
 30
0.0
 10
52.49446219125409
 20
32.42899863824191
 30
0.0
 10
52.47033469499151
 20
32.43720797350467
 30
0.0
 10
52.44735783035982
 20
32.44813373290837
 30
0.0
 10
52.42541579557846
 20
32.46136267763808
 30
0.0
 10
52.40432514700132
 20
32.476722466826
 30
0.0
 10
52.39170950881826
 20
32.48889763012274
 30
0.0
 10
52.38532372689415
 20
32.49506045253215
 30
0.0
  0
SPLINE
  5
87
330
1F
100
AcDbEntity
  8
0
  6
Continuous
 62
     7
370
    25
100
AcDbSpline
210
0.0
220
0.0
230
1.0
 70
     8
 71
     3
 72
    15
 73
    11
 74
     0
 42
0.00000001
 43
0.00000001
 40
0.0
 40
0.0
 40
0.0
 40
0.0
 40
0.1195122940073577
 40
0.2389686932603891
 40
0.3566129793728507
 40
0.4775556668378044
 40
0.6003479127444705
 40
0.7288583660521866
 40
0.8606359757345488
 40
1.0
 40
1.0
 40
1.0
 40
1.0
 10
52.79536233693275
 20
32.50201025948196
 30
0.0
 10
52.78830681011743
 20
32.49531011240671
 30
0.0
 10
52.77419905628904
 20
32.48191295185079
 30
0.0
 10
52.75043109377761
 20
32.46513042630049
 30
0.0
 10
52.72507799134882
 20
32.45074514684158
 30
0.0
 10
52.69812134825784
 20
32.43887185395483
 30
0.0
 10
52.66914911247894
 20
32.42992515464025
 30
0.0
 10
52.63869156153817
 20
32.4232106545972
 30
0.0
 10
52.6063599833279
 20
32.41930887496257
 30
0.0
 10
52.58430470290433
 20
32.41884896506414
 30
0.0
 10
52.57296851453894
 20
32.41861257608428
 30
0.0
  0
SPLINE
  5
88
330
1F
100
AcDbEntity
  8
0
  6
Continuous
 62
     7
370
    25
100
AcDbSpline
210
0.0
220
0.0
230
1.0
 70
     8
 71
     3
 72
    15
 73
    11
 74
     0
 42
0.00000001
 43
0.00000001
 40
0.0
 40
0.0
 40
0.0
 40
0.0
 40
0.134247757273765
 40
0.2634617725756843
 40
0.3884666271730296
 40
0.5118790511869584
 40
0.632408074152589
 40
0.7535525248235483
 40
0.8755084805282747
 40
1.0
 40
1.0
 40
1.0
 40
1.0
 10
52.88570982728024
 20
32.73135388882559
 30
0.0
 10
52.88552372466468
 20
32.72001088661364
 30
0.0
 10
52.88515849752066
 20
32.69775019839226
 30
0.0
 10
52.88048187013439
 20
32.66522374753401
 30
0.0
 10
52.87372673293417
 20
32.63402606124773
 30
0.0
 10
52.86360171017964
 20
32.60449657253081
 30
0.0
 10
52.85086957415445
 20
32.57638571705564
 30
0.0
 10
52.8354960245096
 20
32.54973739318003
 30
0.0
 10
52.81673779379199
 20
32.52491304177801
 30
0.0
 10
52.80253619339487
 20
32.50969670444812
 30
0.0
 10
52.79536233693275
 20
32.50201025948196
 30
0.0
  0
LINE
  5
89
330
1F
100
AcDbEntity
  8
0
  6
Continuous
 62
     7
370
    25
100
AcDbLine
 10
52.8857098273
 20
33.2919716494
 30
0.0
 11
52.8857098273
 21
32.7313538888
 31
0.0
  0
LINE
  5
8A
330
1F
100
AcDbEntity
  8
0
  6
Continuous
 62
     7
370
    25
100
AcDbLine
 10
52.249416391
 20
32.2201569776
 30
0.0
 11
52.364474306
 21
32.2201569776
 31
0.0
  0
LINE
  5
8B
330
1F
100
AcDbEntity
  8
0
  6
Continuous
 62
     7
370
    25
100
AcDbLine
 10
52.249416391
 20
31.4278789854
 30
0.0
 11
52.249416391
 21
32.2201569776
 31
0.0
  0
LINE
  5
8C
330
1F
100
AcDbEntity
  8
0
  6
Continuous
 62
     7
370
    25
100
AcDbLine
 10
52.364474306
 20
31.4278789854
 30
0.0
 11
52.249416391
 21
31.4278789854
 31
0.0
  0
LINE
  5
8D
330
1F
100
AcDbEntity
  8
0
  6
Continuous
 62
     7
370
    25
100
AcDbLine
 10
52.364474306
 20
32.2201569776
 30
0.0
 11
52.364474306
 21
31.4278789854
 31
0.0
  0
LINE
  5
8E
330
1F
100
AcDbEntity
  8
0
  6
Continuous
 62
     7
370
    25
100
AcDbLine
 10
52.7541782957
 20
31.2610836186
 30
0.0
 11
52.8857098273
 21
31.2610836186
 31
0.0
  0
LINE
  5
8F
330
1F
100
AcDbEntity
  8
0
  6
Continuous
 62
     7
370
    25
100
AcDbLine
 10
52.7541782957
 20
30.7537477112
 30
0.0
 11
52.7541782957
 21
31.2610836186
 31
0.0
  0
LINE
  5
90
330
1F
100
AcDbEntity
  8
0
  6
Continuous
 62
     7
370
    25
100
AcDbLine
 10
51.6972928389
 20
31.0873384448
 30
0.0
 11
52.7541782957
 21
30.7537477112
 31
0.0
  0
LINE
  5
91
330
1F
100
AcDbEntity
  8
0
  6
Continuous
 62
     7
370
    25
100
AcDbLine
 10
51.6972928389
 20
30.9344426919
 30
0.0
 11
51.6972928389
 21
31.0873384448
 31
0.0
  0
LINE
  5
92
330
1F
100
AcDbEntity
  8
0
  6
Continuous
 62
     7
370
    25
100
AcDbLine
 10
52.7328140744
 20
30.6008519583
 30
0.0
 11
51.6972928389
 21
30.9344426919
 31
0.0
  0
LINE
  5
93
330
1F
100
AcDbEntity
  8
0
  6
Continuous
 62
     7
370
    25
100
AcDbLine
 10
52.8857098273
 20
30.6008519583
 30
0.0
 11
52.7328140744
 21
30.6008519583
 31
0.0
  0
LINE
  5
94
330
1F
100
AcDbEntity
  8
0
  6
Continuous
 62
     7
370
    25
100
AcDbLine
 10
52.8857098273
 20
31.2610836186
 30
0.0
 11
52.8857098273
 21
30.6008519583
 31
0.0
  0
LINE
  5
95
330
1F
100
AcDbEntity
  8
0
  6
Continuous
 62
     7
370
    25
100
AcDbLine
 10
52.5451692867
 20
30.2186125761
 30
0.0
 11
52.5451692867
 21
30.371508329
 31
0.0
  0
SPLINE
  5
96
330
1F
100
AcDbEntity
  8
0
  6
Continuous
 62
     7
370
    25
100
AcDbSpline
210
0.0
220
0.0
230
1.0
 70
     8
 71
     3
 72
    15
 73
    11
 74
     0
 42
0.00000001
 43
0.00000001
 40
0.0
 40
0.0
 40
0.0
 40
0.0
 40
0.1017782560771595
 40
0.208137112293422
 40
0.3195361109575702
 40
0.4389553368150929
 40
0.5640423367654964
 40
0.700261134979708
 40
0.8452551633232348
 40
1.0
 40
1.0
 40
1.0
 40
1.0
 10
52.72586426743468
 20
30.15606431353601
 30
0.0
 10
52.72100321371113
 20
30.16058265489167
 30
0.0
 10
52.71106233121106
 20
30.16982268865102
 30
0.0
 10
52.69357910646522
 20
30.18126275009885
 30
0.0
 10
52.6740555674123
 20
30.19133812026359
 30
0.0
 10
52.65254900842265
 20
30.20008572325665
 30
0.0
 10
52.62870120511294
 20
30.20695333756166
 30
0.0
 10
52.60284903759227
 20
30.21266889087046
 30
0.0
 10
52.57467607039131
 20
30.21637108039157
 30
0.0
 10
52.55521590095265
 20
30.21784938065266
 30
0.0
 10
52.54516928673971
 20
30.21861257608428
 30
0.0
  0
SPLINE
  5
97
330
1F
100
AcDbEntity
  8
0
  6
Continuous
 62
     7
370
    25
100
AcDbSpline
210
0.0
220
0.0
230
1.0
 70
     8
 71
     3
 72
    11
 73
     7
 74
     0
 42
0.00000001
 43
0.00000001
 40
0.0
 40
0.0
 40
0.0
 40
0.0
 40
0.2450868805219036
 40
0.4875552456976434
 40
0.7346288455311483
 40
1.0
 40
1.0
 40
1.0
 40
1.0
 10
52.77451291608334
 20
30.0448674023391
 30
0.0
 10
52.77390857449926
 20
30.05505979984617
 30
0.0
 10
52.77270634813414
 20
30.07533569898947
 30
0.0
 10
52.76328764500069
 20
30.10467042756069
 30
0.0
 10
52.7477529020491
 20
30.13219340132013
 30
0.0
 10
52.73333211705292
 20
30.14792016083674
 30
0.0
 10
52.72586426743468
 20
30.15606431353601
 30
0.0
  0
SPLINE
  5
98
330
1F
100
AcDbEntity
  8
0
  6
Continuous
 62
     7
370
    25
100
AcDbSpline
210
0.0
220
0.0
230
1.0
 70
     8
 71
     3
 72
    11
 73
     7
 74
     0
 42
0.00000001
 43
0.00000001
 40
0.0
 40
0.0
 40
0.0
 40
0.0
 40
0.2389166542509151
 40
0.4770471500338434
 40
0.7287140131430194
 40
1.0
 40
1.0
 40
1.0
 40
1.0
 10
52.73281407438449
 20
29.93367049114219
 30
0.0
 10
52.73929059527735
 20
29.94095619343241
 30
0.0
 10
52.75222232598388
 20
29.95550362431134
 30
0.0
 10
52.76494733503942
 20
29.98256182920829
 30
0.0
 10
52.77329765611922
 20
30.01253072644757
 30
0.0
 10
52.77409782306173
 20
30.03382225241166
 30
0.0
 10
52.77451291608334
 20
30.0448674023391
 30
0.0
  0
SPLINE
  5
99
330
1F
100
AcDbEntity
  8
0
  6
Continuous
 62
     7
370
    25
100
AcDbSpline
210
0.0
220
0.0
230
1.0
 70
     8
 71
     3
 72
    15
 73
    11
 74
     0
 42
0.00000001
 43
0.00000001
 40
0.0
 40
0.0
 40
0.0
 40
0.0
 40
0.1380420997033146
 40
0.2691721599589612
 40
0.3953313456434692
 40
0.5186017941434382
 40
0.6392985515224118
 40
0.7600805617867297
 40
0.8784957553092655
 40
1.0
 40
1.0
 40
1.0
 40
1.0
 10
52.58686812843855
 20
29.87807203554374
 30
0.0
 10
52.59426112856315
 20
29.8781515413157
 30
0.0
 10
52.60867694675481
 20
29.87830657184924
 30
0.0
 10
52.62961159283034
 20
29.88151450949277
 30
0.0
 10
52.64964527056974
 20
29.88529041392351
 30
0.0
 10
52.66841306709788
 20
29.89171781529173
 30
0.0
 10
52.68644229658123
 20
29.89927658811574
 30
0.0
 10
52.70295812513166
 20
29.9092333981544
 30
0.0
 10
52.71885396211921
 20
29.92025338788478
 30
0.0
 10
52.72812093174657
 20
29.929159898521
 30
0.0
 10
52.73281407438449
 20
29.93367049114219
 30
0.0
  0
SPLINE
  5
9A
330
1F
100
AcDbEntity
  8
0
  6
Continuous
 62
     7
370
    25
100
AcDbSpline
210
0.0
220
0.0
230
1.0
 70
     8
 71
     3
 72
    11
 73
     7
 74
     0
 42
0.00000001
 43
0.00000001
 40
0.0
 40
0.0
 40
0.0
 40
0.0
 40
0.2666222125688775
 40
0.5178541715510302
 40
0.7566831210364832
 40
1.0
 40
1.0
 40
1.0
 40
1.0
 10
52.19767893924936
 20
29.91282107029277
 30
0.0
 10
52.20612992752164
 20
29.92205163924022
 30
0.0
 10
52.22254408704858
 20
29.93997996032482
 30
0.0
 10
52.24014873566628
 20
29.97102588202623
 30
0.0
 10
52.25117813298784
 20
30.00389642752148
 30
0.0
 10
52.25257331200706
 20
30.02650705105709
 30
0.0
 10
52.25327739484781
 20
30.0379175953893
 30
0.0
  0
SPLINE
  5
9B
330
1F
100
AcDbEntity
  8
0
  6
Continuous
 62
     7
370
    25
100
AcDbSpline
210
0.0
220
0.0
230
1.0
 70
     8
 71
     3
 72
    15
 73
    11
 74
     0
 42
0.00000001
 43
0.00000001
 40
0.0
 40
0.0
 40
0.0
 40
0.0
 40
0.141803257205508
 40
0.276895612442228
 40
0.405600581571895
 40
0.5283792299702874
 40
0.6485398625937346
 40
0.7671999810702801
 40
0.8821728056706531
 40
0.9999999999999999
 40
0.9999999999999999
 40
0.9999999999999999
 40
0.9999999999999999
 10
52.04478318635361
 20
29.85722261469432
 30
0.0
 10
52.05269017520033
 20
29.85730279606447
 30
0.0
 10
52.06812995114365
 20
29.85745936418592
 30
0.0
 10
52.09052214406223
 20
29.86065814009046
 30
0.0
 10
52.11176935992429
 20
29.86436458868781
 30
0.0
 10
52.13145996784473
 20
29.87087993132091
 30
0.0
 10
52.15020110822884
 20
29.87836369366087
 30
0.0
 10
52.16725619892267
 20
29.88831626514548
 30
0.0
 10
52.18345093096326
 20
29.89940135361631
 30
0.0
 10
52.19289766091769
 20
29.90831141586525
 30
0.0
 10
52.19767893924936
 20
29.91282107029277
 30
0.0
  0
SPLINE
  5
9C
330
1F
100
AcDbEntity
  8
0
  6
Continuous
 62
     7
370
    25
100
AcDbSpline
210
0.0
220
0.0
230
1.0
 70
     8
 71
     3
 72
    15
 73
    11
 74
     0
 42
0.00000001
 43
0.00000001
 40
0.0
 40
0.0
 40
0.0
 40
0.0
 40
0.1062344532908177
 40
0.2134351374465929
 40
0.3266362515327416
 40
0.4454478074346343
 40
0.5709125865608571
 40
0.7047818913259153
 40
0.8472638984122983
 40
1.0
 40
1.0
 40
1.0
 40
1.0
 10
51.87103801260843
 20
29.91282107029277
 30
0.0
 10
51.87588682829515
 20
29.90828318309557
 30
0.0
 10
51.88562856094865
 20
29.89916613539918
 30
0.0
 10
51.90290156223135
 20
29.88821732257895
 30
0.0
 10
51.92158126486496
 20
29.87819353641345
 30
0.0
 10
51.94266573341672
 20
29.87076853512195
 30
0.0
 10
51.96539173772847
 20
29.86432442649912
 30
0.0
 10
51.9902186211423
 20
29.86063438619908
 30
0.0
 10
52.01681692685761
 20
29.8574398634398
 30
0.0
 10
52.03524770849994
 20
29.85729668861906
 30
0.0
 10
52.04478318635361
 20
29.85722261469432
 30
0.0
  0
SPLINE
  5
9D
330
1F
100
AcDbEntity
  8
0
  6
Continuous
 62
     7
370
    25
100
AcDbSpline
210
0.0
220
0.0
230
1.0
 70
     8
 71
     3
 72
    15
 73
    11
 74
     0
 42
0.00000001
 43
0.00000001
 40
0.0
 40
0.0
 40
0.0
 40
0.0
 40
0.1380048591553932
 40
0.2688933811355688
 40
0.3953545540747315
 40
0.5185917470747132
 40
0.639255943275706
 40
0.7592039617243777
 40
0.8785285343285417
 40
1.0
 40
1.0
 40
1.0
 40
1.0
 10
51.81543955700998
 20
30.05876701623871
 30
0.0
 10
51.81555869017694
 20
30.05137995793294
 30
0.0
 10
51.81579081330844
 20
30.03698676122492
 30
0.0
 10
51.81844746263621
 20
30.01596257743434
 30
0.0
 10
51.82276886888582
 20
29.99603262380102
 30
0.0
 10
51.82903332651511
 20
29.97720222525313
 30
0.0
 10
51.8367204336853
 20
29.95928571255675
 30
0.0
 10
51.84626170296369
 20
29.94251399525994
 30
0.0
 10
51.85766473230805
 20
29.92687187144513
 30
0.0
 10
51.86655383464264
 20
29.91753242693183
 30
0.0
 10
51.87103801260843
 20
29.91282107029277
 30
0.0
  0
SPLINE
  5
9E
330
1F
100
AcDbEntity
  8
0
  6
Continuous
 62
     7
370
    25
100
AcDbSpline
210
0.0
220
0.0
230
1.0
 70
     8
 71
     3
 72
    11
 73
     7
 74
     0
 42
0.00000001
 43
0.00000001
 40
0.0
 40
0.0
 40
0.0
 40
0.0
 40
0.2550921435312745
 40
0.4983791954134787
 40
0.7437399667914609
 40
1.0
 40
1.0
 40
1.0
 40
1.0
 10
51.86408820565862
 20
30.17691373438543
 30
0.0
 10
51.85659194688928
 20
30.16861108408155
 30
0.0
 10
51.84194633937523
 20
30.15239001148807
 30
0.0
 10
51.82649615770756
 20
30.12344333949054
 30
0.0
 10
51.81716002476706
 20
30.09194843782726
 30
0.0
 10
51.81602129374559
 20
30.06998655336664
 30
0.0
 10
51.81543955700998
 20
30.05876701623871
 30
0.0
  0
SPLINE
  5
9F
330
1F
100
AcDbEntity
  8
0
  6
Continuous
 62
     7
370
    25
100
AcDbSpline
210
0.0
220
0.0
230
1.0
 70
     8
 71
     3
 72
    15
 73
    11
 74
     0
 42
0.00000001
 43
0.00000001
 40
0.0
 40
0.0
 40
0.0
 40
0.0
 40
0.130552121962339
 40
0.2575145556980034
 40
0.3807268344757819
 40
0.503030614596152
 40
0.6251462349433743
 40
0.7476378858044693
 40
0.8722881459663863
 40
1.0
 40
1.0
 40
1.0
 40
1.0
 10
52.01698395855438
 20
30.2394619969337
 30
0.0
 10
52.00959687435235
 20
30.23924557822133
 30
0.0
 10
51.99502582274787
 20
30.2388186914904
 30
0.0
 10
51.97362583453705
 20
30.23599966593677
 30
0.0
 10
51.95308413290563
 20
30.23109755275646
 30
0.0
 10
51.9334914579001
 20
30.2240284464115
 30
0.0
 10
51.91456577446905
 20
30.21538893512316
 30
0.0
 10
51.89679638859841
 20
30.20433911529556
 30
0.0
 10
51.87959231780077
 20
30.19185268947291
 30
0.0
 10
51.86929787291378
 20
30.1819334984604
 30
0.0
 10
51.86408820565862
 20
30.17691373438543
 30
0.0
  0
LINE
  5
A0
330
1F
100
AcDbEntity
  8
0
  6
Continuous
 62
     7
370
    25
100
AcDbLine
 10
52.0656326072
 20
30.2394619969
 30
0.0
 11
52.0169839586
 21
30.2394619969
 31
0.0
  0
LINE
  5
A1
330
1F
100
AcDbEntity
  8
0
  6
Continuous
 62
     7
370
    25
100
AcDbLine
 10
52.0656326072
 20
30.4039407614
 30
0.0
 11
52.0656326072
 21
30.2394619969
 31
0.0
  0
LINE
  5
A2
330
1F
100
AcDbEntity
  8
0
  6
Continuous
 62
     7
370
    25
100
AcDbLine
 10
52.0100341516
 20
30.4039407614
 30
0.0
 11
52.0656326072
 21
30.4039407614
 31
0.0
  0
SPLINE
  5
A3
330
1F
100
AcDbEntity
  8
0
  6
Continuous
 62
     7
370
    25
100
AcDbSpline
210
0.0
220
0.0
230
1.0
 70
     8
 71
     3
 72
    15
 73
    11
 74
     0
 42
0.00000001
 43
0.00000001
 40
0.0
 40
0.0
 40
0.0
 40
0.0
 40
0.1339120169181255
 40
0.2615284644313489
 40
0.386188722652978
 40
0.509192998592421
 40
0.6296768122270386
 40
0.7512559744353482
 40
0.8742965747069025
 40
1.0
 40
1.0
 40
1.0
 40
1.0
 10
51.78069052226094
 20
30.30201025948196
 30
0.0
 10
51.78886690851675
 20
30.31014915526954
 30
0.0
 10
51.80483528679447
 20
30.32604431514002
 30
0.0
 10
51.83088582201841
 20
30.34682125774781
 30
0.0
 10
51.85802093682976
 20
30.36445470811547
 30
0.0
 10
51.88631085894046
 20
30.37888514832895
 30
0.0
 10
51.91574398894116
 20
30.39010568021182
 30
0.0
 10
51.94621491340013
 20
30.39800521235291
 30
0.0
 10
51.9777707325193
 20
30.40315053877052
 30
0.0
 10
51.99920319980775
 20
30.40367548068319
 30
0.0
 10
52.01003415160457
 20
30.40394076141246
 30
0.0
  0
SPLINE
  5
A4
330
1F
100
AcDbEntity
  8
0
  6
Continuous
 62
     7
370
    25
100
AcDbSpline
210
0.0
220
0.0
230
1.0
 70
     8
 71
     3
 72
    15
 73
    11
 74
     0
 42
0.00000001
 43
0.00000001
 40
0.0
 40
0.0
 40
0.0
 40
0.0
 40
0.1330391007567857
 40
0.2613765195424568
 40
0.3859430008398025
 40
0.5081080467260342
 40
0.6295938401608036
 40
0.7509478477621706
 40
0.8741191818083901
 40
1.0
 40
1.0
 40
1.0
 40
1.0
 10
51.68339322496364
 20
30.05876701623871
 30
0.0
 10
51.68367206867268
 20
30.07070999669279
 30
0.0
 10
51.68421990158609
 20
30.09417388547656
 30
0.0
 10
51.68906327523589
 20
30.12853345085651
 30
0.0
 10
51.6964207446408
 20
30.16141073532399
 30
0.0
 10
51.70696702700428
 20
30.19280029144801
 30
0.0
 10
51.7210108002534
 20
30.22246768503904
 30
0.0
 10
51.73793938863236
 20
30.25063771787788
 30
0.0
 10
51.75731084420689
 20
30.27776195999774
 30
0.0
 10
51.77284097785003
 20
30.29386908220611
 30
0.0
 10
51.78069052226094
 20
30.30201025948196
 30
0.0
  0
SPLINE
  5
A5
330
1F
100
AcDbEntity
  8
0
  6
Continuous
 62
     7
370
    25
100
AcDbSpline
210
0.0
220
0.0
230
1.0
 70
     8
 71
     3
 72
    15
 73
    11
 74
     0
 42
0.00000001
 43
0.00000001
 40
0.0
 40
0.0
 40
0.0
 40
0.0
 40
0.1158731642777309
 40
0.2315336360112858
 40
0.3480327938015025
 40
0.4681532545268198
 40
0.5926256813316252
 40
0.7213353501006581
 40
0.857156394487224
 40
1.0
 40
1.0
 40
1.0
 40
1.0
 10
51.78069052226094
 20
29.78772454519625
 30
0.0
 10
51.77281348262439
 20
29.79602003243451
 30
0.0
 10
51.75707386215728
 20
29.81259578001794
 30
0.0
 10
51.73775079388074
 20
29.84108977905887
 30
0.0
 10
51.7207726400999
 20
29.87141521225008
 30
0.0
 10
51.70677745491808
 20
29.90423768338722
 30
0.0
 10
51.69637619446386
 20
29.93960882594231
 30
0.0
 10
51.68897767118248
 20
29.97726831994897
 30
0.0
 10
51.68420843124022
 20
30.01720375877818
 30
0.0
 10
51.68366948765195
 20
30.04468177478428
 30
0.0
 10
51.68339322496364
 20
30.05876701623871
 30
0.0
  0
SPLINE
  5
A6
330
1F
100
AcDbEntity
  8
0
  6
Continuous
 62
     7
370
    25
100
AcDbSpline
210
0.0
220
0.0
230
1.0
 70
     8
 71
     3
 72
    15
 73
    11
 74
     0
 42
0.00000001
 43
0.00000001
 40
0.0
 40
0.0
 40
0.0
 40
0.0
 40
0.1354569518097435
 40
0.2662810714636738
 40
0.3915150515095808
 40
0.5145983448406679
 40
0.635337660479833
 40
0.7562067878684435
 40
0.8764363246590712
 40
1.0
 40
1.0
 40
1.0
 40
1.0
 10
52.03088357245399
 20
29.69042724789895
 30
0.0
 10
52.01842623462846
 20
29.69070700667237
 30
0.0
 10
51.9939376187291
 20
29.69125695604699
 30
0.0
 10
51.95821009641462
 20
29.6960719332487
 30
0.0
 10
51.92407645478286
 20
29.70336768489066
 30
0.0
 10
51.89190038818008
 20
29.71432821765522
 30
0.0
 10
51.86122831774039
 20
29.72799081315481
 30
0.0
 10
51.83244522109825
 20
29.744764065165
 30
0.0
 10
51.80518888874474
 20
29.76443526948266
 30
0.0
 10
51.78893076031233
 20
29.77989099531238
 30
0.0
 10
51.78069052226094
 20
29.78772454519625
 30
0.0
  0
SPLINE
  5
A7
330
1F
100
AcDbEntity
  8
0
  6
Continuous
 62
     7
370
    25
100
AcDbSpline
210
0.0
220
0.0
230
1.0
 70
     8
 71
     3
 72
    15
 73
    11
 74
     0
 42
0.00000001
 43
0.00000001
 40
0.0
 40
0.0
 40
0.0
 40
0.0
 40
0.1195122940073579
 40
0.2389686932603885
 40
0.3566129793728512
 40
0.4775556668378041
 40
0.600347912744471
 40
0.7288583660521863
 40
0.8606359757345488
 40
1.0
 40
1.0
 40
1.0
 40
1.0
 10
52.25327739484781
 20
29.77382493129663
 30
0.0
 10
52.24622186803249
 20
29.76712478422138
 30
0.0
 10
52.23211411420409
 20
29.75372762366546
 30
0.0
 10
52.20834615169267
 20
29.73694509811516
 30
0.0
 10
52.18299304926388
 20
29.72255981865625
 30
0.0
 10
52.15603640617289
 20
29.7106865257695
 30
0.0
 10
52.127064170394
 20
29.70173982645492
 30
0.0
 10
52.09660661945322
 20
29.69502532641187
 30
0.0
 10
52.06427504124295
 20
29.69112354677724
 30
0.0
 10
52.04221976081938
 20
29.6906636368788
 30
0.0
 10
52.03088357245399
 20
29.69042724789895
 30
0.0
  0
SPLINE
  5
A8
330
1F
100
AcDbEntity
  8
0
  6
Continuous
 62
     7
370
    25
100
AcDbSpline
210
0.0
220
0.0
230
1.0
 70
     8
 71
     3
 72
    11
 73
     7
 74
     0
 42
0.00000001
 43
0.00000001
 40
0.0
 40
0.0
 40
0.0
 40
0.0
 40
0.2570374775372495
 40
0.5073419159098037
 40
0.7523129875772133
 40
0.9999999999999999
 40
0.9999999999999999
 40
0.9999999999999999
 40
0.9999999999999999
 10
52.32277546434588
 20
29.89197164944335
 30
0.0
 10
52.31903425910151
 20
29.88069899895108
 30
0.0
 10
52.31164984864637
 20
29.85844898252184
 30
0.0
 10
52.29564958132282
 20
29.82751165807088
 30
0.0
 10
52.27655967836228
 20
29.79889261615617
 30
0.0
 10
52.26106662621199
 20
29.78221147967854
 30
0.0
 10
52.25327739484781
 20
29.77382493129663
 30
0.0
  0
SPLINE
  5
A9
330
1F
100
AcDbEntity
  8
0
  6
Continuous
 62
     7
370
    25
100
AcDbSpline
210
0.0
220
0.0
230
1.0
 70
     8
 71
     3
 72
    11
 73
     7
 74
     0
 42
0.00000001
 43
0.00000001
 40
0.0
 40
0.0
 40
0.0
 40
0.0
 40
0.2730761886374395
 40
0.5283989321863045
 40
0.7673381998079887
 40
1.0
 40
1.0
 40
1.0
 40
1.0
 10
52.37837391994434
 20
29.78772454519624
 30
0.0
 10
52.37092123869319
 20
29.79576045506586
 30
0.0
 10
52.35650039579701
 20
29.81130983787892
 30
0.0
 10
52.3395626499094
 20
29.83716758867111
 30
0.0
 10
52.32803787802857
 20
29.86417291934272
 30
0.0
 10
52.32451396668129
 20
29.88278800100456
 30
0.0
 10
52.32277546434588
 20
29.89197164944335
 30
0.0
  0
SPLINE
  5
AA
330
1F
100
AcDbEntity
  8
0
  6
Continuous
 62
     7
370
    25
100
AcDbSpline
210
0.0
220
0.0
230
1.0
 70
     8
 71
     3
 72
    15
 73
    11
 74
     0
 42
0.00000001
 43
0.00000001
 40
0.0
 40
0.0
 40
0.0
 40
0.0
 40
0.1495842291043562
 40
0.289615064778147
 40
0.421916120080729
 40
0.5476493099099516
 40
0.6661391843885114
 40
0.7800038963361028
 40
0.8908072305892041
 40
0.9999999999999999
 40
0.9999999999999999
 40
0.9999999999999999
 40
0.9999999999999999
 10
52.58686812843855
 20
29.71822647569818
 30
0.0
 10
52.57561768008149
 20
29.71838173164571
 30
0.0
 10
52.55383530804119
 20
29.71868232791561
 30
0.0
 10
52.52227664967614
 20
29.72219935931654
 30
0.0
 10
52.49276400005807
 20
29.72738888515482
 30
0.0
 10
52.46554321720595
 20
29.73525705460603
 30
0.0
 10
52.4401987691955
 20
29.74451723783093
 30
0.0
 10
52.41749304508183
 20
29.75689342115687
 30
0.0
 10
52.39660742927561
 20
29.77094460653447
 30
0.0
 10
52.38442202042041
 20
29.78215859773299
 30
0.0
 10
52.37837391994434
 20
29.78772454519624
 30
0.0
  0
SPLINE
  5
AB
330
1F
100
AcDbEntity
  8
0
  6
Continuous
 62
     7
370
    25
100
AcDbSpline
210
0.0
220
0.0
230
1.0
 70
     8
 71
     3
 72
    15
 73
    11
 74
     0
 42
0.00000001
 43
0.00000001
 40
0.0
 40
0.0
 40
0.0
 40
0.0
 40
0.1195122940073589
 40
0.2389686932603884
 40
0.3566129793728512
 40
0.4775556668378045
 40
0.6003479127444704
 40
0.728858366052187
 40
0.8606359757345493
 40
1.0
 40
1.0
 40
1.0
 40
1.0
 10
52.80926195083237
 20
29.80162415909586
 30
0.0
 10
52.80220642401704
 20
29.79492401202062
 30
0.0
 10
52.78809867018865
 20
29.78152685146468
 30
0.0
 10
52.76433070767722
 20
29.76474432591439
 30
0.0
 10
52.73897760524843
 20
29.75035904645548
 30
0.0
 10
52.71202096215745
 20
29.73848575356874
 30
0.0
 10
52.68304872637855
 20
29.72953905425415
 30
0.0
 10
52.65259117543778
 20
29.72282455421109
 30
0.0
 10
52.62025959722752
 20
29.71892277457647
 30
0.0
 10
52.59820431680394
 20
29.71846286467803
 30
0.0
 10
52.58686812843855
 20
29.71822647569818
 30
0.0
  0
SPLINE
  5
AC
330
1F
100
AcDbEntity
  8
0
  6
Continuous
 62
     7
370
    25
100
AcDbSpline
210
0.0
220
0.0
230
1.0
 70
     8
 71
     3
 72
    15
 73
    11
 74
     0
 42
0.00000001
 43
0.00000001
 40
0.0
 40
0.0
 40
0.0
 40
0.0
 40
0.140115695284887
 40
0.2734369515897451
 40
0.4007170918852057
 40
0.5244111544238707
 40
0.6451326608364116
 40
0.7627629456192485
 40
0.8809824433211502
 40
1.0
 40
1.0
 40
1.0
 40
1.0
 10
52.89960944117986
 20
30.0448674023391
 30
0.0
 10
52.89942782022962
 20
30.03240999972852
 30
0.0
 10
52.89907338542574
 20
30.00809927431236
 30
0.0
 10
52.89441200240826
 20
29.97274675607314
 30
0.0
 10
52.88771555677708
 20
29.93921904103376
 30
0.0
 10
52.87745982961133
 20
29.90776789642175
 30
0.0
 10
52.86504361948987
 20
29.87803951641157
 30
0.0
 10
52.849362779951
 20
29.85043055090021
 30
0.0
 10
52.83081053797933
 20
29.82483730358794
 30
0.0
 10
52.81646090380728
 20
29.80937920746439
 30
0.0
 10
52.80926195083237
 20
29.80162415909586
 30
0.0
  0
SPLINE
  5
AD
330
1F
100
AcDbEntity
  8
0
  6
Continuous
 62
     7
370
    25
100
AcDbSpline
210
0.0
220
0.0
230
1.0
 70
     8
 71
     3
 72
    15
 73
    11
 74
     0
 42
0.00000001
 43
0.00000001
 40
0.0
 40
0.0
 40
0.0
 40
0.0
 40
0.1270527522076895
 40
0.2522753243044989
 40
0.3739697899787137
 40
0.49488326292777
 40
0.617655677279456
 40
0.7419399124466163
 40
0.8684128160693876
 40
1.0
 40
1.0
 40
1.0
 40
1.0
 10
52.80926195083237
 20
30.26726122473292
 30
0.0
 10
52.81645449258218
 20
30.25967505612832
 30
0.0
 10
52.83073596835487
 20
30.24461199679509
 30
0.0
 10
52.84915506162191
 20
30.21990099376638
 30
0.0
 10
52.86479717156094
 20
30.19395599269274
 30
0.0
 10
52.87743339720751
 20
30.16665057505614
 30
0.0
 10
52.88763908209508
 20
30.13809808988654
 30
0.0
 10
52.89432355556384
 20
30.10807890826093
 30
0.0
 10
52.89906936945816
 20
30.07693583939145
 30
0.0
 10
52.89942705438498
 20
30.05569718515448
 30
0.0
 10
52.89960944117986
 20
30.0448674023391
 30
0.0
  0
SPLINE
  5
AE
330
1F
100
AcDbEntity
  8
0
  6
Continuous
 62
     7
370
    25
100
AcDbSpline
210
0.0
220
0.0
230
1.0
 70
     8
 71
     3
 72
    15
 73
    11
 74
     0
 42
0.00000001
 43
0.00000001
 40
0.0
 40
0.0
 40
0.0
 40
0.0
 40
0.1342207616992958
 40
0.2632543584014016
 40
0.3882486178889514
 40
0.5110181775835606
 40
0.6322369822528028
 40
0.7532951172272379
 40
0.8750618099117073
 40
1.0
 40
1.0
 40
1.0
 40
1.0
 10
52.54516928673971
 20
30.37150832898003
 30
0.0
 10
52.55822616868138
 20
30.37124119620189
 30
0.0
 10
52.58383532955009
 20
30.37071725439715
 30
0.0
 10
52.62134394470505
 20
30.36572916237271
 30
0.0
 10
52.65707352130725
 20
30.35741618832986
 30
0.0
 10
52.69120729471397
 20
30.34617089024814
 30
0.0
 10
52.72358519401467
 20
30.3314247726695
 30
0.0
 10
52.75401832041693
 20
30.3132426068193
 30
0.0
 10
52.78296116448772
 20
30.29209036009984
 30
0.0
 10
52.8004202075476
 20
30.27560823147334
 30
0.0
 10
52.80926195083237
 20
30.26726122473292
 30
0.0
  0
LINE
  5
AF
330
1F
100
AcDbEntity
  8
0
  6
Continuous
 62
     7
370
    25
100
AcDbLine
 10
52.4826210242
 20
29.3220874796
 30
0.0
 11
52.4826210242
 21
29.4819330394
 31
0.0
  0
SPLINE
  5
B0
330
1F
100
AcDbEntity
  8
0
  6
Continuous
 62
     7
370
    25
100
AcDbSpline
210
0.0
220
0.0
230
1.0
 70
     8
 71
     3
 72
    15
 73
    11
 74
     0
 42
0.00000001
 43
0.00000001
 40
0.0
 40
0.0
 40
0.0
 40
0.0
 40
0.1046424622149464
 40
0.211120897154609
 40
0.3233806047009382
 40
0.4420520864308686
 40
0.567163037276866
 40
0.7019710430082281
 40
0.8453718683440635
 40
1.0
 40
1.0
 40
1.0
 40
1.0
 10
52.72586426743468
 20
29.2456396031113
 30
0.0
 10
52.71915910756286
 20
29.25184180151119
 30
0.0
 10
52.70563114446127
 20
29.26435501711027
 30
0.0
 10
52.68193874840203
 20
29.27985218995342
 30
0.0
 10
52.65555147161485
 20
29.29293933420798
 30
0.0
 10
52.62639231184897
 20
29.30373761054327
 30
0.0
 10
52.59437380629736
 20
29.31192689689383
 30
0.0
 10
52.55966795889028
 20
29.31770115528701
 30
0.0
 10
52.52208107547767
 20
29.32137171317762
 30
0.0
 10
52.49610061869788
 20
29.32184297301977
 30
0.0
 10
52.48262102419144
 20
29.32208747955918
 30
0.0
  0
SPLINE
  5
B1
330
1F
100
AcDbEntity
  8
0
  6
Continuous
 62
     7
370
    25
100
AcDbSpline
210
0.0
220
0.0
230
1.0
 70
     8
 71
     3
 72
    11
 73
     7
 74
     0
 42
0.00000001
 43
0.00000001
 40
0.0
 40
0.0
 40
0.0
 40
0.0
 40
0.2498940978473375
 40
0.4934175208709823
 40
0.7394177502228162
 40
1.0
 40
1.0
 40
1.0
 40
1.0
 10
52.76756310913353
 20
29.14834230581401
 30
0.0
 10
52.76712111944994
 20
29.15742219165296
 30
0.0
 10
52.76624840794611
 20
29.17535048527431
 30
0.0
 10
52.75764906345201
 20
29.20097490560191
 30
0.0
 10
52.74478826324555
 20
29.22514615859717
 30
0.0
 10
52.73229216644693
 20
29.23867861067257
 30
0.0
 10
52.72586426743468
 20
29.2456396031113
 30
0.0
  0
SPLINE
  5
B2
330
1F
100
AcDbEntity
  8
0
  6
Continuous
 62
     7
370
    25
100
AcDbSpline
210
0.0
220
0.0
230
1.0
 70
     8
 71
     3
 72
    11
 73
     7
 74
     0
 42
0.00000001
 43
0.00000001
 40
0.0
 40
0.0
 40
0.0
 40
0.0
 40
0.2491582773467668
 40
0.4909866113135545
 40
0.7398742876879673
 40
1.0
 40
1.0
 40
1.0
 40
1.0
 10
52.72586426743468
 20
29.0440952015669
 30
0.0
 10
52.73231643334593
 20
29.05121772899662
 30
0.0
 10
52.7450309500384
 20
29.06525324747888
 30
0.0
 10
52.7578645469338
 20
29.090902525117
 30
0.0
 10
52.76627401229525
 20
29.1187228847335
 30
0.0
 10
52.76712713177539
 20
29.13832490714472
 30
0.0
 10
52.76756310913353
 20
29.14834230581401
 30
0.0
  0
SPLINE
  5
B3
330
1F
100
AcDbEntity
  8
0
  6
Continuous
 62
     7
370
    25
100
AcDbSpline
210
0.0
220
0.0
230
1.0
 70
     8
 71
     3
 72
    15
 73
    11
 74
     0
 42
0.00000001
 43
0.00000001
 40
0.0
 40
0.0
 40
0.0
 40
0.0
 40
0.1322900133483149
 40
0.2607898618052657
 40
0.3858441649046992
 40
0.5080904451166521
 40
0.6294055086180674
 40
0.7510893117646903
 40
0.873255396666811
 40
1.0
 40
1.0
 40
1.0
 40
1.0
 10
52.58686812843855
 20
28.98849674596845
 30
0.0
 10
52.59366120483651
 20
28.98858212749997
 30
0.0
 10
52.60705273311761
 20
28.988750444346
 30
0.0
 10
52.62660929541087
 20
28.99196666370236
 30
0.0
 10
52.64554850403754
 20
28.99570487890731
 30
0.0
 10
52.66334083290427
 20
29.00220423235209
 30
0.0
 10
52.68055511205149
 20
29.00969011592955
 30
0.0
 10
52.69635891809545
 20
29.01980196180635
 30
0.0
 10
52.7119411413778
 20
29.03074143069798
 30
0.0
 10
52.7211666600035
 20
29.03958969231475
 30
0.0
 10
52.72586426743468
 20
29.0440952015669
 30
0.0
  0
SPLINE
  5
B4
330
1F
100
AcDbEntity
  8
0
  6
Continuous
 62
     7
370
    25
100
AcDbSpline
210
0.0
220
0.0
230
1.0
 70
     8
 71
     3
 72
    15
 73
    11
 74
     0
 42
0.00000001
 43
0.00000001
 40
0.0
 40
0.0
 40
0.0
 40
0.0
 40
0.1414328956139756
 40
0.2759774816014662
 40
0.4050689787039339
 40
0.52851548224126
 40
0.6494180134816956
 40
0.7665087378033355
 40
0.8835254365637941
 40
0.9999999999999999
 40
0.9999999999999999
 40
0.9999999999999999
 40
0.9999999999999999
 10
52.32277546434588
 20
29.10664346411517
 30
0.0
 10
52.33308546605529
 20
29.09719032647051
 30
0.0
 10
52.35320333392979
 20
29.07874445424907
 30
0.0
 10
52.38537398463708
 20
29.05480096433076
 30
0.0
 10
52.4177445488947
 20
29.03432993062769
 30
0.0
 10
52.45073844324867
 20
29.01763631263492
 30
0.0
 10
52.48414982454251
 20
29.00481262039836
 30
0.0
 10
52.51799592011913
 20
28.99539831717528
 30
0.0
 10
52.55225364718867
 20
28.98948370224241
 30
0.0
 10
52.57534784189383
 20
28.98882522175872
 30
0.0
 10
52.58686812843855
 20
28.98849674596845
 30
0.0
  0
SPLINE
  5
B5
330
1F
100
AcDbEntity
  8
0
  6
Continuous
 62
     7
370
    25
100
AcDbSpline
210
0.0
220
0.0
230
1.0
 70
     8
 71
     3
 72
    15
 73
    11
 74
     0
 42
0.00000001
 43
0.00000001
 40
0.0
 40
0.0
 40
0.0
 40
0.0
 40
0.1476613860734703
 40
0.2888924423695142
 40
0.4241065500574237
 40
0.5519955532306793
 40
0.6738679309355683
 40
0.7893162665477799
 40
0.8978915155028951
 40
1.0
 40
1.0
 40
1.0
 40
1.0
 10
52.01003415160457
 20
29.39158554905725
 30
0.0
 10
52.02529039842257
 20
29.37741102513769
 30
0.0
 10
52.05513851594227
 20
29.34967924675314
 30
0.0
 10
52.09922940132021
 20
29.30926297594766
 30
0.0
 10
52.14133144070802
 20
29.27080431787145
 30
0.0
 10
52.1813418394884
 20
29.23410412586813
 30
0.0
 10
52.21935586394683
 20
29.19935090129234
 30
0.0
 10
52.25562611370783
 20
29.16672939396427
 30
0.0
 10
52.28993018084407
 20
29.13609094790407
 30
0.0
 10
52.31205338774425
 20
29.11625635653829
 30
0.0
 10
52.32277546434588
 20
29.10664346411517
 30
0.0
  0
SPLINE
  5
B6
330
1F
100
AcDbEntity
  8
0
  6
Continuous
 62
     7
370
    25
100
AcDbSpline
210
0.0
220
0.0
230
1.0
 70
     8
 71
     3
 72
    15
 73
    11
 74
     0
 42
0.00000001
 43
0.00000001
 40
0.0
 40
0.0
 40
0.0
 40
0.0
 40
0.0824338050870846
 40
0.1751181988196059
 40
0.2809629685699044
 40
0.3985144448827715
 40
0.5291814633757989
 40
0.6716920349032517
 40
0.8293879369875408
 40
1.0
 40
1.0
 40
1.0
 40
1.0
 10
51.81543955700998
 20
29.50973226720397
 30
0.0
 10
51.82157611128671
 20
29.50824505445375
 30
0.0
 10
51.8346122962689
 20
29.50508569504042
 30
0.0
 10
51.85455579918639
 20
29.49691081779983
 30
0.0
 10
51.8763576591309
 20
29.48644256344772
 30
0.0
 10
51.8998166300219
 20
29.4728522347103
 30
0.0
 10
51.92493008370218
 20
29.45663167190694
 30
0.0
 10
51.95189028944433
 20
29.43765447224365
 30
0.0
 10
51.98059802643702
 20
29.41588590578931
 30
0.0
 10
51.99996809340089
 20
29.3998953657822
 30
0.0
 10
52.01003415160457
 20
29.39158554905725
 30
0.0
  0
LINE
  5
B7
330
1F
100
AcDbEntity
  8
0
  6
Continuous
 62
     7
370
    25
100
AcDbLine
 10
51.6978076394
 20
29.5097322672
 30
0.0
 11
51.815439557
 21
29.5097322672
 31
0.0
  0
LINE
  5
B8
330
1F
100
AcDbEntity
  8
0
  6
Continuous
 62
     7
370
    25
100
AcDbLine
 10
51.6978076394
 20
28.8008519583
 30
0.0
 11
51.6978076394
 21
29.5097322672
 31
0.0
  0
LINE
  5
B9
330
1F
100
AcDbEntity
  8
0
  6
Continuous
 62
     7
370
    25
100
AcDbLine
 10
51.8293391709
 20
28.8008519583
 30
0.0
 11
51.6978076394
 21
28.8008519583
 31
0.0
  0
LINE
  5
BA
330
1F
100
AcDbEntity
  8
0
  6
Continuous
 62
     7
370
    25
100
AcDbLine
 10
51.8293391709
 20
29.3220874796
 30
0.0
 11
51.8293391709
 21
28.8008519583
 31
0.0
  0
SPLINE
  5
BB
330
1F
100
AcDbEntity
  8
0
  6
Continuous
 62
     7
370
    25
100
AcDbSpline
210
0.0
220
0.0
230
1.0
 70
     8
 71
     3
 72
     9
 73
     5
 74
     0
 42
0.00000001
 43
0.00000001
 40
0.0
 40
0.0
 40
0.0
 40
0.0
 40
0.5155288090837099
 40
1.0
 40
1.0
 40
1.0
 40
1.0
 10
51.9405360821065
 20
29.23868979616149
 30
0.0
 10
51.92230950547108
 20
29.25420003267585
 30
0.0
 10
51.88695439763955
 20
29.28428610398955
 30
0.0
 10
51.84814244420959
 20
29.30975064368621
 30
0.0
 10
51.82933917090958
 20
29.32208747955918
 30
0.0
  0
LINE
  5
BC
330
1F
100
AcDbEntity
  8
0
  6
Continuous
 62
     7
370
    25
100
AcDbLine
 10
52.0656326072
 20
29.127492885
 30
0.0
 11
51.9405360821
 21
29.2386897962
 31
0.0
  0
SPLINE
  5
BD
330
1F
100
AcDbEntity
  8
0
  6
Continuous
 62
     7
370
    25
100
AcDbSpline
210
0.0
220
0.0
230
1.0
 70
     8
 71
     3
 72
     9
 73
     5
 74
     0
 42
0.00000001
 43
0.00000001
 40
0.0
 40
0.0
 40
0.0
 40
0.0
 40
0.5004988252029435
 40
1.0
 40
1.0
 40
1.0
 40
1.0
 10
52.29497623654666
 20
28.92594848342018
 30
0.0
 10
52.25593429568661
 20
28.95868531985758
 30
0.0
 10
52.17792823674286
 20
29.02409373799748
 30
0.0
 10
52.1030395794832
 20
29.09304943386821
 30
0.0
 10
52.06563260720302
 20
29.12749288496459
 30
0.0
  0
SPLINE
  5
BE
330
1F
100
AcDbEntity
  8
0
  6
Continuous
 62
     7
370
    25
100
AcDbSpline
210
0.0
220
0.0
230
1.0
 70
     8
 71
     3
 72
    15
 73
    11
 74
     0
 42
0.00000001
 43
0.00000001
 40
0.0
 40
0.0
 40
0.0
 40
0.0
 40
0.1293940440687751
 40
0.2563866544594287
 40
0.3803193874645008
 40
0.503545731851634
 40
0.6257183681003865
 40
0.7486626343499798
 40
0.872968338589945
 40
1.0
 40
1.0
 40
1.0
 40
1.0
 10
52.58686812843855
 20
28.82170137917308
 30
0.0
 10
52.57321208558555
 20
28.82197799918405
 30
0.0
 10
52.54615344339353
 20
28.82252610539467
 30
0.0
 10
52.50625675708435
 20
28.82750058807045
 30
0.0
 10
52.46763976978544
 20
28.83586270700729
 30
0.0
 10
52.43026285056163
 20
28.84705720424969
 30
0.0
 10
52.39425127354648
 20
28.86185091739668
 30
0.0
 10
52.35973226719338
 20
28.88002884344548
 30
0.0
 10
52.32622260262166
 20
28.90105879635967
 30
0.0
 10
52.30546672998471
 20
28.9175921485377
 30
0.0
 10
52.29497623654666
 20
28.92594848342018
 30
0.0
  0
SPLINE
  5
BF
330
1F
100
AcDbEntity
  8
0
  6
Continuous
 62
     7
370
    25
100
AcDbSpline
210
0.0
220
0.0
230
1.0
 70
     8
 71
     3
 72
    15
 73
    11
 74
     0
 42
0.00000001
 43
0.00000001
 40
0.0
 40
0.0
 40
0.0
 40
0.0
 40
0.1270575307246367
 40
0.2522848125044116
 40
0.3739838551677639
 40
0.4958483318799193
 40
0.617641297120082
 40
0.7419302066788911
 40
0.8684078670102177
 40
1.0
 40
1.0
 40
1.0
 40
1.0
 10
52.80926195083237
 20
28.91204886952057
 30
0.0
 10
52.80167621098576
 20
28.90485535753311
 30
0.0
 10
52.78661400299232
 20
28.89057195526129
 30
0.0
 10
52.76189674442381
 20
28.87216701767236
 30
0.0
 10
52.73590805364972
 20
28.85643246417451
 30
0.0
 10
52.70851368374161
 20
28.84400297451629
 30
0.0
 10
52.68003606865602
 20
28.83361070915659
 30
0.0
 10
52.65007516041766
 20
28.8269991564672
 30
0.0
 10
52.61893774536708
 20
28.82223831480012
 30
0.0
 10
52.59769830970811
 20
28.82188270688223
 30
0.0
 10
52.58686812843855
 20
28.82170137917308
 30
0.0
  0
SPLINE
  5
C0
330
1F
100
AcDbEntity
  8
0
  6
Continuous
 62
     7
370
    25
100
AcDbSpline
210
0.0
220
0.0
230
1.0
 70
     8
 71
     3
 72
    15
 73
    11
 74
     0
 42
0.00000001
 43
0.00000001
 40
0.0
 40
0.0
 40
0.0
 40
0.0
 40
0.1401156952848876
 40
0.2734369515897463
 40
0.4007170918852059
 40
0.5244111544238705
 40
0.6451326608364122
 40
0.7627629456192488
 40
0.8809824433211503
 40
1.0
 40
1.0
 40
1.0
 40
1.0
 10
52.89960944117986
 20
29.15529211276381
 30
0.0
 10
52.89942782022962
 20
29.14283471015323
 30
0.0
 10
52.89907338542574
 20
29.11852398473707
 30
0.0
 10
52.89441200240826
 20
29.08317146649785
 30
0.0
 10
52.88771555677708
 20
29.04964375145847
 30
0.0
 10
52.87745982961133
 20
29.01819260684646
 30
0.0
 10
52.86504361948987
 20
28.98846422683628
 30
0.0
 10
52.849362779951
 20
28.96085526132492
 30
0.0
 10
52.83081053797932
 20
28.93526201401265
 30
0.0
 10
52.81646090380728
 20
28.91980391788911
 30
0.0
 10
52.80926195083237
 20
28.91204886952057
 30
0.0
  0
SPLINE
  5
C1
330
1F
100
AcDbEntity
  8
0
  6
Continuous
 62
     7
370
    25
100
AcDbSpline
210
0.0
220
0.0
230
1.0
 70
     8
 71
     3
 72
    15
 73
    11
 74
     0
 42
0.00000001
 43
0.00000001
 40
0.0
 40
0.0
 40
0.0
 40
0.0
 40
0.1305450777958563
 40
0.2575006610529009
 40
0.380706291698183
 40
0.5030034727056817
 40
0.6241056847467485
 40
0.7465907263580782
 40
0.8722950368812808
 40
0.9999999999999999
 40
0.9999999999999999
 40
0.9999999999999999
 40
0.9999999999999999
 10
52.80926195083237
 20
29.37073612820783
 30
0.0
 10
52.81643279813393
 20
29.36313269262215
 30
0.0
 10
52.83057732163216
 20
29.34813488709287
 30
0.0
 10
52.84915567695188
 20
29.32391490777744
 30
0.0
 10
52.86480481152974
 20
29.29847462809381
 30
0.0
 10
52.87725899296724
 20
29.27187287468237
 30
0.0
 10
52.88765607911605
 20
29.24443541054666
 30
0.0
 10
52.89434738541767
 20
29.21559848111691
 30
0.0
 10
52.89902901044852
 20
29.18581880674482
 30
0.0
 10
52.89941494861572
 20
29.16552109387487
 30
0.0
 10
52.89960944117986
 20
29.15529211276381
 30
0.0
  0
SPLINE
  5
C2
330
1F
100
AcDbEntity
  8
0
  6
Continuous
 62
     7
370
    25
100
AcDbSpline
210
0.0
220
0.0
230
1.0
 70
     8
 71
     3
 72
    15
 73
    11
 74
     0
 42
0.00000001
 43
0.00000001
 40
0.0
 40
0.0
 40
0.0
 40
0.0
 40
0.147627072439686
 40
0.2864810592714899
 40
0.4181894659268069
 40
0.542880884113735
 40
0.661917833092003
 40
0.7770087505932003
 40
0.8893050437597243
 40
1.0
 40
1.0
 40
1.0
 40
1.0
 10
52.48262102419144
 20
29.48193303940474
 30
0.0
 10
52.50005076829311
 20
29.48158415395375
 30
0.0
 10
52.53387445300459
 20
29.48090711638935
 30
0.0
 10
52.58304514334199
 20
29.47576767171285
 30
0.0
 10
52.6289311499949
 20
29.46704621826506
 30
0.0
 10
52.67168861940538
 20
29.45510091180379
 30
0.0
 10
52.71106311539424
 20
29.43925651443967
 30
0.0
 10
52.7473392259091
 20
29.42023958981484
 30
0.0
 10
52.7804007019462
 20
29.39760985806899
 30
0.0
 10
52.79968770224664
 20
29.37965104977381
 30
0.0
 10
52.80926195083237
 20
29.37073612820783
 30
0.0
  0
SPLINE
  5
C3
330
1F
100
AcDbEntity
  8
0
  6
Continuous
 62
     7
370
    25
100
AcDbSpline
210
0.0
220
0.0
230
1.0
 70
     8
 71
     3
 72
    15
 73
    11
 74
     0
 42
0.00000001
 43
0.00000001
 40
0.0
 40
0.0
 40
0.0
 40
0.0
 40
0.1417662078038675
 40
0.276638732741435
 40
0.4056138818208845
 40
0.5283604514395133
 40
0.6484896893007598
 40
0.7663666155685056
 40
0.8822035907677865
 40
1.0
 40
1.0
 40
1.0
 40
1.0
 10
52.71196465353508
 20
28.46031141778312
 30
0.0
 10
52.71208464218816
 20
28.45241002127282
 30
0.0
 10
52.7123187847913
 20
28.43699145043454
 30
0.0
 10
52.71496366429126
 20
28.41451485324258
 30
0.0
 10
52.71921573894209
 20
28.39336536689811
 30
0.0
 10
52.72557004954967
 20
28.37361514733129
 30
0.0
 10
52.73318559145117
 20
28.35498590552412
 30
0.0
 10
52.74271611364091
 20
28.33767706208536
 30
0.0
 10
52.75418826766449
 20
28.32173352368647
 30
0.0
 10
52.76307997102882
 20
28.31221489473309
 30
0.0
 10
52.76756310913353
 20
28.30741566488737
 30
0.0
  0
LINE
  5
C4
330
1F
100
AcDbEntity
  8
0
  6
Continuous
 62
     7
370
    25
100
AcDbLine
 10
52.7119646535
 20
28.5228596803
 30
0.0
 11
52.7119646535
 21
28.4603114178
 31
0.0
  0
LINE
  5
C5
330
1F
100
AcDbEntity
  8
0
  6
Continuous
 62
     7
370
    25
100
AcDbLine
 10
52.6298539714
 20
28.5228596803
 30
0.0
 11
52.7119646535
 21
28.5228596803
 31
0.0
  0
LINE
  5
C6
330
1F
100
AcDbEntity
  8
0
  6
Continuous
 62
     7
370
    25
100
AcDbLine
 10
52.6298539714
 20
28.3189986765
 30
0.0
 11
52.6298539714
 21
28.5228596803
 31
0.0
  0
LINE
  5
C7
330
1F
100
AcDbEntity
  8
0
  6
Continuous
 62
     7
370
    25
100
AcDbLine
 10
51.7042426458
 20
28.3189986765
 30
0.0
 11
52.6298539714
 21
28.3189986765
 31
0.0
  0
LINE
  5
C8
330
1F
100
AcDbEntity
  8
0
  6
Continuous
 62
     7
370
    25
100
AcDbLine
 10
51.7042426458
 20
28.154519912
 30
0.0
 11
51.7042426458
 21
28.3189986765
 31
0.0
  0
LINE
  5
C9
330
1F
100
AcDbEntity
  8
0
  6
Continuous
 62
     7
370
    25
100
AcDbLine
 10
52.9065592481
 20
28.154519912
 30
0.0
 11
51.7042426458
 21
28.154519912
 31
0.0
  0
LINE
  5
CA
330
1F
100
AcDbEntity
  8
0
  6
Continuous
 62
     7
370
    25
100
AcDbLine
 10
52.9065592481
 20
28.2379175954
 30
0.0
 11
52.9065592481
 21
28.154519912
 31
0.0
  0
SPLINE
  5
CB
330
1F
100
AcDbEntity
  8
0
  6
Continuous
 62
     7
370
    25
100
AcDbSpline
210
0.0
220
0.0
230
1.0
 70
     8
 71
     3
 72
    11
 73
     7
 74
     0
 42
0.00000001
 43
0.00000001
 40
0.0
 40
0.0
 40
0.0
 40
0.0
 40
0.2682473769252649
 40
0.5183494686747552
 40
0.760496846918056
 40
1.0
 40
1.0
 40
1.0
 40
1.0
 10
52.76756310913353
 20
28.30741566488737
 30
0.0
 10
52.77799292793097
 20
28.29777371801501
 30
0.0
 10
52.79814705243351
 20
28.27914204267278
 30
0.0
 10
52.83256767931676
 20
28.25797853480409
 30
0.0
 10
52.86873855833505
 20
28.24343022815551
 30
0.0
 10
52.89399857673132
 20
28.23974840199521
 30
0.0
 10
52.90655924812967
 20
28.23791759538929
 30
0.0
  0
SPLINE
  5
CC
330
1F
100
AcDbEntity
  8
0
  6
Continuous
 62
     7
370
    25
100
AcDbSpline
210
0.0
220
0.0
230
1.0
 70
     8
 71
     3
 72
    15
 73
    11
 74
     0
 42
0.00000001
 43
0.00000001
 40
0.0
 40
0.0
 40
0.0
 40
0.0
 40
0.1133059292696165
 40
0.2263015370273188
 40
0.3429947497841035
 40
0.4612849748553932
 40
0.5864354642724738
 40
0.7160226876888947
 40
0.8547540019702778
 40
1.0
 40
1.0
 40
1.0
 40
1.0
 10
52.42702256859299
 20
29.93367049114219
 30
0.0
 10
52.43178900867926
 20
29.92914021700274
 30
0.0
 10
52.44130883455796
 20
29.92009207620799
 30
0.0
 10
52.45798970267091
 20
29.90918001125125
 30
0.0
 10
52.47554348829881
 20
29.89921875969611
 30
0.0
 10
52.49500485709759
 20
29.89157673403797
 30
0.0
 10
52.51571271960213
 20
29.88527929132594
 30
0.0
 10
52.53820699873292
 20
29.88145154290613
 30
0.0
 10
52.56198518914162
 20
29.87832130956631
 30
0.0
 10
52.57844792556273
 20
29.87815638803187
 30
0.0
 10
52.58686812843855
 20
29.87807203554374
 30
0.0
  0
SPLINE
  5
CD
330
1F
100
AcDbEntity
  8
0
  6
Continuous
 62
     7
370
    25
100
AcDbSpline
210
0.0
220
0.0
230
1.0
 70
     8
 71
     3
 72
    11
 73
     7
 74
     0
 42
0.00000001
 43
0.00000001
 40
0.0
 40
0.0
 40
0.0
 40
0.0
 40
0.2319193034958766
 40
0.4683162877420386
 40
0.7207325077245548
 40
1.0
 40
1.0
 40
1.0
 40
1.0
 10
52.37142411299453
 20
30.05181720928891
 30
0.0
 10
52.37202173717436
 20
30.04142146059957
 30
0.0
 10
52.37322852390211
 20
30.02042925183942
 30
0.0
 10
52.38483348347832
 20
29.990000210123
 30
0.0
 10
52.40222739218819
 20
29.96022062497752
 30
0.0
 10
52.41848384678533
 20
29.94281356812922
 30
0.0
 10
52.42702256859299
 20
29.93367049114219
 30
0.0
  0
LINE
  5
CE
330
1F
100
AcDbEntity
  8
0
  6
Continuous
 62
     7
370
    25
100
AcDbLine
 10
52.371424113
 20
30.093516051
 30
0.0
 11
52.371424113
 21
30.0518172093
 31
0.0
  0
LINE
  5
CF
330
1F
100
AcDbEntity
  8
0
  6
Continuous
 62
     7
370
    25
100
AcDbLine
 10
52.2532773948
 20
30.093516051
 30
0.0
 11
52.371424113
 21
30.093516051
 31
0.0
  0
LINE
  5
D0
330
1F
100
AcDbEntity
  8
0
  6
Continuous
 62
     7
370
    25
100
AcDbLine
 10
52.2532773948
 20
30.0379175954
 30
0.0
 11
52.2532773948
 21
30.093516051
 31
0.0
  0
SPLINE
  5
D1
330
1F
100
AcDbEntity
  8
0
  6
Continuous
 62
     7
370
    25
100
AcDbSpline
210
0.0
220
0.0
230
1.0
 70
     8
 71
     3
 72
    16
 73
    12
 74
     0
 42
0.00000001
 43
0.00000001
 40
0.0
 40
0.0
 40
0.0
 40
0.0
 40
0.2500000000000002
 40
0.2500000000000002
 40
0.5000000000000003
 40
0.5000000000000003
 40
0.6250000000000002
 40
0.6250000000000002
 40
0.7500000000000002
 40
0.7500000000000002
 40
1.0
 40
1.0
 40
1.0
 40
1.0
 10
50.57997036386568
 20
36.13588375462449
 30
0.0
 10
50.34865561018305
 20
36.53653266054308
 30
0.0
 10
50.15801031685261
 20
36.94010265022794
 30
0.0
 10
49.89390466044531
 20
37.75565943656902
 30
0.0
 10
49.82131546913134
 20
38.16770880513234
 30
0.0
 10
49.82051822304039
 20
38.79354617318194
 30
0.0
 10
49.83826347966384
 20
39.00314015664507
 30
0.0
 10
49.90746056319363
 20
39.41773917402129
 30
0.0
 10
49.95884216925591
 20
39.62364868604346
 30
0.0
 10
50.15725016799252
 20
40.23771128409663
 30
0.0
 10
50.34836726969649
 20
40.64221271644481
 30
0.0
 10
50.57997036386588
 20
41.04336104273636
 30
0.0
  0
LINE
  5
D2
330
1F
100
AcDbEntity
  8
0
  6
Continuous
 62
     7
370
    25
100
AcDbLine
 10
49.676443418
 20
31.2284064665
 30
0.0
 11
49.676443418
 21
39.4784064665
 31
0.0
  0
LINE
  5
D3
330
1F
100
AcDbEntity
  8
0
  6
Continuous
 62
     7
370
    25
100
AcDbLine
 10
49.676443418
 20
22.9784064665
 30
0.0
 11
49.676443418
 21
31.2284064665
 31
0.0
  0
SPLINE
  5
D4
330
1F
100
AcDbEntity
  8
0
  6
Continuous
 62
     7
370
    25
100
AcDbSpline
210
0.0
220
0.0
230
1.0
 70
     8
 71
     3
 72
    16
 73
    12
 74
     0
 42
0.00000001
 43
0.00000001
 40
0.0
 40
0.0
 40
0.0
 40
0.0
 40
0.2500000000000002
 40
0.2500000000000002
 40
0.5000000000000003
 40
0.5000000000000003
 40
0.6250000000000002
 40
0.6250000000000002
 40
0.7500000000000002
 40
0.7500000000000002
 40
1.0
 40
1.0
 40
1.0
 40
1.0
 10
53.772916472162
 20
36.13588375462449
 30
0.0
 10
54.00423122584462
 20
36.53653266054308
 30
0.0
 10
54.19487651917506
 20
36.94010265022794
 30
0.0
 10
54.45898217558237
 20
37.75565943656902
 30
0.0
 10
54.53157136689633
 20
38.16770880513234
 30
0.0
 10
54.53236861298728
 20
38.79354617318194
 30
0.0
 10
54.51462335636383
 20
39.00314015664507
 30
0.0
 10
54.44542627283405
 20
39.41773917402129
 30
0.0
 10
54.39404466677176
 20
39.62364868604346
 30
0.0
 10
54.19563666803515
 20
40.23771128409663
 30
0.0
 10
54.00451956633119
 20
40.64221271644481
 30
0.0
 10
53.7729164721618
 20
41.04336104273636
 30
0.0
  0
LINE
  5
D5
330
1F
100
AcDbEntity
  8
0
  6
Continuous
 62
     7
370
    25
100
AcDbLine
 10
54.676443418
 20
31.2284064665
 30
0.0
 11
54.676443418
 21
39.4784064665
 31
0.0
  0
LINE
  5
D6
330
1F
100
AcDbEntity
  8
0
  6
Continuous
 62
     7
370
    25
100
AcDbLine
 10
54.676443418
 20
22.9784064665
 30
0.0
 11
54.676443418
 21
31.2284064665
 31
0.0
  0
SPLINE
  5
D7
330
1F
100
AcDbEntity
  8
0
  6
Continuous
 62
     7
370
    25
100
AcDbSpline
210
0.0
220
0.0
230
1.0
 70
     8
 71
     3
 72
    15
 73
    11
 74
     0
 42
0.00000001
 43
0.00000001
 40
0.0
 40
0.0
 40
0.0
 40
0.0
 40
0.1452100934042846
 40
0.2837409570901032
 40
0.4135752058930638
 40
0.5386947582688045
 40
0.656955742147348
 40
0.7729129023399376
 40
0.8867220798115644
 40
1.0
 40
1.0
 40
1.0
 40
1.0
 10
51.82933917090958
 20
32.77305273052443
 30
0.0
 10
51.82946361866186
 20
32.76463785267732
 30
0.0
 10
51.82970678994225
 20
32.74819515618039
 30
0.0
 10
51.83228096436179
 20
32.72433661873997
 30
0.0
 10
51.83665751258304
 20
32.70193617664757
 30
0.0
 10
51.84279118163686
 20
32.68116993250125
 30
0.0
 10
51.85056761194148
 20
32.66181898650693
 30
0.0
 10
51.86010030826839
 20
32.6440149026058
 30
0.0
 10
51.87140433732473
 20
32.62758058311679
 30
0.0
 10
51.88043357123913
 20
32.61799082993172
 30
0.0
 10
51.88493762650805
 20
32.61320717067887
 30
0.0
  0
LINE
  5
D8
330
1F
100
AcDbEntity
  8
0
  6
Continuous
 62
     7
370
    25
100
AcDbLine
 10
51.8293391709
 20
33.127492885
 30
0.0
 11
51.8293391709
 21
32.7730527305
 31
0.0
  0
LINE
  5
D9
330
1F
100
AcDbEntity
  8
0
  6
Continuous
 62
     7
370
    25
100
AcDbLine
 10
52.2537921954
 20
32.7730527305
 30
0.0
 11
52.2537921954
 21
33.127492885
 31
0.0
  0
SPLINE
  5
DA
330
1F
100
AcDbEntity
  8
0
  6
Continuous
 62
     7
370
    25
100
AcDbSpline
210
0.0
220
0.0
230
1.0
 70
     8
 71
     3
 72
    15
 73
    11
 74
     0
 42
0.00000001
 43
0.00000001
 40
0.0
 40
0.0
 40
0.0
 40
0.0
 40
0.1418032572055077
 40
0.2768956124422274
 40
0.4056005815718932
 40
0.5283792299702862
 40
0.648539862593733
 40
0.7671999810702798
 40
0.8821728056706518
 40
1.0
 40
1.0
 40
1.0
 40
1.0
 10
52.0378333794038
 20
32.55065890813061
 30
0.0
 10
52.04574036825052
 20
32.55073908950077
 30
0.0
 10
52.06118014419385
 20
32.55089565762222
 30
0.0
 10
52.08357233711242
 20
32.55409443352676
 30
0.0
 10
52.10481955297448
 20
32.5578008821241
 30
0.0
 10
52.12451016089493
 20
32.5643162247572
 30
0.0
 10
52.14325130127903
 20
32.57179998709717
 30
0.0
 10
52.16030639197287
 20
32.58175255858178
 30
0.0
 10
52.17650112401346
 20
32.5928376470526
 30
0.0
 10
52.1859478539679
 20
32.60174770930155
 30
0.0
 10
52.19072913229955
 20
32.60625736372906
 30
0.0
  0
SPLINE
  5
DB
330
1F
100
AcDbEntity
  8
0
  6
Continuous
 62
     7
370
    25
100
AcDbSpline
210
0.0
220
0.0
230
1.0
 70
     8
 71
     3
 72
    15
 73
    11
 74
     0
 42
0.00000001
 43
0.00000001
 40
0.0
 40
0.0
 40
0.0
 40
0.0
 40
0.127711854033614
 40
0.2523621141955308
 40
0.3748537650566255
 40
0.4969693854038493
 40
0.6192731655242185
 40
0.742485444301997
 40
0.869447878037661
 40
0.9999999999999999
 40
0.9999999999999999
 40
0.9999999999999999
 40
0.9999999999999999
 10
51.88493762650805
 20
32.61320717067887
 30
0.0
 10
51.8901472937632
 20
32.60818740660391
 30
0.0
 10
51.90044173865019
 20
32.5982682155914
 30
0.0
 10
51.91764580944783
 20
32.58578178976874
 30
0.0
 10
51.93541519531848
 20
32.57473196994114
 30
0.0
 10
51.95434087874952
 20
32.56609245865281
 30
0.0
 10
51.97393355375505
 20
32.55902335230785
 30
0.0
 10
51.99447525538648
 20
32.55412123912753
 30
0.0
 10
52.01587524359729
 20
32.5513022135739
 30
0.0
 10
52.03044629520178
 20
32.55087532684298
 30
0.0
 10
52.0378333794038
 20
32.55065890813061
 30
0.0
  0
LINE
  5
DC
330
1F
100
AcDbEntity
  8
0
  6
Continuous
 62
     7
370
    25
100
AcDbLine
 10
52.2537921954
 20
33.127492885
 30
0.0
 11
51.8293391709
 21
33.127492885
 31
0.0
  0
SPLINE
  5
DD
330
1F
100
AcDbEntity
  8
0
  6
Continuous
 62
     7
370
    25
100
AcDbSpline
210
0.0
220
0.0
230
1.0
 70
     8
 71
     3
 72
    15
 73
    11
 74
     0
 42
0.00000001
 43
0.00000001
 40
0.0
 40
0.0
 40
0.0
 40
0.0
 40
0.1193556939378553
 40
0.2390663805212342
 40
0.3573840708360848
 40
0.4787728926029021
 40
0.6013911634438125
 40
0.7292416297469775
 40
0.8608048514681792
 40
1.0
 40
1.0
 40
1.0
 40
1.0
 10
52.19072913229955
 20
32.60625736372906
 30
0.0
 10
52.19574790652515
 20
32.61155414951351
 30
0.0
 10
52.20580038202239
 20
32.62216347500193
 30
0.0
 10
52.21852191318395
 20
32.63997784732259
 30
0.0
 10
52.22952165153643
 20
32.65900941007412
 30
0.0
 10
52.23846443478902
 20
32.67929694430004
 30
0.0
 10
52.24552848602118
 20
32.70092449413425
 30
0.0
 10
52.2503132977478
 20
32.72379977119229
 30
0.0
 10
52.25318266024897
 20
32.7480119152095
 30
0.0
 10
52.25358523450781
 20
32.76455040075434
 30
0.0
 10
52.25379219536261
 20
32.77305273052443
 30
0.0
  0
SPLINE
  5
DE
330
1F
100
AcDbEntity
  8
0
  6
Continuous
 62
     7
370
    25
100
AcDbSpline
210
0.0
220
0.0
230
1.0
 70
     8
 71
     3
 72
    11
 73
     7
 74
     0
 42
0.00000001
 43
0.00000001
 40
0.0
 40
0.0
 40
0.0
 40
0.0
 40
0.2499695538886859
 40
0.4922399851273401
 40
0.7405148106355971
 40
1.0
 40
1.0
 40
1.0
 40
1.0
 10
52.71196465353508
 20
32.63405659152829
 30
0.0
 10
52.71849476291556
 20
32.64117858841246
 30
0.0
 10
52.73135385273001
 20
32.65520322295615
 30
0.0
 10
52.74452969483212
 20
32.68079595573118
 30
0.0
 10
52.75287281793139
 20
32.70869209693151
 30
0.0
 10
52.75373677828237
 20
32.72828894261571
 30
0.0
 10
52.75417829574872
 20
32.7383036957754
 30
0.0
  0
SPLINE
  5
DF
330
1F
100
AcDbEntity
  8
0
  6
Continuous
 62
     7
370
    25
100
AcDbSpline
210
0.0
220
0.0
230
1.0
 70
     8
 71
     3
 72
    15
 73
    11
 74
     0
 42
0.00000001
 43
0.00000001
 40
0.0
 40
0.0
 40
0.0
 40
0.0
 40
0.1215042446907355
 40
0.2399194382132714
 40
0.36070144847759
 40
0.4813982058565626
 40
0.6046686543565305
 40
0.7308278400410386
 40
0.8619579002966854
 40
1.0
 40
1.0
 40
1.0
 40
1.0
 10
52.43397237554279
 20
32.63405659152829
 30
0.0
 10
52.43866551818071
 20
32.6295459989071
 30
0.0
 10
52.44793248780807
 20
32.62063948827088
 30
0.0
 10
52.46382832479564
 20
32.6096194985405
 30
0.0
 10
52.48034415334605
 20
32.59966268850184
 30
0.0
 10
52.49837338282941
 20
32.59210391567783
 30
0.0
 10
52.51714117935755
 20
32.5856765143096
 30
0.0
 10
52.53717485709696
 20
32.58190060987886
 30
0.0
 10
52.55810950317248
 20
32.57869267223533
 30
0.0
 10
52.57252532136414
 20
32.57853764170179
 30
0.0
 10
52.57991832148874
 20
32.57845813592984
 30
0.0
  0
SPLINE
  5
E0
330
1F
100
AcDbEntity
  8
0
  6
Continuous
 62
     7
370
    25
100
AcDbSpline
210
0.0
220
0.0
230
1.0
 70
     8
 71
     3
 72
    11
 73
     7
 74
     0
 42
0.00000001
 43
0.00000001
 40
0.0
 40
0.0
 40
0.0
 40
0.0
 40
0.2562600332085403
 40
0.5016208045865207
 40
0.7449078564687257
 40
1.0
 40
1.0
 40
1.0
 40
1.0
 10
52.38532372689415
 20
32.75220330967501
 30
0.0
 10
52.38590546362976
 20
32.74098377254708
 30
0.0
 10
52.38704419465123
 20
32.71902188808647
 30
0.0
 10
52.39638032759173
 20
32.68752698642318
 30
0.0
 10
52.4118305092594
 20
32.65858031442566
 30
0.0
 10
52.42647611677345
 20
32.64235924183217
 30
0.0
 10
52.43397237554279
 20
32.63405659152829
 30
0.0
  0
LINE
  5
E1
330
1F
100
AcDbEntity
  8
0
  6
Continuous
 62
     7
370
    25
100
AcDbLine
 10
52.3853237269
 20
33.127492885
 30
0.0
 11
52.3853237269
 21
32.7522033097
 31
0.0
  0
SPLINE
  5
E2
330
1F
100
AcDbEntity
  8
0
  6
Continuous
 62
     7
370
    25
100
AcDbSpline
210
0.0
220
0.0
230
1.0
 70
     8
 71
     3
 72
    11
 73
     7
 74
     0
 42
0.00000001
 43
0.00000001
 40
0.0
 40
0.0
 40
0.0
 40
0.0
 40
0.2516095171558484
 40
0.4964930798665584
 40
0.7426069856111287
 40
1.0
 40
1.0
 40
1.0
 40
1.0
 10
52.57991832148874
 20
32.57845813592984
 30
0.0
 10
52.59226082633207
 20
32.57917074632982
 30
0.0
 10
52.61661589967031
 20
32.58057691783013
 30
0.0
 10
52.65176683115244
 20
32.59121672931857
 30
0.0
 10
52.68418655733199
 20
32.60903910340534
 30
0.0
 10
52.70256803304491
 20
32.62559381424543
 30
0.0
 10
52.71196465353508
 20
32.63405659152829
 30
0.0
  0
LINE
  5
E3
330
1F
100
AcDbEntity
  8
0
  6
Continuous
 62
     7
370
    25
100
AcDbLine
 10
52.7541782957
 20
32.7383036958
 30
0.0
 11
52.7541782957
 21
33.127492885
 31
0.0
  0
LINE
  5
E4
330
1F
100
AcDbEntity
  8
0
  6
Continuous
 62
     7
370
    25
100
AcDbLine
 10
52.7541782957
 20
33.127492885
 30
0.0
 11
52.3853237269
 21
33.127492885
 31
0.0
  0
LINE
  5
E5
330
1F
100
AcDbEntity
  8
0
  6
Continuous
 62
     7
370
    25
100
AcDbLine
 10
50.5799703639
 20
41.0433610427
 30
0.0
 11
53.7729164722
 21
41.0433610427
 31
0.0
  0
LINE
  5
E6
330
1F
100
AcDbEntity
  8
0
  6
Continuous
 62
     7
370
    25
100
AcDbLine
 10
38.6777337406
 20
37.6503842891
 30
0.0
 11
38.6777337406
 21
24.8064286439
 31
0.0
  0
LINE
  5
E7
330
1F
100
AcDbEntity
  8
0
  6
Continuous
 62
     7
370
    25
100
AcDbLine
 10
37.676443418
 20
25.8077189665
 30
0.0
 11
37.676443418
 21
36.6490939665
 31
0.0
  0
LINE
  5
E8
330
1F
100
AcDbEntity
  8
0
  6
Continuous
 62
     7
370
    18
100
AcDbLine
 10
37.9206115582
 20
36.8932621067
 30
0.0
 11
48.776443418
 21
37.2325068523
 31
0.0
  0
LINE
  5
E9
330
1F
100
AcDbEntity
  8
0
  6
Continuous
 62
     7
370
    18
100
AcDbLine
 10
37.9206115582
 20
25.5635508263
 30
0.0
 11
48.776443418
 21
25.2243060807
 31
0.0
  0
LINE
  5
EA
330
1F
100
AcDbEntity
  8
0
  6
Continuous
 62
     7
370
    25
100
AcDbLine
 10
48.776443418
 20
24.4908439665
 30
0.0
 11
48.776443418
 21
37.9659689665
 31
0.0
  0
LINE
  5
EB
330
1F
100
AcDbEntity
  8
FORMAT
  6
CENTERX2
370
    18
100
AcDbLine
 10
55.6888636158
 20
31.2284064665
 30
0.0
 11
36.676443418
 21
31.2284064665
 31
0.0
  0
SPLINE
  5
EC
330
1F
100
AcDbEntity
  8
0
  6
Continuous
 62
     7
370
    25
100
AcDbSpline
210
0.0
220
0.0
230
1.0
 70
    24
 71
     3
 72
    16
 73
    12
 74
     0
 42
0.00000001
 43
0.00000001
 40
0.0
 40
0.0
 40
0.0
 40
0.0
 40
0.2500000000000002
 40
0.2500000000000002
 40
0.5000000000000003
 40
0.5000000000000003
 40
0.6250000000000002
 40
0.6250000000000002
 40
0.7500000000000002
 40
0.7500000000000002
 40
1.0
 40
1.0
 40
1.0
 40
1.0
 10
64.14226327944563
 20
36.13588375462449
 30
0.0
 10
64.8362075404935
 20
36.53653266054308
 30
0.0
 10
65.53521126703772
 20
36.94010265022794
 30
0.0
 10
66.94779705743807
 20
37.75565943656902
 30
0.0
 10
67.6614874990164
 20
38.16770880513234
 30
0.0
 10
68.7454696177535
 20
38.79354617318194
 30
0.0
 10
69.10849704607237
 20
39.00314015664507
 30
0.0
 10
69.82660360893614
 20
39.41773917402129
 30
0.0
 10
70.18324934552025
 20
39.62364868604346
 30
0.0
 10
71.24683696437609
 20
40.23771128409663
 30
0.0
 10
71.94745399693753
 20
40.64221271644481
 30
0.0
 10
72.6422632794457
 20
41.04336104273636
 30
0.0
  0
SPLINE
  5
ED
330
1F
100
AcDbEntity
  8
0
  6
Continuous
 62
     7
370
    25
100
AcDbSpline
210
0.0
220
0.0
230
1.0
 70
    24
 71
     3
 72
    16
 73
    12
 74
     0
 42
0.00000001
 43
0.00000001
 40
0.0
 40
0.0
 40
0.0
 40
0.0
 40
0.2500000000000003
 40
0.2500000000000003
 40
0.5000000000000004
 40
0.5000000000000004
 40
0.6250000000000003
 40
0.6250000000000003
 40
0.7500000000000002
 40
0.7500000000000002
 40
1.0
 40
1.0
 40
1.0
 40
1.0
 10
72.64226327944563
 20
41.04336104273637
 30
0.0
 10
73.33620754049352
 20
40.64271213681779
 30
0.0
 10
74.03521126703771
 20
40.23914214713294
 30
0.0
 10
75.44779705743808
 20
39.42358536079185
 30
0.0
 10
76.16148749901642
 20
39.01153599222854
 30
0.0
 10
77.24546961775351
 20
38.38569862417894
 30
0.0
 10
77.60849704607239
 20
38.17610464071581
 30
0.0
 10
78.32660360893614
 20
37.76150562333958
 30
0.0
 10
78.68324934552027
 20
37.55559611131741
 30
0.0
 10
79.74683696437609
 20
36.94153351326425
 30
0.0
 10
80.44745399693754
 20
36.53703208091606
 30
0.0
 10
81.14226327944571
 20
36.13588375462451
 30
0.0
  0
SPLINE
  5
EE
330
1F
100
AcDbEntity
  8
0
  6
Continuous
 62
     7
370
    25
100
AcDbSpline
210
0.0
220
0.0
230
1.0
 70
    24
 71
     3
 72
    14
 73
    10
 74
     0
 42
0.00000001
 43
0.00000001
 40
0.0
 40
0.0
 40
0.0
 40
0.0
 40
0.25
 40
0.25
 40
0.5
 40
0.5
 40
0.75
 40
0.75
 40
1.0
 40
1.0
 40
1.0
 40
1.0
 10
81.14226327944569
 20
36.13588375462452
 30
0.0
 10
81.14226327944569
 20
35.33701719491444
 30
0.0
 10
81.14226327944569
 20
34.53076880057135
 30
0.0
 10
81.14226327944569
 20
32.89668375739879
 30
0.0
 10
81.14226327944569
 20
32.06783839727434
 30
0.0
 10
81.14226327944569
 20
30.38646747266969
 30
0.0
 10
81.14226327944569
 20
29.55906408733887
 30
0.0
 10
81.14226327944569
 20
27.92577170995499
 30
0.0
 10
81.14226327944569
 20
27.11972233950991
 30
0.0
 10
81.14226327944569
 20
26.32092917840088
 30
0.0
  0
SPLINE
  5
EF
330
1F
100
AcDbEntity
  8
0
  6
Continuous
 62
     7
370
    25
100
AcDbSpline
210
0.0
220
0.0
230
1.0
 70
    24
 71
     3
 72
    16
 73
    12
 74
     0
 42
0.00000001
 43
0.00000001
 40
0.0
 40
0.0
 40
0.0
 40
0.0
 40
0.25
 40
0.25
 40
0.5
 40
0.5
 40
0.625
 40
0.625
 40
0.75
 40
0.75
 40
1.0
 40
1.0
 40
1.0
 40
1.0
 10
81.14226327944574
 20
26.32092917840091
 30
0.0
 10
80.44831901839785
 20
25.92028027248233
 30
0.0
 10
79.74931529185363
 20
25.51671028279747
 30
0.0
 10
78.33672950145329
 20
24.70115349645639
 30
0.0
 10
77.62303905987494
 20
24.28910412789307
 30
0.0
 10
76.53905694113786
 20
23.66326675984346
 30
0.0
 10
76.17602951281899
 20
23.45367277638035
 30
0.0
 10
75.4579229499552
 20
23.03907375900412
 30
0.0
 10
75.10127721337109
 20
22.83316424698194
 30
0.0
 10
74.03768959451527
 20
22.21910164892878
 30
0.0
 10
73.33707256195383
 20
21.8146002165806
 30
0.0
 10
72.64226327944564
 20
21.41345189028904
 30
0.0
  0
SPLINE
  5
F0
330
1F
100
AcDbEntity
  8
0
  6
Continuous
 62
     7
370
    25
100
AcDbSpline
210
0.0
220
0.0
230
1.0
 70
    24
 71
     3
 72
    16
 73
    12
 74
     0
 42
0.00000001
 43
0.00000001
 40
0.0
 40
0.0
 40
0.0
 40
0.0
 40
0.2500000000000001
 40
0.2500000000000001
 40
0.5
 40
0.5
 40
0.625
 40
0.625
 40
0.75
 40
0.75
 40
1.0
 40
1.0
 40
1.0
 40
1.0
 10
72.64226327944573
 20
21.41345189028903
 30
0.0
 10
71.94831901839785
 20
21.81410079620762
 30
0.0
 10
71.24931529185365
 20
22.21767078589247
 30
0.0
 10
69.83672950145328
 20
23.03322757223356
 30
0.0
 10
69.12303905987496
 20
23.44527694079687
 30
0.0
 10
68.03905694113784
 20
24.07111430884648
 30
0.0
 10
67.67602951281899
 20
24.28070829230959
 30
0.0
 10
66.95792294995522
 20
24.69530730968583
 30
0.0
 10
66.6012772133711
 20
24.901216821708
 30
0.0
 10
65.53768959451529
 20
25.51527941976116
 30
0.0
 10
64.83707256195385
 20
25.91978085210934
 30
0.0
 10
64.14226327944566
 20
26.3209291784009
 30
0.0
  0
SPLINE
  5
F1
330
1F
100
AcDbEntity
  8
0
  6
Continuous
 62
     7
370
    25
100
AcDbSpline
210
0.0
220
0.0
230
1.0
 70
    24
 71
     3
 72
    14
 73
    10
 74
     0
 42
0.00000001
 43
0.00000001
 40
0.0
 40
0.0
 40
0.0
 40
0.0
 40
0.2500000000000001
 40
0.2500000000000001
 40
0.5000000000000001
 40
0.5000000000000001
 40
0.7500000000000002
 40
0.7500000000000002
 40
1.0
 40
1.0
 40
1.0
 40
1.0
 10
64.14226327944569
 20
26.32092917840088
 30
0.0
 10
64.14226327944569
 20
27.11979573811097
 30
0.0
 10
64.14226327944569
 20
27.92604413245406
 30
0.0
 10
64.14226327944569
 20
29.56012917562661
 30
0.0
 10
64.14226327944569
 20
30.38897453575107
 30
0.0
 10
64.14226327944569
 20
32.07034546035572
 30
0.0
 10
64.14226327944569
 20
32.89774884568654
 30
0.0
 10
64.14226327944569
 20
34.53104122307042
 30
0.0
 10
64.14226327944569
 20
35.3370905935155
 30
0.0
 10
64.14226327944569
 20
36.13588375462452
 30
0.0
  0
CIRCLE
  5
F2
330
1F
100
AcDbEntity
  8
0
  6
Continuous
 62
     7
370
    25
100
AcDbCircle
 10
72.6422632794
 20
31.2284064665
 30
0.0
 40
8.249999999999986
  0
CIRCLE
  5
F3
330
1F
100
AcDbEntity
  8
0
  6
Continuous
 62
     7
370
    25
100
AcDbCircle
 10
72.6422632794
 20
31.2284064665
 30
0.0
 40
7.149999999999991
  0
CIRCLE
  5
F4
330
1F
100
AcDbEntity
  8
0
  6
Continuous
 62
     7
370
    25
100
AcDbCircle
 10
72.6422632794
 20
31.2284064665
 30
0.0
 40
6.999999999999986
  0
CIRCLE
  5
F5
330
1F
100
AcDbEntity
  8
0
  6
Continuous
 62
     7
370
    25
100
AcDbCircle
 10
72.6422632794
 20
31.2284064665
 30
0.0
 40
6.849999999999994
  0
CIRCLE
  5
F6
330
1F
100
AcDbEntity
  8
0
  6
Continuous
 62
     7
370
    25
100
AcDbCircle
 10
72.6422632794
 20
31.2284064665
 30
0.0
 40
5.702502599999988
  0
CIRCLE
  5
F7
330
1F
100
AcDbEntity
  8
0
  6
Continuous
 62
     7
370
    25
100
AcDbCircle
 10
72.6422632794
 20
31.2284064665
 30
0.0
 40
4.702563071424905
  0
CIRCLE
  5
F8
330
1F
100
AcDbEntity
  8
0
  6
Continuous
 62
     7
370
    25
100
AcDbCircle
 10
72.6422632794
 20
31.2284064665
 30
0.0
 40
4.373206529953634
  0
CIRCLE
  5
F9
330
1F
100
AcDbEntity
  8
0
  6
Continuous
 62
     7
370
    25
100
AcDbCircle
 10
72.6422632794
 20
31.2284064665
 30
0.0
 40
4.249999999999986
  0
INSERT
  5
105
330
1F
100
AcDbEntity
  8
FORMAT
100
AcDbBlockReference
  2
SW_CENTERMARKSYMBOL_0
 10
72.6422632794
 20
31.2284064665
 30
0.0
  0
ARC
  5
106
330
1F
100
AcDbEntity
  8
0
  6
Continuous
 62
     7
370
    18
100
AcDbCircle
 10
72.6422632794
 20
31.2284064665
 30
0.0
 40
5.238236529009981
100
AcDbArc
 50
75.0
 51
345.0
  0
LINE
  5
107
330
1F
100
AcDbEntity
  8
0
  6
Continuous
 62
     7
370
    25
100
AcDbLine
 10
49.8207809853
 20
64.9575057737
 30
0.0
 11
49.676443418
 21
64.7075057737
 31
0.0
  0
LINE
  5
108
330
1F
100
AcDbEntity
  8
0
  6
Continuous
 62
     7
370
    25
100
AcDbLine
 10
49.676443418
 20
48.2075057737
 30
0.0
 11
49.8207809853
 21
47.9575057737
 31
0.0
  0
LINE
  5
109
330
1F
100
AcDbEntity
  8
0
  6
Continuous
 62
     7
370
    25
100
AcDbLine
 10
54.5321058507
 20
47.9575057737
 30
0.0
 11
54.676443418
 21
48.2075057737
 31
0.0
  0
LINE
  5
10A
330
1F
100
AcDbEntity
  8
0
  6
Continuous
 62
     7
370
    25
100
AcDbLine
 10
54.676443418
 20
64.7075057737
 30
0.0
 11
54.5321058507
 21
64.9575057737
 31
0.0
  0
LINE
  5
10B
330
1F
100
AcDbEntity
  8
0
  6
Continuous
 62
     7
370
    25
100
AcDbLine
 10
49.676443418
 20
63.2231932737
 30
0.0
 11
38.6777337406
 21
62.8794835963
 31
0.0
  0
LINE
  5
10C
330
1F
100
AcDbEntity
  8
0
  6
Continuous
 62
     7
370
    25
100
AcDbLine
 10
38.6777337406
 20
50.0355279511
 30
0.0
 11
49.676443418
 21
49.6918182737
 31
0.0
  0
LINE
  5
10D
330
1F
100
AcDbEntity
  8
0
  6
Continuous
 62
     7
370
    25
100
AcDbLine
 10
38.6777337406
 20
62.8794835963
 30
0.0
 11
37.676443418
 21
61.8781932737
 31
0.0
  0
LINE
  5
10E
330
1F
100
AcDbEntity
  8
0
  6
Continuous
 62
     7
370
    25
100
AcDbLine
 10
37.676443418
 20
51.0368182737
 30
0.0
 11
38.6777337406
 21
50.0355279511
 31
0.0
  0
SPLINE
  5
10F
330
1F
100
AcDbEntity
  8
0
  6
Continuous
 62
     7
370
    25
100
AcDbSpline
210
0.0
220
0.0
230
1.0
 70
     8
 71
     3
 72
    16
 73
    12
 74
     0
 42
0.00000001
 43
0.00000001
 40
0.0
 40
0.0
 40
0.0
 40
0.0
 40
0.2500000000000003
 40
0.2500000000000003
 40
0.5000000000000004
 40
0.5000000000000004
 40
0.6250000000000003
 40
0.6250000000000003
 40
0.7500000000000002
 40
0.7500000000000002
 40
1.0
 40
1.0
 40
1.0
 40
1.0
 10
50.57997036386568
 20
56.45750577367199
 30
0.0
 10
50.34865561018305
 20
57.15145003471987
 30
0.0
 10
50.15801031685261
 20
57.85045376126408
 30
0.0
 10
49.89390466044531
 20
59.26303955166444
 30
0.0
 10
49.82131546913134
 20
59.97672999324278
 30
0.0
 10
49.82051822304039
 20
61.06071211197987
 30
0.0
 10
49.83826347966384
 20
61.42373954029875
 30
0.0
 10
49.90746056319363
 20
62.14184610316251
 30
0.0
 10
49.95884216925591
 20
62.49849183974663
 30
0.0
 10
50.15725016799252
 20
63.56207945860245
 30
0.0
 10
50.34836726969649
 20
64.2626964911639
 30
0.0
 10
50.57997036386588
 20
64.95750577367208
 30
0.0
  0
LINE
  5
110
330
1F
100
AcDbEntity
  8
0
  6
Continuous
 62
     7
370
    25
100
AcDbLine
 10
50.5799703639
 20
64.9575057737
 30
0.0
 11
53.7729164722
 21
64.9575057737
 31
0.0
  0
SPLINE
  5
111
330
1F
100
AcDbEntity
  8
0
  6
Continuous
 62
     7
370
    25
100
AcDbSpline
210
0.0
220
0.0
230
1.0
 70
     8
 71
     3
 72
    16
 73
    12
 74
     0
 42
0.00000001
 43
0.00000001
 40
0.0
 40
0.0
 40
0.0
 40
0.0
 40
0.2500000000000003
 40
0.2500000000000003
 40
0.5000000000000004
 40
0.5000000000000004
 40
0.6250000000000003
 40
0.6250000000000003
 40
0.7500000000000002
 40
0.7500000000000002
 40
1.0
 40
1.0
 40
1.0
 40
1.0
 10
53.772916472162
 20
56.45750577367199
 30
0.0
 10
54.00423122584462
 20
57.15145003471987
 30
0.0
 10
54.19487651917506
 20
57.85045376126408
 30
0.0
 10
54.45898217558237
 20
59.26303955166444
 30
0.0
 10
54.53157136689633
 20
59.97672999324278
 30
0.0
 10
54.53236861298728
 20
61.06071211197987
 30
0.0
 10
54.51462335636384
 20
61.42373954029875
 30
0.0
 10
54.44542627283405
 20
62.14184610316251
 30
0.0
 10
54.39404466677176
 20
62.49849183974663
 30
0.0
 10
54.19563666803515
 20
63.56207945860245
 30
0.0
 10
54.00451956633119
 20
64.2626964911639
 30
0.0
 10
53.7729164721618
 20
64.95750577367208
 30
0.0
  0
LINE
  5
112
330
1F
100
AcDbEntity
  8
0
  6
Continuous
 62
     7
370
    25
100
AcDbLine
 10
50.5799703639
 20
56.4575057737
 30
0.0
 11
53.7729164722
 21
56.4575057737
 31
0.0
  0
SPLINE
  5
113
330
1F
100
AcDbEntity
  8
0
  6
Continuous
 62
     7
370
    25
100
AcDbSpline
210
0.0
220
0.0
230
1.0
 70
    24
 71
     3
 72
    14
 73
    10
 74
     0
 42
0.00000001
 43
0.00000001
 40
0.0
 40
0.0
 40
0.0
 40
0.0
 40
0.1161769628575542
 40
0.2403883293799677
 40
0.3654207939794109
 40
0.4904568795805601
 40
0.6175906656958584
 40
0.7447287887220339
 40
0.9999999999999999
 40
0.9999999999999999
 40
0.9999999999999999
 40
0.9999999999999999
 10
49.82156841190553
 20
47.95750577367205
 30
0.0
 10
49.82345668717214
 20
47.95750577367205
 30
0.0
 10
49.82736382440127
 20
47.95750577367205
 30
0.0
 10
49.86541750318607
 20
47.95750577367205
 30
0.0
 10
49.92751924790187
 20
47.95750577367205
 30
0.0
 10
50.01461215051356
 20
47.95750577367205
 30
0.0
 10
50.12522328080765
 20
47.95750577367205
 30
0.0
 10
50.30008720108439
 20
47.95750577367205
 30
0.0
 10
50.46792975909215
 20
47.95750577367205
 30
0.0
 10
50.57997036386608
 20
47.95750577367205
 30
0.0
  0
SPLINE
  5
114
330
1F
100
AcDbEntity
  8
0
  6
Continuous
 62
     7
370
    25
100
AcDbSpline
210
0.0
220
0.0
230
1.0
 70
    24
 71
     3
 72
    15
 73
    11
 74
     0
 42
0.00000001
 43
0.00000001
 40
0.0
 40
0.0
 40
0.0
 40
0.0
 40
0.2453021435275927
 40
0.3683732240586926
 40
0.4914405136052384
 40
0.6161794638800803
 40
0.7409147365570747
 40
0.8664416249591769
 40
0.9919668564510367
 40
1.0
 40
1.0
 40
1.0
 40
1.0
 10
50.57997036386608
 20
64.95750577367204
 30
0.0
 10
50.47210004349341
 20
64.95750577367204
 30
0.0
 10
50.31010986630012
 20
64.95750577367204
 30
0.0
 10
50.13902606345732
 20
64.95750577367204
 30
0.0
 10
50.02812768879706
 20
64.95750577367204
 30
0.0
 10
49.93905050962706
 20
64.95750577367204
 30
0.0
 10
49.87209980228648
 20
64.95750577367205
 30
0.0
 10
49.83328055709357
 20
64.95750577367204
 30
0.0
 10
49.81699231667384
 20
64.95750577367205
 30
0.0
 10
49.82130878879917
 20
64.95750577367204
 30
0.0
 10
49.82156841190553
 20
64.95750577367204
 30
0.0
  0
SPLINE
  5
115
330
1F
100
AcDbEntity
  8
0
  6
Continuous
 62
     7
370
    25
100
AcDbSpline
210
0.0
220
0.0
230
1.0
 70
     8
 71
     3
 72
    16
 73
    12
 74
     0
 42
0.00000001
 43
0.00000001
 40
0.0
 40
0.0
 40
0.0
 40
0.0
 40
0.2500000000000002
 40
0.2500000000000002
 40
0.5000000000000003
 40
0.5000000000000003
 40
0.6250000000000002
 40
0.6250000000000002
 40
0.7500000000000002
 40
0.7500000000000002
 40
1.0
 40
1.0
 40
1.0
 40
1.0
 10
50.57997036386568
 20
47.957505773672
 30
0.0
 10
50.34865561018305
 20
48.65145003471988
 30
0.0
 10
50.15801031685261
 20
49.35045376126409
 30
0.0
 10
49.89390466044531
 20
50.76303955166445
 30
0.0
 10
49.82131546913134
 20
51.47672999324278
 30
0.0
 10
49.82051822304039
 20
52.56071211197987
 30
0.0
 10
49.83826347966384
 20
52.92373954029875
 30
0.0
 10
49.90746056319363
 20
53.64184610316251
 30
0.0
 10
49.95884216925591
 20
53.99849183974663
 30
0.0
 10
50.15725016799252
 20
55.06207945860245
 30
0.0
 10
50.34836726969649
 20
55.76269649116389
 30
0.0
 10
50.57997036386588
 20
56.45750577367208
 30
0.0
  0
LINE
  5
116
330
1F
100
AcDbEntity
  8
0
  6
Continuous
 62
     7
370
    25
100
AcDbLine
 10
49.676443418
 20
48.2075057737
 30
0.0
 11
49.676443418
 21
64.7075057737
 31
0.0
  0
SPLINE
  5
117
330
1F
100
AcDbEntity
  8
0
  6
Continuous
 62
     7
370
    25
100
AcDbSpline
210
0.0
220
0.0
230
1.0
 70
     8
 71
     3
 72
    16
 73
    12
 74
     0
 42
0.00000001
 43
0.00000001
 40
0.0
 40
0.0
 40
0.0
 40
0.0
 40
0.2500000000000002
 40
0.2500000000000002
 40
0.5000000000000003
 40
0.5000000000000003
 40
0.6250000000000002
 40
0.6250000000000002
 40
0.7500000000000002
 40
0.7500000000000002
 40
1.0
 40
1.0
 40
1.0
 40
1.0
 10
53.772916472162
 20
47.957505773672
 30
0.0
 10
54.00423122584462
 20
48.65145003471988
 30
0.0
 10
54.19487651917506
 20
49.35045376126409
 30
0.0
 10
54.45898217558237
 20
50.76303955166445
 30
0.0
 10
54.53157136689633
 20
51.47672999324278
 30
0.0
 10
54.53236861298728
 20
52.56071211197987
 30
0.0
 10
54.51462335636383
 20
52.92373954029875
 30
0.0
 10
54.44542627283405
 20
53.64184610316251
 30
0.0
 10
54.39404466677176
 20
53.99849183974663
 30
0.0
 10
54.19563666803515
 20
55.06207945860245
 30
0.0
 10
54.00451956633119
 20
55.76269649116389
 30
0.0
 10
53.7729164721618
 20
56.45750577367208
 30
0.0
  0
SPLINE
  5
118
330
1F
100
AcDbEntity
  8
0
  6
Continuous
 62
     7
370
    25
100
AcDbSpline
210
0.0
220
0.0
230
1.0
 70
    24
 71
     3
 72
    15
 73
    11
 74
     0
 42
0.00000001
 43
0.00000001
 40
0.0
 40
0.0
 40
0.0
 40
0.0
 40
0.2453021435275927
 40
0.3683732240586926
 40
0.4914405136052384
 40
0.6161794638800803
 40
0.7409147365570747
 40
0.8664416249591769
 40
0.9919668564510367
 40
1.0
 40
1.0
 40
1.0
 40
1.0
 10
53.77291647216158
 20
64.95750577367204
 30
0.0
 10
53.88078679253427
 20
64.95750577367204
 30
0.0
 10
54.04277696972756
 20
64.95750577367204
 30
0.0
 10
54.21386077257036
 20
64.95750577367204
 30
0.0
 10
54.32475914723061
 20
64.95750577367204
 30
0.0
 10
54.41383632640061
 20
64.95750577367204
 30
0.0
 10
54.48078703374119
 20
64.95750577367205
 30
0.0
 10
54.51960627893411
 20
64.95750577367204
 30
0.0
 10
54.53589451935383
 20
64.95750577367205
 30
0.0
 10
54.53157804722849
 20
64.95750577367204
 30
0.0
 10
54.53131842412214
 20
64.95750577367204
 30
0.0
  0
SPLINE
  5
119
330
1F
100
AcDbEntity
  8
0
  6
Continuous
 62
     7
370
    25
100
AcDbSpline
210
0.0
220
0.0
230
1.0
 70
    24
 71
     3
 72
    14
 73
    10
 74
     0
 42
0.00000001
 43
0.00000001
 40
0.0
 40
0.0
 40
0.0
 40
0.0
 40
0.1161769628575542
 40
0.2403883293799677
 40
0.3654207939794109
 40
0.4904568795805601
 40
0.6175906656958584
 40
0.7447287887220339
 40
0.9999999999999999
 40
0.9999999999999999
 40
0.9999999999999999
 40
0.9999999999999999
 10
54.53131842412214
 20
47.95750577367205
 30
0.0
 10
54.52943014885554
 20
47.95750577367205
 30
0.0
 10
54.52552301162639
 20
47.95750577367205
 30
0.0
 10
54.48746933284161
 20
47.95750577367205
 30
0.0
 10
54.4253675881258
 20
47.95750577367205
 30
0.0
 10
54.33827468551411
 20
47.95750577367205
 30
0.0
 10
54.22766355522002
 20
47.95750577367205
 30
0.0
 10
54.05279963494328
 20
47.95750577367205
 30
0.0
 10
53.88495707693552
 20
47.95750577367205
 30
0.0
 10
53.77291647216158
 20
47.95750577367205
 30
0.0
  0
LINE
  5
11A
330
1F
100
AcDbEntity
  8
0
  6
Continuous
 62
     7
370
    25
100
AcDbLine
 10
54.676443418
 20
48.2075057737
 30
0.0
 11
54.676443418
 21
64.7075057737
 31
0.0
  0
LINE
  5
11B
330
1F
100
AcDbEntity
  8
0
  6
Continuous
 62
     7
370
    25
100
AcDbLine
 10
50.5799703639
 20
47.9575057737
 30
0.0
 11
53.7729164722
 21
47.9575057737
 31
0.0
  0
LINE
  5
11C
330
1F
100
AcDbEntity
  8
0
  6
Continuous
 62
     7
370
    25
100
AcDbLine
 10
38.6777337406
 20
62.8794835963
 30
0.0
 11
38.6777337406
 21
50.0355279511
 31
0.0
  0
LINE
  5
11D
330
1F
100
AcDbEntity
  8
0
  6
Continuous
 62
     7
370
    25
100
AcDbLine
 10
37.676443418
 20
56.4575057737
 30
0.0
 11
37.676443418
 21
61.8781932737
 31
0.0
  0
LINE
  5
11E
330
1F
100
AcDbEntity
  8
0
  6
Continuous
 62
     7
370
    25
100
AcDbLine
 10
37.676443418
 20
51.0368182737
 30
0.0
 11
37.676443418
 21
56.4575057737
 31
0.0
  0
LINE
  5
11F
330
1F
100
AcDbEntity
  8
0
  6
Continuous
 62
     7
370
    18
100
AcDbLine
 10
37.9206115582
 20
62.1223614139
 30
0.0
 11
48.776443418
 21
62.4616061595
 31
0.0
  0
LINE
  5
120
330
1F
100
AcDbEntity
  8
0
  6
Continuous
 62
     7
370
    18
100
AcDbLine
 10
37.9206115582
 20
50.7926501335
 30
0.0
 11
48.776443418
 21
50.4534053879
 31
0.0
  0
LINE
  5
121
330
1F
100
AcDbEntity
  8
0
  6
Continuous
 62
     7
370
    25
100
AcDbLine
 10
48.776443418
 20
49.7199432737
 30
0.0
 11
48.776443418
 21
63.1950682737
 31
0.0
  0
LINE
  5
122
330
1F
100
AcDbEntity
  8
FORMAT
  6
CENTERX2
370
    18
100
AcDbLine
 10
55.4741847283
 20
56.4575057737
 30
0.0
 11
36.676443418
 21
56.4575057737
 31
0.0
  0
ENDSEC
  0
SECTION
  2
OBJECTS
  0
DICTIONARY
  5
C
330
0
100
AcDbDictionary
281
     1
  3
ACAD_GROUP
350
D
  3
ACAD_LAYOUT
350
1A
  3
ACAD_MLINESTYLE
350
17
  3
ACAD_PLOTSETTINGS
350
19
  3
ACAD_PLOTSTYLENAME
350
E
  3
ACAD_SCALELIST
350
47
  3
DWGPROPS
350
123
  0
DICTIONARY
  5
D
102
{ACAD_REACTORS
330
C
102
}
330
C
100
AcDbDictionary
281
     1
  0
DICTIONARY
  5
1A
102
{ACAD_REACTORS
330
C
102
}
330
C
100
AcDbDictionary
281
     1
  3
Layout1
350
1E
  3
Layout2
350
26
  3
Model
350
22
  0
DICTIONARY
  5
17
102
{ACAD_REACTORS
330
C
102
}
330
C
100
AcDbDictionary
281
     1
  3
Standard
350
18
  0
DICTIONARY
  5
19
102
{ACAD_REACTORS
330
C
102
}
330
C
100
AcDbDictionary
281
     1
  0
ACDBDICTIONARYWDFLT
  5
E
102
{ACAD_REACTORS
330
C
102
}
330
C
100
AcDbDictionary
281
     1
  3
Normal
350
F
100
AcDbDictionaryWithDefault
340
F
  0
DICTIONARY
  5
47
102
{ACAD_REACTORS
330
C
102
}
330
C
100
AcDbDictionary
281
     1
  3
A0
350
48
  3
A1
350
49
  3
A2
350
4A
  3
A3
350
4B
  3
A4
350
4C
  3
A5
350
4D
  3
A6
350
4E
  3
A7
350
4F
  3
A8
350
50
  3
A9
350
51
  3
B0
350
52
  3
B1
350
53
  3
B2
350
54
  3
B3
350
55
  3
B4
350
56
  3
B5
350
57
  3
B6
350
58
  0
XRECORD
  5
123
102
{ACAD_REACTORS
330
C
102
}
330
C
100
AcDbXrecord
280
     1
  1
DWGPROPS COOKIE
  2

  3

  4

  6

  7

  8
user28
  9

300
=
301
=
302
=
303
=
304
=
305
=
306
=
307
=
308
=
309
=
 40
0.0
 41
2460398.297720578
 42
2460398.297721447
  1

 90
        0
  0
LAYOUT
  5
1E
102
{ACAD_REACTORS
330
1A
102
}
330
1A
100
AcDbPlotSettings
  1

  2
none_device
  4

  6

 40
0.0
 41
0.0
 42
0.0
 43
0.0
 44
0.0
 45
0.0
 46
0.0
 47
0.0
 48
0.0
 49
0.0
140
0.0
141
0.0
142
1.0
143
1.0
 70
   688
 72
     1
 73
     0
 74
     5
  7

 75
    16
147
1.0
148
0.0
149
0.0
100
AcDbLayout
  1
Layout1
 70
     1
 71
     1
 10
0.0
 20
0.0
 11
420.0
 21
297.0
 12
0.0
 22
0.0
 32
0.0
 14
1.0000000000E+20
 24
1.0000000000E+20
 34
1.0000000000E+20
 15
-1.0000000000E+20
 25
-1.0000000000E+20
 35
-1.0000000000E+20
146
0.0
 13
0.0
 23
0.0
 33
0.0
 16
1.0
 26
0.0
 36
0.0
 17
0.0
 27
1.0
 37
0.0
 76
     0
330
1B
  0
LAYOUT
  5
26
102
{ACAD_REACTORS
330
1A
102
}
330
1A
100
AcDbPlotSettings
  1

  2
none_device
  4

  6

 40
0.0
 41
0.0
 42
0.0
 43
0.0
 44
0.0
 45
0.0
 46
0.0
 47
0.0
 48
0.0
 49
0.0
140
0.0
141
0.0
142
1.0
143
1.0
 70
   688
 72
     1
 73
     0
 74
     5
  7

 75
    16
147
1.0
148
0.0
149
0.0
100
AcDbLayout
  1
Layout2
 70
     1
 71
     2
 10
0.0
 20
0.0
 11
0.0
 21
0.0
 12
0.0
 22
0.0
 32
0.0
 14
0.0
 24
0.0
 34
0.0
 15
0.0
 25
0.0
 35
0.0
146
0.0
 13
0.0
 23
0.0
 33
0.0
 16
1.0
 26
0.0
 36
0.0
 17
0.0
 27
1.0
 37
0.0
 76
     0
330
23
  0
LAYOUT
  5
22
102
{ACAD_REACTORS
330
1A
102
}
330
1A
100
AcDbPlotSettings
  1

  2
none_device
  4
Letter_(8.50_x_11.00_Inches)
  6

 40
6.35
 41
6.35
 42
6.35000508
 43
6.35000508
 44
215.9
 45
279.4
 46
0.0
 47
0.0
 48
0.0
 49
0.0
140
0.0
141
0.0
142
1.0
143
1.0
 70
  1712
 72
     1
 73
     0
 74
     0
  7

 75
     0
147
1.0
148
0.0
149
0.0
100
AcDbLayout
  1
Model
 70
     1
 71
     0
 10
0.0
 20
0.0
 11
148.5
 21
105.0
 12
0.0
 22
0.0
 32
0.0
 14
0.0
 24
0.0
 34
0.0
 15
148.5
 25
105.0
 35
0.0
146
0.0
 13
0.0
 23
0.0
 33
0.0
 16
1.0
 26
0.0
 36
0.0
 17
0.0
 27
1.0
 37
0.0
 76
     0
330
1F
331
29
  0
MLINESTYLE
  5
18
102
{ACAD_REACTORS
330
17
102
}
330
17
100
AcDbMlineStyle
  2
Standard
 70
     0
  3

 62
   256
 51
90.0
 52
90.0
 71
     2
 49
0.5
 62
   256
  6
BYLAYER
 49
-0.5
 62
   256
  6
BYLAYER
  0
ACDBPLACEHOLDER
  5
F
102
{ACAD_REACTORS
330
E
102
}
330
E
  0
SCALE
  5
48
102
{ACAD_REACTORS
330
47
102
}
330
47
100
AcDbScale
 70
     0
300
1:1
140
1.0
141
1.0
290
     1
  0
SCALE
  5
49
102
{ACAD_REACTORS
330
47
102
}
330
47
100
AcDbScale
 70
     0
300
1:2
140
1.0
141
2.0
290
     0
  0
SCALE
  5
4A
102
{ACAD_REACTORS
330
47
102
}
330
47
100
AcDbScale
 70
     0
300
1:4
140
1.0
141
4.0
290
     0
  0
SCALE
  5
4B
102
{ACAD_REACTORS
330
47
102
}
330
47
100
AcDbScale
 70
     0
300
1:5
140
1.0
141
5.0
290
     0
  0
SCALE
  5
4C
102
{ACAD_REACTORS
330
47
102
}
330
47
100
AcDbScale
 70
     0
300
1:8
140
1.0
141
8.0
290
     0
  0
SCALE
  5
4D
102
{ACAD_REACTORS
330
47
102
}
330
47
100
AcDbScale
 70
     0
300
1:10
140
1.0
141
10.0
290
     0
  0
SCALE
  5
4E
102
{ACAD_REACTORS
330
47
102
}
330
47
100
AcDbScale
 70
     0
300
1:16
140
1.0
141
16.0
290
     0
  0
SCALE
  5
4F
102
{ACAD_REACTORS
330
47
102
}
330
47
100
AcDbScale
 70
     0
300
1:20
140
1.0
141
20.0
290
     0
  0
SCALE
  5
50
102
{ACAD_REACTORS
330
47
102
}
330
47
100
AcDbScale
 70
     0
300
1:30
140
1.0
141
30.0
290
     0
  0
SCALE
  5
51
102
{ACAD_REACTORS
330
47
102
}
330
47
100
AcDbScale
 70
     0
300
1:40
140
1.0
141
40.0
290
     0
  0
SCALE
  5
52
102
{ACAD_REACTORS
330
47
102
}
330
47
100
AcDbScale
 70
     0
300
1:50
140
1.0
141
50.0
290
     0
  0
SCALE
  5
53
102
{ACAD_REACTORS
330
47
102
}
330
47
100
AcDbScale
 70
     0
300
1:100
140
1.0
141
100.0
290
     0
  0
SCALE
  5
54
102
{ACAD_REACTORS
330
47
102
}
330
47
100
AcDbScale
 70
     0
300
2:1
140
2.0
141
1.0
290
     0
  0
SCALE
  5
55
102
{ACAD_REACTORS
330
47
102
}
330
47
100
AcDbScale
 70
     0
300
4:1
140
4.0
141
1.0
290
     0
  0
SCALE
  5
56
102
{ACAD_REACTORS
330
47
102
}
330
47
100
AcDbScale
 70
     0
300
8:1
140
8.0
141
1.0
290
     0
  0
SCALE
  5
57
102
{ACAD_REACTORS
330
47
102
}
330
47
100
AcDbScale
 70
     0
300
10:1
140
10.0
141
1.0
290
     0
  0
SCALE
  5
58
102
{ACAD_REACTORS
330
47
102
}
330
47
100
AcDbScale
 70
     0
300
100:1
140
100.0
141
1.0
290
     0
  0
ENDSEC
  0
EOF
