  0
SECTION
  2
HEADER
  9
$ACADVER
  1
AC1015
  9
$ACADMAINTVER
 70
     6
  9
$DWGCODEPAGE
  3
DOS932
  9
$INSBASE
 10
0.0
 20
0.0
 30
0.0
  9
$EXTMIN
 10
0.0
 20
0.0
 30
0.0
  9
$EXTMAX
 10
431.8
 20
279.4
 30
0.0
  9
$LIMMIN
 10
0.0
 20
0.0
  9
$LIMMAX
 10
431.8
 20
279.4
  9
$ORTHOMODE
 70
     0
  9
$REGENMODE
 70
     1
  9
$FILLMODE
 70
     1
  9
$QTEXTMODE
 70
     0
  9
$MIRRTEXT
 70
     1
  9
$LTSCALE
 40
1.0
  9
$ATTMODE
 70
     1
  9
$TEXTSIZE
 40
3.5
  9
$TRACEWID
 40
1.0
  9
$TEXTSTYLE
  7
Standard
  9
$CLAYER
  8
0
  9
$CELTYPE
  6
ByLayer
  9
$CECOLOR
 62
   256
  9
$CELTSCALE
 40
1.0
  9
$DISPSILH
 70
     0
  9
$DIMSCALE
 40
1.0
  9
$DIMASZ
 40
3.302
  9
$DIMEXO
 40
1.0
  9
$DIMDLI
 40
3.75
  9
$DIMRND
 40
0.0
  9
$DIMDLE
 40
0.0
  9
$DIMEXE
 40
1.0
  9
$DIMTP
 40
0.0
  9
$DIMTM
 40
0.0
  9
$DIMTXT
 40
3.5
  9
$DIMCEN
 40
2.5
  9
$DIMTSZ
 40
0.0
  9
$DIMTOL
 70
     0
  9
$DIMLIM
 70
     0
  9
$DIMTIH
 70
     1
  9
$DIMTOH
 70
     1
  9
$DIMSE1
 70
     0
  9
$DIMSE2
 70
     0
  9
$DIMTAD
 70
     1
  9
$DIMZIN
 70
     1
  9
$DIMBLK
  1

  9
$DIMASO
 70
     1
  9
$DIMSHO
 70
     1
  9
$DIMPOST
  1

  9
$DIMAPOST
  1

  9
$DIMALT
 70
     0
  9
$DIMALTD
 70
     3
  9
$DIMALTF
 40
0.0393700787
  9
$DIMLFAC
 40
1.0
  9
$DIMTOFL
 70
     1
  9
$DIMTVP
 40
0.0
  9
$DIMTIX
 70
     0
  9
$DIMSOXD
 70
     0
  9
$DIMSAH
 70
     0
  9
$DIMBLK1
  1

  9
$DIMBLK2
  1

  9
$DIMSTYLE
  2
ISO-25
  9
$DIMCLRD
 70
     0
  9
$DIMCLRE
 70
     0
  9
$DIMCLRT
 70
     0
  9
$DIMTFAC
 40
1.0
  9
$DIMGAP
 40
1.524
  9
$DIMJUST
 70
     0
  9
$DIMSD1
 70
     0
  9
$DIMSD2
 70
     0
  9
$DIMTOLJ
 70
     0
  9
$DIMTZIN
 70
     1
  9
$DIMALTZ
 70
     0
  9
$DIMALTTZ
 70
     0
  9
$DIMUPT
 70
     0
  9
$DIMDEC
 70
     2
  9
$DIMTDEC
 70
     2
  9
$DIMALTU
 70
     2
  9
$DIMALTTD
 70
     3
  9
$DIMTXSTY
  7
Standard
  9
$DIMAUNIT
 70
     0
  9
$DIMADEC
 70
     2
  9
$DIMALTRND
 40
0.0
  9
$DIMAZIN
 70
     0
  9
$DIMDSEP
 70
    44
  9
$DIMATFIT
 70
     3
  9
$DIMFRAC
 70
     0
  9
$DIMLDRBLK
  1

  9
$DIMLUNIT
 70
     2
  9
$DIMLWD
 70
    -2
  9
$DIMLWE
 70
    -2
  9
$DIMTMOVE
 70
     0
  9
$LUNITS
 70
     2
  9
$LUPREC
 70
     2
  9
$SKETCHINC
 40
1.0
  9
$FILLETRAD
 40
10.0
  9
$AUNITS
 70
     0
  9
$AUPREC
 70
     2
  9
$MENU
  1
.
  9
$ELEVATION
 40
0.0
  9
$PELEVATION
 40
0.0
  9
$THICKNESS
 40
0.0
  9
$LIMCHECK
 70
     0
  9
$CHAMFERA
 40
0.0
  9
$CHAMFERB
 40
0.0
  9
$CHAMFERC
 40
0.0
  9
$CHAMFERD
 40
0.0
  9
$SKPOLY
 70
     0
  9
$TDCREATE
 40
2460087.726970509
  9
$TDUCREATE
 40
2460087.351970509
  9
$TDUPDATE
 40
2460087.726971053
  9
$TDUUPDATE
 40
2460087.351971053
  9
$TDINDWG
 40
0.0000000116
  9
$TDUSRTIMER
 40
0.0000000116
  9
$USRTIMER
 70
     1
  9
$ANGBASE
 50
0.0
  9
$ANGDIR
 70
     0
  9
$PDMODE
 70
     0
  9
$PDSIZE
 40
-1.0
  9
$PLINEWID
 40
0.0
  9
$SPLFRAME
 70
     0
  9
$SPLINETYPE
 70
     6
  9
$SPLINESEGS
 70
     8
  9
$HANDSEED
  5
112
  9
$SURFTAB1
 70
     6
  9
$SURFTAB2
 70
     6
  9
$SURFTYPE
 70
     6
  9
$SURFU
 70
     6
  9
$SURFV
 70
     6
  9
$UCSBASE
  2

  9
$UCSNAME
  2

  9
$UCSORG
 10
0.0
 20
0.0
 30
0.0
  9
$UCSXDIR
 10
1.0
 20
0.0
 30
0.0
  9
$UCSYDIR
 10
0.0
 20
1.0
 30
0.0
  9
$UCSORTHOREF
  2

  9
$UCSORTHOVIEW
 70
     0
  9
$UCSORGTOP
 10
0.0
 20
0.0
 30
0.0
  9
$UCSORGBOTTOM
 10
0.0
 20
0.0
 30
0.0
  9
$UCSORGLEFT
 10
0.0
 20
0.0
 30
0.0
  9
$UCSORGRIGHT
 10
0.0
 20
0.0
 30
0.0
  9
$UCSORGFRONT
 10
0.0
 20
0.0
 30
0.0
  9
$UCSORGBACK
 10
0.0
 20
0.0
 30
0.0
  9
$PUCSBASE
  2

  9
$PUCSNAME
  2

  9
$PUCSORG
 10
0.0
 20
0.0
 30
0.0
  9
$PUCSXDIR
 10
1.0
 20
0.0
 30
0.0
  9
$PUCSYDIR
 10
0.0
 20
1.0
 30
0.0
  9
$PUCSORTHOREF
  2

  9
$PUCSORTHOVIEW
 70
     0
  9
$PUCSORGTOP
 10
0.0
 20
0.0
 30
0.0
  9
$PUCSORGBOTTOM
 10
0.0
 20
0.0
 30
0.0
  9
$PUCSORGLEFT
 10
0.0
 20
0.0
 30
0.0
  9
$PUCSORGRIGHT
 10
0.0
 20
0.0
 30
0.0
  9
$PUCSORGFRONT
 10
0.0
 20
0.0
 30
0.0
  9
$PUCSORGBACK
 10
0.0
 20
0.0
 30
0.0
  9
$USERI1
 70
     0
  9
$USERI2
 70
     0
  9
$USERI3
 70
     0
  9
$USERI4
 70
     0
  9
$USERI5
 70
     0
  9
$USERR1
 40
0.0
  9
$USERR2
 40
0.0
  9
$USERR3
 40
0.0
  9
$USERR4
 40
0.0
  9
$USERR5
 40
0.0
  9
$WORLDVIEW
 70
     1
  9
$SHADEDGE
 70
     3
  9
$SHADEDIF
 70
    70
  9
$TILEMODE
 70
     1
  9
$MAXACTVP
 70
    64
  9
$PINSBASE
 10
0.0
 20
0.0
 30
0.0
  9
$PLIMCHECK
 70
     0
  9
$PEXTMIN
 10
1.0000000000E+20
 20
1.0000000000E+20
 30
1.0000000000E+20
  9
$PEXTMAX
 10
-1.0000000000E+20
 20
-1.0000000000E+20
 30
-1.0000000000E+20
  9
$PLIMMIN
 10
0.0
 20
0.0
  9
$PLIMMAX
 10
420.0
 20
297.0
  9
$UNITMODE
 70
     0
  9
$VISRETAIN
 70
     1
  9
$PLINEGEN
 70
     0
  9
$PSLTSCALE
 70
     1
  9
$TREEDEPTH
 70
  3020
  9
$CMLSTYLE
  2
Standard
  9
$CMLJUST
 70
     0
  9
$CMLSCALE
 40
20.0
  9
$PROXYGRAPHICS
 70
     1
  9
$MEASUREMENT
 70
     1
  9
$CELWEIGHT
370
    -1
  9
$ENDCAPS
280
     0
  9
$JOINSTYLE
280
     0
  9
$LWDISPLAY
290
     1
  9
$INSUNITS
 70
     4
  9
$HYPERLINKBASE
  1

  9
$STYLESHEET
  1

  9
$XEDIT
290
     1
  9
$CEPSNTYPE
380
     0
  9
$PSTYLEMODE
290
     1
  9
$FINGERPRINTGUID
  2
{94ED3B21-352A-47F3-A820-BD06E0AD306B}
  9
$VERSIONGUID
  2
{FAEB1C32-E019-11D5-929B-00C0DF256EC4}
  9
$EXTNAMES
290
     1
  9
$PSVPSCALE
 40
0.0
  9
$OLESTARTUP
290
     0
  0
ENDSEC
  0
SECTION
  2
CLASSES
  0
CLASS
  1
ACDBDICTIONARYWDFLT
  2
AcDbDictionaryWithDefault
  3
ObjectDBX Classes
 90
        0
280
     0
281
     0
  0
CLASS
  1
VISUALSTYLE
  2
AcDbVisualStyle
  3
ObjectDBX Classes
 90
     4095
280
     0
281
     0
  0
CLASS
  1
MATERIAL
  2
AcDbMaterial
  3
ObjectDBX Classes
 90
     1153
280
     0
281
     0
  0
CLASS
  1
SCALE
  2
AcDbScale
  3
ObjectDBX Classes
 90
     1153
280
     0
281
     0
  0
CLASS
  1
TABLESTYLE
  2
AcDbTableStyle
  3
ObjectDBX Classes
 90
     4095
280
     0
281
     0
  0
CLASS
  1
MLEADERSTYLE
  2
AcDbMLeaderStyle
  3
ACDB_MLEADERSTYLE_CLASS
 90
     4095
280
     0
281
     0
  0
CLASS
  1
SUN
  2
AcDbSun
  3
SCENEOE
 90
     1153
280
     0
281
     0
  0
CLASS
  1
ACDBPLACEHOLDER
  2
AcDbPlaceHolder
  3
ObjectDBX Classes
 90
        0
280
     0
281
     0
  0
CLASS
  1
LAYOUT
  2
AcDbLayout
  3
ObjectDBX Classes
 90
        0
280
     0
281
     0
  0
ENDSEC
  0
SECTION
  2
TABLES
  0
TABLE
  2
VPORT
  5
8
330
0
100
AcDbSymbolTable
 70
     1
  0
VPORT
  5
29
330
8
100
AcDbSymbolTableRecord
100
AcDbViewportTableRecord
  2
*Active
 70
     0
 10
0.0
 20
0.0
 11
1.0
 21
1.0
 12
215.9
 22
139.7
 13
0.0
 23
0.0
 14
10.0
 24
10.0
 15
10.0
 25
10.0
 16
0.0
 26
0.0
 36
1.0
 17
0.0
 27
0.0
 37
0.0
 40
279.4
 41
1.5454545455
 42
50.0
 43
0.0
 44
0.0
 50
0.0
 51
0.0
 71
     0
 72
  2000
 73
     1
 74
     3
 75
     0
 76
     0
 77
     0
 78
     0
281
     0
 65
     1
110
0.0
120
0.0
130
0.0
111
1.0
121
0.0
131
0.0
112
0.0
122
1.0
132
0.0
 79
     0
146
0.0
  0
ENDTAB
  0
TABLE
  2
LTYPE
  5
5
330
0
100
AcDbSymbolTable
 70
     6
  0
LTYPE
  5
14
330
5
100
AcDbSymbolTableRecord
100
AcDbLinetypeTableRecord
  2
ByBlock
 70
     0
  3

 72
    65
 73
     0
 40
0.0
  0
LTYPE
  5
15
330
5
100
AcDbSymbolTableRecord
100
AcDbLinetypeTableRecord
  2
ByLayer
 70
     0
  3

 72
    65
 73
     0
 40
0.0
  0
LTYPE
  5
16
330
5
100
AcDbSymbolTableRecord
100
AcDbLinetypeTableRecord
  2
Continuous
 70
     0
  3
Solid line
 72
    65
 73
     0
 40
0.0
  0
LTYPE
  5
6E
330
5
100
AcDbSymbolTableRecord
100
AcDbLinetypeTableRecord
  2
HIDDEN
 70
     0
  3
Hidden __ __ __ __ __ __ __ __ __ __ __ __ __ __
 72
    65
 73
     2
 40
1.905
 49
1.27
 74
     0
 49
-0.635
 74
     0
  0
LTYPE
  5
6F
330
5
100
AcDbSymbolTableRecord
100
AcDbLinetypeTableRecord
  2
PHANTOM
 70
     0
  3
Phantom ______  __  __  ______  __  __  ______
 72
    65
 73
     6
 40
12.7
 49
6.35
 74
     0
 49
-1.27
 74
     0
 49
1.27
 74
     0
 49
-1.27
 74
     0
 49
1.27
 74
     0
 49
-1.27
 74
     0
  0
LTYPE
  5
70
330
5
100
AcDbSymbolTableRecord
100
AcDbLinetypeTableRecord
  2
CENTER
 70
     0
  3
Center ____ _ ____ _ ____ _ ____ _ ____ _ ____
 72
    65
 73
     4
 40
10.16
 49
6.35
 74
     0
 49
-1.27
 74
     0
 49
1.27
 74
     0
 49
-1.27
 74
     0
  0
LTYPE
  5
71
330
5
100
AcDbSymbolTableRecord
100
AcDbLinetypeTableRecord
  2
CENTERX2
 70
     0
  3
Center (2x) ________  __  ________  __  _____
 72
    65
 73
     4
 40
20.32
 49
12.7
 74
     0
 49
-2.54
 74
     0
 49
2.54
 74
     0
 49
-2.54
 74
     0
  0
LTYPE
  5
72
330
5
100
AcDbSymbolTableRecord
100
AcDbLinetypeTableRecord
  2
DOT2
 70
     0
  3
Dot (.5x) ........................................
 72
    65
 73
     2
 40
0.635
 49
0.0
 74
     0
 49
-0.635
 74
     0
  0
ENDTAB
  0
TABLE
  2
LAYER
  5
2
330
0
100
AcDbSymbolTable
 70
     1
  0
LAYER
  5
10
330
2
100
AcDbSymbolTableRecord
100
AcDbLayerTableRecord
  2
0
 70
     0
 62
     7
  6
Continuous
370
    -3
390
F
  0
ENDTAB
  0
TABLE
  2
STYLE
  5
3
330
0
100
AcDbSymbolTable
 70
     2
  0
STYLE
  5
11
330
3
100
AcDbSymbolTableRecord
100
AcDbTextStyleTableRecord
  2
Standard
 70
     0
 40
0.0
 41
1.0
 50
0.0
 71
     0
 42
3.5
  3
txt
  4
bigfont
  0
STYLE
  5
73
330
3
100
AcDbSymbolTableRecord
100
AcDbTextStyleTableRecord
  2
SLDTEXTSTYLE0
 70
     0
 40
0.0
 41
0.7
 50
0.0
 71
     0
 42
3.5
  3
TXT
  4
bigfont
  0
ENDTAB
  0
TABLE
  2
VIEW
  5
6
330
0
100
AcDbSymbolTable
 70
     0
  0
ENDTAB
  0
TABLE
  2
UCS
  5
7
330
0
100
AcDbSymbolTable
 70
     0
  0
ENDTAB
  0
TABLE
  2
APPID
  5
9
330
0
100
AcDbSymbolTable
 70
     1
  0
APPID
  5
12
330
9
100
AcDbSymbolTableRecord
100
AcDbRegAppTableRecord
  2
ACAD
 70
     0
  0
ENDTAB
  0
TABLE
  2
DIMSTYLE
  5
A
330
0
100
AcDbSymbolTable
 70
     1
100
AcDbDimStyleTable
  0
DIMSTYLE
105
27
330
A
100
AcDbSymbolTableRecord
100
AcDbDimStyleTableRecord
  2
ISO-25
 70
     0
 41
2.5
 42
0.625
 43
3.75
 44
1.25
 73
     0
 74
     0
 77
     1
 78
     8
140
2.5
141
2.5
143
0.0393700787
147
0.625
171
     3
172
     1
178
     0
271
     2
272
     2
274
     3
278
    44
283
     0
284
     8
340
11
  0
ENDTAB
  0
TABLE
  2
BLOCK_RECORD
  5
1
330
0
100
AcDbSymbolTable
 70
     2
  0
BLOCK_RECORD
  5
1F
330
1
100
AcDbSymbolTableRecord
100
AcDbBlockTableRecord
  2
*Model_Space
340
22
  0
BLOCK_RECORD
  5
1B
330
1
100
AcDbSymbolTableRecord
100
AcDbBlockTableRecord
  2
*Paper_Space
340
1E
  0
BLOCK_RECORD
  5
23
330
1
100
AcDbSymbolTableRecord
100
AcDbBlockTableRecord
  2
*Paper_Space0
340
26
  0
BLOCK_RECORD
  5
E3
330
1
100
AcDbSymbolTableRecord
100
AcDbBlockTableRecord
  2
SW_CENTERMARKSYMBOL_0
340
0
102
{BLKREFS
331
EE
102
}
  0
ENDTAB
  0
ENDSEC
  0
SECTION
  2
BLOCKS
  0
BLOCK
  5
20
330
1F
100
AcDbEntity
  8
0
100
AcDbBlockBegin
  2
*Model_Space
 70
     0
 10
0.0
 20
0.0
 30
0.0
  3
*Model_Space
  1

  0
ENDBLK
  5
21
330
1F
100
AcDbEntity
  8
0
100
AcDbBlockEnd
  0
BLOCK
  5
1C
330
1B
100
AcDbEntity
 67
     1
  8
0
100
AcDbBlockBegin
  2
*Paper_Space
 70
     0
 10
0.0
 20
0.0
 30
0.0
  3
*Paper_Space
  1

  0
ENDBLK
  5
1D
330
1B
100
AcDbEntity
 67
     1
  8
0
100
AcDbBlockEnd
  0
BLOCK
  5
24
330
23
100
AcDbEntity
  8
0
100
AcDbBlockBegin
  2
*Paper_Space0
 70
     0
 10
0.0
 20
0.0
 30
0.0
  3
*Paper_Space0
  1

  0
ENDBLK
  5
25
330
23
100
AcDbEntity
  8
0
100
AcDbBlockEnd
  0
BLOCK
  5
E4
330
E3
100
AcDbEntity
  8
0
100
AcDbBlockBegin
  2
SW_CENTERMARKSYMBOL_0
 70
     0
 10
0.0
 20
0.0
 30
0.0
  3
SW_CENTERMARKSYMBOL_0
  1

  0
LINE
  5
E6
330
E3
100
AcDbEntity
  8
0
  6
Continuous
 62
     0
370
    18
100
AcDbLine
 10
0.0
 20
0.0
 30
0.0
 11
0.0
 21
2.5
 31
0.0
  0
LINE
  5
E7
330
E3
100
AcDbEntity
  8
0
  6
Continuous
 62
     0
370
    18
100
AcDbLine
 10
0.0
 20
0.0
 30
0.0
 11
-2.5
 21
0.0
 31
0.0
  0
LINE
  5
E8
330
E3
100
AcDbEntity
  8
0
  6
Continuous
 62
     0
370
    18
100
AcDbLine
 10
0.0
 20
0.0
 30
0.0
 11
0.0
 21
-2.5
 31
0.0
  0
LINE
  5
E9
330
E3
100
AcDbEntity
  8
0
  6
Continuous
 62
     0
370
    18
100
AcDbLine
 10
0.0
 20
0.0
 30
0.0
 11
2.5
 21
0.0
 31
0.0
  0
LINE
  5
EA
330
E3
100
AcDbEntity
  8
0
  6
Continuous
 62
     0
370
    18
100
AcDbLine
 10
0.0
 20
5.0
 30
0.0
 11
0.0
 21
22.75
 31
0.0
  0
LINE
  5
EB
330
E3
100
AcDbEntity
  8
0
  6
Continuous
 62
     0
370
    18
100
AcDbLine
 10
-5.0
 20
0.0
 30
0.0
 11
-22.75
 21
0.0
 31
0.0
  0
LINE
  5
EC
330
E3
100
AcDbEntity
  8
0
  6
Continuous
 62
     0
370
    18
100
AcDbLine
 10
0.0
 20
-5.0
 30
0.0
 11
0.0
 21
-22.75
 31
0.0
  0
LINE
  5
ED
330
E3
100
AcDbEntity
  8
0
  6
Continuous
 62
     0
370
    18
100
AcDbLine
 10
5.0
 20
0.0
 30
0.0
 11
22.75
 21
0.0
 31
0.0
  0
ENDBLK
  5
E5
330
E3
100
AcDbEntity
  8
0
100
AcDbBlockEnd
  0
ENDSEC
  0
SECTION
  2
ENTITIES
  0
MTEXT
  5
74
330
1F
100
AcDbEntity
  8
0
  6
Continuous
 62
     7
370
     0
100
AcDbMText
 10
95.9415270814
 20
97.4013376773
 30
0.0
 40
4.2333333333
 41
0.0
 71
     1
 72
     1
  1
六角プラグ　HP-7008
  7
SLDTEXTSTYLE0
 73
     1
 44
1.0
  0
LINE
  5
75
330
1F
100
AcDbEntity
  8
0
  6
Continuous
 62
     7
370
    25
100
AcDbLine
 10
76.4167733942
 20
19.9893302927
 30
0.0
 11
78.3920971098
 21
23.4106913295
 31
0.0
  0
LINE
  5
76
330
1F
100
AcDbEntity
  8
0
  6
Continuous
 62
     7
370
    25
100
AcDbLine
 10
78.3920971098
 20
63.9106913295
 30
0.0
 11
76.4167733942
 21
67.3320523663
 31
0.0
  0
LINE
  5
77
330
1F
100
AcDbEntity
  8
0
  6
Continuous
 62
     7
370
    25
100
AcDbLine
 10
64.3674208254
 20
67.3320523663
 30
0.0
 11
62.3920971098
 21
63.9106913295
 31
0.0
  0
LINE
  5
78
330
1F
100
AcDbEntity
  8
0
  6
Continuous
 62
     7
370
    25
100
AcDbLine
 10
62.3920971098
 20
23.4106913295
 30
0.0
 11
64.3674208254
 21
19.9893302927
 31
0.0
  0
LINE
  5
79
330
1F
100
AcDbEntity
  8
0
  6
Continuous
 62
     7
370
    25
100
AcDbLine
 10
62.3920971098
 20
63.9106913295
 30
0.0
 11
60.3920971098
 21
63.9106913295
 31
0.0
  0
LINE
  5
7A
330
1F
100
AcDbEntity
  8
0
  6
Continuous
 62
     7
370
    25
100
AcDbLine
 10
60.3920971098
 20
23.4106913295
 30
0.0
 11
62.3920971098
 21
23.4106913295
 31
0.0
  0
LINE
  5
7B
330
1F
100
AcDbEntity
  8
0
  6
Continuous
 62
     7
370
    25
100
AcDbLine
 10
56.8920971098
 20
27.0361913295
 30
0.0
 11
58.3920971098
 21
28.5361913295
 31
0.0
  0
LINE
  5
7C
330
1F
100
AcDbEntity
  8
0
  6
Continuous
 62
     7
370
    25
100
AcDbLine
 10
58.3920971098
 20
58.7851913295
 30
0.0
 11
56.8920971098
 21
60.2851913295
 31
0.0
  0
LINE
  5
7D
330
1F
100
AcDbEntity
  8
0
  6
Continuous
 62
     7
370
    25
100
AcDbLine
 10
56.8920971098
 20
60.2851913295
 30
0.0
 11
43.8920971098
 21
60.2851913295
 31
0.0
  0
LINE
  5
7E
330
1F
100
AcDbEntity
  8
0
  6
Continuous
 62
     7
370
    25
100
AcDbLine
 10
43.8920971098
 20
27.0361913295
 30
0.0
 11
56.8920971098
 21
27.0361913295
 31
0.0
  0
LINE
  5
7F
330
1F
100
AcDbEntity
  8
0
  6
Continuous
 62
     7
370
    25
100
AcDbLine
 10
43.8920971098
 20
60.2851913295
 30
0.0
 11
42.3920971098
 21
58.7851913295
 31
0.0
  0
LINE
  5
80
330
1F
100
AcDbEntity
  8
0
  6
Continuous
 62
     7
370
    25
100
AcDbLine
 10
42.3920971098
 20
28.5361913295
 30
0.0
 11
43.8920971098
 21
27.0361913295
 31
0.0
  0
LINE
  5
81
330
1F
100
AcDbEntity
  8
0
  6
Continuous
 62
     7
370
    25
100
AcDbLine
 10
60.3920971098
 20
58.1606913295
 30
0.0
 11
58.3920971098
 21
58.1606913295
 31
0.0
  0
LINE
  5
82
330
1F
100
AcDbEntity
  8
0
  6
Continuous
 62
     7
370
    25
100
AcDbLine
 10
58.3920971098
 20
29.1606913295
 30
0.0
 11
60.3920971098
 21
29.1606913295
 31
0.0
  0
SPLINE
  5
83
330
1F
100
AcDbEntity
  8
0
  6
Continuous
 62
     7
370
    25
100
AcDbSpline
210
0.0
220
0.0
230
1.0
 70
     8
 71
     3
 72
    18
 73
    14
 74
     0
 42
0.000000001
 43
0.00000001
 40
0.0
 40
0.0
 40
0.0
 40
0.0
 40
0.2499999999999998
 40
0.2499999999999998
 40
0.4999999999999996
 40
0.4999999999999996
 40
0.5624999999999994
 40
0.5624999999999994
 40
0.6249999999999992
 40
0.6249999999999992
 40
0.7499999999999994
 40
0.7499999999999994
 40
1.0
 40
1.0
 40
1.0
 40
1.0
 10
76.41677339424999
 20
19.98933029270507
 30
0.0
 10
76.97465040955004
 20
20.95560162757965
 30
0.0
 10
77.43444194383864
 20
21.9289176043225
 30
0.0
 10
78.07140236480159
 20
23.89584792730969
 30
0.0
 10
78.246470198048
 20
24.88961317426628
 30
0.0
 10
78.24807287132383
 20
26.14742165956525
 30
0.0
 10
78.23761826822975
 20
26.40025841294946
 30
0.0
 10
78.19549472675216
 20
26.90363850507442
 30
0.0
 10
78.16387450604876
 20
27.15445408762092
 30
0.0
 10
78.03870933947795
 20
27.90439097977884
 30
0.0
 10
77.91478903898974
 20
28.40099656601324
 30
0.0
 10
77.43627560948349
 20
29.88197195204106
 30
0.0
 10
76.97534591266475
 20
30.85753482948617
 30
0.0
 10
76.4167733942499
 20
31.82501081109242
 30
0.0
  0
LINE
  5
84
330
1F
100
AcDbEntity
  8
0
  6
Continuous
 62
     7
370
    25
100
AcDbLine
 10
76.4167733942
 20
19.9893302927
 30
0.0
 11
64.3674208254
 21
19.9893302927
 31
0.0
  0
SPLINE
  5
85
330
1F
100
AcDbEntity
  8
0
  6
Continuous
 62
     7
370
    25
100
AcDbSpline
210
0.0
220
0.0
230
1.0
 70
     8
 71
     3
 72
    18
 73
    14
 74
     0
 42
0.000000001
 43
0.00000001
 40
0.0
 40
0.0
 40
0.0
 40
0.0
 40
0.2499999999999999
 40
0.2499999999999999
 40
0.4999999999999998
 40
0.4999999999999998
 40
0.5624999999999997
 40
0.5624999999999997
 40
0.6249999999999996
 40
0.6249999999999996
 40
0.7499999999999997
 40
0.7499999999999997
 40
1.0
 40
1.0
 40
1.0
 40
1.0
 10
64.36742082540312
 20
31.82501081109242
 30
0.0
 10
63.80954381010305
 20
30.85873947621784
 30
0.0
 10
63.34975227581445
 20
29.885423499475
 30
0.0
 10
62.71279185485149
 20
27.91849317648781
 30
0.0
 10
62.53772402160508
 20
26.92472792953122
 30
0.0
 10
62.53612134832925
 20
25.66691944423225
 30
0.0
 10
62.54657595142334
 20
25.41408269084805
 30
0.0
 10
62.58869949290093
 20
24.91070259872308
 30
0.0
 10
62.62031971360434
 20
24.65988701617657
 30
0.0
 10
62.74548488017515
 20
23.90995012401865
 30
0.0
 10
62.86940518066336
 20
23.41334453778425
 30
0.0
 10
63.3479186101696
 20
21.93236915175643
 30
0.0
 10
63.80884830698832
 20
20.95680627431133
 30
0.0
 10
64.3674208254032
 20
19.98933029270508
 30
0.0
  0
LINE
  5
86
330
1F
100
AcDbEntity
  8
0
  6
Continuous
 62
     7
370
    25
100
AcDbLine
 10
76.4167733942
 20
31.8250108111
 30
0.0
 11
64.3674208254
 21
31.8250108111
 31
0.0
  0
SPLINE
  5
87
330
1F
100
AcDbEntity
  8
0
  6
Continuous
 62
     7
370
    25
100
AcDbSpline
210
0.0
220
0.0
230
1.0
 70
     8
 71
     3
 72
    20
 73
    16
 74
     0
 42
0.000000001
 43
0.00000001
 40
0.0
 40
0.0
 40
0.0
 40
0.0
 40
0.125
 40
0.125
 40
0.25
 40
0.25
 40
0.5
 40
0.5
 40
0.5625
 40
0.5625
 40
0.625
 40
0.625
 40
0.75
 40
0.75
 40
1.0
 40
1.0
 40
1.0
 40
1.0
 10
76.41677339424982
 20
31.82501081109241
 30
0.0
 10
76.69512296018249
 20
32.78924199201268
 30
0.0
 10
76.9512048504237
 20
33.76490443713946
 30
0.0
 10
77.40306039156377
 20
35.72747766638614
 30
0.0
 10
77.59822903752914
 20
36.71156547432209
 30
0.0
 10
78.0757903383421
 20
39.67365927527556
 30
0.0
 10
78.24802745945246
 20
41.66169698890995
 30
0.0
 10
78.24769216561292
 20
44.16638142786646
 30
0.0
 10
78.23700981643024
 20
44.66828503629445
 30
0.0
 10
78.1943410517835
 20
45.6740323866479
 30
0.0
 10
78.16225752486898
 20
46.17894442656964
 30
0.0
 10
78.03517398546778
 20
47.6885225356342
 30
0.0
 10
77.90982240765697
 20
48.68440169403811
 30
0.0
 10
77.42891600855245
 20
51.6449257367631
 30
0.0
 10
76.96921993512288
 20
53.58264089335146
 30
0.0
 10
76.41677339424982
 20
55.49637184786708
 30
0.0
  0
SPLINE
  5
88
330
1F
100
AcDbEntity
  8
0
  6
Continuous
 62
     7
370
    25
100
AcDbSpline
210
0.0
220
0.0
230
1.0
 70
     8
 71
     3
 72
    18
 73
    14
 74
     0
 42
0.000000001
 43
0.00000001
 40
0.0
 40
0.0
 40
0.0
 40
0.0
 40
0.125
 40
0.125
 40
0.2500000000000001
 40
0.2500000000000001
 40
0.5
 40
0.5
 40
0.6249999999999999
 40
0.6249999999999999
 40
0.7499999999999999
 40
0.7499999999999999
 40
1.0
 40
1.0
 40
1.0
 40
1.0
 10
64.36742082540329
 20
31.8250108110924
 30
0.0
 10
64.08909362815072
 20
32.78916450463176
 30
0.0
 10
63.83304893840241
 20
33.76465953321324
 30
0.0
 10
63.38114302435375
 20
35.7274238990696
 30
0.0
 10
63.18596094302728
 20
36.71158274261876
 30
0.0
 10
62.70838377428544
 20
39.67380204049978
 30
0.0
 10
62.53617088838037
 20
41.66180496715747
 30
0.0
 10
62.53656703419178
 20
44.66715497387607
 30
0.0
 10
62.57954516890002
 20
45.67527254280143
 30
0.0
 10
62.74898929127212
 20
47.68827364424887
 30
0.0
 10
62.87434769350365
 20
48.68423743585883
 30
0.0
 10
63.3552755863631
 20
51.64494113905964
 30
0.0
 10
63.8149850487185
 20
53.58267818159349
 30
0.0
 10
64.36742082540329
 20
55.49637184786708
 30
0.0
  0
LINE
  5
89
330
1F
100
AcDbEntity
  8
0
  6
Continuous
 62
     7
370
    25
100
AcDbLine
 10
76.4167733942
 20
55.4963718479
 30
0.0
 11
64.3674208254
 21
55.4963718479
 31
0.0
  0
SPLINE
  5
8A
330
1F
100
AcDbEntity
  8
0
  6
Continuous
 62
     7
370
    25
100
AcDbSpline
210
0.0
220
0.0
230
1.0
 70
     8
 71
     3
 72
    18
 73
    14
 74
     0
 42
0.000000001
 43
0.00000001
 40
0.0
 40
0.0
 40
0.0
 40
0.0
 40
0.2500000000000004
 40
0.2500000000000004
 40
0.5000000000000008
 40
0.5000000000000008
 40
0.5625000000000009
 40
0.5625000000000009
 40
0.625000000000001
 40
0.625000000000001
 40
0.7500000000000006
 40
0.7500000000000006
 40
1.0
 40
1.0
 40
1.0
 40
1.0
 10
76.41677339424999
 20
55.49637184786707
 30
0.0
 10
76.97465040955004
 20
56.46264318274166
 30
0.0
 10
77.43444194383864
 20
57.43595915948449
 30
0.0
 10
78.07140236480159
 20
59.40288948247167
 30
0.0
 10
78.246470198048
 20
60.39665472942828
 30
0.0
 10
78.24807287132383
 20
61.65446321472726
 30
0.0
 10
78.23761826822975
 20
61.90729996811145
 30
0.0
 10
78.19549472675216
 20
62.41068006023643
 30
0.0
 10
78.16387450604876
 20
62.66149564278294
 30
0.0
 10
78.03870933947795
 20
63.41143253494086
 30
0.0
 10
77.91478903898972
 20
63.90803812117525
 30
0.0
 10
77.43627560948349
 20
65.38901350720306
 30
0.0
 10
76.97534591266475
 20
66.36457638464819
 30
0.0
 10
76.41677339424989
 20
67.33205236625442
 30
0.0
  0
SPLINE
  5
8B
330
1F
100
AcDbEntity
  8
0
  6
Continuous
 62
     7
370
    25
100
AcDbSpline
210
0.0
220
0.0
230
1.0
 70
     8
 71
     3
 72
    18
 73
    14
 74
     0
 42
0.000000001
 43
0.00000001
 40
0.0
 40
0.0
 40
0.0
 40
0.0
 40
0.2500000000000007
 40
0.2500000000000007
 40
0.5000000000000014
 40
0.5000000000000014
 40
0.5625000000000014
 40
0.5625000000000014
 40
0.6250000000000013
 40
0.6250000000000013
 40
0.7500000000000008
 40
0.7500000000000008
 40
1.0
 40
1.0
 40
1.0
 40
1.0
 10
64.36742082540312
 20
67.33205236625442
 30
0.0
 10
63.80954381010307
 20
66.36578103137984
 30
0.0
 10
63.34975227581445
 20
65.392465054637
 30
0.0
 10
62.7127918548515
 20
63.42553473164982
 30
0.0
 10
62.53772402160509
 20
62.43176948469321
 30
0.0
 10
62.53612134832925
 20
61.17396099939425
 30
0.0
 10
62.54657595142334
 20
60.92112424601005
 30
0.0
 10
62.58869949290093
 20
60.41774415388507
 30
0.0
 10
62.62031971360434
 20
60.16692857133857
 30
0.0
 10
62.74548488017515
 20
59.41699167918065
 30
0.0
 10
62.86940518066336
 20
58.92038609294625
 30
0.0
 10
63.3479186101696
 20
57.43941070691844
 30
0.0
 10
63.80884830698832
 20
56.46384782947333
 30
0.0
 10
64.36742082540319
 20
55.49637184786708
 30
0.0
  0
LINE
  5
8C
330
1F
100
AcDbEntity
  8
0
  6
Continuous
 62
     7
370
    25
100
AcDbLine
 10
76.4167733942
 20
67.3320523663
 30
0.0
 11
64.3674208254
 21
67.3320523663
 31
0.0
  0
LINE
  5
8D
330
1F
100
AcDbEntity
  8
0
  6
Continuous
 62
     7
370
    25
100
AcDbLine
 10
78.3920971098
 20
63.9106913295
 30
0.0
 11
78.3920971098
 21
23.4106913295
 31
0.0
  0
LINE
  5
8E
330
1F
100
AcDbEntity
  8
0
  6
Continuous
 62
     7
370
    25
100
AcDbLine
 10
62.3920971098
 20
43.6606913295
 30
0.0
 11
62.3920971098
 21
63.9106913295
 31
0.0
  0
LINE
  5
8F
330
1F
100
AcDbEntity
  8
0
  6
Continuous
 62
     7
370
    25
100
AcDbLine
 10
62.3920971098
 20
23.4106913295
 30
0.0
 11
62.3920971098
 21
43.6606913295
 31
0.0
  0
LINE
  5
90
330
1F
100
AcDbEntity
  8
0
  6
Continuous
 62
     7
370
    25
100
AcDbLine
 10
60.3920971098
 20
43.6606913295
 30
0.0
 11
60.3920971098
 21
63.9106913295
 31
0.0
  0
LINE
  5
91
330
1F
100
AcDbEntity
  8
0
  6
Continuous
 62
     7
370
    25
100
AcDbLine
 10
60.3920971098
 20
23.4106913295
 30
0.0
 11
60.3920971098
 21
43.6606913295
 31
0.0
  0
LINE
  5
92
330
1F
100
AcDbEntity
  8
0
  6
Continuous
 62
     7
370
    25
100
AcDbLine
 10
56.8920971098
 20
43.6606913295
 30
0.0
 11
56.8920971098
 21
60.2851913295
 31
0.0
  0
LINE
  5
93
330
1F
100
AcDbEntity
  8
0
  6
Continuous
 62
     7
370
    25
100
AcDbLine
 10
56.8920971098
 20
27.0361913295
 30
0.0
 11
56.8920971098
 21
43.6606913295
 31
0.0
  0
LINE
  5
94
330
1F
100
AcDbEntity
  8
0
  6
Continuous
 62
     7
370
    25
100
AcDbLine
 10
58.3920971098
 20
43.6606913295
 30
0.0
 11
58.3920971098
 21
28.5361913295
 31
0.0
  0
LINE
  5
95
330
1F
100
AcDbEntity
  8
0
  6
Continuous
 62
     7
370
    25
100
AcDbLine
 10
58.3920971098
 20
58.7851913295
 30
0.0
 11
58.3920971098
 21
43.6606913295
 31
0.0
  0
LINE
  5
96
330
1F
100
AcDbEntity
  8
0
  6
Continuous
 62
     7
370
    25
100
AcDbLine
 10
43.8920971098
 20
43.6606913295
 30
0.0
 11
43.8920971098
 21
27.0361913295
 31
0.0
  0
LINE
  5
97
330
1F
100
AcDbEntity
  8
0
  6
Continuous
 62
     7
370
    25
100
AcDbLine
 10
43.8920971098
 20
60.2851913295
 30
0.0
 11
43.8920971098
 21
43.6606913295
 31
0.0
  0
LINE
  5
98
330
1F
100
AcDbEntity
  8
0
  6
Continuous
 62
     7
370
    25
100
AcDbLine
 10
42.3920971098
 20
43.6606913295
 30
0.0
 11
42.3920971098
 21
58.7851913295
 31
0.0
  0
LINE
  5
99
330
1F
100
AcDbEntity
  8
0
  6
Continuous
 62
     7
370
    25
100
AcDbLine
 10
42.3920971098
 20
28.5361913295
 30
0.0
 11
42.3920971098
 21
43.6606913295
 31
0.0
  0
LINE
  5
9A
330
1F
100
AcDbEntity
  8
0
  6
Continuous
 62
     7
370
    18
100
AcDbLine
 10
42.4130971098
 20
58.8061913295
 30
0.0
 11
58.3710971098
 21
58.8061913295
 31
0.0
  0
LINE
  5
9B
330
1F
100
AcDbEntity
  8
0
  6
Continuous
 62
     7
370
    18
100
AcDbLine
 10
42.4130971098
 20
28.5151913295
 30
0.0
 11
58.3710971098
 21
28.5151913295
 31
0.0
  0
LINE
  5
9C
330
1F
100
AcDbEntity
  8
0
  6
CENTERX2
 62
     7
370
    18
100
AcDbLine
 10
37.4246322043
 20
43.6606913295
 30
0.0
 11
83.6608285274
 21
43.6606913295
 31
0.0
  0
CIRCLE
  5
9D
330
1F
100
AcDbEntity
  8
0
  6
Continuous
 62
     7
370
    25
100
AcDbCircle
 10
123.9790150289
 20
43.6606913295
 30
0.0
 40
20.25
  0
SPLINE
  5
9E
330
1F
100
AcDbEntity
  8
0
  6
Continuous
 62
     7
370
    25
100
AcDbSpline
210
0.0
220
0.0
230
1.0
 70
    24
 71
     3
 72
    18
 73
    14
 74
     0
 42
0.000000001
 43
0.00000001
 40
0.0
 40
0.0
 40
0.0
 40
0.0
 40
0.2500000000000001
 40
0.2500000000000001
 40
0.5
 40
0.5
 40
0.5624999999999999
 40
0.5624999999999999
 40
0.6249999999999998
 40
0.6249999999999998
 40
0.7499999999999999
 40
0.7499999999999999
 40
1.0
 40
1.0
 40
1.0
 40
1.0
 10
144.4790150289017
 20
31.82501081109243
 30
0.0
 10
142.8053839830015
 20
30.85873947621785
 30
0.0
 10
141.1195512594644
 20
29.88542349947501
 30
0.0
 10
137.7127280051027
 20
27.91849317648782
 30
0.0
 10
135.9914761065777
 20
26.92472792953122
 30
0.0
 10
133.8128879038486
 20
25.66691944423226
 30
0.0
 10
133.3749618009664
 20
25.41408269084805
 30
0.0
 10
132.5030819058872
 20
24.91070259872307
 30
0.0
 10
132.0686565735867
 20
24.65988701617657
 30
0.0
 10
130.7697277738989
 20
23.90995012401865
 30
0.0
 10
129.9095816672184
 20
23.41334453778426
 30
0.0
 10
127.3444570538593
 20
21.93236915175644
 30
0.0
 10
125.6547325841462
 20
20.95680627431133
 30
0.0
 10
123.9790150289017
 20
19.98933029270508
 30
0.0
  0
SPLINE
  5
9F
330
1F
100
AcDbEntity
  8
0
  6
Continuous
 62
     7
370
    25
100
AcDbSpline
210
0.0
220
0.0
230
1.0
 70
    24
 71
     3
 72
    18
 73
    14
 74
     0
 42
0.000000001
 43
0.00000001
 40
0.0
 40
0.0
 40
0.0
 40
0.0
 40
0.2499999999999998
 40
0.2499999999999998
 40
0.4999999999999996
 40
0.4999999999999996
 40
0.5624999999999994
 40
0.5624999999999994
 40
0.6249999999999992
 40
0.6249999999999992
 40
0.7499999999999994
 40
0.7499999999999994
 40
1.0
 40
1.0
 40
1.0
 40
1.0
 10
123.9790150289017
 20
19.98933029270507
 30
0.0
 10
122.3053839830015
 20
20.95560162757965
 30
0.0
 10
120.6195512594644
 20
21.9289176043225
 30
0.0
 10
117.2127280051027
 20
23.89584792730969
 30
0.0
 10
115.4914761065777
 20
24.88961317426628
 30
0.0
 10
113.3128879038486
 20
26.14742165956525
 30
0.0
 10
112.8749618009664
 20
26.40025841294946
 30
0.0
 10
112.0030819058872
 20
26.90363850507442
 30
0.0
 10
111.5686565735867
 20
27.15445408762092
 30
0.0
 10
110.2697277738989
 20
27.90439097977884
 30
0.0
 10
109.4095816672184
 20
28.40099656601324
 30
0.0
 10
106.8444570538593
 20
29.88197195204106
 30
0.0
 10
105.1547325841463
 20
30.85753482948617
 30
0.0
 10
103.4790150289017
 20
31.82501081109242
 30
0.0
  0
SPLINE
  5
A0
330
1F
100
AcDbEntity
  8
0
  6
Continuous
 62
     7
370
    25
100
AcDbSpline
210
0.0
220
0.0
230
1.0
 70
    24
 71
     3
 72
    20
 73
    16
 74
     0
 42
0.000000001
 43
0.00000001
 40
0.0
 40
0.0
 40
0.0
 40
0.0
 40
0.125
 40
0.125
 40
0.25
 40
0.25
 40
0.5
 40
0.5
 40
0.5625
 40
0.5625
 40
0.625
 40
0.625
 40
0.75
 40
0.75
 40
1.0
 40
1.0
 40
1.0
 40
1.0
 10
103.4790150289017
 20
31.82501081109241
 30
0.0
 10
103.4790150289017
 20
32.78924199201268
 30
0.0
 10
103.4790150289017
 20
33.76490443713946
 30
0.0
 10
103.4790150289017
 20
35.72747766638614
 30
0.0
 10
103.4790150289017
 20
36.71156547432209
 30
0.0
 10
103.4790150289017
 20
39.67365927527556
 30
0.0
 10
103.4790150289017
 20
41.66169698890995
 30
0.0
 10
103.4790150289017
 20
44.16638142786646
 30
0.0
 10
103.4790150289017
 20
44.66828503629445
 30
0.0
 10
103.4790150289017
 20
45.6740323866479
 30
0.0
 10
103.4790150289017
 20
46.17894442656964
 30
0.0
 10
103.4790150289017
 20
47.6885225356342
 30
0.0
 10
103.4790150289017
 20
48.68440169403811
 30
0.0
 10
103.4790150289017
 20
51.6449257367631
 30
0.0
 10
103.4790150289017
 20
53.58264089335146
 30
0.0
 10
103.4790150289017
 20
55.49637184786708
 30
0.0
  0
SPLINE
  5
A1
330
1F
100
AcDbEntity
  8
0
  6
Continuous
 62
     7
370
    25
100
AcDbSpline
210
0.0
220
0.0
230
1.0
 70
    24
 71
     3
 72
    18
 73
    14
 74
     0
 42
0.000000001
 43
0.00000001
 40
0.0
 40
0.0
 40
0.0
 40
0.0
 40
0.2500000000000004
 40
0.2500000000000004
 40
0.5000000000000008
 40
0.5000000000000008
 40
0.5625000000000009
 40
0.5625000000000009
 40
0.625000000000001
 40
0.625000000000001
 40
0.7500000000000006
 40
0.7500000000000006
 40
1.0
 40
1.0
 40
1.0
 40
1.0
 10
103.4790150289017
 20
55.49637184786707
 30
0.0
 10
105.1526460748018
 20
56.46264318274166
 30
0.0
 10
106.838478798339
 20
57.43595915948449
 30
0.0
 10
110.2453020527006
 20
59.40288948247167
 30
0.0
 10
111.9665539512257
 20
60.39665472942828
 30
0.0
 10
114.1451421539548
 20
61.65446321472726
 30
0.0
 10
114.583068256837
 20
61.90729996811145
 30
0.0
 10
115.4549481519161
 20
62.41068006023643
 30
0.0
 10
115.8893734842166
 20
62.66149564278294
 30
0.0
 10
117.1883022839045
 20
63.41143253494086
 30
0.0
 10
118.048448390585
 20
63.90803812117525
 30
0.0
 10
120.6135730039441
 20
65.38901350720306
 30
0.0
 10
122.3032974736571
 20
66.36457638464819
 30
0.0
 10
123.9790150289017
 20
67.33205236625442
 30
0.0
  0
SPLINE
  5
A2
330
1F
100
AcDbEntity
  8
0
  6
Continuous
 62
     7
370
    25
100
AcDbSpline
210
0.0
220
0.0
230
1.0
 70
    24
 71
     3
 72
    18
 73
    14
 74
     0
 42
0.000000001
 43
0.00000001
 40
0.0
 40
0.0
 40
0.0
 40
0.0
 40
0.25
 40
0.25
 40
0.5
 40
0.5
 40
0.5625000000000001
 40
0.5625000000000001
 40
0.6250000000000002
 40
0.6250000000000002
 40
0.7500000000000002
 40
0.7500000000000002
 40
1.0
 40
1.0
 40
1.0
 40
1.0
 10
123.9790150289016
 20
67.33205236625442
 30
0.0
 10
125.6526460748018
 20
66.36578103137984
 30
0.0
 10
127.338478798339
 20
65.392465054637
 30
0.0
 10
130.7453020527006
 20
63.4255347316498
 30
0.0
 10
132.4665539512257
 20
62.43176948469322
 30
0.0
 10
134.6451421539548
 20
61.17396099939425
 30
0.0
 10
135.083068256837
 20
60.92112424601005
 30
0.0
 10
135.9549481519161
 20
60.41774415388507
 30
0.0
 10
136.3893734842166
 20
60.16692857133857
 30
0.0
 10
137.6883022839045
 20
59.41699167918065
 30
0.0
 10
138.548448390585
 20
58.92038609294625
 30
0.0
 10
141.1135730039441
 20
57.43941070691844
 30
0.0
 10
142.8032974736571
 20
56.46384782947333
 30
0.0
 10
144.4790150289017
 20
55.49637184786708
 30
0.0
  0
SPLINE
  5
A3
330
1F
100
AcDbEntity
  8
0
  6
Continuous
 62
     7
370
    25
100
AcDbSpline
210
0.0
220
0.0
230
1.0
 70
    24
 71
     3
 72
    20
 73
    16
 74
     0
 42
0.000000001
 43
0.00000001
 40
0.0
 40
0.0
 40
0.0
 40
0.0
 40
0.1249999999999999
 40
0.1249999999999999
 40
0.2499999999999998
 40
0.2499999999999998
 40
0.4999999999999999
 40
0.4999999999999999
 40
0.5624999999999999
 40
0.5624999999999999
 40
0.6249999999999999
 40
0.6249999999999999
 40
0.7499999999999999
 40
0.7499999999999999
 40
1.0
 40
1.0
 40
1.0
 40
1.0
 10
144.4790150289017
 20
31.82501081109242
 30
0.0
 10
144.4790150289017
 20
32.78924199201269
 30
0.0
 10
144.4790150289017
 20
33.76490443713947
 30
0.0
 10
144.4790150289017
 20
35.72747766638614
 30
0.0
 10
144.4790150289017
 20
36.71156547432211
 30
0.0
 10
144.4790150289017
 20
39.67365927527557
 30
0.0
 10
144.4790150289017
 20
41.66169698890996
 30
0.0
 10
144.4790150289017
 20
44.16638142786648
 30
0.0
 10
144.4790150289017
 20
44.66828503629446
 30
0.0
 10
144.4790150289017
 20
45.67403238664792
 30
0.0
 10
144.4790150289017
 20
46.17894442656964
 30
0.0
 10
144.4790150289017
 20
47.6885225356342
 30
0.0
 10
144.4790150289017
 20
48.68440169403812
 30
0.0
 10
144.4790150289017
 20
51.64492573676311
 30
0.0
 10
144.4790150289017
 20
53.58264089335147
 30
0.0
 10
144.4790150289017
 20
55.49637184786708
 30
0.0
  0
LINE
  5
A4
330
1F
100
AcDbEntity
  8
0
  6
Continuous
 62
     7
370
    25
100
AcDbLine
 10
124.3693001273
 20
47.2234559109
 30
0.0
 11
124.7138514094
 21
51.0832315519
 31
0.0
  0
LINE
  5
A5
330
1F
100
AcDbEntity
  8
0
  6
Continuous
 62
     7
370
    25
100
AcDbLine
 10
126.0239475632
 20
48.179385398
 30
0.0
 11
124.3693001273
 21
47.2234559109
 31
0.0
  0
LINE
  5
A6
330
1F
100
AcDbEntity
  8
0
  6
Continuous
 62
     7
370
    25
100
AcDbLine
 10
126.488691153
 20
47.3740969365
 30
0.0
 11
126.0239475632
 21
48.179385398
 31
0.0
  0
LINE
  5
A7
330
1F
100
AcDbEntity
  8
0
  6
Continuous
 62
     7
370
    25
100
AcDbLine
 10
126.8348449991
 20
47.5736161673
 30
0.0
 11
126.488691153
 21
47.3740969365
 31
0.0
  0
LINE
  5
A8
330
1F
100
AcDbEntity
  8
0
  6
Continuous
 62
     7
370
    25
100
AcDbLine
 10
126.3701014094
 20
48.3789046288
 30
0.0
 11
126.8348449991
 21
47.5736161673
 31
0.0
  0
LINE
  5
A9
330
1F
100
AcDbEntity
  8
0
  6
Continuous
 62
     7
370
    25
100
AcDbLine
 10
126.7891719222
 20
48.6216930904
 30
0.0
 11
126.3701014094
 21
48.3789046288
 31
0.0
  0
LINE
  5
AA
330
1F
100
AcDbEntity
  8
0
  6
Continuous
 62
     7
370
    25
100
AcDbLine
 10
126.5968642299
 20
48.9534238596
 30
0.0
 11
126.7891719222
 21
48.6216930904
 31
0.0
  0
LINE
  5
AB
330
1F
100
AcDbEntity
  8
0
  6
Continuous
 62
     7
370
    25
100
AcDbLine
 10
126.1777937171
 20
48.710635398
 30
0.0
 11
126.5968642299
 21
48.9534238596
 31
0.0
  0
LINE
  5
AC
330
1F
100
AcDbEntity
  8
0
  6
Continuous
 62
     7
370
    25
100
AcDbLine
 10
124.7843642299
 20
51.1232956545
 30
0.0
 11
126.1777937171
 21
48.710635398
 31
0.0
  0
LINE
  5
AD
330
1F
100
AcDbEntity
  8
0
  6
Continuous
 62
     7
370
    25
100
AcDbLine
 10
124.7138514094
 20
51.0832315519
 30
0.0
 11
124.7843642299
 21
51.1232956545
 31
0.0
  0
LINE
  5
AE
330
1F
100
AcDbEntity
  8
0
  6
Continuous
 62
     7
370
    25
100
AcDbLine
 10
123.2326587344
 20
39.3367313507
 30
0.0
 11
121.2326587344
 21
42.7990710943
 31
0.0
  0
LINE
  5
AF
330
1F
100
AcDbEntity
  8
0
  6
Continuous
 62
     7
370
    25
100
AcDbLine
 10
123.5788125805
 20
39.5370518635
 30
0.0
 11
123.2326587344
 21
39.3367313507
 31
0.0
  0
LINE
  5
B0
330
1F
100
AcDbEntity
  8
0
  6
Continuous
 62
     7
370
    25
100
AcDbLine
 10
122.649325401
 20
41.1468275045
 30
0.0
 11
123.5788125805
 21
39.5370518635
 31
0.0
  0
LINE
  5
B1
330
1F
100
AcDbEntity
  8
0
  6
Continuous
 62
     7
370
    25
100
AcDbLine
 10
122.8961202728
 20
41.2886544276
 30
0.0
 11
122.649325401
 21
41.1468275045
 31
0.0
  0
SPLINE
  5
B2
330
1F
100
AcDbEntity
  8
0
  6
Continuous
 62
     7
370
    25
100
AcDbSpline
210
0.0
220
0.0
230
1.0
 70
     8
 71
     3
 72
    15
 73
    11
 74
     0
 42
0.000000001
 43
0.00000001
 40
0.0
 40
0.0
 40
0.0
 40
0.0
 40
0.0756123032498289
 40
0.1644872655319285
 40
0.2677853868718776
 40
0.3857854682946375
 40
0.5179322862644449
 40
0.6638659903914277
 40
0.8244577581462259
 40
1.0
 40
1.0
 40
1.0
 40
1.0
 10
123.7438766830833
 20
41.85435955583005
 30
0.0
 10
123.7248667131028
 20
41.83700383216282
 30
0.0
 10
123.6835123587777
 20
41.79924813097862
 30
0.0
 10
123.6110841169779
 20
41.74383063449064
 30
0.0
 10
123.5263241711455
 20
41.68094126624222
 30
0.0
 10
123.4267535287602
 20
41.61342415510059
 30
0.0
 10
123.3140086185464
 20
41.53955739869122
 30
0.0
 10
123.1867757268896
 20
41.46146566752256
 30
0.0
 10
123.0467128716943
 20
41.37606592541712
 30
0.0
 10
122.9477845084372
 20
41.31864294134309
 30
0.0
 10
122.8961202728268
 20
41.28865442762492
 30
0.0
  0
SPLINE
  5
B3
330
1F
100
AcDbEntity
  8
0
  6
Continuous
 62
     7
370
    25
100
AcDbSpline
210
0.0
220
0.0
230
1.0
 70
     8
 71
     3
 72
    23
 73
    19
 74
     0
 42
0.000000001
 43
0.00000001
 40
0.0
 40
0.0
 40
0.0
 40
0.0
 40
0.0701767959831227
 40
0.1370783948533101
 40
0.2015402158160995
 40
0.2643019848993742
 40
0.325851106585645
 40
0.3855625253801132
 40
0.4451090710974652
 40
0.5050396151009584
 40
0.5646549133475235
 40
0.623873102773034
 40
0.6835103850890274
 40
0.7439310552880052
 40
0.8050983035609699
 40
0.8678522399879645
 40
0.9328002663636267
 40
0.9999999999999999
 40
0.9999999999999999
 40
0.9999999999999999
 40
0.9999999999999999
 10
123.9281715548781
 20
43.12599417121467
 30
0.0
 10
123.9441838662707
 20
43.09740933921871
 30
0.0
 10
123.9754611839772
 20
43.04157374809114
 30
0.0
 10
124.0126811620932
 20
42.95508333048239
 30
0.0
 10
124.0438281082083
 20
42.86996452361244
 30
0.0
 10
124.0663369102336
 20
42.78467003514312
 30
0.0
 10
124.080783441111
 20
42.69992267900786
 30
0.0
 10
124.0873736756849
 20
42.61569802715085
 30
0.0
 10
124.0857802867516
 20
42.53196531120778
 30
0.0
 10
124.0759677409685
 20
42.44887748377863
 30
0.0
 10
124.0593645923193
 20
42.36701066817133
 30
0.0
 10
124.0347417657889
 20
42.28737429261311
 30
0.0
 10
124.004789589376
 20
42.20915186799032
 30
0.0
 10
123.965773516365
 20
42.1339642943281
 30
0.0
 10
123.9205379469361
 20
42.06076368552666
 30
0.0
 10
123.8693835508623
 20
41.98887971969567
 30
0.0
 10
123.8096359304366
 20
41.92015228539594
 30
0.0
 10
123.7660440242692
 20
41.8765381838184
 30
0.0
 10
123.7438766830833
 20
41.85435955583005
 30
0.0
  0
SPLINE
  5
B4
330
1F
100
AcDbEntity
  8
0
  6
Continuous
 62
     7
370
    25
100
AcDbSpline
210
0.0
220
0.0
230
1.0
 70
     8
 71
     3
 72
    23
 73
    19
 74
     0
 42
0.000000001
 43
0.00000001
 40
0.0
 40
0.0
 40
0.0
 40
0.0
 40
0.0629356290675135
 40
0.124917386466311
 40
0.1857052460120456
 40
0.2456350393096019
 40
0.3051624435162109
 40
0.3646585631624177
 40
0.4250581585413427
 40
0.4863258165608511
 40
0.5475962370601505
 40
0.6090294239962809
 40
0.6706716427956784
 40
0.7327325403902578
 40
0.7965017194925578
 40
0.8620715477041121
 40
0.9294466560771697
 40
1.0
 40
1.0
 40
1.0
 40
1.0
 10
122.7526907856474
 20
43.60756468403518
 30
0.0
 10
122.7806369879377
 20
43.61494965225649
 30
0.0
 10
122.8361058313176
 20
43.62960765985904
 30
0.0
 10
122.9203008091136
 20
43.64365854959087
 30
0.0
 10
123.0038214666935
 20
43.65206513095251
 30
0.0
 10
123.0866889586747
 20
43.65287634452864
 30
0.0
 10
123.1686735689104
 20
43.64628359326667
 30
0.0
 10
123.2500795113626
 20
43.63330033039072
 30
0.0
 10
123.3311463465334
 20
43.61429257574447
 30
0.0
 10
123.4109159161947
 20
43.58771634933305
 30
0.0
 10
123.4889059195391
 20
43.55507202160769
 30
0.0
 10
123.563624966225
 20
43.51499743745321
 30
0.0
 10
123.634116352489
 20
43.46733579533318
 30
0.0
 10
123.7014862497234
 20
43.41355215529828
 30
0.0
 10
123.7636006410375
 20
43.35120628399769
 30
0.0
 10
123.8229966983327
 20
43.28313516693126
 30
0.0
 10
123.8790889577753
 20
43.20822098695419
 30
0.0
 10
123.9115612732285
 20
43.15382094993478
 30
0.0
 10
123.9281715548781
 20
43.12599417121467
 30
0.0
  0
SPLINE
  5
B5
330
1F
100
AcDbEntity
  8
0
  6
Continuous
 62
     7
370
    25
100
AcDbSpline
210
0.0
220
0.0
230
1.0
 70
     8
 71
     3
 72
    15
 73
    11
 74
     0
 42
0.000000001
 43
0.00000001
 40
0.0
 40
0.0
 40
0.0
 40
0.0
 40
0.1772047475236776
 40
0.3392086991137762
 40
0.486811660435993
 40
0.6185381308101384
 40
0.7363717983370404
 40
0.838457124749514
 40
0.9265189260755414
 40
1.0
 40
1.0
 40
1.0
 40
1.0
 10
121.9225625805192
 20
43.19730827377877
 30
0.0
 10
121.9700338989909
 20
43.22467668817234
 30
0.0
 10
122.0609043999738
 20
43.2770658277015
 30
0.0
 10
122.1924428791567
 20
43.35028228826252
 30
0.0
 10
122.3130827931585
 20
43.41409479898518
 30
0.0
 10
122.4225241913171
 20
43.469829578769
 30
0.0
 10
122.5205179400547
 20
43.51698965403801
 30
0.0
 10
122.6074173328832
 20
43.55595555478969
 30
0.0
 10
122.6832017919467
 20
43.58620307096339
 30
0.0
 10
122.7309648045251
 20
43.60088589970369
 30
0.0
 10
122.7526907856474
 20
43.60756468403518
 30
0.0
  0
LINE
  5
B6
330
1F
100
AcDbEntity
  8
0
  6
Continuous
 62
     7
370
    25
100
AcDbLine
 10
121.2326587344
 20
42.7990710943
 30
0.0
 11
121.9225625805
 21
43.1973082738
 31
0.0
  0
LINE
  5
B7
330
1F
100
AcDbEntity
  8
0
  6
Continuous
 62
     7
370
    25
100
AcDbLine
 10
126.656471085
 20
41.2713923533
 30
0.0
 11
124.656471085
 21
44.7337320969
 31
0.0
  0
LINE
  5
B8
330
1F
100
AcDbEntity
  8
0
  6
Continuous
 62
     7
370
    25
100
AcDbLine
 10
127.000221085
 20
41.470110302
 30
0.0
 11
126.656471085
 21
41.2713923533
 31
0.0
  0
LINE
  5
B9
330
1F
100
AcDbEntity
  8
0
  6
Continuous
 62
     7
370
    25
100
AcDbLine
 10
126.0202531362
 20
43.1672256866
 30
0.0
 11
127.000221085
 21
41.470110302
 31
0.0
  0
LINE
  5
BA
330
1F
100
AcDbEntity
  8
0
  6
Continuous
 62
     7
370
    25
100
AcDbLine
 10
127.4112787773
 20
43.970110302
 30
0.0
 11
126.0202531362
 21
43.1672256866
 31
0.0
  0
LINE
  5
BB
330
1F
100
AcDbEntity
  8
0
  6
Continuous
 62
     7
370
    25
100
AcDbLine
 10
127.2141633926
 20
44.3114564559
 30
0.0
 11
127.4112787773
 21
43.970110302
 31
0.0
  0
LINE
  5
BC
330
1F
100
AcDbEntity
  8
0
  6
Continuous
 62
     7
370
    25
100
AcDbLine
 10
125.8231377516
 20
43.5085718405
 30
0.0
 11
127.2141633926
 21
44.3114564559
 31
0.0
  0
LINE
  5
BD
330
1F
100
AcDbEntity
  8
0
  6
Continuous
 62
     7
370
    25
100
AcDbLine
 10
125.1973364696
 20
44.5911038918
 30
0.0
 11
125.8231377516
 21
43.5085718405
 31
0.0
  0
LINE
  5
BE
330
1F
100
AcDbEntity
  8
0
  6
Continuous
 62
     7
370
    25
100
AcDbLine
 10
126.5883621106
 20
45.3939885071
 30
0.0
 11
125.1973364696
 21
44.5911038918
 31
0.0
  0
LINE
  5
BF
330
1F
100
AcDbEntity
  8
0
  6
Continuous
 62
     7
370
    25
100
AcDbLine
 10
126.391246726
 20
45.735334661
 30
0.0
 11
126.5883621106
 21
45.3939885071
 31
0.0
  0
LINE
  5
C0
330
1F
100
AcDbEntity
  8
0
  6
Continuous
 62
     7
370
    25
100
AcDbLine
 10
124.656471085
 20
44.7337320969
 30
0.0
 11
126.391246726
 21
45.735334661
 31
0.0
  0
SPLINE
  5
C1
330
1F
100
AcDbEntity
  8
0
  6
Continuous
 62
     7
370
    25
100
AcDbSpline
210
0.0
220
0.0
230
1.0
 70
     8
 71
     3
 72
    19
 73
    15
 74
     0
 42
0.000000001
 43
0.00000001
 40
0.0
 40
0.0
 40
0.0
 40
0.0
 40
0.1166985365897388
 40
0.2282590101784685
 40
0.3372185427251284
 40
0.4465132849869345
 40
0.5027658480382596
 40
0.5620350872685723
 40
0.6248184910357911
 40
0.6915349811923928
 40
0.7617985431967303
 40
0.8366234562169642
 40
0.9161906330044085
 40
1.0
 40
1.0
 40
1.0
 40
1.0
 10
118.215308425018
 20
46.54190308030081
 30
0.0
 10
118.1800851292281
 20
46.51945594499065
 30
0.0
 10
118.1111893669745
 20
46.47554998835255
 30
0.0
 10
118.0224314258523
 20
46.39276040569717
 30
0.0
 10
117.9523148328337
 20
46.29739887005778
 30
0.0
 10
117.9066010454772
 20
46.21002370024766
 30
0.0
 10
117.8798737743959
 20
46.13411036074513
 30
0.0
 10
117.8648039663948
 20
46.07209801089595
 30
0.0
 10
117.8544147130522
 20
46.00535038380106
 30
0.0
 10
117.8493375188828
 20
45.93409549992875
 30
0.0
 10
117.8471882013038
 20
45.85836190326797
 30
0.0
 10
117.8520834899666
 20
45.77816001844832
 30
0.0
 10
117.8595565590072
 20
45.69332491438458
 30
0.0
 10
117.8685483529369
 20
45.63561159047283
 30
0.0
 10
117.8731609891206
 20
45.60600564440337
 30
0.0
  0
SPLINE
  5
C2
330
1F
100
AcDbEntity
  8
0
  6
Continuous
 62
     7
370
    25
100
AcDbSpline
210
0.0
220
0.0
230
1.0
 70
     8
 71
     3
 72
    23
 73
    19
 74
     0
 42
0.000000001
 43
0.00000001
 40
0.0
 40
0.0
 40
0.0
 40
0.0
 40
0.0591791051521852
 40
0.1169459291115962
 40
0.1743720545453772
 40
0.2311010381228911
 40
0.2884654328876003
 40
0.3475708060626697
 40
0.409009463483299
 40
0.4724043085594234
 40
0.5368565178558284
 40
0.6005045056844478
 40
0.6640367736994025
 40
0.7279582235298679
 40
0.7931462364758861
 40
0.8592187722458993
 40
0.9283394182013743
 40
1.0
 40
1.0
 40
1.0
 40
1.0
 10
119.1720391942488
 20
46.35280051619824
 30
0.0
 10
119.1606341480645
 20
46.37093499365232
 30
0.0
 10
119.1380962316977
 20
46.40677117788266
 30
0.0
 10
119.0984280810633
 20
46.45602666912642
 30
0.0
 10
119.0543878653027
 20
46.50008983517669
 30
0.0
 10
119.0059393783157
 20
46.53910182696533
 30
0.0
 10
118.9524337926761
 20
46.57198307312038
 30
0.0
 10
118.8944273822198
 20
46.60007034786484
 30
0.0
 10
118.831963352337
 20
46.62334743962401
 30
0.0
 10
118.7656049801891
 20
46.6406118455042
 30
0.0
 10
118.6973361606286
 20
46.65286376258069
 30
0.0
 10
118.6280107121382
 20
46.65781752687673
 30
0.0
 10
118.5588762669345
 20
46.65475361296798
 30
0.0
 10
118.4894363091529
 20
46.6475451168014
 30
0.0
 10
118.420655302564
 20
46.63085001999382
 30
0.0
 10
118.3517189205275
 20
46.60825370909802
 30
0.0
 10
118.2828707968436
 20
46.57859068435945
 30
0.0
 10
118.2380984722451
 20
46.55427849292403
 30
0.0
 10
118.215308425018
 20
46.54190308030081
 30
0.0
  0
SPLINE
  5
C3
330
1F
100
AcDbEntity
  8
0
  6
Continuous
 62
     7
370
    25
100
AcDbSpline
210
0.0
220
0.0
230
1.0
 70
     8
 71
     3
 72
    19
 73
    15
 74
     0
 42
0.000000001
 43
0.00000001
 40
0.0
 40
0.0
 40
0.0
 40
0.0
 40
0.1055150102305262
 40
0.2072590054948935
 40
0.3055242150184237
 40
0.4018902536748172
 40
0.4937941548483876
 40
0.5775887882812998
 40
0.6553337114377283
 40
0.7280006663003299
 40
0.7977954716734891
 40
0.8651986393292102
 40
0.932228330482301
 40
1.0
 40
1.0
 40
1.0
 40
1.0
 10
118.7008853480949
 20
45.30873000337773
 30
0.0
 10
118.7389480117893
 20
45.33242343576608
 30
0.0
 10
118.8137130125845
 20
45.37896351781546
 30
0.0
 10
118.9170592214938
 20
45.45801365847844
 30
0.0
 10
119.0069705487275
 20
45.54649193955612
 30
0.0
 10
119.085967535307
 20
45.6392775872166
 30
0.0
 10
119.1516147740695
 20
45.734773030665
 30
0.0
 10
119.2002971435397
 20
45.83110834419117
 30
0.0
 10
119.2335574259789
 20
45.9253212776107
 30
0.0
 10
119.2486941664106
 20
46.01805118455836
 30
0.0
 10
119.2499097923888
 20
46.1075954654464
 30
0.0
 10
119.2363450851363
 20
46.19354709189018
 30
0.0
 10
119.212258113925
 20
46.27649996082659
 30
0.0
 10
119.1854946050215
 20
46.3272738406193
 30
0.0
 10
119.1720391942488
 20
46.35280051619824
 30
0.0
  0
LINE
  5
C4
330
1F
100
AcDbEntity
  8
0
  6
Continuous
 62
     7
370
    25
100
AcDbLine
 10
118.8843789378
 20
44.990621029
 30
0.0
 11
118.7008853481
 21
45.3087300034
 31
0.0
  0
SPLINE
  5
C5
330
1F
100
AcDbEntity
  8
0
  6
Continuous
 62
     7
370
    25
100
AcDbSpline
210
0.0
220
0.0
230
1.0
 70
     8
 71
     3
 72
    23
 73
    19
 74
     0
 42
0.000000001
 43
0.00000001
 40
0.0
 40
0.0
 40
0.0
 40
0.0
 40
0.0703423198343876
 40
0.1398634517743602
 40
0.2103803753631115
 40
0.2827027172989062
 40
0.3555923664656343
 40
0.4269508105709605
 40
0.4987761996993969
 40
0.5720888555685788
 40
0.6110005129072672
 40
0.6539353186604211
 40
0.7011226343296134
 40
0.7519637186826998
 40
0.8073262203581311
 40
0.8673192372193631
 40
0.931379432164037
 40
0.9999999999999999
 40
0.9999999999999999
 40
0.9999999999999999
 40
0.9999999999999999
 10
120.3355007327103
 20
44.82155051619824
 30
0.0
 10
120.3147975433252
 20
44.85402443877054
 30
0.0
 10
120.2736328570176
 20
44.91859317796353
 30
0.0
 10
120.1950968564163
 20
45.00341151156393
 30
0.0
 10
120.1047784442464
 20
45.07689230654166
 30
0.0
 10
120.0030128005806
 20
45.13720396275152
 30
0.0
 10
119.8941581499381
 20
45.18456204664496
 30
0.0
 10
119.7797057618428
 20
45.21556450990046
 30
0.0
 10
119.6617291024621
 20
45.22884329943135
 30
0.0
 10
119.5608344643531
 20
45.22690675406051
 30
0.0
 10
119.4766048507103
 20
45.21636276325985
 30
0.0
 10
119.40754364505
 20
45.20163139827726
 30
0.0
 10
119.3334779654915
 20
45.18030955927015
 30
0.0
 10
119.2535779107812
 20
45.15482980627545
 30
0.0
 10
119.1686513202599
 20
45.12246330235086
 30
0.0
 10
119.0784579822055
 20
45.08392653590609
 30
0.0
 10
118.9828645935561
 20
45.03969245569039
 30
0.0
 10
118.9179512028521
 20
45.00734873346271
 30
0.0
 10
118.8843789378385
 20
44.99062102901875
 30
0.0
  0
SPLINE
  5
C6
330
1F
100
AcDbEntity
  8
0
  6
Continuous
 62
     7
370
    25
100
AcDbSpline
210
0.0
220
0.0
230
1.0
 70
     8
 71
     3
 72
    23
 73
    19
 74
     0
 42
0.000000001
 43
0.00000001
 40
0.0
 40
0.0
 40
0.0
 40
0.0
 40
0.0732531278746229
 40
0.143076787078104
 40
0.2103746387958365
 40
0.2752906500029053
 40
0.3392596226892456
 40
0.4018859929105241
 40
0.4644270360797879
 40
0.5278378401523588
 40
0.5906903737125638
 40
0.6509224245648336
 40
0.7100706904963927
 40
0.7676159933197219
 40
0.8248315818707156
 40
0.8821963083100987
 40
0.9404609388752492
 40
0.9999999999999999
 40
0.9999999999999999
 40
0.9999999999999999
 40
0.9999999999999999
 10
119.9380648352744
 20
43.58437102901875
 30
0.0
 10
119.9683267231803
 20
43.60281861780346
 30
0.0
 10
120.0274337376944
 20
43.63885014040507
 30
0.0
 10
120.1084971061778
 20
43.70051419574217
 30
0.0
 10
120.1821858091201
 20
43.76487676104007
 30
0.0
 10
120.2457214546814
 20
43.83555137731167
 30
0.0
 10
120.3014634701632
 20
43.90971110987018
 30
0.0
 10
120.3470939945426
 20
43.98917168335638
 30
0.0
 10
120.3853849540993
 20
44.07208220853266
 30
0.0
 10
120.413807617895
 20
44.15905611006173
 30
0.0
 10
120.4332866012594
 20
44.2471815472747
 30
0.0
 10
120.4460494975156
 20
44.33450804912571
 30
0.0
 10
120.4488326802466
 20
44.42013496388071
 30
0.0
 10
120.4447369873082
 20
44.50429468051675
 30
0.0
 10
120.4296078791129
 20
44.58633017319011
 30
0.0
 10
120.4073280302529
 20
44.66698128997164
 30
0.0
 10
120.3759439862205
 20
44.74588775947802
 30
0.0
 10
120.3490786957486
 20
44.79614835329204
 30
0.0
 10
120.3355007327103
 20
44.82155051619824
 30
0.0
  0
SPLINE
  5
C7
330
1F
100
AcDbEntity
  8
0
  6
Continuous
 62
     7
370
    25
100
AcDbSpline
210
0.0
220
0.0
230
1.0
 70
     8
 71
     3
 72
    15
 73
    11
 74
     0
 42
0.000000001
 43
0.00000001
 40
0.0
 40
0.0
 40
0.0
 40
0.0
 40
0.1200312614629397
 40
0.2399649155124079
 40
0.3586107548455221
 40
0.4807865662367299
 40
0.6037828490368189
 40
0.7314727643053685
 40
0.8629426087683327
 40
1.0
 40
1.0
 40
1.0
 40
1.0
 10
119.2826161173257
 20
43.46017231107004
 30
0.0
 10
119.3095204911094
 20
43.45533115056309
 30
0.0
 10
119.3633073604901
 20
43.44565276629992
 30
0.0
 10
119.4449803913497
 20
43.44136069231343
 30
0.0
 10
119.5271579038286
 20
43.44421627123987
 30
0.0
 10
119.6091122711318
 20
43.45681127514054
 30
0.0
 10
119.6919431592552
 20
43.47575533921421
 30
0.0
 10
119.7741043052119
 20
43.50455894298226
 30
0.0
 10
119.8574564038039
 20
43.53927202874493
 30
0.0
 10
119.9108251900927
 20
43.5691309264253
 30
0.0
 10
119.9380648352744
 20
43.58437102901875
 30
0.0
  0
SPLINE
  5
C8
330
1F
100
AcDbEntity
  8
0
  6
Continuous
 62
     7
370
    25
100
AcDbSpline
210
0.0
220
0.0
230
1.0
 70
     8
 71
     3
 72
    15
 73
    11
 74
     0
 42
0.000000001
 43
0.00000001
 40
0.0
 40
0.0
 40
0.0
 40
0.0
 40
0.1513316044327706
 40
0.2940975545230309
 40
0.4289487094265199
 40
0.5559279245516218
 40
0.6762753220694465
 40
0.7892273698219985
 40
0.8971134572546169
 40
1.0
 40
1.0
 40
1.0
 40
1.0
 10
118.7449558609155
 20
43.79911461876235
 30
0.0
 10
118.7683228809553
 20
43.776540194875
 30
0.0
 10
118.813734303612
 20
43.73266910208562
 30
0.0
 10
118.8822362140353
 20
43.67097124623768
 30
0.0
 10
118.9516917957074
 20
43.61870948374153
 30
0.0
 10
119.0186528126617
 20
43.57117158722811
 30
0.0
 10
119.0860992285138
 20
43.53301058106172
 30
0.0
 10
119.1522844444841
 20
43.50160776448446
 30
0.0
 10
119.2170019165196
 20
43.47572043193859
 30
0.0
 10
119.2610933344496
 20
43.46527240869334
 30
0.0
 10
119.2826161173257
 20
43.46017231107004
 30
0.0
  0
LINE
  5
C9
330
1F
100
AcDbEntity
  8
0
  6
Continuous
 62
     7
370
    25
100
AcDbLine
 10
118.4060135532
 20
43.6028005162
 30
0.0
 11
118.7449558609
 21
43.7991146188
 31
0.0
  0
SPLINE
  5
CA
330
1F
100
AcDbEntity
  8
0
  6
Continuous
 62
     7
370
    25
100
AcDbSpline
210
0.0
220
0.0
230
1.0
 70
     8
 71
     3
 72
    23
 73
    19
 74
     0
 42
0.000000001
 43
0.00000001
 40
0.0
 40
0.0
 40
0.0
 40
0.0
 40
0.0656217632387079
 40
0.1283604675836461
 40
0.1895583847206637
 40
0.2488580074221898
 40
0.3074628849680243
 40
0.3655512283883332
 40
0.423206336391894
 40
0.4818112139377285
 40
0.5407083869503938
 40
0.6004738697899791
 40
0.6611093887128816
 40
0.7235118887421076
 40
0.7883544185590496
 40
0.8557385605895164
 40
0.9260741804459054
 40
1.0
 40
1.0
 40
1.0
 40
1.0
 10
120.1279686814283
 20
43.24462743927516
 30
0.0
 10
120.09089176329
 20
43.22423436779545
 30
0.0
 10
120.0183668826116
 20
43.18434418409097
 30
0.0
 10
119.9059038877292
 20
43.13608298646216
 30
0.0
 10
119.7938525495991
 20
43.09846034803223
 30
0.0
 10
119.6816771334331
 20
43.070473068284
 30
0.0
 10
119.5691555853251
 20
43.05469861312778
 30
0.0
 10
119.4567878499402
 20
43.04898695856608
 30
0.0
 10
119.3443345537612
 20
43.05370776021419
 30
0.0
 10
119.2323946906031
 20
43.0697397946395
 30
0.0
 10
119.1212599223831
 20
43.09710866980811
 30
0.0
 10
119.0122586477976
 20
43.13595075906419
 30
0.0
 10
118.9048098016918
 20
43.18475416685499
 30
0.0
 10
118.800453036234
 20
43.24655349257645
 30
0.0
 10
118.6976890138404
 20
43.31871567740036
 30
0.0
 10
118.5974447354295
 20
43.40256775107765
 30
0.0
 10
118.499243035691
 20
43.49745968055583
 30
0.0
 10
118.4376014008855
 20
43.56710912136459
 30
0.0
 10
118.4060135532231
 20
43.60280051619824
 30
0.0
  0
SPLINE
  5
CB
330
1F
100
AcDbEntity
  8
0
  6
Continuous
 62
     7
370
    25
100
AcDbSpline
210
0.0
220
0.0
230
1.0
 70
     8
 71
     3
 72
    23
 73
    19
 74
     0
 42
0.000000001
 43
0.00000001
 40
0.0
 40
0.0
 40
0.0
 40
0.0
 40
0.0805952943637352
 40
0.1604515434217349
 40
0.2418700207746968
 40
0.3254069365410276
 40
0.3675226928213641
 40
0.409059180026604
 40
0.4501972477231492
 40
0.4912141426448573
 40
0.5317517532195374
 40
0.572960932581426
 40
0.614036676581567
 40
0.6558471726783921
 40
0.7396019872338637
 40
0.823816986964127
 40
0.9104315104044917
 40
1.0
 40
1.0
 40
1.0
 40
1.0
 10
120.6600199634796
 20
45.04751205465978
 30
0.0
 10
120.6863550523318
 20
44.99769186153841
 30
0.0
 10
120.7387837416969
 20
44.8985083180946
 30
0.0
 10
120.7910143712267
 20
44.73715575648742
 30
0.0
 10
120.823738713458
 20
44.56899908859523
 30
0.0
 10
120.830907927739
 20
44.42415707584041
 30
0.0
 10
120.8269079576261
 20
44.30746649118703
 30
0.0
 10
120.817985563315
 20
44.22075244228903
 30
0.0
 10
120.8038912087793
 20
44.13547404765482
 30
0.0
 10
120.7825892012573
 20
44.0524482517121
 30
0.0
 10
120.7571617783996
 20
43.97053970108247
 30
0.0
 10
120.7248359231009
 20
43.89105101756761
 30
0.0
 10
120.6880966079909
 20
43.81252676251133
 30
0.0
 10
120.6301608538411
 20
43.71155056485046
 30
0.0
 10
120.5459374037316
 20
43.59120224402447
 30
0.0
 10
120.424893079539
 20
43.46051329983495
 30
0.0
 10
120.2860802028647
 20
43.34210431535291
 30
0.0
 10
120.1812583525025
 20
43.27748090002449
 30
0.0
 10
120.1279686814283
 20
43.24462743927516
 30
0.0
  0
SPLINE
  5
CC
330
1F
100
AcDbEntity
  8
0
  6
Continuous
 62
     7
370
    25
100
AcDbSpline
210
0.0
220
0.0
230
1.0
 70
     8
 71
     3
 72
    15
 73
    11
 74
     0
 42
0.000000001
 43
0.00000001
 40
0.0
 40
0.0
 40
0.0
 40
0.0
 40
0.130447374740371
 40
0.2573926146276503
 40
0.3826871558302637
 40
0.5055470499668895
 40
0.627982586550622
 40
0.7497193271005594
 40
0.8738306203951082
 40
1.0
 40
1.0
 40
1.0
 40
1.0
 10
120.0782891942488
 20
45.5330889777367
 30
0.0
 10
120.1094670086679
 20
45.52045217392116
 30
0.0
 10
120.1709856033325
 20
45.4955178279361
 30
0.0
 10
120.2590657422443
 20
45.45061736925756
 30
0.0
 10
120.3403032334119
 20
45.39798039570586
 30
0.0
 10
120.4175055918583
 20
45.34147894870497
 30
0.0
 10
120.4870254526993
 20
45.27696538878071
 30
0.0
 10
120.5506872474038
 20
45.20644230716717
 30
0.0
 10
120.609849099575
 20
45.13069220914962
 30
0.0
 10
120.6432049126356
 20
45.07539035728613
 30
0.0
 10
120.6600199634796
 20
45.04751205465978
 30
0.0
  0
SPLINE
  5
CD
330
1F
100
AcDbEntity
  8
0
  6
Continuous
 62
     7
370
    25
100
AcDbSpline
210
0.0
220
0.0
230
1.0
 70
     8
 71
     3
 72
    11
 73
     7
 74
     0
 42
0.000000001
 43
0.00000001
 40
0.0
 40
0.0
 40
0.0
 40
0.0
 40
0.2575448221658428
 40
0.5076711529890834
 40
0.7542159986790762
 40
1.0
 40
1.0
 40
1.0
 40
1.0
 10
119.4973597070693
 20
45.59318513158286
 30
0.0
 10
119.5477870149114
 20
45.59845063940431
 30
0.0
 10
119.6471890890786
 20
45.60882998387844
 30
0.0
 10
119.795790510358
 20
45.60244508563989
 30
0.0
 10
119.9405525640915
 20
45.57954194299162
 30
0.0
 10
120.032424310356
 20
45.54855733829888
 30
0.0
 10
120.0782891942488
 20
45.5330889777367
 30
0.0
  0
SPLINE
  5
CE
330
1F
100
AcDbEntity
  8
0
  6
Continuous
 62
     7
370
    25
100
AcDbSpline
210
0.0
220
0.0
230
1.0
 70
     8
 71
     3
 72
    15
 73
    11
 74
     0
 42
0.000000001
 43
0.00000001
 40
0.0
 40
0.0
 40
0.0
 40
0.0
 40
0.1242105454247702
 40
0.2439784061594683
 40
0.3611315929044479
 40
0.4795822493707371
 40
0.6002641150141719
 40
0.725420892755906
 40
0.8584975931303525
 40
1.0
 40
1.0
 40
1.0
 40
1.0
 10
119.5326161173257
 20
46.55873000337773
 30
0.0
 10
119.5524585955813
 20
46.52158309189973
 30
0.0
 10
119.5914338388065
 20
46.44861791631697
 30
0.0
 10
119.6294920544199
 20
46.33182154051573
 30
0.0
 10
119.6516811860119
 20
46.21330001057864
 30
0.0
 10
119.6568136511698
 20
46.09230063148474
 30
0.0
 10
119.6423682138149
 20
45.96937010651848
 30
0.0
 10
119.6109834438567
 20
45.84476645367053
 30
0.0
 10
119.564033838214
 20
45.71741474310905
 30
0.0
 10
119.5200344708184
 20
45.63543355752622
 30
0.0
 10
119.4973597070693
 20
45.59318513158286
 30
0.0
  0
SPLINE
  5
CF
330
1F
100
AcDbEntity
  8
0
  6
Continuous
 62
     7
370
    25
100
AcDbSpline
210
0.0
220
0.0
230
1.0
 70
     8
 71
     3
 72
    19
 73
    15
 74
     0
 42
0.000000001
 43
0.00000001
 40
0.0
 40
0.0
 40
0.0
 40
0.0
 40
0.0895167400715853
 40
0.1773824364258328
 40
0.2650886758186742
 40
0.3534136836995492
 40
0.4408889443037026
 40
0.5246250034953635
 40
0.6070486876610646
 40
0.6892970473032739
 40
0.7700032014525421
 40
0.8477273803995541
 40
0.923859381085146
 40
1.0
 40
1.0
 40
1.0
 40
1.0
 10
118.0205968865565
 20
46.87844154183927
 30
0.0
 10
118.0657037496809
 20
46.90265247908029
 30
0.0
 10
118.1550855264764
 20
46.95062780785712
 30
0.0
 10
118.2986295681593
 20
47.00048028698584
 30
0.0
 10
118.4458920562419
 20
47.03403872665744
 30
0.0
 10
118.5961379634923
 20
47.04779968460792
 30
0.0
 10
118.7446828473958
 20
47.04535246496972
 30
0.0
 10
118.8883488212532
 20
47.02358548252746
 30
0.0
 10
119.0248932333498
 20
46.98340402709202
 30
0.0
 10
119.1527086967993
 20
46.92485058643377
 30
0.0
 10
119.269351532683
 20
46.85134870399438
 30
0.0
 10
119.3727467896413
 20
46.76576395590961
 30
0.0
 10
119.4630574104278
 20
46.66939110535153
 30
0.0
 10
119.5094290068563
 20
46.59561842914873
 30
0.0
 10
119.5326161173257
 20
46.55873000337773
 30
0.0
  0
SPLINE
  5
D0
330
1F
100
AcDbEntity
  8
0
  6
Continuous
 62
     7
370
    25
100
AcDbSpline
210
0.0
220
0.0
230
1.0
 70
     8
 71
     3
 72
    23
 73
    19
 74
     0
 42
0.000000001
 43
0.00000001
 40
0.0
 40
0.0
 40
0.0
 40
0.0
 40
0.0729609930162066
 40
0.143331118032926
 40
0.2109700859339603
 40
0.276206859742432
 40
0.3394872283090505
 40
0.4013263635807445
 40
0.4625296365590469
 40
0.5233089730042773
 40
0.5834523609452175
 40
0.6423638086719394
 40
0.7005174356288071
 40
0.7590683331798079
 40
0.8175373240070813
 40
0.8770548221953101
 40
0.9373924692431809
 40
1.0
 40
1.0
 40
1.0
 40
1.0
 10
117.5197956045052
 20
45.40167872132645
 30
0.0
 10
117.5082775942135
 20
45.44133264506038
 30
0.0
 10
117.4856505818282
 20
45.51923236912138
 30
0.0
 10
117.4620107559332
 20
45.63633186609335
 30
0.0
 10
117.446032905211
 20
45.75032857660265
 30
0.0
 10
117.4410731819687
 20
45.86127772738531
 30
0.0
 10
117.4422816780859
 20
45.96912803393103
 30
0.0
 10
117.4561807875099
 20
46.07377965161266
 30
0.0
 10
117.4762064676007
 20
46.17594750141366
 30
0.0
 10
117.5071754770602
 20
46.27440940316683
 30
0.0
 10
117.5453723473878
 20
46.368816479273
 30
0.0
 10
117.5912072587954
 20
46.45812953822001
 30
0.0
 10
117.644384390459
 20
46.54223859546252
 30
0.0
 10
117.7054843817833
 20
46.62041389095352
 30
0.0
 10
117.7729738358387
 20
46.69423841953272
 30
0.0
 10
117.8487103239616
 20
46.76108104334573
 30
0.0
 10
117.9308997477591
 20
46.82378394803433
 30
0.0
 10
117.9903320824499
 20
46.859999466745
 30
0.0
 10
118.0205968865565
 20
46.87844154183927
 30
0.0
  0
LINE
  5
D1
330
1F
100
AcDbEntity
  8
0
  6
Continuous
 62
     7
370
    25
100
AcDbLine
 10
117.8731609891
 20
45.6060056444
 30
0.0
 11
117.5197956045
 21
45.4016787213
 31
0.0
  0
SPLINE
  5
D2
330
1F
100
AcDbEntity
  8
0
  6
Continuous
 62
     7
370
    25
100
AcDbSpline
210
0.0
220
0.0
230
1.0
 70
     8
 71
     3
 72
    31
 73
    27
 74
     0
 42
0.000000001
 43
0.00000001
 40
0.0
 40
0.0
 40
0.0
 40
0.0
 40
0.0336454959535058
 40
0.0668061893677439
 40
0.0994548521133312
 40
0.1319880772579626
 40
0.1641940984622829
 40
0.1966631542066579
 40
0.2295563983366921
 40
0.2630764713646239
 40
0.2968880710266261
 40
0.3311645351872031
 40
0.3659854800217485
 40
0.401672920202808
 40
0.4385106255368216
 40
0.4766786378219259
 40
0.5160999820396
 40
0.5571674626939002
 40
0.6005637374573588
 40
0.6468765278579348
 40
0.6968748465194767
 40
0.7501172287949801
 40
0.8069138714359888
 40
0.8675972931201279
 40
0.931776550041632
 40
1.0
 40
1.0
 40
1.0
 40
1.0
 10
123.1286397168438
 20
45.17836689352541
 30
0.0
 10
123.101055049608
 20
45.16330485218704
 30
0.0
 10
123.0462831863681
 20
45.13339780051788
 30
0.0
 10
122.9613436309902
 20
45.09542285317325
 30
0.0
 10
122.8742003094127
 20
45.06616395654823
 30
0.0
 10
122.7863188808908
 20
45.04230512551253
 30
0.0
 10
122.6966218179702
 20
45.02756695818606
 30
0.0
 10
122.6058878322575
 20
45.01837315827745
 30
0.0
 10
122.5134506552487
 20
45.01702488567821
 30
0.0
 10
122.4198799832553
 20
45.02228434057704
 30
0.0
 10
122.3259570105172
 20
45.0364477985664
 30
0.0
 10
122.2318714650653
 20
45.05666576504412
 30
0.0
 10
122.1387647474973
 20
45.08720984413804
 30
0.0
 10
122.0453984573993
 20
45.12389858461723
 30
0.0
 10
121.952335913604
 20
45.16914130488816
 30
0.0
 10
121.8593337908985
 20
45.22195155379632
 30
0.0
 10
121.7670589080778
 20
45.28343990059826
 30
0.0
 10
121.6740870135572
 20
45.35243685867867
 30
0.0
 10
121.5817195113368
 20
45.43251070161975
 30
0.0
 10
121.4883000226719
 20
45.5236902623183
 30
0.0
 10
121.3940451847768
 20
45.62688291337745
 30
0.0
 10
121.2996567221594
 20
45.74284672193209
 30
0.0
 10
121.2040355562212
 20
45.87050013182963
 30
0.0
 10
121.108592309156
 20
46.01080915171975
 30
0.0
 10
121.0109591012095
 20
46.16247136205843
 30
0.0
 10
120.9484890575736
 20
46.26920390290771
 30
0.0
 10
120.9162999732541
 20
46.32420022685874
 30
0.0
  0
SPLINE
  5
D3
330
1F
100
AcDbEntity
  8
0
  6
Continuous
 62
     7
370
    25
100
AcDbSpline
210
0.0
220
0.0
230
1.0
 70
     8
 71
     3
 72
    31
 73
    27
 74
     0
 42
0.000000001
 43
0.00000001
 40
0.0
 40
0.0
 40
0.0
 40
0.0
 40
0.0649405108784216
 40
0.1266531321298922
 40
0.1852084329316562
 40
0.2403085388748919
 40
0.292580009699611
 40
0.3416115108261805
 40
0.3880909933565704
 40
0.4319205461414107
 40
0.4736192819603647
 40
0.5139981514266289
 40
0.5526138189906172
 40
0.5901970665880705
 40
0.6269782262858691
 40
0.6627922992646664
 40
0.6979017493416804
 40
0.7325396930703035
 40
0.7668209269351598
 40
0.8003196689017152
 40
0.8335563157666558
 40
0.86641736768315
 40
0.8993409082799467
 40
0.9325387301079188
 40
0.9658129455270053
 40
1.0
 40
1.0
 40
1.0
 40
1.0
 10
123.2792807424848
 20
47.68878356019207
 30
0.0
 10
123.3092080620409
 20
47.63552020811579
 30
0.0
 10
123.3675751538107
 20
47.53164097653985
 30
0.0
 10
123.4482566991379
 20
47.37714151158861
 30
0.0
 10
123.5175581558411
 20
47.22737306305552
 30
0.0
 10
123.5783942860388
 20
47.08356501471972
 30
0.0
 10
123.628700275265
 20
46.94522912337423
 30
0.0
 10
123.6701917564978
 20
46.81246478062399
 30
0.0
 10
123.7015454603457
 20
46.68509806365369
 30
0.0
 10
123.7235972773787
 20
46.56276445265686
 30
0.0
 10
123.7358654856341
 20
46.44489956122162
 30
0.0
 10
123.7431598379831
 20
46.33150105833401
 30
0.0
 10
123.7409091247183
 20
46.22177035077273
 30
0.0
 10
123.7336977726269
 20
46.11563546156981
 30
0.0
 10
123.7171436937586
 20
46.01319765563777
 30
0.0
 10
123.695072366575
 20
45.91423307159644
 30
0.0
 10
123.6653594671239
 20
45.81932852465145
 30
0.0
 10
123.6282457511451
 20
45.72867402313666
 30
0.0
 10
123.5853449827739
 20
45.64227349471653
 30
0.0
 10
123.5357526373146
 20
45.56110907472432
 30
0.0
 10
123.4825085329269
 20
45.48393604912194
 30
0.0
 10
123.4230313196016
 20
45.41201748447104
 30
0.0
 10
123.3565831619601
 20
45.34663752753461
 30
0.0
 10
123.2864412527803
 20
45.28473597911916
 30
0.0
 10
123.2105254825706
 20
45.22784631976851
 30
0.0
 10
123.1561800934408
 20
45.19500815004223
 30
0.0
 10
123.1286397168438
 20
45.17836689352541
 30
0.0
  0
SPLINE
  5
D4
330
1F
100
AcDbEntity
  8
0
  6
Continuous
 62
     7
370
    25
100
AcDbSpline
210
0.0
220
0.0
230
1.0
 70
     8
 71
     3
 72
    31
 73
    27
 74
     0
 42
0.000000001
 43
0.00000001
 40
0.0
 40
0.0
 40
0.0
 40
0.0
 40
0.0339950448126719
 40
0.0673947171980935
 40
0.1004896505027091
 40
0.1330221893437306
 40
0.1658426432595987
 40
0.1986017894409937
 40
0.2320676034283163
 40
0.2658705105943632
 40
0.3001997943085082
 40
0.3353553484150754
 40
0.3709642920596513
 40
0.4074069001705486
 40
0.4452012950221237
 40
0.4839267413422293
 40
0.5243577914819512
 40
0.5663267935249852
 40
0.6102221464991018
 40
0.6571575539644641
 40
0.7065097690990744
 40
0.759046408229874
 40
0.8142868549322111
 40
0.872898350273781
 40
0.9348824198378302
 40
1.0
 40
1.0
 40
1.0
 40
1.0
 10
121.0276781783823
 20
48.81538612429464
 30
0.0
 10
121.055753199463
 20
48.83082191282839
 30
0.0
 10
121.1114115495694
 20
48.8614231551181
 30
0.0
 10
121.1985672222947
 20
48.89863868163458
 30
0.0
 10
121.2863493097709
 20
48.93039342217979
 30
0.0
 10
121.3762472085199
 20
48.95367103808882
 30
0.0
 10
121.4673625887096
 20
48.9696137723865
 30
0.0
 10
121.5603245571363
 20
48.97851600145642
 30
0.0
 10
121.6546294126762
 20
48.98005365293805
 30
0.0
 10
121.7502262322944
 20
48.97428771447235
 30
0.0
 10
121.8468116345403
 20
48.96178120113805
 30
0.0
 10
121.9435254585904
 20
48.93999025342057
 30
0.0
 10
122.0399378273186
 20
48.90977695576983
 30
0.0
 10
122.1369008660375
 20
48.87335356317364
 30
0.0
 10
122.232462226867
 20
48.82626947218865
 30
0.0
 10
122.3284482013347
 20
48.77216789266213
 30
0.0
 10
122.4247151224933
 20
48.71076463016559
 30
0.0
 10
122.5201088496858
 20
48.63957146659865
 30
0.0
 10
122.6165892422576
 20
48.55984353253989
 30
0.0
 10
122.7120549096998
 20
48.46847838266424
 30
0.0
 10
122.8079422442786
 20
48.36613888232458
 30
0.0
 10
122.9028127817568
 20
48.25244075289979
 30
0.0
 10
122.9973876264653
 20
48.1274308717836
 30
0.0
 10
123.0930948593215
 20
47.99220748395102
 30
0.0
 10
123.1871307495736
 20
47.84463511777978
 30
0.0
 10
123.2480633426762
 20
47.74158096397165
 30
0.0
 10
123.2792807424848
 20
47.68878356019207
 30
0.0
  0
SPLINE
  5
D5
330
1F
100
AcDbEntity
  8
0
  6
Continuous
 62
     7
370
    25
100
AcDbSpline
210
0.0
220
0.0
230
1.0
 70
     8
 71
     3
 72
    31
 73
    27
 74
     0
 42
0.000000001
 43
0.00000001
 40
0.0
 40
0.0
 40
0.0
 40
0.0
 40
0.0684257301809696
 40
0.133078045707295
 40
0.1938999893094367
 40
0.2508424588443161
 40
0.3040062327028833
 40
0.3535151699365258
 40
0.3995944435228869
 40
0.4426248176767028
 40
0.4831971491225833
 40
0.522401725798939
 40
0.5601112408004741
 40
0.5967683221327201
 40
0.6325636909717398
 40
0.6674234486983375
 40
0.7018485540728235
 40
0.73595929008855
 40
0.7696886735238037
 40
0.8027595434531145
 40
0.8355715158028184
 40
0.8680158003674369
 40
0.900339117782649
 40
0.9331535773010017
 40
0.9662355504268413
 40
0.9999999999999999
 40
0.9999999999999999
 40
0.9999999999999999
 40
0.9999999999999999
 10
120.9162999732541
 20
46.32420022685874
 30
0.0
 10
120.8846367500924
 20
46.37979766307484
 30
0.0
 10
120.8230564081946
 20
46.48792655170207
 30
0.0
 10
120.7401634613548
 20
46.64919821011686
 30
0.0
 10
120.665961686904
 20
46.80279079379964
 30
0.0
 10
120.602500556062
 20
46.94951116144901
 30
0.0
 10
120.5492006669561
 20
47.08897033171967
 30
0.0
 10
120.5067290602593
 20
47.22145659208139
 30
0.0
 10
120.4730701832165
 20
47.346701554292
 30
0.0
 10
120.4506288753236
 20
47.46596716004586
 30
0.0
 10
120.4368787597208
 20
47.58003714893791
 30
0.0
 10
120.4306080684323
 20
47.68975797916134
 30
0.0
 10
120.4302072601538
 20
47.79601095336554
 30
0.0
 10
120.4374277049588
 20
47.8988500946641
 30
0.0
 10
120.4517037528182
 20
47.99825480749108
 30
0.0
 10
120.4733936888833
 20
48.09419113553486
 30
0.0
 10
120.5024594054474
 20
48.18649261154494
 30
0.0
 10
120.5376652906361
 20
48.27545755552177
 30
0.0
 10
120.578874285199
 20
48.3604950521013
 30
0.0
 10
120.6278559484317
 20
48.43980540009962
 30
0.0
 10
120.6800940390802
 20
48.51556520671788
 30
0.0
 10
120.7392390764652
 20
48.58517079127565
 30
0.0
 10
120.8026216966277
 20
48.6509343772354
 30
0.0
 10
120.8726431762485
 20
48.71049816263238
 30
0.0
 10
120.9472189474844
 20
48.76655050111559
 30
0.0
 10
121.0006765076583
 20
48.79899716056771
 30
0.0
 10
121.0276781783823
 20
48.81538612429464
 30
0.0
  0
LINE
  5
D6
330
1F
100
AcDbEntity
  8
0
  6
Continuous
 62
     7
370
    25
100
AcDbLine
 10
124.9983065376
 20
49.9542251416
 30
0.0
 11
124.8124091017
 21
47.9221738596
 31
0.0
  0
LINE
  5
D7
330
1F
100
AcDbEntity
  8
0
  6
Continuous
 62
     7
370
    25
100
AcDbLine
 10
125.8316398709
 20
48.5111161673
 30
0.0
 11
124.9983065376
 21
49.9542251416
 31
0.0
  0
LINE
  5
D8
330
1F
100
AcDbEntity
  8
0
  6
Continuous
 62
     7
370
    25
100
AcDbLine
 10
124.8124091017
 20
47.9221738596
 30
0.0
 11
125.8316398709
 21
48.5111161673
 31
0.0
  0
LINE
  5
D9
330
1F
100
AcDbEntity
  8
0
  6
Continuous
 62
     7
370
    25
100
AcDbLine
 10
121.773524119
 20
42.6628531456
 30
0.0
 11
122.4530112985
 21
41.4857698122
 31
0.0
  0
LINE
  5
DA
330
1F
100
AcDbEntity
  8
0
  6
Continuous
 62
     7
370
    25
100
AcDbLine
 10
122.3849023241
 20
43.0154172481
 30
0.0
 11
121.773524119
 21
42.6628531456
 31
0.0
  0
SPLINE
  5
DB
330
1F
100
AcDbEntity
  8
0
  6
Continuous
 62
     7
370
    25
100
AcDbSpline
210
0.0
220
0.0
230
1.0
 70
     8
 71
     3
 72
    23
 73
    19
 74
     0
 42
0.000000001
 43
0.00000001
 40
0.0
 40
0.0
 40
0.0
 40
0.0
 40
0.0726650988704533
 40
0.1432791835201251
 40
0.2141492063059417
 40
0.2864034591881084
 40
0.3580746850496254
 40
0.4274852584225196
 40
0.4955995541135627
 40
0.5653878306507092
 40
0.6026512098767122
 40
0.6448815372906989
 40
0.691163612621144
 40
0.7425540665786063
 40
0.7995929580214058
 40
0.8613450079470679
 40
0.9281274466669558
 40
1.0
 40
1.0
 40
1.0
 40
1.0
 10
123.5707997600063
 20
42.9192634019839
 30
0.0
 10
123.5531272777681
 20
42.9470555031675
 30
0.0
 10
123.5182811292701
 20
43.00185525748965
 30
0.0
 10
123.4530022946088
 20
43.07419842031965
 30
0.0
 10
123.3777111246386
 20
43.1354640225266
 30
0.0
 10
123.2940339500805
 20
43.18563839596958
 30
0.0
 10
123.2047385639557
 20
43.22319101995662
 30
0.0
 10
123.1126885372589
 20
43.24713203463288
 30
0.0
 10
123.0187862570522
 20
43.25490051832883
 30
0.0
 10
122.9393056055073
 20
43.24979633074658
 30
0.0
 10
122.8729439348644
 20
43.23671142185476
 30
0.0
 10
122.8180037778698
 20
43.22154159010923
 30
0.0
 10
122.7584540610167
 20
43.19992171708779
 30
0.0
 10
122.6931313013934
 20
43.17461845316387
 30
0.0
 10
122.6232579860683
 20
43.14210452178695
 30
0.0
 10
122.5477006961681
 20
43.10540383680028
 30
0.0
 10
122.467573550015
 20
43.06282043369983
 30
0.0
 10
122.41312567171
 20
43.03160034653573
 30
0.0
 10
122.3849023241089
 20
43.01541724813774
 30
0.0
  0
SPLINE
  5
DC
330
1F
100
AcDbEntity
  8
0
  6
Continuous
 62
     7
370
    25
100
AcDbSpline
210
0.0
220
0.0
230
1.0
 70
     8
 71
     3
 72
    23
 73
    19
 74
     0
 42
0.000000001
 43
0.00000001
 40
0.0
 40
0.0
 40
0.0
 40
0.0
 40
0.0713918962798021
 40
0.1375818375840157
 40
0.1989757648444548
 40
0.2557889034621065
 40
0.3073301432539901
 40
0.354982200535668
 40
0.3976724697156571
 40
0.4363999540212032
 40
0.5080022246883871
 40
0.5776882661332912
 40
0.6464766970873452
 40
0.7166520016022215
 40
0.7873809845268787
 40
0.8567603778518491
 40
0.9274893607765059
 40
1.0
 40
1.0
 40
1.0
 40
1.0
 10
123.0435561702627
 20
41.8166992994198
 30
0.0
 10
123.0723011894192
 20
41.83325563720068
 30
0.0
 10
123.127696728171
 20
41.86516193881548
 30
0.0
 10
123.2051375800435
 20
41.91566599539546
 30
0.0
 10
123.2769770850241
 20
41.96234205670578
 30
0.0
 10
123.340820950386
 20
42.00868316999963
 30
0.0
 10
123.3975618735609
 20
42.0538240907215
 30
0.0
 10
123.4467700195181
 20
42.09769654878621
 30
0.0
 10
123.4900589500596
 20
42.13925548591787
 30
0.0
 10
123.5364826390654
 20
42.19322303109063
 30
0.0
 10
123.5834023334088
 20
42.26274021142056
 30
0.0
 10
123.6272495875879
 20
42.35044142826712
 30
0.0
 10
123.6532397372611
 20
42.44432694560065
 30
0.0
 10
123.6661872899371
 20
42.54114655662834
 30
0.0
 10
123.6647033315346
 20
42.63924600293484
 30
0.0
 10
123.6481702594848
 20
42.73607061819838
 30
0.0
 10
123.6181555982831
 20
42.83072856019974
 30
0.0
 10
123.5867153935846
 20
42.88950808242829
 30
0.0
 10
123.5707997600063
 20
42.9192634019839
 30
0.0
  0
LINE
  5
DD
330
1F
100
AcDbEntity
  8
0
  6
Continuous
 62
     7
370
    25
100
AcDbLine
 10
122.4530112985
 20
41.4857698122
 30
0.0
 11
123.0435561703
 21
41.8166992994
 31
0.0
  0
SPLINE
  5
DE
330
1F
100
AcDbEntity
  8
0
  6
Continuous
 62
     7
370
    25
100
AcDbSpline
210
0.0
220
0.0
230
1.0
 70
     8
 71
     3
 72
    27
 73
    23
 74
     0
 42
0.000000001
 43
0.00000001
 40
0.0
 40
0.0
 40
0.0
 40
0.0
 40
0.0593292303258796
 40
0.1182404270477359
 40
0.1792014033712483
 40
0.2433956689168406
 40
0.2764899414798795
 40
0.3100835429170461
 40
0.3442473001829792
 40
0.3794554532768049
 40
0.4158980793336964
 40
0.4534222192089832
 40
0.4922161219929369
 40
0.5327160579953072
 40
0.5759425118312825
 40
0.6233043329318491
 40
0.674979357409571
 40
0.7309686931381826
 40
0.7915014170479561
 40
0.8561811647926613
 40
0.9258742620821351
 40
1.0
 40
1.0
 40
1.0
 40
1.0
 10
121.2304025373566
 20
48.49327073967925
 30
0.0
 10
121.1933380980212
 20
48.46945547889052
 30
0.0
 10
121.1194703752943
 20
48.42199275957921
 30
0.0
 10
121.0256995620281
 20
48.3267353298846
 30
0.0
 10
120.9453317890872
 20
48.21603577910903
 30
0.0
 10
120.8933456338107
 20
48.11045338966643
 30
0.0
 10
120.8587613021678
 20
48.01979153812493
 30
0.0
 10
120.8401995642381
 20
47.94732577480636
 30
0.0
 10
120.8254214222897
 20
47.87248927212369
 30
0.0
 10
120.8164296721911
 20
47.79451340647067
 30
0.0
 10
120.8147734935805
 20
47.71362563272446
 30
0.0
 10
120.8165078385598
 20
47.63006647105716
 30
0.0
 10
120.8262442747286
 20
47.54403160869762
 30
0.0
 10
120.839388663136
 20
47.45422308367125
 30
0.0
 10
120.8606925158481
 20
47.35940635379854
 30
0.0
 10
120.8906478960679
 20
47.25832939506561
 30
0.0
 10
120.9295825375873
 20
47.15028123218757
 30
0.0
 10
120.9760396520574
 20
47.03467406660121
 30
0.0
 10
121.0315451003542
 20
46.91245644303143
 30
0.0
 10
121.0953011395117
 20
46.78294624137932
 30
0.0
 10
121.1670086680146
 20
46.64616158690956
 30
0.0
 10
121.2199453425079
 20
46.55373096543065
 30
0.0
 10
121.2472294604335
 20
46.50609125249976
 30
0.0
  0
SPLINE
  5
DF
330
1F
100
AcDbEntity
  8
0
  6
Continuous
 62
     7
370
    25
100
AcDbSpline
210
0.0
220
0.0
230
1.0
 70
     8
 71
     3
 72
    15
 73
    11
 74
     0
 42
0.000000001
 43
0.00000001
 40
0.0
 40
0.0
 40
0.0
 40
0.0
 40
0.1099846140738844
 40
0.2238443135472956
 40
0.3416645312227518
 40
0.4646574579827513
 40
0.5906390018519555
 40
0.7219234699877928
 40
0.8583134771985055
 40
1.0
 40
1.0
 40
1.0
 40
1.0
 10
123.3425820245361
 20
46.53012971403822
 30
0.0
 10
123.3350178075341
 20
46.56762804659159
 30
0.0
 10
123.3196228636449
 20
46.64394588959402
 30
0.0
 10
123.2876160524018
 20
46.75843876451162
 30
0.0
 10
123.2499949440545
 20
46.87590236559166
 30
0.0
 10
123.2052956459795
 20
46.99541116810695
 30
0.0
 10
123.1533332168806
 20
47.11702002627405
 30
0.0
 10
123.0958493219732
 20
47.24126379653065
 30
0.0
 10
123.0309370815029
 20
47.36799706102961
 30
0.0
 10
122.9831278488377
 20
47.45204758688944
 30
0.0
 10
122.958767921972
 20
47.49487330378182
 30
0.0
  0
SPLINE
  5
E0
330
1F
100
AcDbEntity
  8
0
  6
Continuous
 62
     7
370
    25
100
AcDbSpline
210
0.0
220
0.0
230
1.0
 70
     8
 71
     3
 72
    19
 73
    15
 74
     0
 42
0.000000001
 43
0.00000001
 40
0.0
 40
0.0
 40
0.0
 40
0.0
 40
0.11190719343979
 40
0.2225480018728374
 40
0.3365832845264889
 40
0.4555385087741077
 40
0.517087643738442
 40
0.5799756067239381
 40
0.644289715904788
 40
0.7106263615116055
 40
0.7786677120021298
 40
0.8494688778532025
 40
0.9233909709940038
 40
1.0
 40
1.0
 40
1.0
 40
1.0
 10
122.9595692040233
 20
45.49887971403822
 30
0.0
 10
122.9965790964469
 20
45.52274462899073
 30
0.0
 10
123.0701800630626
 20
45.57020439430423
 30
0.0
 10
123.1644083561313
 20
45.66426807753506
 30
0.0
 10
123.243158118423
 20
45.77434665881701
 30
0.0
 10
123.2958076477381
 20
45.8779350427787
 30
0.0
 10
123.3282889617341
 20
45.96787001845875
 30
0.0
 10
123.3488119565557
 20
46.03919206241623
 30
0.0
 10
123.3619675641544
 20
46.11413232098732
 30
0.0
 10
123.3703361419449
 20
46.19178269522553
 30
0.0
 10
123.3712086823558
 20
46.27241262468868
 30
0.0
 10
123.3684760999762
 20
46.35594380301323
 30
0.0
 10
123.3586401486826
 20
46.44239399272175
 30
0.0
 10
123.3479980520076
 20
46.50053851941639
 30
0.0
 10
123.3425820245361
 20
46.53012971403822
 30
0.0
  0
SPLINE
  5
E1
330
1F
100
AcDbEntity
  8
0
  6
Continuous
 62
     7
370
    25
100
AcDbSpline
210
0.0
220
0.0
230
1.0
 70
     8
 71
     3
 72
    27
 73
    23
 74
     0
 42
0.000000001
 43
0.00000001
 40
0.0
 40
0.0
 40
0.0
 40
0.0
 40
0.0737614008206083
 40
0.1428343052085162
 40
0.2075809484773591
 40
0.2678540571918489
 40
0.3236449465211942
 40
0.3750693914371045
 40
0.4222863347144215
 40
0.4656860447939369
 40
0.5062033097640231
 40
0.5452529151892668
 40
0.583002336656432
 40
0.6193174413859849
 40
0.65437765649421
 40
0.6891825866848509
 40
0.7230491035711442
 40
0.7563867717042346
 40
0.8210730657616149
 40
0.8819992578406554
 40
0.9410812706387875
 40
1.0
 40
1.0
 40
1.0
 40
1.0
 10
121.2472294604335
 20
46.50609125249976
 30
0.0
 10
121.274726522063
 20
46.45891424223962
 30
0.0
 10
121.3279728494026
 20
46.36755893435018
 30
0.0
 10
121.4099450233346
 20
46.23754651308754
 30
0.0
 10
121.4900756064921
 20
46.1182741975236
 30
0.0
 10
121.5674149580484
 20
46.00900657048378
 30
0.0
 10
121.6434114142327
 20
45.9109718647357
 30
0.0
 10
121.718139723327
 20
45.82440943536123
 30
0.0
 10
121.790111734988
 20
45.74768864034858
 30
0.0
 10
121.8611228595083
 20
45.68138449997321
 30
0.0
 10
121.9317193684673
 20
45.6238319841248
 30
0.0
 10
122.0022841884102
 20
45.57310121487967
 30
0.0
 10
122.0735884947391
 20
45.52908671679591
 30
0.0
 10
122.1449935907508
 20
45.49116094846166
 30
0.0
 10
122.2170763852365
 20
45.45967970171094
 30
0.0
 10
122.2894562741397
 20
45.43372457574296
 30
0.0
 10
122.3628757950759
 20
45.41564502982656
 30
0.0
 10
122.4590302067233
 20
45.39842378953271
 30
0.0
 10
122.5771057370682
 20
45.39183006929161
 30
0.0
 10
122.713543526744
 20
45.40546060208154
 30
0.0
 10
122.8426608033592
 20
45.43913986863043
 30
0.0
 10
122.9206357030379
 20
45.47898481070502
 30
0.0
 10
122.9595692040233
 20
45.49887971403822
 30
0.0
  0
SPLINE
  5
E2
330
1F
100
AcDbEntity
  8
0
  6
Continuous
 62
     7
370
    25
100
AcDbSpline
210
0.0
220
0.0
230
1.0
 70
     8
 71
     3
 72
    27
 73
    23
 74
     0
 42
0.000000001
 43
0.00000001
 40
0.0
 40
0.0
 40
0.0
 40
0.0
 40
0.0663761225369526
 40
0.1298706752245193
 40
0.1901543770972348
 40
0.247704640448803
 40
0.302625231951487
 40
0.3545558245485416
 40
0.4040852554866611
 40
0.451103504602092
 40
0.4959900448391387
 40
0.5385941188655639
 40
0.5788559835951625
 40
0.617640326071504
 40
0.6549602536194783
 40
0.6903714879073208
 40
0.7247915445284058
 40
0.7585056600941753
 40
0.8225113834632437
 40
0.8830809066995242
 40
0.9418515002100257
 40
1.0
 40
1.0
 40
1.0
 40
1.0
 10
122.958767921972
 20
47.49487330378182
 30
0.0
 10
122.9339907888055
 20
47.53727621849141
 30
0.0
 10
122.8855121658991
 20
47.62024122088001
 30
0.0
 10
122.8089864013441
 20
47.73831934980373
 30
0.0
 10
122.7339603792333
 20
47.8495388390257
 30
0.0
 10
122.6578646404082
 20
47.95229043388461
 30
0.0
 10
122.5808536651462
 20
48.04645674467899
 30
0.0
 10
122.5048697818381
 20
48.13374954842963
 30
0.0
 10
122.4278955508052
 20
48.21219853319297
 30
0.0
 10
122.3507972108548
 20
48.28301094854102
 30
0.0
 10
122.2738790187518
 20
48.34619904722816
 30
0.0
 10
122.1980251626947
 20
48.40268967411583
 30
0.0
 10
122.121978807241
 20
48.45093098265103
 30
0.0
 10
122.0468054705909
 20
48.49302465677813
 30
0.0
 10
121.971645295534
 20
48.5272425439657
 30
0.0
 10
121.8973395618864
 20
48.55506504890695
 30
0.0
 10
121.8233183865607
 20
48.57529556946545
 30
0.0
 10
121.72685156233
 20
48.59174080946622
 30
0.0
 10
121.6094781091155
 20
48.59850988267069
 30
0.0
 10
121.4739429877679
 20
48.58614980538662
 30
0.0
 10
121.3460739322552
 20
48.55215540362729
 30
0.0
 10
121.2688226581981
 20
48.51282921311669
 30
0.0
 10
121.2304025373566
 20
48.49327073967925
 30
0.0
  0
INSERT
  5
EE
330
1F
100
AcDbEntity
  8
0
  6
Continuous
 62
     7
370
    18
100
AcDbBlockReference
  2
SW_CENTERMARKSYMBOL_0
 10
123.9790150289
 20
43.6606913295
 30
0.0
  0
LINE
  5
EF
330
1F
100
AcDbEntity
  8
0
  6
Continuous
 62
     7
370
    25
100
AcDbLine
 10
78.2477595425
 20
80.8172231214
 30
0.0
 11
78.3920971098
 21
81.0672231214
 31
0.0
  0
LINE
  5
F0
330
1F
100
AcDbEntity
  8
0
  6
Continuous
 62
     7
370
    25
100
AcDbLine
 10
78.3920971098
 20
121.5672231214
 30
0.0
 11
78.2477595425
 21
121.8172231214
 31
0.0
  0
LINE
  5
F1
330
1F
100
AcDbEntity
  8
0
  6
Continuous
 62
     7
370
    25
100
AcDbLine
 10
62.5364346771
 20
121.8172231214
 30
0.0
 11
62.3920971098
 21
121.5672231214
 31
0.0
  0
LINE
  5
F2
330
1F
100
AcDbEntity
  8
0
  6
Continuous
 62
     7
370
    25
100
AcDbLine
 10
62.3920971098
 20
81.0672231214
 30
0.0
 11
62.5364346771
 21
80.8172231214
 31
0.0
  0
LINE
  5
F3
330
1F
100
AcDbEntity
  8
0
  6
Continuous
 62
     7
370
    25
100
AcDbLine
 10
62.3920971098
 20
121.5672231214
 30
0.0
 11
60.3920971098
 21
121.5672231214
 31
0.0
  0
LINE
  5
F4
330
1F
100
AcDbEntity
  8
0
  6
Continuous
 62
     7
370
    25
100
AcDbLine
 10
60.3920971098
 20
81.0672231214
 30
0.0
 11
62.3920971098
 21
81.0672231214
 31
0.0
  0
LINE
  5
F5
330
1F
100
AcDbEntity
  8
0
  6
Continuous
 62
     7
370
    25
100
AcDbLine
 10
43.8920971098
 20
117.9417231214
 30
0.0
 11
42.3920971098
 21
116.4417231214
 31
0.0
  0
LINE
  5
F6
330
1F
100
AcDbEntity
  8
0
  6
Continuous
 62
     7
370
    25
100
AcDbLine
 10
42.3920971098
 20
86.1927231214
 30
0.0
 11
43.8920971098
 21
84.6927231214
 31
0.0
  0
LINE
  5
F7
330
1F
100
AcDbEntity
  8
0
  6
Continuous
 62
     7
370
    25
100
AcDbLine
 10
56.8920971098
 20
117.9417231214
 30
0.0
 11
43.8920971098
 21
117.9417231214
 31
0.0
  0
LINE
  5
F8
330
1F
100
AcDbEntity
  8
0
  6
Continuous
 62
     7
370
    25
100
AcDbLine
 10
43.8920971098
 20
84.6927231214
 30
0.0
 11
56.8920971098
 21
84.6927231214
 31
0.0
  0
LINE
  5
F9
330
1F
100
AcDbEntity
  8
0
  6
Continuous
 62
     7
370
    25
100
AcDbLine
 10
56.8920971098
 20
84.6927231214
 30
0.0
 11
58.3920971098
 21
86.1927231214
 31
0.0
  0
LINE
  5
FA
330
1F
100
AcDbEntity
  8
0
  6
Continuous
 62
     7
370
    25
100
AcDbLine
 10
58.3920971098
 20
116.4417231214
 30
0.0
 11
56.8920971098
 21
117.9417231214
 31
0.0
  0
LINE
  5
FB
330
1F
100
AcDbEntity
  8
0
  6
Continuous
 62
     7
370
    25
100
AcDbLine
 10
60.3920971098
 20
115.8172231214
 30
0.0
 11
58.3920971098
 21
115.8172231214
 31
0.0
  0
LINE
  5
FC
330
1F
100
AcDbEntity
  8
0
  6
Continuous
 62
     7
370
    25
100
AcDbLine
 10
58.3920971098
 20
86.8172231214
 30
0.0
 11
60.3920971098
 21
86.8172231214
 31
0.0
  0
LINE
  5
FD
330
1F
100
AcDbEntity
  8
0
  6
Continuous
 62
     7
370
    25
100
AcDbLine
 10
78.3920971098
 20
121.5672231214
 30
0.0
 11
78.3920971098
 21
81.0672231214
 31
0.0
  0
SPLINE
  5
FE
330
1F
100
AcDbEntity
  8
0
  6
Continuous
 62
     7
370
    25
100
AcDbSpline
210
0.0
220
0.0
230
1.0
 70
    24
 71
     3
 72
    13
 73
     9
 74
     0
 42
0.000000001
 43
0.00000001
 40
0.0
 40
0.0
 40
0.0
 40
0.0
 40
0.0936105652213218
 40
0.2235342247845022
 40
0.4162015641618467
 40
0.6095418906233179
 40
0.8045617296864772
 40
1.0
 40
1.0
 40
1.0
 40
1.0
 10
78.24083095030909
 20
80.81722312138727
 30
0.0
 10
78.24010121882425
 20
80.81722312138729
 30
0.0
 10
78.23835868088128
 20
80.81722312138727
 30
0.0
 10
78.1421169121068
 20
80.81722312138727
 30
0.0
 10
77.92574803393455
 20
80.81722312138727
 30
0.0
 10
77.54144604381855
 20
80.81722312138729
 30
0.0
 10
77.04296818162885
 20
80.81722312138727
 30
0.0
 10
76.62565406046832
 20
80.81722312138727
 30
0.0
 10
76.41677339424982
 20
80.81722312138727
 30
0.0
  0
SPLINE
  5
FF
330
1F
100
AcDbEntity
  8
0
  6
Continuous
 62
     7
370
    25
100
AcDbSpline
210
0.0
220
0.0
230
1.0
 70
     8
 71
     3
 72
    18
 73
    14
 74
     0
 42
0.000000001
 43
0.00000001
 40
0.0
 40
0.0
 40
0.0
 40
0.0
 40
0.2500000000000004
 40
0.2500000000000004
 40
0.5000000000000008
 40
0.5000000000000008
 40
0.5625000000000009
 40
0.5625000000000009
 40
0.625000000000001
 40
0.625000000000001
 40
0.7500000000000006
 40
0.7500000000000006
 40
1.0
 40
1.0
 40
1.0
 40
1.0
 10
76.41677339424999
 20
80.81722312138726
 30
0.0
 10
76.97465040955004
 20
82.49085416728742
 30
0.0
 10
77.43444194383864
 20
84.17668689082456
 30
0.0
 10
78.07140236480159
 20
87.58351014518622
 30
0.0
 10
78.246470198048
 20
89.30476204371129
 30
0.0
 10
78.24807287132383
 20
91.48335024644035
 30
0.0
 10
78.23761826822975
 20
91.92127634932255
 30
0.0
 10
78.19549472675216
 20
92.79315624440171
 30
0.0
 10
78.16387450604876
 20
93.22758157670225
 30
0.0
 10
78.03870933947795
 20
94.52651037639005
 30
0.0
 10
77.91478903898972
 20
95.38665648307055
 30
0.0
 10
77.43627560948349
 20
97.95178109642966
 30
0.0
 10
76.97534591266475
 20
99.6415055661427
 30
0.0
 10
76.41677339424989
 20
101.3172231213873
 30
0.0
  0
SPLINE
  5
100
330
1F
100
AcDbEntity
  8
0
  6
Continuous
 62
     7
370
    25
100
AcDbSpline
210
0.0
220
0.0
230
1.0
 70
     8
 71
     3
 72
    18
 73
    14
 74
     0
 42
0.000000001
 43
0.00000001
 40
0.0
 40
0.0
 40
0.0
 40
0.0
 40
0.25
 40
0.25
 40
0.5
 40
0.5
 40
0.5625000000000001
 40
0.5625000000000001
 40
0.6250000000000002
 40
0.6250000000000002
 40
0.7500000000000002
 40
0.7500000000000002
 40
1.0
 40
1.0
 40
1.0
 40
1.0
 10
76.41677339424997
 20
101.3172231213872
 30
0.0
 10
76.97465040955004
 20
102.9908541672874
 30
0.0
 10
77.43444194383864
 20
104.6766868908245
 30
0.0
 10
78.07140236480159
 20
108.0835101451862
 30
0.0
 10
78.24647019804799
 20
109.8047620437113
 30
0.0
 10
78.24807287132383
 20
111.9833502464404
 30
0.0
 10
78.23761826822975
 20
112.4212763493226
 30
0.0
 10
78.19549472675216
 20
113.2931562444017
 30
0.0
 10
78.16387450604876
 20
113.7275815767022
 30
0.0
 10
78.03870933947793
 20
115.02651037639
 30
0.0
 10
77.91478903898972
 20
115.8866564830706
 30
0.0
 10
77.43627560948349
 20
118.4517810964297
 30
0.0
 10
76.97534591266475
 20
120.1415055661427
 30
0.0
 10
76.41677339424989
 20
121.8172231213873
 30
0.0
  0
SPLINE
  5
101
330
1F
100
AcDbEntity
  8
0
  6
Continuous
 62
     7
370
    25
100
AcDbSpline
210
0.0
220
0.0
230
1.0
 70
    24
 71
     3
 72
    13
 73
     9
 74
     0
 42
0.000000001
 43
0.00000001
 40
0.0
 40
0.0
 40
0.0
 40
0.0
 40
0.1929692427529336
 40
0.3863016938444828
 40
0.5810586540086168
 40
0.7764639159357528
 40
0.9022261900496144
 40
0.9999999999999999
 40
0.9999999999999999
 40
0.9999999999999999
 40
0.9999999999999999
 10
76.4167733942498
 20
121.8172231213873
 30
0.0
 10
76.6231127351026
 20
121.8172231213873
 30
0.0
 10
77.03617979045835
 20
121.8172231213873
 30
0.0
 10
77.53424579883563
 20
121.8172231213873
 30
0.0
 10
77.922378752394
 20
121.8172231213873
 30
0.0
 10
78.14001904597586
 20
121.8172231213873
 30
0.0
 10
78.23705102683158
 20
121.8172231213873
 30
0.0
 10
78.24062268354172
 20
121.8172231213873
 30
0.0
 10
78.24218491223445
 20
121.8172231213873
 30
0.0
  0
LINE
  5
102
330
1F
100
AcDbEntity
  8
0
  6
Continuous
 62
     7
370
    25
100
AcDbLine
 10
76.4167733942
 20
101.3172231214
 30
0.0
 11
64.3674208254
 21
101.3172231214
 31
0.0
  0
SPLINE
  5
103
330
1F
100
AcDbEntity
  8
0
  6
Continuous
 62
     7
370
    25
100
AcDbSpline
210
0.0
220
0.0
230
1.0
 70
     8
 71
     3
 72
    18
 73
    14
 74
     0
 42
0.000000001
 43
0.00000001
 40
0.0
 40
0.0
 40
0.0
 40
0.0
 40
0.2500000000000001
 40
0.2500000000000001
 40
0.5000000000000001
 40
0.5000000000000001
 40
0.5625000000000001
 40
0.5625000000000001
 40
0.6250000000000001
 40
0.6250000000000001
 40
0.7500000000000002
 40
0.7500000000000002
 40
1.0
 40
1.0
 40
1.0
 40
1.0
 10
64.36742082540312
 20
121.8172231213873
 30
0.0
 10
63.80954381010307
 20
120.1435920754871
 30
0.0
 10
63.34975227581445
 20
118.45775935195
 30
0.0
 10
62.7127918548515
 20
115.0509360975883
 30
0.0
 10
62.53772402160509
 20
113.3296841990633
 30
0.0
 10
62.53612134832925
 20
111.1510959963342
 30
0.0
 10
62.54657595142334
 20
110.713169893452
 30
0.0
 10
62.58869949290094
 20
109.8412899983728
 30
0.0
 10
62.62031971360435
 20
109.4068646660723
 30
0.0
 10
62.74548488017516
 20
108.1079358663845
 30
0.0
 10
62.86940518066336
 20
107.247789759704
 30
0.0
 10
63.3479186101696
 20
104.6826651463449
 30
0.0
 10
63.80884830698834
 20
102.9929406766318
 30
0.0
 10
64.3674208254032
 20
101.3172231213873
 30
0.0
  0
LINE
  5
104
330
1F
100
AcDbEntity
  8
0
  6
Continuous
 62
     7
370
    25
100
AcDbLine
 10
76.4167733942
 20
121.8172231214
 30
0.0
 11
64.3674208254
 21
121.8172231214
 31
0.0
  0
LINE
  5
105
330
1F
100
AcDbEntity
  8
0
  6
Continuous
 62
     7
370
    25
100
AcDbLine
 10
62.3920971098
 20
81.0672231214
 30
0.0
 11
62.3920971098
 21
121.5672231214
 31
0.0
  0
SPLINE
  5
106
330
1F
100
AcDbEntity
  8
0
  6
Continuous
 62
     7
370
    25
100
AcDbSpline
210
0.0
220
0.0
230
1.0
 70
    24
 71
     3
 72
    13
 73
     9
 74
     0
 42
0.000000001
 43
0.00000001
 40
0.0
 40
0.0
 40
0.0
 40
0.0
 40
0.0960792436308481
 40
0.2259207176658472
 40
0.4180070773353948
 40
0.6107591333006959
 40
0.8051725371559854
 40
1.0
 40
1.0
 40
1.0
 40
1.0
 10
62.54304545378728
 20
121.8172231213873
 30
0.0
 10
62.54407897934999
 20
121.8172231213873
 30
0.0
 10
62.54650921118811
 20
121.8172231213873
 30
0.0
 10
62.64425700330978
 20
121.8172231213873
 30
0.0
 10
62.86157186693873
 20
121.8172231213873
 30
0.0
 10
63.24563879888898
 20
121.8172231213873
 30
0.0
 10
63.74310440958697
 20
121.8172231213873
 30
0.0
 10
64.15916782288136
 20
121.8172231213873
 30
0.0
 10
64.36742082540329
 20
121.8172231213873
 30
0.0
  0
SPLINE
  5
107
330
1F
100
AcDbEntity
  8
0
  6
Continuous
 62
     7
370
    25
100
AcDbSpline
210
0.0
220
0.0
230
1.0
 70
     8
 71
     3
 72
    18
 73
    14
 74
     0
 42
0.000000001
 43
0.00000001
 40
0.0
 40
0.0
 40
0.0
 40
0.0
 40
0.2500000000000007
 40
0.2500000000000007
 40
0.5000000000000014
 40
0.5000000000000014
 40
0.5625000000000014
 40
0.5625000000000014
 40
0.6250000000000013
 40
0.6250000000000013
 40
0.7500000000000008
 40
0.7500000000000008
 40
1.0
 40
1.0
 40
1.0
 40
1.0
 10
64.36742082540312
 20
101.3172231213873
 30
0.0
 10
63.80954381010307
 20
99.64359207548712
 30
0.0
 10
63.34975227581445
 20
97.95775935194999
 30
0.0
 10
62.7127918548515
 20
94.55093609758832
 30
0.0
 10
62.53772402160509
 20
92.82968419906327
 30
0.0
 10
62.53612134832925
 20
90.65109599633419
 30
0.0
 10
62.54657595142334
 20
90.21316989345199
 30
0.0
 10
62.58869949290093
 20
89.34128999837283
 30
0.0
 10
62.62031971360434
 20
88.90686466607231
 30
0.0
 10
62.74548488017515
 20
87.6079358663845
 30
0.0
 10
62.86940518066336
 20
86.74778975970399
 30
0.0
 10
63.3479186101696
 20
84.18266514634487
 30
0.0
 10
63.80884830698832
 20
82.49294067663186
 30
0.0
 10
64.36742082540319
 20
80.81722312138726
 30
0.0
  0
SPLINE
  5
108
330
1F
100
AcDbEntity
  8
0
  6
Continuous
 62
     7
370
    25
100
AcDbSpline
210
0.0
220
0.0
230
1.0
 70
    24
 71
     3
 72
    13
 73
     9
 74
     0
 42
0.000000001
 43
0.00000001
 40
0.0
 40
0.0
 40
0.0
 40
0.0
 40
0.1923846276188196
 40
0.3851288705181466
 40
0.5792826071237118
 40
0.7740774520308199
 40
0.899759411515925
 40
0.9999999999999999
 40
0.9999999999999999
 40
0.9999999999999999
 40
0.9999999999999999
 10
64.36742082540329
 20
80.81722312138727
 30
0.0
 10
64.1616827732556
 20
80.81722312138729
 30
0.0
 10
63.74982209276907
 20
80.81722312138727
 30
0.0
 10
63.25277353517042
 20
80.81722312138727
 30
0.0
 10
62.86492093546679
 20
80.81722312138727
 30
0.0
 10
62.6463724384298
 20
80.81722312138729
 30
0.0
 10
62.5478152238158
 20
80.81722312138727
 30
0.0
 10
62.54353027311409
 20
80.81722312138727
 30
0.0
 10
62.54162906412088
 20
80.81722312138727
 30
0.0
  0
LINE
  5
109
330
1F
100
AcDbEntity
  8
0
  6
Continuous
 62
     7
370
    25
100
AcDbLine
 10
76.4167733942
 20
80.8172231214
 30
0.0
 11
64.3674208254
 21
80.8172231214
 31
0.0
  0
LINE
  5
10A
330
1F
100
AcDbEntity
  8
0
  6
Continuous
 62
     7
370
    25
100
AcDbLine
 10
60.3920971098
 20
81.0672231214
 30
0.0
 11
60.3920971098
 21
121.5672231214
 31
0.0
  0
LINE
  5
10B
330
1F
100
AcDbEntity
  8
0
  6
Continuous
 62
     7
370
    25
100
AcDbLine
 10
42.3920971098
 20
86.1927231214
 30
0.0
 11
42.3920971098
 21
116.4417231214
 31
0.0
  0
LINE
  5
10C
330
1F
100
AcDbEntity
  8
0
  6
Continuous
 62
     7
370
    25
100
AcDbLine
 10
43.8920971098
 20
117.9417231214
 30
0.0
 11
43.8920971098
 21
84.6927231214
 31
0.0
  0
LINE
  5
10D
330
1F
100
AcDbEntity
  8
0
  6
Continuous
 62
     7
370
    25
100
AcDbLine
 10
56.8920971098
 20
84.6927231214
 30
0.0
 11
56.8920971098
 21
117.9417231214
 31
0.0
  0
LINE
  5
10E
330
1F
100
AcDbEntity
  8
0
  6
Continuous
 62
     7
370
    25
100
AcDbLine
 10
58.3920971098
 20
116.4417231214
 30
0.0
 11
58.3920971098
 21
86.1927231214
 31
0.0
  0
LINE
  5
10F
330
1F
100
AcDbEntity
  8
0
  6
Continuous
 62
     7
370
    18
100
AcDbLine
 10
42.4130971098
 20
116.4627231214
 30
0.0
 11
58.3710971098
 21
116.4627231214
 31
0.0
  0
LINE
  5
110
330
1F
100
AcDbEntity
  8
0
  6
Continuous
 62
     7
370
    18
100
AcDbLine
 10
42.4130971098
 20
86.1717231214
 30
0.0
 11
58.3710971098
 21
86.1717231214
 31
0.0
  0
LINE
  5
111
330
1F
100
AcDbEntity
  8
0
  6
CENTERX2
 62
     7
370
    18
100
AcDbLine
 10
37.2577145281
 20
101.3172231214
 30
0.0
 11
83.1600754987
 21
101.3172231214
 31
0.0
  0
ENDSEC
  0
SECTION
  2
OBJECTS
  0
DICTIONARY
  5
C
330
0
100
AcDbDictionary
281
     1
  3
ACAD_GROUP
350
D
  3
ACAD_LAYOUT
350
1A
  3
ACAD_MLINESTYLE
350
17
  3
ACAD_PLOTSETTINGS
350
19
  3
ACAD_PLOTSTYLENAME
350
E
  3
ACAD_SCALELIST
350
47
  0
DICTIONARY
  5
D
102
{ACAD_REACTORS
330
C
102
}
330
C
100
AcDbDictionary
281
     1
  0
DICTIONARY
  5
1A
102
{ACAD_REACTORS
330
C
102
}
330
C
100
AcDbDictionary
281
     1
  3
Layout1
350
1E
  3
Layout2
350
26
  3
Model
350
22
  0
DICTIONARY
  5
17
102
{ACAD_REACTORS
330
C
102
}
330
C
100
AcDbDictionary
281
     1
  3
Standard
350
18
  0
DICTIONARY
  5
19
102
{ACAD_REACTORS
330
C
102
}
330
C
100
AcDbDictionary
281
     1
  0
ACDBDICTIONARYWDFLT
  5
E
102
{ACAD_REACTORS
330
C
102
}
330
C
100
AcDbDictionary
281
     1
  3
Normal
350
F
100
AcDbDictionaryWithDefault
340
F
  0
DICTIONARY
  5
47
102
{ACAD_REACTORS
330
C
102
}
330
C
100
AcDbDictionary
281
     1
  3
A0
350
48
  3
A1
350
49
  3
A2
350
4A
  3
A3
350
4B
  3
A4
350
4C
  3
A5
350
4D
  3
A6
350
4E
  3
A7
350
4F
  3
A8
350
50
  3
A9
350
51
  3
B0
350
52
  3
B1
350
53
  3
B2
350
54
  3
B3
350
55
  3
B4
350
56
  3
B5
350
57
  3
B6
350
58
  3
B7
350
59
  3
B8
350
5A
  3
B9
350
5B
  3
C0
350
5C
  3
C1
350
5D
  3
C2
350
5E
  3
C3
350
5F
  3
C4
350
60
  3
C5
350
61
  3
C6
350
62
  3
C7
350
63
  3
C8
350
64
  3
C9
350
65
  3
D0
350
66
  3
D1
350
67
  3
D2
350
68
  0
LAYOUT
  5
1E
102
{ACAD_REACTORS
330
1A
102
}
330
1A
100
AcDbPlotSettings
  1

  2
none_device
  4

  6

 40
0.0
 41
0.0
 42
0.0
 43
0.0
 44
0.0
 45
0.0
 46
0.0
 47
0.0
 48
0.0
 49
0.0
140
0.0
141
0.0
142
1.0
143
1.0
 70
   688
 72
     1
 73
     0
 74
     5
  7

 75
    16
147
1.0
148
0.0
149
0.0
100
AcDbLayout
  1
Layout1
 70
     1
 71
     1
 10
0.0
 20
0.0
 11
420.0
 21
297.0
 12
0.0
 22
0.0
 32
0.0
 14
1.0000000000E+20
 24
1.0000000000E+20
 34
1.0000000000E+20
 15
-1.0000000000E+20
 25
-1.0000000000E+20
 35
-1.0000000000E+20
146
0.0
 13
0.0
 23
0.0
 33
0.0
 16
1.0
 26
0.0
 36
0.0
 17
0.0
 27
1.0
 37
0.0
 76
     0
330
1B
  0
LAYOUT
  5
26
102
{ACAD_REACTORS
330
1A
102
}
330
1A
100
AcDbPlotSettings
  1

  2
none_device
  4

  6

 40
0.0
 41
0.0
 42
0.0
 43
0.0
 44
0.0
 45
0.0
 46
0.0
 47
0.0
 48
0.0
 49
0.0
140
0.0
141
0.0
142
1.0
143
1.0
 70
   688
 72
     1
 73
     0
 74
     5
  7

 75
    16
147
1.0
148
0.0
149
0.0
100
AcDbLayout
  1
Layout2
 70
     1
 71
     2
 10
0.0
 20
0.0
 11
0.0
 21
0.0
 12
0.0
 22
0.0
 32
0.0
 14
0.0
 24
0.0
 34
0.0
 15
0.0
 25
0.0
 35
0.0
146
0.0
 13
0.0
 23
0.0
 33
0.0
 16
1.0
 26
0.0
 36
0.0
 17
0.0
 27
1.0
 37
0.0
 76
     0
330
23
  0
LAYOUT
  5
22
102
{ACAD_REACTORS
330
1A
102
}
330
1A
100
AcDbPlotSettings
  1

  2
none_device
  4
Letter_(8.50_x_11.00_Inches)
  6

 40
6.35
 41
6.35
 42
6.35000508
 43
6.35000508
 44
215.9
 45
279.4
 46
0.0
 47
0.0
 48
0.0
 49
0.0
140
0.0
141
0.0
142
1.0
143
1.0
 70
  1712
 72
     1
 73
     0
 74
     0
  7

 75
     0
147
1.0
148
0.0
149
0.0
100
AcDbLayout
  1
Model
 70
     1
 71
     0
 10
0.0
 20
0.0
 11
431.8
 21
279.4
 12
0.0
 22
0.0
 32
0.0
 14
0.0
 24
0.0
 34
0.0
 15
431.8
 25
279.4
 35
0.0
146
0.0
 13
0.0
 23
0.0
 33
0.0
 16
1.0
 26
0.0
 36
0.0
 17
0.0
 27
1.0
 37
0.0
 76
     0
330
1F
331
29
  0
MLINESTYLE
  5
18
102
{ACAD_REACTORS
330
17
102
}
330
17
100
AcDbMlineStyle
  2
Standard
 70
     0
  3

 62
   256
 51
90.0
 52
90.0
 71
     2
 49
0.5
 62
   256
  6
BYLAYER
 49
-0.5
 62
   256
  6
BYLAYER
  0
ACDBPLACEHOLDER
  5
F
102
{ACAD_REACTORS
330
E
102
}
330
E
  0
SCALE
  5
48
102
{ACAD_REACTORS
330
47
102
}
330
47
100
AcDbScale
 70
     0
300
1:1
140
1.0
141
1.0
290
     1
  0
SCALE
  5
49
102
{ACAD_REACTORS
330
47
102
}
330
47
100
AcDbScale
 70
     0
300
1:2
140
1.0
141
2.0
290
     0
  0
SCALE
  5
4A
102
{ACAD_REACTORS
330
47
102
}
330
47
100
AcDbScale
 70
     0
300
1:4
140
1.0
141
4.0
290
     0
  0
SCALE
  5
4B
102
{ACAD_REACTORS
330
47
102
}
330
47
100
AcDbScale
 70
     0
300
1:5
140
1.0
141
5.0
290
     0
  0
SCALE
  5
4C
102
{ACAD_REACTORS
330
47
102
}
330
47
100
AcDbScale
 70
     0
300
1:8
140
1.0
141
8.0
290
     0
  0
SCALE
  5
4D
102
{ACAD_REACTORS
330
47
102
}
330
47
100
AcDbScale
 70
     0
300
1:10
140
1.0
141
10.0
290
     0
  0
SCALE
  5
4E
102
{ACAD_REACTORS
330
47
102
}
330
47
100
AcDbScale
 70
     0
300
1:16
140
1.0
141
16.0
290
     0
  0
SCALE
  5
4F
102
{ACAD_REACTORS
330
47
102
}
330
47
100
AcDbScale
 70
     0
300
1:20
140
1.0
141
20.0
290
     0
  0
SCALE
  5
50
102
{ACAD_REACTORS
330
47
102
}
330
47
100
AcDbScale
 70
     0
300
1:30
140
1.0
141
30.0
290
     0
  0
SCALE
  5
51
102
{ACAD_REACTORS
330
47
102
}
330
47
100
AcDbScale
 70
     0
300
1:40
140
1.0
141
40.0
290
     0
  0
SCALE
  5
52
102
{ACAD_REACTORS
330
47
102
}
330
47
100
AcDbScale
 70
     0
300
1:50
140
1.0
141
50.0
290
     0
  0
SCALE
  5
53
102
{ACAD_REACTORS
330
47
102
}
330
47
100
AcDbScale
 70
     0
300
1:100
140
1.0
141
100.0
290
     0
  0
SCALE
  5
54
102
{ACAD_REACTORS
330
47
102
}
330
47
100
AcDbScale
 70
     0
300
2:1
140
2.0
141
1.0
290
     0
  0
SCALE
  5
55
102
{ACAD_REACTORS
330
47
102
}
330
47
100
AcDbScale
 70
     0
300
4:1
140
4.0
141
1.0
290
     0
  0
SCALE
  5
56
102
{ACAD_REACTORS
330
47
102
}
330
47
100
AcDbScale
 70
     0
300
8:1
140
8.0
141
1.0
290
     0
  0
SCALE
  5
57
102
{ACAD_REACTORS
330
47
102
}
330
47
100
AcDbScale
 70
     0
300
10:1
140
10.0
141
1.0
290
     0
  0
SCALE
  5
58
102
{ACAD_REACTORS
330
47
102
}
330
47
100
AcDbScale
 70
     0
300
100:1
140
100.0
141
1.0
290
     0
  0
SCALE
  5
59
102
{ACAD_REACTORS
330
47
102
}
330
47
100
AcDbScale
 70
     0
300
1/128" = 1'-0"
140
0.0078125
141
12.0
290
     0
  0
SCALE
  5
5A
102
{ACAD_REACTORS
330
47
102
}
330
47
100
AcDbScale
 70
     0
300
1/64" = 1'-0"
140
0.015625
141
12.0
290
     0
  0
SCALE
  5
5B
102
{ACAD_REACTORS
330
47
102
}
330
47
100
AcDbScale
 70
     0
300
1/32" = 1'-0"
140
0.03125
141
12.0
290
     0
  0
SCALE
  5
5C
102
{ACAD_REACTORS
330
47
102
}
330
47
100
AcDbScale
 70
     0
300
1/16" = 1'-0"
140
0.0625
141
12.0
290
     0
  0
SCALE
  5
5D
102
{ACAD_REACTORS
330
47
102
}
330
47
100
AcDbScale
 70
     0
300
3/32" = 1'-0"
140
0.09375
141
12.0
290
     0
  0
SCALE
  5
5E
102
{ACAD_REACTORS
330
47
102
}
330
47
100
AcDbScale
 70
     0
300
1/8" = 1'-0"
140
0.125
141
12.0
290
     0
  0
SCALE
  5
5F
102
{ACAD_REACTORS
330
47
102
}
330
47
100
AcDbScale
 70
     0
300
3/16" = 1'-0"
140
0.1875
141
12.0
290
     0
  0
SCALE
  5
60
102
{ACAD_REACTORS
330
47
102
}
330
47
100
AcDbScale
 70
     0
300
1/4" = 1'-0"
140
0.25
141
12.0
290
     0
  0
SCALE
  5
61
102
{ACAD_REACTORS
330
47
102
}
330
47
100
AcDbScale
 70
     0
300
3/8" = 1'-0"
140
0.375
141
12.0
290
     0
  0
SCALE
  5
62
102
{ACAD_REACTORS
330
47
102
}
330
47
100
AcDbScale
 70
     0
300
1/2" = 1'-0"
140
0.5
141
12.0
290
     0
  0
SCALE
  5
63
102
{ACAD_REACTORS
330
47
102
}
330
47
100
AcDbScale
 70
     0
300
3/4" = 1'-0"
140
0.75
141
12.0
290
     0
  0
SCALE
  5
64
102
{ACAD_REACTORS
330
47
102
}
330
47
100
AcDbScale
 70
     0
300
1" = 1'-0"
140
1.0
141
12.0
290
     0
  0
SCALE
  5
65
102
{ACAD_REACTORS
330
47
102
}
330
47
100
AcDbScale
 70
     0
300
1-1/2" = 1'-0"
140
1.5
141
12.0
290
     0
  0
SCALE
  5
66
102
{ACAD_REACTORS
330
47
102
}
330
47
100
AcDbScale
 70
     0
300
3" = 1'-0"
140
3.0
141
12.0
290
     0
  0
SCALE
  5
67
102
{ACAD_REACTORS
330
47
102
}
330
47
100
AcDbScale
 70
     0
300
6" = 1'-0"
140
6.0
141
12.0
290
     0
  0
SCALE
  5
68
102
{ACAD_REACTORS
330
47
102
}
330
47
100
AcDbScale
 70
     0
300
1'-0" = 1'-0"
140
12.0
141
12.0
290
     0
  0
ENDSEC
  0
EOF
