  0
SECTION
  2
HEADER
  9
$ACADVER
  1
AC1015
  9
$ACADMAINTVER
 70
     6
  9
$DWGCODEPAGE
  3
DOS932
  9
$INSBASE
 10
0.0
 20
0.0
 30
0.0
  9
$EXTMIN
 10
0.0
 20
0.0
 30
0.0
  9
$EXTMAX
 10
431.8
 20
279.4
 30
0.0
  9
$LIMMIN
 10
0.0
 20
0.0
  9
$LIMMAX
 10
431.8
 20
279.4
  9
$ORTHOMODE
 70
     0
  9
$REGENMODE
 70
     1
  9
$FILLMODE
 70
     1
  9
$QTEXTMODE
 70
     0
  9
$MIRRTEXT
 70
     1
  9
$LTSCALE
 40
1.0
  9
$ATTMODE
 70
     1
  9
$TEXTSIZE
 40
3.5
  9
$TRACEWID
 40
1.0
  9
$TEXTSTYLE
  7
Standard
  9
$CLAYER
  8
0
  9
$CELTYPE
  6
ByLayer
  9
$CECOLOR
 62
   256
  9
$CELTSCALE
 40
1.0
  9
$DISPSILH
 70
     0
  9
$DIMSCALE
 40
1.0
  9
$DIMASZ
 40
3.302
  9
$DIMEXO
 40
1.0
  9
$DIMDLI
 40
3.75
  9
$DIMRND
 40
0.0
  9
$DIMDLE
 40
0.0
  9
$DIMEXE
 40
1.0
  9
$DIMTP
 40
0.0
  9
$DIMTM
 40
0.0
  9
$DIMTXT
 40
3.5
  9
$DIMCEN
 40
2.5
  9
$DIMTSZ
 40
0.0
  9
$DIMTOL
 70
     0
  9
$DIMLIM
 70
     0
  9
$DIMTIH
 70
     1
  9
$DIMTOH
 70
     1
  9
$DIMSE1
 70
     0
  9
$DIMSE2
 70
     0
  9
$DIMTAD
 70
     1
  9
$DIMZIN
 70
     1
  9
$DIMBLK
  1

  9
$DIMASO
 70
     1
  9
$DIMSHO
 70
     1
  9
$DIMPOST
  1

  9
$DIMAPOST
  1

  9
$DIMALT
 70
     0
  9
$DIMALTD
 70
     3
  9
$DIMALTF
 40
0.0393700787
  9
$DIMLFAC
 40
1.0
  9
$DIMTOFL
 70
     1
  9
$DIMTVP
 40
0.0
  9
$DIMTIX
 70
     0
  9
$DIMSOXD
 70
     0
  9
$DIMSAH
 70
     0
  9
$DIMBLK1
  1

  9
$DIMBLK2
  1

  9
$DIMSTYLE
  2
ISO-25
  9
$DIMCLRD
 70
     0
  9
$DIMCLRE
 70
     0
  9
$DIMCLRT
 70
     0
  9
$DIMTFAC
 40
1.0
  9
$DIMGAP
 40
1.524
  9
$DIMJUST
 70
     0
  9
$DIMSD1
 70
     0
  9
$DIMSD2
 70
     0
  9
$DIMTOLJ
 70
     0
  9
$DIMTZIN
 70
     1
  9
$DIMALTZ
 70
     0
  9
$DIMALTTZ
 70
     0
  9
$DIMUPT
 70
     0
  9
$DIMDEC
 70
     2
  9
$DIMTDEC
 70
     2
  9
$DIMALTU
 70
     2
  9
$DIMALTTD
 70
     3
  9
$DIMTXSTY
  7
Standard
  9
$DIMAUNIT
 70
     0
  9
$DIMADEC
 70
     2
  9
$DIMALTRND
 40
0.0
  9
$DIMAZIN
 70
     0
  9
$DIMDSEP
 70
    44
  9
$DIMATFIT
 70
     3
  9
$DIMFRAC
 70
     0
  9
$DIMLDRBLK
  1

  9
$DIMLUNIT
 70
     2
  9
$DIMLWD
 70
    -2
  9
$DIMLWE
 70
    -2
  9
$DIMTMOVE
 70
     0
  9
$LUNITS
 70
     2
  9
$LUPREC
 70
     2
  9
$SKETCHINC
 40
1.0
  9
$FILLETRAD
 40
10.0
  9
$AUNITS
 70
     0
  9
$AUPREC
 70
     2
  9
$MENU
  1
.
  9
$ELEVATION
 40
0.0
  9
$PELEVATION
 40
0.0
  9
$THICKNESS
 40
0.0
  9
$LIMCHECK
 70
     0
  9
$CHAMFERA
 40
0.0
  9
$CHAMFERB
 40
0.0
  9
$CHAMFERC
 40
0.0
  9
$CHAMFERD
 40
0.0
  9
$SKPOLY
 70
     0
  9
$TDCREATE
 40
2460087.725786331
  9
$TDUCREATE
 40
2460087.350786331
  9
$TDUPDATE
 40
2460087.725786609
  9
$TDUUPDATE
 40
2460087.350786609
  9
$TDINDWG
 40
0.0000000116
  9
$TDUSRTIMER
 40
0.0000000116
  9
$USRTIMER
 70
     1
  9
$ANGBASE
 50
0.0
  9
$ANGDIR
 70
     0
  9
$PDMODE
 70
     0
  9
$PDSIZE
 40
-1.0
  9
$PLINEWID
 40
0.0
  9
$SPLFRAME
 70
     0
  9
$SPLINETYPE
 70
     6
  9
$SPLINESEGS
 70
     8
  9
$HANDSEED
  5
113
  9
$SURFTAB1
 70
     6
  9
$SURFTAB2
 70
     6
  9
$SURFTYPE
 70
     6
  9
$SURFU
 70
     6
  9
$SURFV
 70
     6
  9
$UCSBASE
  2

  9
$UCSNAME
  2

  9
$UCSORG
 10
0.0
 20
0.0
 30
0.0
  9
$UCSXDIR
 10
1.0
 20
0.0
 30
0.0
  9
$UCSYDIR
 10
0.0
 20
1.0
 30
0.0
  9
$UCSORTHOREF
  2

  9
$UCSORTHOVIEW
 70
     0
  9
$UCSORGTOP
 10
0.0
 20
0.0
 30
0.0
  9
$UCSORGBOTTOM
 10
0.0
 20
0.0
 30
0.0
  9
$UCSORGLEFT
 10
0.0
 20
0.0
 30
0.0
  9
$UCSORGRIGHT
 10
0.0
 20
0.0
 30
0.0
  9
$UCSORGFRONT
 10
0.0
 20
0.0
 30
0.0
  9
$UCSORGBACK
 10
0.0
 20
0.0
 30
0.0
  9
$PUCSBASE
  2

  9
$PUCSNAME
  2

  9
$PUCSORG
 10
0.0
 20
0.0
 30
0.0
  9
$PUCSXDIR
 10
1.0
 20
0.0
 30
0.0
  9
$PUCSYDIR
 10
0.0
 20
1.0
 30
0.0
  9
$PUCSORTHOREF
  2

  9
$PUCSORTHOVIEW
 70
     0
  9
$PUCSORGTOP
 10
0.0
 20
0.0
 30
0.0
  9
$PUCSORGBOTTOM
 10
0.0
 20
0.0
 30
0.0
  9
$PUCSORGLEFT
 10
0.0
 20
0.0
 30
0.0
  9
$PUCSORGRIGHT
 10
0.0
 20
0.0
 30
0.0
  9
$PUCSORGFRONT
 10
0.0
 20
0.0
 30
0.0
  9
$PUCSORGBACK
 10
0.0
 20
0.0
 30
0.0
  9
$USERI1
 70
     0
  9
$USERI2
 70
     0
  9
$USERI3
 70
     0
  9
$USERI4
 70
     0
  9
$USERI5
 70
     0
  9
$USERR1
 40
0.0
  9
$USERR2
 40
0.0
  9
$USERR3
 40
0.0
  9
$USERR4
 40
0.0
  9
$USERR5
 40
0.0
  9
$WORLDVIEW
 70
     1
  9
$SHADEDGE
 70
     3
  9
$SHADEDIF
 70
    70
  9
$TILEMODE
 70
     1
  9
$MAXACTVP
 70
    64
  9
$PINSBASE
 10
0.0
 20
0.0
 30
0.0
  9
$PLIMCHECK
 70
     0
  9
$PEXTMIN
 10
1.0000000000E+20
 20
1.0000000000E+20
 30
1.0000000000E+20
  9
$PEXTMAX
 10
-1.0000000000E+20
 20
-1.0000000000E+20
 30
-1.0000000000E+20
  9
$PLIMMIN
 10
0.0
 20
0.0
  9
$PLIMMAX
 10
420.0
 20
297.0
  9
$UNITMODE
 70
     0
  9
$VISRETAIN
 70
     1
  9
$PLINEGEN
 70
     0
  9
$PSLTSCALE
 70
     1
  9
$TREEDEPTH
 70
  3020
  9
$CMLSTYLE
  2
Standard
  9
$CMLJUST
 70
     0
  9
$CMLSCALE
 40
20.0
  9
$PROXYGRAPHICS
 70
     1
  9
$MEASUREMENT
 70
     1
  9
$CELWEIGHT
370
    -1
  9
$ENDCAPS
280
     0
  9
$JOINSTYLE
280
     0
  9
$LWDISPLAY
290
     1
  9
$INSUNITS
 70
     4
  9
$HYPERLINKBASE
  1

  9
$STYLESHEET
  1

  9
$XEDIT
290
     1
  9
$CEPSNTYPE
380
     0
  9
$PSTYLEMODE
290
     1
  9
$FINGERPRINTGUID
  2
{7A395C25-140F-414B-ADAF-1B4565094DE0}
  9
$VERSIONGUID
  2
{FAEB1C32-E019-11D5-929B-00C0DF256EC4}
  9
$EXTNAMES
290
     1
  9
$PSVPSCALE
 40
0.0
  9
$OLESTARTUP
290
     0
  0
ENDSEC
  0
SECTION
  2
CLASSES
  0
CLASS
  1
ACDBDICTIONARYWDFLT
  2
AcDbDictionaryWithDefault
  3
ObjectDBX Classes
 90
        0
280
     0
281
     0
  0
CLASS
  1
VISUALSTYLE
  2
AcDbVisualStyle
  3
ObjectDBX Classes
 90
     4095
280
     0
281
     0
  0
CLASS
  1
MATERIAL
  2
AcDbMaterial
  3
ObjectDBX Classes
 90
     1153
280
     0
281
     0
  0
CLASS
  1
SCALE
  2
AcDbScale
  3
ObjectDBX Classes
 90
     1153
280
     0
281
     0
  0
CLASS
  1
TABLESTYLE
  2
AcDbTableStyle
  3
ObjectDBX Classes
 90
     4095
280
     0
281
     0
  0
CLASS
  1
MLEADERSTYLE
  2
AcDbMLeaderStyle
  3
ACDB_MLEADERSTYLE_CLASS
 90
     4095
280
     0
281
     0
  0
CLASS
  1
SUN
  2
AcDbSun
  3
SCENEOE
 90
     1153
280
     0
281
     0
  0
CLASS
  1
ACDBPLACEHOLDER
  2
AcDbPlaceHolder
  3
ObjectDBX Classes
 90
        0
280
     0
281
     0
  0
CLASS
  1
LAYOUT
  2
AcDbLayout
  3
ObjectDBX Classes
 90
        0
280
     0
281
     0
  0
ENDSEC
  0
SECTION
  2
TABLES
  0
TABLE
  2
VPORT
  5
8
330
0
100
AcDbSymbolTable
 70
     1
  0
VPORT
  5
29
330
8
100
AcDbSymbolTableRecord
100
AcDbViewportTableRecord
  2
*Active
 70
     0
 10
0.0
 20
0.0
 11
1.0
 21
1.0
 12
215.9
 22
139.7
 13
0.0
 23
0.0
 14
10.0
 24
10.0
 15
10.0
 25
10.0
 16
0.0
 26
0.0
 36
1.0
 17
0.0
 27
0.0
 37
0.0
 40
279.4
 41
1.5454545455
 42
50.0
 43
0.0
 44
0.0
 50
0.0
 51
0.0
 71
     0
 72
  2000
 73
     1
 74
     3
 75
     0
 76
     0
 77
     0
 78
     0
281
     0
 65
     1
110
0.0
120
0.0
130
0.0
111
1.0
121
0.0
131
0.0
112
0.0
122
1.0
132
0.0
 79
     0
146
0.0
  0
ENDTAB
  0
TABLE
  2
LTYPE
  5
5
330
0
100
AcDbSymbolTable
 70
     6
  0
LTYPE
  5
14
330
5
100
AcDbSymbolTableRecord
100
AcDbLinetypeTableRecord
  2
ByBlock
 70
     0
  3

 72
    65
 73
     0
 40
0.0
  0
LTYPE
  5
15
330
5
100
AcDbSymbolTableRecord
100
AcDbLinetypeTableRecord
  2
ByLayer
 70
     0
  3

 72
    65
 73
     0
 40
0.0
  0
LTYPE
  5
16
330
5
100
AcDbSymbolTableRecord
100
AcDbLinetypeTableRecord
  2
Continuous
 70
     0
  3
Solid line
 72
    65
 73
     0
 40
0.0
  0
LTYPE
  5
6E
330
5
100
AcDbSymbolTableRecord
100
AcDbLinetypeTableRecord
  2
HIDDEN
 70
     0
  3
Hidden __ __ __ __ __ __ __ __ __ __ __ __ __ __
 72
    65
 73
     2
 40
1.905
 49
1.27
 74
     0
 49
-0.635
 74
     0
  0
LTYPE
  5
6F
330
5
100
AcDbSymbolTableRecord
100
AcDbLinetypeTableRecord
  2
PHANTOM
 70
     0
  3
Phantom ______  __  __  ______  __  __  ______
 72
    65
 73
     6
 40
12.7
 49
6.35
 74
     0
 49
-1.27
 74
     0
 49
1.27
 74
     0
 49
-1.27
 74
     0
 49
1.27
 74
     0
 49
-1.27
 74
     0
  0
LTYPE
  5
70
330
5
100
AcDbSymbolTableRecord
100
AcDbLinetypeTableRecord
  2
CENTER
 70
     0
  3
Center ____ _ ____ _ ____ _ ____ _ ____ _ ____
 72
    65
 73
     4
 40
10.16
 49
6.35
 74
     0
 49
-1.27
 74
     0
 49
1.27
 74
     0
 49
-1.27
 74
     0
  0
LTYPE
  5
71
330
5
100
AcDbSymbolTableRecord
100
AcDbLinetypeTableRecord
  2
CENTERX2
 70
     0
  3
Center (2x) ________  __  ________  __  _____
 72
    65
 73
     4
 40
20.32
 49
12.7
 74
     0
 49
-2.54
 74
     0
 49
2.54
 74
     0
 49
-2.54
 74
     0
  0
LTYPE
  5
72
330
5
100
AcDbSymbolTableRecord
100
AcDbLinetypeTableRecord
  2
DOT2
 70
     0
  3
Dot (.5x) ........................................
 72
    65
 73
     2
 40
0.635
 49
0.0
 74
     0
 49
-0.635
 74
     0
  0
ENDTAB
  0
TABLE
  2
LAYER
  5
2
330
0
100
AcDbSymbolTable
 70
     1
  0
LAYER
  5
10
330
2
100
AcDbSymbolTableRecord
100
AcDbLayerTableRecord
  2
0
 70
     0
 62
     7
  6
Continuous
370
    -3
390
F
  0
ENDTAB
  0
TABLE
  2
STYLE
  5
3
330
0
100
AcDbSymbolTable
 70
     2
  0
STYLE
  5
11
330
3
100
AcDbSymbolTableRecord
100
AcDbTextStyleTableRecord
  2
Standard
 70
     0
 40
0.0
 41
1.0
 50
0.0
 71
     0
 42
3.5
  3
txt
  4
bigfont
  0
STYLE
  5
73
330
3
100
AcDbSymbolTableRecord
100
AcDbTextStyleTableRecord
  2
SLDTEXTSTYLE0
 70
     0
 40
0.0
 41
0.7
 50
0.0
 71
     0
 42
3.5
  3
TXT
  4
bigfont
  0
ENDTAB
  0
TABLE
  2
VIEW
  5
6
330
0
100
AcDbSymbolTable
 70
     0
  0
ENDTAB
  0
TABLE
  2
UCS
  5
7
330
0
100
AcDbSymbolTable
 70
     0
  0
ENDTAB
  0
TABLE
  2
APPID
  5
9
330
0
100
AcDbSymbolTable
 70
     1
  0
APPID
  5
12
330
9
100
AcDbSymbolTableRecord
100
AcDbRegAppTableRecord
  2
ACAD
 70
     0
  0
ENDTAB
  0
TABLE
  2
DIMSTYLE
  5
A
330
0
100
AcDbSymbolTable
 70
     1
100
AcDbDimStyleTable
  0
DIMSTYLE
105
27
330
A
100
AcDbSymbolTableRecord
100
AcDbDimStyleTableRecord
  2
ISO-25
 70
     0
 41
2.5
 42
0.625
 43
3.75
 44
1.25
 73
     0
 74
     0
 77
     1
 78
     8
140
2.5
141
2.5
143
0.0393700787
147
0.625
171
     3
172
     1
178
     0
271
     2
272
     2
274
     3
278
    44
283
     0
284
     8
340
11
  0
ENDTAB
  0
TABLE
  2
BLOCK_RECORD
  5
1
330
0
100
AcDbSymbolTable
 70
     2
  0
BLOCK_RECORD
  5
1F
330
1
100
AcDbSymbolTableRecord
100
AcDbBlockTableRecord
  2
*Model_Space
340
22
  0
BLOCK_RECORD
  5
1B
330
1
100
AcDbSymbolTableRecord
100
AcDbBlockTableRecord
  2
*Paper_Space
340
1E
  0
BLOCK_RECORD
  5
23
330
1
100
AcDbSymbolTableRecord
100
AcDbBlockTableRecord
  2
*Paper_Space0
340
26
  0
BLOCK_RECORD
  5
E4
330
1
100
AcDbSymbolTableRecord
100
AcDbBlockTableRecord
  2
SW_CENTERMARKSYMBOL_0
340
0
102
{BLKREFS
331
EF
102
}
  0
ENDTAB
  0
ENDSEC
  0
SECTION
  2
BLOCKS
  0
BLOCK
  5
20
330
1F
100
AcDbEntity
  8
0
100
AcDbBlockBegin
  2
*Model_Space
 70
     0
 10
0.0
 20
0.0
 30
0.0
  3
*Model_Space
  1

  0
ENDBLK
  5
21
330
1F
100
AcDbEntity
  8
0
100
AcDbBlockEnd
  0
BLOCK
  5
1C
330
1B
100
AcDbEntity
 67
     1
  8
0
100
AcDbBlockBegin
  2
*Paper_Space
 70
     0
 10
0.0
 20
0.0
 30
0.0
  3
*Paper_Space
  1

  0
ENDBLK
  5
1D
330
1B
100
AcDbEntity
 67
     1
  8
0
100
AcDbBlockEnd
  0
BLOCK
  5
24
330
23
100
AcDbEntity
  8
0
100
AcDbBlockBegin
  2
*Paper_Space0
 70
     0
 10
0.0
 20
0.0
 30
0.0
  3
*Paper_Space0
  1

  0
ENDBLK
  5
25
330
23
100
AcDbEntity
  8
0
100
AcDbBlockEnd
  0
BLOCK
  5
E5
330
E4
100
AcDbEntity
  8
0
100
AcDbBlockBegin
  2
SW_CENTERMARKSYMBOL_0
 70
     0
 10
0.0
 20
0.0
 30
0.0
  3
SW_CENTERMARKSYMBOL_0
  1

  0
LINE
  5
E7
330
E4
100
AcDbEntity
  8
0
  6
Continuous
 62
     0
370
    18
100
AcDbLine
 10
0.0
 20
0.0
 30
0.0
 11
0.0
 21
2.5
 31
0.0
  0
LINE
  5
E8
330
E4
100
AcDbEntity
  8
0
  6
Continuous
 62
     0
370
    18
100
AcDbLine
 10
0.0
 20
0.0
 30
0.0
 11
-2.5
 21
0.0
 31
0.0
  0
LINE
  5
E9
330
E4
100
AcDbEntity
  8
0
  6
Continuous
 62
     0
370
    18
100
AcDbLine
 10
0.0
 20
0.0
 30
0.0
 11
0.0
 21
-2.5
 31
0.0
  0
LINE
  5
EA
330
E4
100
AcDbEntity
  8
0
  6
Continuous
 62
     0
370
    18
100
AcDbLine
 10
0.0
 20
0.0
 30
0.0
 11
2.5
 21
0.0
 31
0.0
  0
LINE
  5
EB
330
E4
100
AcDbEntity
  8
0
  6
Continuous
 62
     0
370
    18
100
AcDbLine
 10
0.0
 20
5.0
 30
0.0
 11
0.0
 21
20.25
 31
0.0
  0
LINE
  5
EC
330
E4
100
AcDbEntity
  8
0
  6
Continuous
 62
     0
370
    18
100
AcDbLine
 10
-5.0
 20
0.0
 30
0.0
 11
-20.25
 21
0.0
 31
0.0
  0
LINE
  5
ED
330
E4
100
AcDbEntity
  8
0
  6
Continuous
 62
     0
370
    18
100
AcDbLine
 10
0.0
 20
-5.0
 30
0.0
 11
0.0
 21
-20.25
 31
0.0
  0
LINE
  5
EE
330
E4
100
AcDbEntity
  8
0
  6
Continuous
 62
     0
370
    18
100
AcDbLine
 10
5.0
 20
0.0
 30
0.0
 11
20.25
 21
0.0
 31
0.0
  0
ENDBLK
  5
E6
330
E4
100
AcDbEntity
  8
0
100
AcDbBlockEnd
  0
ENDSEC
  0
SECTION
  2
ENTITIES
  0
MTEXT
  5
74
330
1F
100
AcDbEntity
  8
0
  6
Continuous
 62
     7
370
     0
100
AcDbMText
 10
95.9415270814
 20
97.4013376773
 30
0.0
 40
4.2333333333
 41
0.0
 71
     1
 72
     1
  1
六角プラグ　HP-7006
  7
SLDTEXTSTYLE0
 73
     1
 44
1.0
  0
LINE
  5
75
330
1F
100
AcDbEntity
  8
0
  6
Continuous
 62
     7
370
    25
100
AcDbLine
 10
79.2525869313
 20
31.4421949335
 30
0.0
 11
81.0046196532
 21
34.4768046243
 31
0.0
  0
LINE
  5
76
330
1F
100
AcDbEntity
  8
0
  6
Continuous
 62
     7
370
    25
100
AcDbLine
 10
81.0046196532
 20
69.9768046243
 30
0.0
 11
79.2525869313
 21
73.0114143151
 31
0.0
  0
LINE
  5
77
330
1F
100
AcDbEntity
  8
0
  6
Continuous
 62
     7
370
    25
100
AcDbLine
 10
68.7566523751
 20
73.0114143151
 30
0.0
 11
67.0046196532
 21
69.9768046243
 31
0.0
  0
LINE
  5
78
330
1F
100
AcDbEntity
  8
0
  6
Continuous
 62
     7
370
    25
100
AcDbLine
 10
67.0046196532
 20
34.4768046243
 30
0.0
 11
68.7566523751
 21
31.4421949335
 31
0.0
  0
LINE
  5
79
330
1F
100
AcDbEntity
  8
0
  6
Continuous
 62
     7
370
    25
100
AcDbLine
 10
67.0046196532
 20
69.9768046243
 30
0.0
 11
65.0046196532
 21
69.9768046243
 31
0.0
  0
LINE
  5
7A
330
1F
100
AcDbEntity
  8
0
  6
Continuous
 62
     7
370
    25
100
AcDbLine
 10
65.0046196532
 20
34.4768046243
 30
0.0
 11
67.0046196532
 21
34.4768046243
 31
0.0
  0
LINE
  5
7B
330
1F
100
AcDbEntity
  8
0
  6
Continuous
 62
     7
370
    25
100
AcDbLine
 10
62.0046196532
 20
39.0063046243
 30
0.0
 11
63.0046196532
 21
40.0063046243
 31
0.0
  0
LINE
  5
7C
330
1F
100
AcDbEntity
  8
0
  6
Continuous
 62
     7
370
    25
100
AcDbLine
 10
63.0046196532
 20
64.4473046243
 30
0.0
 11
62.0046196532
 21
65.4473046243
 31
0.0
  0
LINE
  5
7D
330
1F
100
AcDbEntity
  8
0
  6
Continuous
 62
     7
370
    25
100
AcDbLine
 10
62.0046196532
 20
65.4473046243
 30
0.0
 11
50.0046196532
 21
65.4473046243
 31
0.0
  0
LINE
  5
7E
330
1F
100
AcDbEntity
  8
0
  6
Continuous
 62
     7
370
    25
100
AcDbLine
 10
50.0046196532
 20
39.0063046243
 30
0.0
 11
62.0046196532
 21
39.0063046243
 31
0.0
  0
LINE
  5
7F
330
1F
100
AcDbEntity
  8
0
  6
Continuous
 62
     7
370
    25
100
AcDbLine
 10
50.0046196532
 20
65.4473046243
 30
0.0
 11
49.0046196532
 21
64.4473046243
 31
0.0
  0
LINE
  5
80
330
1F
100
AcDbEntity
  8
0
  6
Continuous
 62
     7
370
    25
100
AcDbLine
 10
49.0046196532
 20
40.0063046243
 30
0.0
 11
50.0046196532
 21
39.0063046243
 31
0.0
  0
LINE
  5
81
330
1F
100
AcDbEntity
  8
0
  6
Continuous
 62
     7
370
    25
100
AcDbLine
 10
65.0046196532
 20
64.2268046243
 30
0.0
 11
63.0046196532
 21
64.2268046243
 31
0.0
  0
LINE
  5
82
330
1F
100
AcDbEntity
  8
0
  6
Continuous
 62
     7
370
    25
100
AcDbLine
 10
63.0046196532
 20
40.2268046243
 30
0.0
 11
65.0046196532
 21
40.2268046243
 31
0.0
  0
SPLINE
  5
83
330
1F
100
AcDbEntity
  8
0
  6
Continuous
 62
     7
370
    25
100
AcDbSpline
210
0.0
220
0.0
230
1.0
 70
     8
 71
     3
 72
    18
 73
    14
 74
     0
 42
0.000000001
 43
0.00000001
 40
0.0
 40
0.0
 40
0.0
 40
0.0
 40
0.2500000000000001
 40
0.2500000000000001
 40
0.5000000000000001
 40
0.5000000000000001
 40
0.5625000000000001
 40
0.5625000000000001
 40
0.6250000000000001
 40
0.6250000000000001
 40
0.7500000000000002
 40
0.7500000000000002
 40
1.0
 40
1.0
 40
1.0
 40
1.0
 10
79.2525869312952
 20
31.44219493345093
 30
0.0
 10
79.74243014208963
 20
32.29062826228958
 30
0.0
 10
80.14614954284419
 20
33.14524715839211
 30
0.0
 10
80.70543188785797
 20
34.87230799457192
 30
0.0
 10
80.85915000403618
 20
35.74488243352702
 30
0.0
 10
80.86055719782856
 20
36.84929980522715
 30
0.0
 10
80.85137753641868
 20
37.07130283176484
 30
0.0
 10
80.81439099917566
 20
37.51329508305059
 30
0.0
 10
80.78662689757846
 20
37.73352338699506
 30
0.0
 10
80.67672576307535
 20
38.39200452308629
 30
0.0
 10
80.56791769059262
 20
38.82804842719389
 30
0.0
 10
80.1477595591633
 20
40.12841698239586
 30
0.0
 10
79.7430408196596
 20
40.98500872544717
 30
0.0
 10
79.2525869312951
 20
41.83449977886421
 30
0.0
  0
LINE
  5
84
330
1F
100
AcDbEntity
  8
0
  6
Continuous
 62
     7
370
    25
100
AcDbLine
 10
79.2525869313
 20
31.4421949335
 30
0.0
 11
68.7566523751
 21
31.4421949335
 31
0.0
  0
SPLINE
  5
85
330
1F
100
AcDbEntity
  8
0
  6
Continuous
 62
     7
370
    25
100
AcDbSpline
210
0.0
220
0.0
230
1.0
 70
     8
 71
     3
 72
    18
 73
    14
 74
     0
 42
0.000000001
 43
0.00000001
 40
0.0
 40
0.0
 40
0.0
 40
0.0
 40
0.2500000000000002
 40
0.2500000000000002
 40
0.5000000000000004
 40
0.5000000000000004
 40
0.5625000000000007
 40
0.5625000000000007
 40
0.6250000000000007
 40
0.6250000000000007
 40
0.7500000000000003
 40
0.7500000000000003
 40
1.0
 40
1.0
 40
1.0
 40
1.0
 10
68.75665237506307
 20
41.83449977886422
 30
0.0
 10
68.26680916426861
 20
40.98606645002556
 30
0.0
 10
67.86308976351405
 20
40.13144755392304
 30
0.0
 10
67.30380741850028
 20
38.40438671774324
 30
0.0
 10
67.15008930232207
 20
37.53181227878812
 30
0.0
 10
67.14868210852968
 20
36.427394907088
 30
0.0
 10
67.15786176993957
 20
36.20539188055032
 30
0.0
 10
67.19484830718258
 20
35.76339962926455
 30
0.0
 10
67.2226124087798
 20
35.54317132532009
 30
0.0
 10
67.33251354328289
 20
34.88469018922886
 30
0.0
 10
67.44132161576562
 20
34.44864628512126
 30
0.0
 10
67.86147974719496
 20
33.14827772991928
 30
0.0
 10
68.26619848669866
 20
32.29168598686798
 30
0.0
 10
68.75665237506315
 20
31.44219493345093
 30
0.0
  0
LINE
  5
86
330
1F
100
AcDbEntity
  8
0
  6
Continuous
 62
     7
370
    25
100
AcDbLine
 10
79.2525869313
 20
41.8344997789
 30
0.0
 11
68.7566523751
 21
41.8344997789
 31
0.0
  0
SPLINE
  5
87
330
1F
100
AcDbEntity
  8
0
  6
Continuous
 62
     7
370
    25
100
AcDbSpline
210
0.0
220
0.0
230
1.0
 70
     8
 71
     3
 72
    18
 73
    14
 74
     0
 42
0.000000001
 43
0.00000001
 40
0.0
 40
0.0
 40
0.0
 40
0.0
 40
0.125
 40
0.125
 40
0.25
 40
0.25
 40
0.5
 40
0.5
 40
0.625
 40
0.625
 40
0.75
 40
0.75
 40
1.0
 40
1.0
 40
1.0
 40
1.0
 10
79.25258693129499
 20
41.83449977886421
 30
0.0
 10
79.49680026869542
 20
42.68047959539122
 30
0.0
 10
79.72126106954516
 20
43.53543238066232
 30
0.0
 10
80.11847036670174
 20
45.26037238751874
 30
0.0
 10
80.289964506257
 20
46.12509140907524
 30
0.0
 10
80.70945019167752
 20
48.72712915850121
 30
0.0
 10
80.86048457474644
 20
50.47249120332248
 30
0.0
 10
80.86018053056931
 20
53.10935362944986
 30
0.0
 10
80.82267164685331
 20
53.99185862595821
 30
0.0
 10
80.67390195632443
 20
55.76117083421692
 30
0.0
 10
80.56378018375676
 20
56.63634118597871
 30
0.0
 10
80.14133681914022
 20
59.23741170825189
 30
0.0
 10
79.73758059681667
 20
60.9390421296255
 30
0.0
 10
79.25258693129499
 20
62.61910946969075
 30
0.0
  0
SPLINE
  5
88
330
1F
100
AcDbEntity
  8
0
  6
Continuous
 62
     7
370
    25
100
AcDbSpline
210
0.0
220
0.0
230
1.0
 70
     8
 71
     3
 72
    18
 73
    14
 74
     0
 42
0.000000001
 43
0.00000001
 40
0.0
 40
0.0
 40
0.0
 40
0.0
 40
0.125
 40
0.125
 40
0.2500000000000001
 40
0.2500000000000001
 40
0.5
 40
0.5
 40
0.625
 40
0.625
 40
0.7499999999999999
 40
0.7499999999999999
 40
1.0
 40
1.0
 40
1.0
 40
1.0
 10
68.75665237506325
 20
41.83449977886421
 30
0.0
 10
68.51227040251203
 20
42.68106376468947
 30
0.0
 10
68.28745561325489
 20
43.53757382988699
 30
0.0
 10
67.89065362910704
 20
45.26100146745073
 30
0.0
 10
67.7192724858146
 20
46.12515016543585
 30
0.0
 10
67.29993433529765
 20
48.72613958637058
 30
0.0
 10
67.14872612786965
 20
50.47169877560285
 30
0.0
 10
67.14907317121232
 20
53.11050790303211
 30
0.0
 10
67.18680640354758
 20
53.99564309056885
 30
0.0
 10
67.33558651989559
 20
55.76318600475773
 30
0.0
 10
67.4456581891619
 20
56.63770174016346
 30
0.0
 10
67.86793911052182
 20
59.23736727605097
 30
0.0
 10
68.27158818157822
 20
60.93879781359374
 30
0.0
 10
68.75665237506325
 20
62.61910946969075
 30
0.0
  0
LINE
  5
89
330
1F
100
AcDbEntity
  8
0
  6
Continuous
 62
     7
370
    25
100
AcDbLine
 10
79.2525869313
 20
62.6191094697
 30
0.0
 11
68.7566523751
 21
62.6191094697
 31
0.0
  0
SPLINE
  5
8A
330
1F
100
AcDbEntity
  8
0
  6
Continuous
 62
     7
370
    25
100
AcDbSpline
210
0.0
220
0.0
230
1.0
 70
     8
 71
     3
 72
    18
 73
    14
 74
     0
 42
0.000000001
 43
0.00000001
 40
0.0
 40
0.0
 40
0.0
 40
0.0
 40
0.2500000000000001
 40
0.2500000000000001
 40
0.5000000000000002
 40
0.5000000000000002
 40
0.5625000000000001
 40
0.5625000000000001
 40
0.6250000000000001
 40
0.6250000000000001
 40
0.7500000000000002
 40
0.7500000000000002
 40
1.0
 40
1.0
 40
1.0
 40
1.0
 10
79.25258693129518
 20
62.61910946969073
 30
0.0
 10
79.74243014208963
 20
63.46754279852939
 30
0.0
 10
80.14614954284419
 20
64.32216169463192
 30
0.0
 10
80.70543188785796
 20
66.04922253081172
 30
0.0
 10
80.85915000403618
 20
66.92179696976683
 30
0.0
 10
80.86055719782854
 20
68.02621434146695
 30
0.0
 10
80.85137753641867
 20
68.24821736800463
 30
0.0
 10
80.81439099917566
 20
68.6902096192904
 30
0.0
 10
80.78662689757846
 20
68.91043792323487
 30
0.0
 10
80.67672576307534
 20
69.56891905932608
 30
0.0
 10
80.56791769059262
 20
70.0049629634337
 30
0.0
 10
80.1477595591633
 20
71.30533151863567
 30
0.0
 10
79.7430408196596
 20
72.16192326168698
 30
0.0
 10
79.25258693129508
 20
73.01141431510402
 30
0.0
  0
SPLINE
  5
8B
330
1F
100
AcDbEntity
  8
0
  6
Continuous
 62
     7
370
    25
100
AcDbSpline
210
0.0
220
0.0
230
1.0
 70
     8
 71
     3
 72
    18
 73
    14
 74
     0
 42
0.000000001
 43
0.00000001
 40
0.0
 40
0.0
 40
0.0
 40
0.0
 40
0.2500000000000002
 40
0.2500000000000002
 40
0.5000000000000004
 40
0.5000000000000004
 40
0.5625000000000003
 40
0.5625000000000003
 40
0.6250000000000003
 40
0.6250000000000003
 40
0.7500000000000002
 40
0.7500000000000002
 40
1.0
 40
1.0
 40
1.0
 40
1.0
 10
68.75665237506307
 20
73.01141431510402
 30
0.0
 10
68.26680916426862
 20
72.16298098626538
 30
0.0
 10
67.86308976351407
 20
71.30836209016283
 30
0.0
 10
67.30380741850028
 20
69.58130125398304
 30
0.0
 10
67.15008930232207
 20
68.70872681502792
 30
0.0
 10
67.1486821085297
 20
67.60430944332781
 30
0.0
 10
67.15786176993957
 20
67.38230641679012
 30
0.0
 10
67.19484830718258
 20
66.94031416550436
 30
0.0
 10
67.22261240877981
 20
66.7200858615599
 30
0.0
 10
67.3325135432829
 20
66.06160472546868
 30
0.0
 10
67.44132161576563
 20
65.62556082136108
 30
0.0
 10
67.86147974719496
 20
64.32519226615909
 30
0.0
 10
68.26619848669866
 20
63.46860052310778
 30
0.0
 10
68.75665237506317
 20
62.61910946969073
 30
0.0
  0
LINE
  5
8C
330
1F
100
AcDbEntity
  8
0
  6
Continuous
 62
     7
370
    25
100
AcDbLine
 10
79.2525869313
 20
73.0114143151
 30
0.0
 11
68.7566523751
 21
73.0114143151
 31
0.0
  0
LINE
  5
8D
330
1F
100
AcDbEntity
  8
0
  6
Continuous
 62
     7
370
    25
100
AcDbLine
 10
81.0046196532
 20
69.9768046243
 30
0.0
 11
81.0046196532
 21
34.4768046243
 31
0.0
  0
LINE
  5
8E
330
1F
100
AcDbEntity
  8
0
  6
Continuous
 62
     7
370
    25
100
AcDbLine
 10
67.0046196532
 20
52.2268046243
 30
0.0
 11
67.0046196532
 21
69.9768046243
 31
0.0
  0
LINE
  5
8F
330
1F
100
AcDbEntity
  8
0
  6
Continuous
 62
     7
370
    25
100
AcDbLine
 10
67.0046196532
 20
34.4768046243
 30
0.0
 11
67.0046196532
 21
52.2268046243
 31
0.0
  0
LINE
  5
90
330
1F
100
AcDbEntity
  8
0
  6
Continuous
 62
     7
370
    25
100
AcDbLine
 10
65.0046196532
 20
52.2268046243
 30
0.0
 11
65.0046196532
 21
69.9768046243
 31
0.0
  0
LINE
  5
91
330
1F
100
AcDbEntity
  8
0
  6
Continuous
 62
     7
370
    25
100
AcDbLine
 10
65.0046196532
 20
34.4768046243
 30
0.0
 11
65.0046196532
 21
52.2268046243
 31
0.0
  0
LINE
  5
92
330
1F
100
AcDbEntity
  8
0
  6
Continuous
 62
     7
370
    25
100
AcDbLine
 10
62.0046196532
 20
52.2268046243
 30
0.0
 11
62.0046196532
 21
65.4473046243
 31
0.0
  0
LINE
  5
93
330
1F
100
AcDbEntity
  8
0
  6
Continuous
 62
     7
370
    25
100
AcDbLine
 10
62.0046196532
 20
39.0063046243
 30
0.0
 11
62.0046196532
 21
52.2268046243
 31
0.0
  0
LINE
  5
94
330
1F
100
AcDbEntity
  8
0
  6
Continuous
 62
     7
370
    25
100
AcDbLine
 10
63.0046196532
 20
52.2268046243
 30
0.0
 11
63.0046196532
 21
40.0063046243
 31
0.0
  0
LINE
  5
95
330
1F
100
AcDbEntity
  8
0
  6
Continuous
 62
     7
370
    25
100
AcDbLine
 10
63.0046196532
 20
64.4473046243
 30
0.0
 11
63.0046196532
 21
52.2268046243
 31
0.0
  0
LINE
  5
96
330
1F
100
AcDbEntity
  8
0
  6
Continuous
 62
     7
370
    25
100
AcDbLine
 10
50.0046196532
 20
52.2268046243
 30
0.0
 11
50.0046196532
 21
39.0063046243
 31
0.0
  0
LINE
  5
97
330
1F
100
AcDbEntity
  8
0
  6
Continuous
 62
     7
370
    25
100
AcDbLine
 10
50.0046196532
 20
65.4473046243
 30
0.0
 11
50.0046196532
 21
52.2268046243
 31
0.0
  0
LINE
  5
98
330
1F
100
AcDbEntity
  8
0
  6
Continuous
 62
     7
370
    25
100
AcDbLine
 10
49.0046196532
 20
52.2268046243
 30
0.0
 11
49.0046196532
 21
64.4473046243
 31
0.0
  0
LINE
  5
99
330
1F
100
AcDbEntity
  8
0
  6
Continuous
 62
     7
370
    25
100
AcDbLine
 10
49.0046196532
 20
40.0063046243
 30
0.0
 11
49.0046196532
 21
52.2268046243
 31
0.0
  0
LINE
  5
9A
330
1F
100
AcDbEntity
  8
0
  6
Continuous
 62
     7
370
    18
100
AcDbLine
 10
49.0046196532
 20
64.2853046243
 30
0.0
 11
63.0046196532
 21
64.2853046243
 31
0.0
  0
LINE
  5
9B
330
1F
100
AcDbEntity
  8
0
  6
Continuous
 62
     7
370
    18
100
AcDbLine
 10
49.0046196532
 20
40.1683046243
 30
0.0
 11
63.0046196532
 21
40.1683046243
 31
0.0
  0
LINE
  5
9C
330
1F
100
AcDbEntity
  8
0
  6
CENTERX2
 62
     7
370
    18
100
AcDbLine
 10
44.1952169704
 20
52.2268046243
 30
0.0
 11
85.7756023951
 21
52.2268046243
 31
0.0
  0
LINE
  5
9D
330
1F
100
AcDbEntity
  8
0
  6
CENTERX2
 62
     7
370
    18
100
AcDbLine
 10
48.0046196532
 20
52.2268046243
 30
0.0
 11
64.0046196532
 21
52.2268046243
 31
0.0
  0
LINE
  5
9E
330
1F
100
AcDbEntity
  8
0
  6
Continuous
 62
     7
370
    25
100
AcDbLine
 10
124.8678650762
 20
55.3335373899
 30
0.0
 11
125.169347448
 21
58.7108410758
 31
0.0
  0
LINE
  5
9F
330
1F
100
AcDbEntity
  8
0
  6
Continuous
 62
     7
370
    25
100
AcDbLine
 10
126.3156815826
 20
56.1699756912
 30
0.0
 11
124.8678650762
 21
55.3335373899
 31
0.0
  0
LINE
  5
A0
330
1F
100
AcDbEntity
  8
0
  6
Continuous
 62
     7
370
    25
100
AcDbLine
 10
126.7223322237
 20
55.4653482873
 30
0.0
 11
126.3156815826
 21
56.1699756912
 31
0.0
  0
LINE
  5
A1
330
1F
100
AcDbEntity
  8
0
  6
Continuous
 62
     7
370
    25
100
AcDbLine
 10
127.025216839
 20
55.6399276143
 30
0.0
 11
126.7223322237
 21
55.4653482873
 31
0.0
  0
LINE
  5
A2
330
1F
100
AcDbEntity
  8
0
  6
Continuous
 62
     7
370
    25
100
AcDbLine
 10
126.618566198
 20
56.3445550181
 30
0.0
 11
127.025216839
 21
55.6399276143
 31
0.0
  0
LINE
  5
A3
330
1F
100
AcDbEntity
  8
0
  6
Continuous
 62
     7
370
    25
100
AcDbLine
 10
126.9852528967
 20
56.556994922
 30
0.0
 11
126.618566198
 21
56.3445550181
 31
0.0
  0
LINE
  5
A4
330
1F
100
AcDbEntity
  8
0
  6
Continuous
 62
     7
370
    25
100
AcDbLine
 10
126.816983666
 20
56.847259345
 30
0.0
 11
126.9852528967
 21
56.556994922
 31
0.0
  0
LINE
  5
A5
330
1F
100
AcDbEntity
  8
0
  6
Continuous
 62
     7
370
    25
100
AcDbLine
 10
126.4502969673
 20
56.6348194412
 30
0.0
 11
126.816983666
 21
56.847259345
 31
0.0
  0
LINE
  5
A6
330
1F
100
AcDbEntity
  8
0
  6
Continuous
 62
     7
370
    25
100
AcDbLine
 10
125.231046166
 20
58.7458971655
 30
0.0
 11
126.4502969673
 21
56.6348194412
 31
0.0
  0
LINE
  5
A7
330
1F
100
AcDbEntity
  8
0
  6
Continuous
 62
     7
370
    25
100
AcDbLine
 10
125.169347448
 20
58.7108410758
 30
0.0
 11
125.231046166
 21
58.7458971655
 31
0.0
  0
LINE
  5
A8
330
1F
100
AcDbEntity
  8
0
  6
Continuous
 62
     7
370
    25
100
AcDbLine
 10
124.3395302663
 20
48.683716256
 30
0.0
 11
122.5895302663
 21
51.7132635316
 31
0.0
  0
LINE
  5
A9
330
1F
100
AcDbEntity
  8
0
  6
Continuous
 62
     7
370
    25
100
AcDbLine
 10
124.6424148817
 20
48.8589967047
 30
0.0
 11
124.3395302663
 21
48.683716256
 31
0.0
  0
LINE
  5
AA
330
1F
100
AcDbEntity
  8
0
  6
Continuous
 62
     7
370
    25
100
AcDbLine
 10
123.8291135996
 20
50.2675503906
 30
0.0
 11
124.6424148817
 21
48.8589967047
 31
0.0
  0
LINE
  5
AB
330
1F
100
AcDbEntity
  8
0
  6
Continuous
 62
     7
370
    25
100
AcDbLine
 10
124.0450591124
 20
50.3916489483
 30
0.0
 11
123.8291135996
 21
50.2675503906
 31
0.0
  0
SPLINE
  5
AC
330
1F
100
AcDbEntity
  8
0
  6
Continuous
 62
     7
370
    25
100
AcDbSpline
210
0.0
220
0.0
230
1.0
 70
     8
 71
     3
 72
    15
 73
    11
 74
     0
 42
0.000000001
 43
0.00000001
 40
0.0
 40
0.0
 40
0.0
 40
0.0
 40
0.0756123032498289
 40
0.1644872655319284
 40
0.2677853868718778
 40
0.3857854682946375
 40
0.5179322862644449
 40
0.6638659903914275
 40
0.8244577581462258
 40
0.9999999999999999
 40
0.9999999999999999
 40
0.9999999999999999
 40
0.9999999999999999
 10
124.7868459714031
 20
50.88664093544348
 30
0.0
 10
124.7702122476702
 20
50.87145467723465
 30
0.0
 10
124.7340271876357
 20
50.83841843869848
 30
0.0
 10
124.6706524760609
 20
50.7899281292715
 30
0.0
 10
124.5964875234576
 20
50.73489993205413
 30
0.0
 10
124.5093632113704
 20
50.6758224598052
 30
0.0
 10
124.4107114149333
 20
50.61118904794701
 30
0.0
 10
124.2993826347337
 20
50.54285878317443
 30
0.0
 10
124.1768276364377
 20
50.46813400883216
 30
0.0
 10
124.0902653185878
 20
50.41788889776739
 30
0.0
 10
124.0450591124287
 20
50.39164894826399
 30
0.0
  0
SPLINE
  5
AD
330
1F
100
AcDbEntity
  8
0
  6
Continuous
 62
     7
370
    25
100
AcDbSpline
210
0.0
220
0.0
230
1.0
 70
     8
 71
     3
 72
    23
 73
    19
 74
     0
 42
0.000000001
 43
0.00000001
 40
0.0
 40
0.0
 40
0.0
 40
0.0
 40
0.0701767959831225
 40
0.1370783948533101
 40
0.2015402158160998
 40
0.2643019848993741
 40
0.3258511065856452
 40
0.3855625253801133
 40
0.4451090710974654
 40
0.5050396151009582
 40
0.5646549133475234
 40
0.623873102773034
 40
0.6835103850890275
 40
0.7439310552880055
 40
0.80509830356097
 40
0.8678522399879647
 40
0.9328002663636267
 40
1.0
 40
1.0
 40
1.0
 40
1.0
 10
124.9481039842236
 20
51.99932122390502
 30
0.0
 10
124.9621147566921
 20
51.97430949590856
 30
0.0
 10
124.9894824096853
 20
51.92545335367193
 30
0.0
 10
125.0220498905368
 20
51.84977423826427
 30
0.0
 10
125.0493034683875
 20
51.77529528225308
 30
0.0
 10
125.0689986701597
 20
51.70066260484241
 30
0.0
 10
125.0816393846774
 20
51.62650866822407
 30
0.0
 10
125.0874058399296
 20
51.55281209784918
 30
0.0
 10
125.0860116246129
 20
51.479545971399
 30
0.0
 10
125.0774256470527
 20
51.4068441223985
 30
0.0
 10
125.0628978919847
 20
51.3352106587421
 30
0.0
 10
125.0413529187706
 20
51.26552883012866
 30
0.0
 10
125.0151447644092
 20
51.19708420858372
 30
0.0
 10
124.9810057005246
 20
51.13129508162928
 30
0.0
 10
124.9414245772743
 20
51.06724454892801
 30
0.0
 10
124.8966644807097
 20
51.0043460788259
 30
0.0
 10
124.8443853128373
 20
50.94420957381363
 30
0.0
 10
124.8062423949408
 20
50.90604723493328
 30
0.0
 10
124.7868459714031
 20
50.88664093544348
 30
0.0
  0
SPLINE
  5
AE
330
1F
100
AcDbEntity
  8
0
  6
Continuous
 62
     7
370
    25
100
AcDbSpline
210
0.0
220
0.0
230
1.0
 70
     8
 71
     3
 72
    23
 73
    19
 74
     0
 42
0.000000001
 43
0.00000001
 40
0.0
 40
0.0
 40
0.0
 40
0.0
 40
0.0629356290675137
 40
0.1249173864663111
 40
0.1857052460120456
 40
0.245635039309602
 40
0.305162443516211
 40
0.3646585631624177
 40
0.4250581585413428
 40
0.486325816560851
 40
0.5475962370601505
 40
0.6090294239962811
 40
0.6706716427956785
 40
0.732732540390258
 40
0.796501719492558
 40
0.8620715477041127
 40
0.9294466560771699
 40
1.0
 40
1.0
 40
1.0
 40
1.0
 10
123.9195583111467
 20
52.42069542262297
 30
0.0
 10
123.9440112381507
 20
52.42715726981662
 30
0.0
 10
123.9925464761082
 20
52.43998302646885
 30
0.0
 10
124.0662170816796
 20
52.4522775549842
 30
0.0
 10
124.1392976570621
 20
52.45963331367563
 30
0.0
 10
124.2118067125456
 20
52.46034312555474
 30
0.0
 10
124.2835432465019
 20
52.45457446820053
 30
0.0
 10
124.3547734461475
 20
52.44321411318407
 30
0.0
 10
124.4257069269219
 20
52.4265823278686
 30
0.0
 10
124.4955053003756
 20
52.4033281297586
 30
0.0
 10
124.5637465533019
 20
52.37476434299892
 30
0.0
 10
124.6291257191521
 20
52.33969908186375
 30
0.0
 10
124.6908056821331
 20
52.29799514500872
 30
0.0
 10
124.7497543422132
 20
52.25093445997819
 30
0.0
 10
124.8041044346131
 20
52.19638182259016
 30
0.0
 10
124.8560759847464
 20
52.13681959515704
 30
0.0
 10
124.9051567117586
 20
52.0712696876771
 30
0.0
 10
124.9335699877801
 20
52.02366965528512
 30
0.0
 10
124.9481039842236
 20
51.99932122390502
 30
0.0
  0
SPLINE
  5
AF
330
1F
100
AcDbEntity
  8
0
  6
Continuous
 62
     7
370
    25
100
AcDbSpline
210
0.0
220
0.0
230
1.0
 70
     8
 71
     3
 72
    15
 73
    11
 74
     0
 42
0.000000001
 43
0.00000001
 40
0.0
 40
0.0
 40
0.0
 40
0.0
 40
0.1772047475236768
 40
0.3392086991137758
 40
0.4868116604359927
 40
0.6185381308101383
 40
0.7363717983370401
 40
0.8384571247495141
 40
0.9265189260755418
 40
1.0
 40
1.0
 40
1.0
 40
1.0
 10
123.1931961316595
 20
52.0617210636486
 30
0.0
 10
123.2347335353223
 20
52.08566842624298
 30
0.0
 10
123.3142452236823
 20
52.131508923331
 30
0.0
 10
123.4293413929674
 20
52.19557332632189
 30
0.0
 10
123.5349013177189
 20
52.25140927320422
 30
0.0
 10
123.6306625411077
 20
52.30017720551507
 30
0.0
 10
123.7164070712532
 20
52.34144227137544
 30
0.0
 10
123.792444039978
 20
52.37553743453317
 30
0.0
 10
123.8587554416586
 20
52.40200401118516
 30
0.0
 10
123.9005480776647
 20
52.41485148633291
 30
0.0
 10
123.9195583111467
 20
52.42069542262297
 30
0.0
  0
LINE
  5
B0
330
1F
100
AcDbEntity
  8
0
  6
Continuous
 62
     7
370
    25
100
AcDbLine
 10
122.5895302663
 20
51.7132635316
 30
0.0
 11
123.1931961317
 21
52.0617210636
 31
0.0
  0
LINE
  5
B1
330
1F
100
AcDbEntity
  8
0
  6
Continuous
 62
     7
370
    25
100
AcDbLine
 10
126.9362318975
 20
50.1250063183
 30
0.0
 11
125.1862318975
 21
53.154553594
 31
0.0
  0
LINE
  5
B2
330
1F
100
AcDbEntity
  8
0
  6
Continuous
 62
     7
370
    25
100
AcDbLine
 10
127.2370131475
 20
50.2988845235
 30
0.0
 11
126.9362318975
 21
50.1250063183
 31
0.0
  0
LINE
  5
B3
330
1F
100
AcDbEntity
  8
0
  6
Continuous
 62
     7
370
    25
100
AcDbLine
 10
126.3795411924
 20
51.783860485
 30
0.0
 11
127.2370131475
 21
50.2988845235
 31
0.0
  0
LINE
  5
B4
330
1F
100
AcDbEntity
  8
0
  6
Continuous
 62
     7
370
    25
100
AcDbLine
 10
127.5966886283
 20
52.4863845235
 30
0.0
 11
126.3795411924
 21
51.783860485
 31
0.0
  0
LINE
  5
B5
330
1F
100
AcDbEntity
  8
0
  6
Continuous
 62
     7
370
    25
100
AcDbLine
 10
127.4242126668
 20
52.7850624081
 30
0.0
 11
127.5966886283
 21
52.4863845235
 31
0.0
  0
LINE
  5
B6
330
1F
100
AcDbEntity
  8
0
  6
Continuous
 62
     7
370
    25
100
AcDbLine
 10
126.2070652309
 20
52.0825383696
 30
0.0
 11
127.4242126668
 21
52.7850624081
 31
0.0
  0
LINE
  5
B7
330
1F
100
AcDbEntity
  8
0
  6
Continuous
 62
     7
370
    25
100
AcDbLine
 10
125.6594891091
 20
53.0297539145
 30
0.0
 11
126.2070652309
 21
52.0825383696
 31
0.0
  0
LINE
  5
B8
330
1F
100
AcDbEntity
  8
0
  6
Continuous
 62
     7
370
    25
100
AcDbLine
 10
126.876636545
 20
53.732277953
 30
0.0
 11
125.6594891091
 21
53.0297539145
 31
0.0
  0
LINE
  5
B9
330
1F
100
AcDbEntity
  8
0
  6
Continuous
 62
     7
370
    25
100
AcDbLine
 10
126.7041605834
 20
54.0309558376
 30
0.0
 11
126.876636545
 21
53.732277953
 31
0.0
  0
LINE
  5
BA
330
1F
100
AcDbEntity
  8
0
  6
Continuous
 62
     7
370
    25
100
AcDbLine
 10
125.1862318975
 20
53.154553594
 30
0.0
 11
126.7041605834
 21
54.0309558376
 31
0.0
  0
SPLINE
  5
BB
330
1F
100
AcDbEntity
  8
0
  6
Continuous
 62
     7
370
    25
100
AcDbSpline
210
0.0
220
0.0
230
1.0
 70
     8
 71
     3
 72
    19
 73
    15
 74
     0
 42
0.000000001
 43
0.00000001
 40
0.0
 40
0.0
 40
0.0
 40
0.0
 40
0.1166985365897382
 40
0.228259010178468
 40
0.3372185427251284
 40
0.4465132849869341
 40
0.502765848038259
 40
0.5620350872685721
 40
0.6248184910357907
 40
0.6915349811923924
 40
0.7617985431967301
 40
0.8366234562169641
 40
0.9161906330044083
 40
1.0
 40
1.0
 40
1.0
 40
1.0
 10
119.8499450082503
 20
55.11197448724987
 30
0.0
 10
119.8191246244341
 20
55.09233324385348
 30
0.0
 10
119.7588408324622
 20
55.05391553179514
 30
0.0
 10
119.6811776339803
 20
54.98147464697168
 30
0.0
 10
119.619825615089
 20
54.89803330328722
 30
0.0
 10
119.579826051152
 20
54.82158002970337
 30
0.0
 10
119.5564396889559
 20
54.75515585763866
 30
0.0
 10
119.5432536069549
 20
54.70089505152062
 30
0.0
 10
119.5341630102801
 20
54.64249087781259
 30
0.0
 10
119.529720465382
 20
54.58014285442432
 30
0.0
 10
119.5278398125003
 20
54.51387595734614
 30
0.0
 10
119.5321231900803
 20
54.44369930812893
 30
0.0
 10
119.5386621254908
 20
54.36946859207317
 30
0.0
 10
119.5465299451793
 20
54.31896943365039
 30
0.0
 10
119.55056600184
 20
54.29306423083961
 30
0.0
  0
SPLINE
  5
BC
330
1F
100
AcDbEntity
  8
0
  6
Continuous
 62
     7
370
    25
100
AcDbSpline
210
0.0
220
0.0
230
1.0
 70
     8
 71
     3
 72
    23
 73
    19
 74
     0
 42
0.000000001
 43
0.00000001
 40
0.0
 40
0.0
 40
0.0
 40
0.0
 40
0.0591791051521849
 40
0.1169459291115958
 40
0.174372054545377
 40
0.2311010381228905
 40
0.2884654328875998
 40
0.3475708060626695
 40
0.4090094634832994
 40
0.4724043085594233
 40
0.5368565178558289
 40
0.600504505684447
 40
0.6640367736994022
 40
0.7279582235298672
 40
0.7931462364758858
 40
0.859218772245899
 40
0.9283394182013744
 40
1.0
 40
1.0
 40
1.0
 40
1.0
 10
120.6870844313272
 20
54.94650974366012
 30
0.0
 10
120.6771050159159
 20
54.96237741143244
 30
0.0
 10
120.657384339095
 20
54.99373407263399
 30
0.0
 10
120.6226747072899
 20
55.03683262747228
 30
0.0
 10
120.5841395184994
 20
55.07538789776627
 30
0.0
 10
120.5417470923858
 20
55.10952339058132
 30
0.0
 10
120.4949297049511
 20
55.13829448096699
 30
0.0
 10
120.4441740958019
 20
55.16287084636839
 30
0.0
 10
120.3895180696544
 20
55.18323830165767
 30
0.0
 10
120.331454494025
 20
55.19834465680283
 30
0.0
 10
120.2717192769095
 20
55.20906508424477
 30
0.0
 10
120.2110595094805
 20
55.21339962800381
 30
0.0
 10
120.1505668699272
 20
55.21071870333365
 30
0.0
 10
120.0898069068683
 20
55.20441126918788
 30
0.0
 10
120.029623526103
 20
55.18980305948125
 30
0.0
 10
119.9693041918211
 20
55.17003128744743
 30
0.0
 10
119.9090620835977
 20
55.14407614080118
 30
0.0
 10
119.869886299574
 20
55.12280297329519
 30
0.0
 10
119.8499450082503
 20
55.11197448724987
 30
0.0
  0
SPLINE
  5
BD
330
1F
100
AcDbEntity
  8
0
  6
Continuous
 62
     7
370
    25
100
AcDbSpline
210
0.0
220
0.0
230
1.0
 70
     8
 71
     3
 72
    19
 73
    15
 74
     0
 42
0.000000001
 43
0.00000001
 40
0.0
 40
0.0
 40
0.0
 40
0.0
 40
0.1055150102305258
 40
0.2072590054948931
 40
0.3055242150184231
 40
0.4018902536748165
 40
0.4937941548483871
 40
0.5775887882812992
 40
0.6553337114377279
 40
0.7280006663003298
 40
0.797795471673489
 40
0.8651986393292098
 40
0.9322283304823007
 40
1.0
 40
1.0
 40
1.0
 40
1.0
 10
120.2748248159426
 20
54.03294804494217
 30
0.0
 10
120.3081296466752
 20
54.05367979828198
 30
0.0
 10
120.373549022371
 20
54.09440237007519
 30
0.0
 10
120.4639769551666
 20
54.1635712431553
 30
0.0
 10
120.5426493664961
 20
54.24098973909827
 30
0.0
 10
120.6117717297531
 20
54.32217718080118
 30
0.0
 10
120.6692130636703
 20
54.40573569381854
 30
0.0
 10
120.7118101369568
 20
54.49002909315393
 30
0.0
 10
120.740912884091
 20
54.57246540989602
 30
0.0
 10
120.7541575319688
 20
54.65360407847523
 30
0.0
 10
120.7552212046998
 20
54.73195532425226
 30
0.0
 10
120.7433520858538
 20
54.80716299739057
 30
0.0
 10
120.7222759860439
 20
54.87974675770993
 30
0.0
 10
120.6988579157533
 20
54.92417390252855
 30
0.0
 10
120.6870844313272
 20
54.94650974366012
 30
0.0
  0
LINE
  5
BE
330
1F
100
AcDbEntity
  8
0
  6
Continuous
 62
     7
370
    25
100
AcDbLine
 10
120.435381707
 20
53.7546026924
 30
0.0
 11
120.2748248159
 21
54.0329480449
 31
0.0
  0
SPLINE
  5
BF
330
1F
100
AcDbEntity
  8
0
  6
Continuous
 62
     7
370
    25
100
AcDbSpline
210
0.0
220
0.0
230
1.0
 70
     8
 71
     3
 72
    23
 73
    19
 74
     0
 42
0.000000001
 43
0.00000001
 40
0.0
 40
0.0
 40
0.0
 40
0.0
 40
0.0703423198343875
 40
0.1398634517743603
 40
0.2103803753631114
 40
0.2827027172989061
 40
0.3555923664656341
 40
0.4269508105709606
 40
0.4987761996993967
 40
0.5720888555685786
 40
0.6110005129072675
 40
0.6539353186604213
 40
0.7011226343296136
 40
0.7519637186827
 40
0.8073262203581312
 40
0.8673192372193628
 40
0.9313794321640366
 40
1.0
 40
1.0
 40
1.0
 40
1.0
 10
121.705113277481
 20
53.60666599366012
 30
0.0
 10
121.6869979867691
 20
53.63508067591089
 30
0.0
 10
121.6509788862499
 20
53.69157832270475
 30
0.0
 10
121.5822598857238
 20
53.7657943646051
 30
0.0
 10
121.5032312750751
 20
53.83009006021061
 30
0.0
 10
121.4141863368676
 20
53.88286275939424
 30
0.0
 10
121.3189385175554
 20
53.924301082801
 30
0.0
 10
121.2187926779719
 20
53.95142823814957
 30
0.0
 10
121.1155631010138
 20
53.96304717898909
 30
0.0
 10
121.0272802926685
 20
53.96135270178961
 30
0.0
 10
120.9535793807311
 20
53.95212670983904
 30
0.0
 10
120.8931508257782
 20
53.93923676547927
 30
0.0
 10
120.8283433561646
 20
53.92058015634804
 30
0.0
 10
120.7584308082931
 20
53.89828537247768
 30
0.0
 10
120.6841200415869
 20
53.86996468154366
 30
0.0
 10
120.6052008707893
 20
53.83624501090449
 30
0.0
 10
120.5215566557211
 20
53.79754019071575
 30
0.0
 10
120.4647574388551
 20
53.76923943376653
 30
0.0
 10
120.4353817069682
 20
53.75460269237807
 30
0.0
  0
SPLINE
  5
C0
330
1F
100
AcDbEntity
  8
0
  6
Continuous
 62
     7
370
    25
100
AcDbSpline
210
0.0
220
0.0
230
1.0
 70
     8
 71
     3
 72
    23
 73
    19
 74
     0
 42
0.000000001
 43
0.00000001
 40
0.0
 40
0.0
 40
0.0
 40
0.0
 40
0.0732531278746229
 40
0.1430767870781038
 40
0.2103746387958362
 40
0.2752906500029053
 40
0.3392596226892453
 40
0.4018859929105237
 40
0.4644270360797877
 40
0.5278378401523588
 40
0.5906903737125638
 40
0.6509224245648336
 40
0.7100706904963927
 40
0.7676159933197219
 40
0.8248315818707156
 40
0.8821963083100987
 40
0.9404609388752491
 40
1.0
 40
1.0
 40
1.0
 40
1.0
 10
121.3573568672246
 20
52.52413394237807
 30
0.0
 10
121.3838360191423
 20
52.54027558256469
 30
0.0
 10
121.4355546568421
 20
52.5718031648411
 30
0.0
 10
121.5064851042651
 20
52.62575921326106
 30
0.0
 10
121.5709627193396
 20
52.68207645789672
 30
0.0
 10
121.6265564092058
 20
52.74391674713437
 30
0.0
 10
121.6753306727523
 20
52.80880651312307
 30
0.0
 10
121.7152573815843
 20
52.87833451492349
 30
0.0
 10
121.7487619711964
 20
52.95088122445274
 30
0.0
 10
121.7736318020176
 20
53.02698338829067
 30
0.0
 10
121.7906759124615
 20
53.10409314585203
 30
0.0
 10
121.8018434466856
 20
53.18050383497166
 30
0.0
 10
121.8042787315753
 20
53.25542738538228
 30
0.0
 10
121.8006950002542
 20
53.32906713743882
 30
0.0
 10
121.7874570305833
 20
53.40084819352801
 30
0.0
 10
121.7679621628308
 20
53.47141792071186
 30
0.0
 10
121.7405011243025
 20
53.54046108152993
 30
0.0
 10
121.7169939951395
 20
53.5844391011172
 30
0.0
 10
121.705113277481
 20
53.60666599366012
 30
0.0
  0
SPLINE
  5
C1
330
1F
100
AcDbEntity
  8
0
  6
Continuous
 62
     7
370
    25
100
AcDbSpline
210
0.0
220
0.0
230
1.0
 70
     8
 71
     3
 72
    15
 73
    11
 74
     0
 42
0.000000001
 43
0.00000001
 40
0.0
 40
0.0
 40
0.0
 40
0.0
 40
0.1200312614629395
 40
0.2399649155124066
 40
0.3586107548455213
 40
0.4807865662367291
 40
0.6037828490368182
 40
0.7314727643053678
 40
0.8629426087683322
 40
1.0
 40
1.0
 40
1.0
 40
1.0
 10
120.7838392390195
 20
52.41546006417294
 30
0.0
 10
120.8073805660802
 20
52.41122404872937
 30
0.0
 10
120.8544440767883
 20
52.40275546249909
 30
0.0
 10
120.9259079787905
 20
52.39899989776092
 30
0.0
 10
120.9978133022095
 20
52.40149852932154
 30
0.0
 10
121.0695233735999
 20
52.41251915773464
 30
0.0
 10
121.1420004007078
 20
52.4290952137991
 30
0.0
 10
121.2138914034199
 20
52.45429836709614
 30
0.0
 10
121.286824489688
 20
52.48467231713848
 30
0.0
 10
121.3335221776907
 20
52.51079885260879
 30
0.0
 10
121.3573568672246
 20
52.52413394237807
 30
0.0
  0
SPLINE
  5
C2
330
1F
100
AcDbEntity
  8
0
  6
Continuous
 62
     7
370
    25
100
AcDbSpline
210
0.0
220
0.0
230
1.0
 70
     8
 71
     3
 72
    15
 73
    11
 74
     0
 42
0.000000001
 43
0.00000001
 40
0.0
 40
0.0
 40
0.0
 40
0.0
 40
0.1513316044327699
 40
0.2940975545230307
 40
0.4289487094265193
 40
0.5559279245516214
 40
0.6762753220694467
 40
0.7892273698219978
 40
0.8971134572546168
 40
1.0
 40
1.0
 40
1.0
 40
1.0
 10
120.3133865146605
 20
52.71203458340371
 30
0.0
 10
120.3338326571954
 20
52.69228196250229
 30
0.0
 10
120.37356765202
 20
52.65389475631157
 30
0.0
 10
120.4335068236404
 20
52.59990913244463
 30
0.0
 10
120.4942804576035
 20
52.5541800902605
 30
0.0
 10
120.5528713474385
 20
52.51258443081126
 30
0.0
 10
120.6118869613091
 20
52.47919355041567
 30
0.0
 10
120.6697990252831
 20
52.45171608591057
 30
0.0
 10
120.7264268133142
 20
52.42906466993293
 30
0.0
 10
120.7650068040029
 20
52.41992264959333
 30
0.0
 10
120.7838392390195
 20
52.41546006417294
 30
0.0
  0
LINE
  5
C3
330
1F
100
AcDbEntity
  8
0
  6
Continuous
 62
     7
370
    25
100
AcDbLine
 10
120.0168119954
 20
52.5402597437
 30
0.0
 11
120.3133865147
 21
52.7120345834
 31
0.0
  0
SPLINE
  5
C4
330
1F
100
AcDbEntity
  8
0
  6
Continuous
 62
     7
370
    25
100
AcDbSpline
210
0.0
220
0.0
230
1.0
 70
     8
 71
     3
 72
    23
 73
    19
 74
     0
 42
0.000000001
 43
0.00000001
 40
0.0
 40
0.0
 40
0.0
 40
0.0
 40
0.0656217632387078
 40
0.1283604675836456
 40
0.1895583847206636
 40
0.2488580074221892
 40
0.3074628849680236
 40
0.365551228388333
 40
0.4232063363918936
 40
0.481811213937728
 40
0.5407083869503936
 40
0.6004738697899785
 40
0.6611093887128812
 40
0.7235118887421075
 40
0.7883544185590494
 40
0.8557385605895159
 40
0.9260741804459053
 40
0.9999999999999999
 40
0.9999999999999999
 40
0.9999999999999999
 40
0.9999999999999999
 10
121.5235227326093
 20
52.22685830135243
 30
0.0
 10
121.4910804292382
 20
52.20901436380768
 30
0.0
 10
121.4276211586447
 20
52.17411045306627
 30
0.0
 10
121.3292160381226
 20
52.13188190514104
 30
0.0
 10
121.2311711172588
 20
52.09896209651487
 30
0.0
 10
121.1330176281135
 20
52.07447322673516
 30
0.0
 10
121.034561273519
 20
52.06067057847346
 30
0.0
 10
120.9362395050572
 20
52.05567288073198
 30
0.0
 10
120.8378428709005
 20
52.05980358217408
 30
0.0
 10
120.7398954906372
 20
52.07383161229622
 30
0.0
 10
120.6426525684448
 20
52.09777937806875
 30
0.0
 10
120.5472764531824
 20
52.13176620616783
 30
0.0
 10
120.4532587128398
 20
52.17446918798478
 30
0.0
 10
120.3619465430642
 20
52.22854359799105
 30
0.0
 10
120.2720280234699
 20
52.29168550971198
 30
0.0
 10
120.1843142798604
 20
52.36505607417961
 30
0.0
 10
120.0983877925892
 20
52.44808651247301
 30
0.0
 10
120.0444513621343
 20
52.50902977318067
 30
0.0
 10
120.0168119954297
 20
52.54025974366012
 30
0.0
  0
SPLINE
  5
C5
330
1F
100
AcDbEntity
  8
0
  6
Continuous
 62
     7
370
    25
100
AcDbSpline
210
0.0
220
0.0
230
1.0
 70
     8
 71
     3
 72
    23
 73
    19
 74
     0
 42
0.000000001
 43
0.00000001
 40
0.0
 40
0.0
 40
0.0
 40
0.0
 40
0.080595294363735
 40
0.1604515434217346
 40
0.2418700207746966
 40
0.3254069365410275
 40
0.367522692821364
 40
0.4090591800266039
 40
0.4501972477231491
 40
0.4912141426448572
 40
0.5317517532195374
 40
0.5729609325814259
 40
0.6140366765815669
 40
0.655847172678392
 40
0.7396019872338637
 40
0.823816986964127
 40
0.9104315104044914
 40
1.0
 40
1.0
 40
1.0
 40
1.0
 10
121.9890676044041
 20
53.80438233981398
 30
0.0
 10
122.0121108071498
 20
53.76078967083277
 30
0.0
 10
122.0579859103443
 20
53.67400407031943
 30
0.0
 10
122.1036877111828
 20
53.53282057891315
 30
0.0
 10
122.1323215106352
 20
53.3856834945075
 30
0.0
 10
122.1385945731312
 20
53.25894673334702
 30
0.0
 10
122.1350945992824
 20
53.15684247177531
 30
0.0
 10
122.1272875042602
 20
53.08096767898957
 30
0.0
 10
122.1149549440414
 20
53.00634908368463
 30
0.0
 10
122.0963156874596
 20
52.93370151223475
 30
0.0
 10
122.0740666924592
 20
52.86203153043382
 30
0.0
 10
122.0457815690728
 20
52.79247893235832
 30
0.0
 10
122.0136346683516
 20
52.72377020918406
 30
0.0
 10
121.9629408834705
 20
52.63541603623081
 30
0.0
 10
121.8892453646246
 20
52.53011125550807
 30
0.0
 10
121.7833315809561
 20
52.41575842934224
 30
0.0
 10
121.6618703138661
 20
52.31215056792045
 30
0.0
 10
121.5701511947992
 20
52.25560507950809
 30
0.0
 10
121.5235227326093
 20
52.22685830135243
 30
0.0
  0
SPLINE
  5
C6
330
1F
100
AcDbEntity
  8
0
  6
Continuous
 62
     7
370
    25
100
AcDbSpline
210
0.0
220
0.0
230
1.0
 70
     8
 71
     3
 72
    15
 73
    11
 74
     0
 42
0.000000001
 43
0.00000001
 40
0.0
 40
0.0
 40
0.0
 40
0.0
 40
0.1304473747403718
 40
0.2573926146276509
 40
0.3826871558302646
 40
0.50554704996689
 40
0.6279825865506224
 40
0.7497193271005594
 40
0.8738306203951087
 40
1.0
 40
1.0
 40
1.0
 40
1.0
 10
121.4800531813272
 20
54.22926214750628
 30
0.0
 10
121.5073337689439
 20
54.21820494416768
 30
0.0
 10
121.5611625392754
 20
54.19638739143075
 30
0.0
 10
121.6382326608233
 20
54.15709949008703
 30
0.0
 10
121.7093154655949
 20
54.11104213822929
 30
0.0
 10
121.7768675292355
 20
54.06160337210351
 30
0.0
 10
121.8376974074714
 20
54.00515400716979
 30
0.0
 10
121.8934014778378
 20
53.94344631075794
 30
0.0
 10
121.9451680984877
 20
53.87716497499258
 30
0.0
 10
121.9743544349156
 20
53.82877585461203
 30
0.0
 10
121.9890676044041
 20
53.80438233981398
 30
0.0
  0
SPLINE
  5
C7
330
1F
100
AcDbEntity
  8
0
  6
Continuous
 62
     7
370
    25
100
AcDbSpline
210
0.0
220
0.0
230
1.0
 70
     8
 71
     3
 72
    11
 73
     7
 74
     0
 42
0.000000001
 43
0.00000001
 40
0.0
 40
0.0
 40
0.0
 40
0.0
 40
0.2575448221658425
 40
0.5076711529890846
 40
0.7542159986790766
 40
1.0
 40
1.0
 40
1.0
 40
1.0
 10
120.9717398800451
 20
54.28184628212166
 30
0.0
 10
121.015863774407
 20
54.28645360146543
 30
0.0
 10
121.1028405893033
 20
54.2955355278803
 30
0.0
 10
121.2328668329228
 20
54.28994874192157
 30
0.0
 10
121.3595336299396
 20
54.26990849210432
 30
0.0
 10
121.439921407921
 20
54.24279696299818
 30
0.0
 10
121.4800531813272
 20
54.22926214750628
 30
0.0
  0
SPLINE
  5
C8
330
1F
100
AcDbEntity
  8
0
  6
Continuous
 62
     7
370
    25
100
AcDbSpline
210
0.0
220
0.0
230
1.0
 70
     8
 71
     3
 72
    15
 73
    11
 74
     0
 42
0.000000001
 43
0.00000001
 40
0.0
 40
0.0
 40
0.0
 40
0.0
 40
0.1242105454247702
 40
0.243978406159468
 40
0.3611315929044479
 40
0.4795822493707372
 40
0.6002641150141718
 40
0.7254208927559057
 40
0.8584975931303522
 40
1.0
 40
1.0
 40
1.0
 40
1.0
 10
121.0025892390195
 20
55.12669804494217
 30
0.0
 10
121.0199514074932
 20
55.09419449739892
 30
0.0
 10
121.0540547453152
 20
55.03034996876401
 30
0.0
 10
121.0873556839769
 20
54.92815313993793
 30
0.0
 10
121.1067711741199
 20
54.82444680124297
 30
0.0
 10
121.1112620811331
 20
54.71857234453581
 30
0.0
 10
121.0986223234475
 20
54.61100813519032
 30
0.0
 10
121.0711606497342
 20
54.50197993894837
 30
0.0
 10
121.0300797447968
 20
54.39054719220707
 30
0.0
 10
120.9915802983256
 20
54.31881365482211
 30
0.0
 10
120.9717398800451
 20
54.28184628212166
 30
0.0
  0
SPLINE
  5
C9
330
1F
100
AcDbEntity
  8
0
  6
Continuous
 62
     7
370
    25
100
AcDbSpline
210
0.0
220
0.0
230
1.0
 70
     8
 71
     3
 72
    19
 73
    15
 74
     0
 42
0.000000001
 43
0.00000001
 40
0.0
 40
0.0
 40
0.0
 40
0.0
 40
0.0895167400715857
 40
0.1773824364258331
 40
0.2650886758186742
 40
0.3534136836995492
 40
0.440888944303702
 40
0.5246250034953635
 40
0.6070486876610646
 40
0.6892970473032737
 40
0.7700032014525419
 40
0.8477273803995536
 40
0.9238593810851458
 40
0.9999999999999999
 40
0.9999999999999999
 40
0.9999999999999999
 40
0.9999999999999999
 10
119.6795724120964
 20
55.40644564109602
 30
0.0
 10
119.7190409173303
 20
55.42763021118191
 30
0.0
 10
119.7972499720263
 20
55.46960862386164
 30
0.0
 10
119.9228510084989
 20
55.51322954309928
 30
0.0
 10
120.0517056855712
 20
55.54259317781191
 30
0.0
 10
120.1831708544153
 20
55.55463401601859
 30
0.0
 10
120.3131476278308
 20
55.55249269883517
 30
0.0
 10
120.438855354956
 20
55.53344658919819
 30
0.0
 10
120.5583317155406
 20
55.49828781569218
 30
0.0
 10
120.6701702460589
 20
55.44705355511621
 30
0.0
 10
120.7722327274571
 20
55.38273940798175
 30
0.0
 10
120.8627035772957
 20
55.30785275340757
 30
0.0
 10
120.9417253704838
 20
55.22352650916925
 30
0.0
 10
120.9823005173588
 20
55.1589754174918
 30
0.0
 10
121.0025892390195
 20
55.12669804494217
 30
0.0
  0
SPLINE
  5
CA
330
1F
100
AcDbEntity
  8
0
  6
Continuous
 62
     7
370
    25
100
AcDbSpline
210
0.0
220
0.0
230
1.0
 70
     8
 71
     3
 72
    23
 73
    19
 74
     0
 42
0.000000001
 43
0.00000001
 40
0.0
 40
0.0
 40
0.0
 40
0.0
 40
0.0729609930162067
 40
0.143331118032926
 40
0.2109700859339603
 40
0.276206859742432
 40
0.3394872283090509
 40
0.4013263635807447
 40
0.4625296365590468
 40
0.5233089730042771
 40
0.5834523609452178
 40
0.6423638086719394
 40
0.7005174356288075
 40
0.759068333179808
 40
0.8175373240070818
 40
0.8770548221953098
 40
0.9373924692431808
 40
1.0
 40
1.0
 40
1.0
 40
1.0
 10
119.2413712903015
 20
54.11427817314731
 30
0.0
 10
119.2312930312963
 20
54.1489753564145
 30
0.0
 10
119.2114943954592
 20
54.21713761496787
 30
0.0
 10
119.1908095478011
 20
54.31959967481834
 30
0.0
 10
119.1768289284191
 20
54.41934679651398
 30
0.0
 10
119.1724891705822
 20
54.5164273034488
 30
0.0
 10
119.1735466046847
 20
54.61079632167631
 30
0.0
 10
119.1857083254306
 20
54.70236648714774
 30
0.0
 10
119.2032307955101
 20
54.79176335572361
 30
0.0
 10
119.2303286787872
 20
54.87791751975764
 30
0.0
 10
119.2637509403238
 20
54.96052371135054
 30
0.0
 10
119.3038564878054
 20
55.03867263792917
 30
0.0
 10
119.3503864780111
 20
55.11226806301637
 30
0.0
 10
119.4038489704199
 20
55.18067144657099
 30
0.0
 10
119.4629022427183
 20
55.2452679090778
 30
0.0
 10
119.5291716698259
 20
55.30375520491418
 30
0.0
 10
119.6010874156487
 20
55.3586202465167
 30
0.0
 10
119.6530907085032
 20
55.39030882538854
 30
0.0
 10
119.6795724120964
 20
55.40644564109602
 30
0.0
  0
LINE
  5
CB
330
1F
100
AcDbEntity
  8
0
  6
Continuous
 62
     7
370
    25
100
AcDbLine
 10
119.5505660018
 20
54.2930642308
 30
0.0
 11
119.2413712903
 21
54.1142781731
 31
0.0
  0
CIRCLE
  5
CC
330
1F
100
AcDbEntity
  8
0
  6
Continuous
 62
     7
370
    25
100
AcDbCircle
 10
124.3084809249
 20
52.2268046243
 30
0.0
 40
17.75
  0
SPLINE
  5
CD
330
1F
100
AcDbEntity
  8
0
  6
Continuous
 62
     7
370
    25
100
AcDbSpline
210
0.0
220
0.0
230
1.0
 70
     8
 71
     3
 72
    31
 73
    27
 74
     0
 42
0.000000001
 43
0.00000001
 40
0.0
 40
0.0
 40
0.0
 40
0.0
 40
0.0336454959535058
 40
0.0668061893677439
 40
0.0994548521133313
 40
0.1319880772579627
 40
0.1641940984622829
 40
0.1966631542066579
 40
0.2295563983366921
 40
0.2630764713646239
 40
0.2968880710266261
 40
0.3311645351872032
 40
0.3659854800217484
 40
0.401672920202808
 40
0.4385106255368217
 40
0.476678637821926
 40
0.5160999820396001
 40
0.5571674626939002
 40
0.600563737457359
 40
0.6468765278579348
 40
0.6968748465194766
 40
0.75011722879498
 40
0.8069138714359886
 40
0.867597293120128
 40
0.931776550041632
 40
1.0
 40
1.0
 40
1.0
 40
1.0
 10
123.9022235960927
 20
53.82938040703323
 30
0.0
 10
123.8780870122614
 20
53.81620112086217
 30
0.0
 10
123.8301616319265
 20
53.79003245065166
 30
0.0
 10
123.7558395209708
 20
53.75680437172511
 30
0.0
 10
123.6795891145905
 20
53.73120283717821
 30
0.0
 10
123.6026928646339
 20
53.71032636002197
 30
0.0
 10
123.5242079345783
 20
53.69743046361131
 30
0.0
 10
123.4448156970797
 20
53.68938588869128
 30
0.0
 10
123.363933167197
 20
53.68820615016694
 30
0.0
 10
123.2820588292028
 20
53.69280817320342
 30
0.0
 10
123.1998762280569
 20
53.70520119894411
 30
0.0
 10
123.1175513757865
 20
53.72289191961211
 30
0.0
 10
123.0360829979145
 20
53.7496179888193
 30
0.0
 10
122.9543874940788
 20
53.78172063673858
 30
0.0
 10
122.8729577682579
 20
53.82130801697566
 30
0.0
 10
122.7915809108906
 20
53.86751698477029
 30
0.0
 10
122.7108403884225
 20
53.92131928822198
 30
0.0
 10
122.629489980717
 20
53.98169162654234
 30
0.0
 10
122.5486684162741
 20
54.0517562391158
 30
0.0
 10
122.4669263636923
 20
54.13153835472702
 30
0.0
 10
122.3844533805341
 20
54.22183192440378
 30
0.0
 10
122.3018634757438
 20
54.32330025688908
 30
0.0
 10
122.2181949555479
 20
54.43499699054944
 30
0.0
 10
122.1346821143659
 20
54.55776738295329
 30
0.0
 10
122.0492530574127
 20
54.69047181699964
 30
0.0
 10
121.9945917692313
 20
54.78386279024275
 30
0.0
 10
121.9664263204517
 20
54.83198457369991
 30
0.0
  0
SPLINE
  5
CE
330
1F
100
AcDbEntity
  8
0
  6
Continuous
 62
     7
370
    25
100
AcDbSpline
210
0.0
220
0.0
230
1.0
 70
     8
 71
     3
 72
    31
 73
    27
 74
     0
 42
0.000000001
 43
0.00000001
 40
0.0
 40
0.0
 40
0.0
 40
0.0
 40
0.0649405108784213
 40
0.126653132129892
 40
0.1852084329316562
 40
0.2403085388748918
 40
0.2925800096996109
 40
0.3416115108261803
 40
0.3880909933565703
 40
0.4319205461414107
 40
0.4736192819603645
 40
0.5139981514266287
 40
0.5526138189906172
 40
0.5901970665880704
 40
0.6269782262858691
 40
0.6627922992646665
 40
0.6979017493416804
 40
0.7325396930703038
 40
0.7668209269351599
 40
0.8003196689017156
 40
0.8335563157666558
 40
0.8664173676831503
 40
0.8993409082799468
 40
0.9325387301079188
 40
0.9658129455270053
 40
1.0
 40
1.0
 40
1.0
 40
1.0
 10
124.0340344935286
 20
56.02599499036658
 30
0.0
 10
124.0602208981401
 20
55.97938955729983
 30
0.0
 10
124.1112921034388
 20
55.88849522967087
 30
0.0
 10
124.1818884556
 20
55.75330819783854
 30
0.0
 10
124.2425272302153
 20
55.62226080537208
 30
0.0
 10
124.2957588441383
 20
55.49642876307827
 30
0.0
 10
124.3397765847112
 20
55.37538485815096
 30
0.0
 10
124.3760816307899
 20
55.2592160582445
 30
0.0
 10
124.4035161216569
 20
55.14777018089548
 30
0.0
 10
124.4228114615607
 20
55.04072827127326
 30
0.0
 10
124.4335461437842
 20
54.93759649126742
 30
0.0
 10
124.4399287020896
 20
54.83837280124077
 30
0.0
 10
124.4379593279829
 20
54.74235843212465
 30
0.0
 10
124.4316493949029
 20
54.64949040407209
 30
0.0
 10
124.4171645758931
 20
54.55985732388155
 30
0.0
 10
124.3978521646075
 20
54.4732633128454
 30
0.0
 10
124.3718533775878
 20
54.39022183426852
 30
0.0
 10
124.3393788761064
 20
54.31089914544309
 30
0.0
 10
124.3018407037816
 20
54.23529868307547
 30
0.0
 10
124.2584474015047
 20
54.16427981558229
 30
0.0
 10
124.2118588101654
 20
54.09675341818021
 30
0.0
 10
124.1598162485058
 20
54.03382467411066
 30
0.0
 10
124.1016741105695
 20
53.97661721179129
 30
0.0
 10
124.0402999400372
 20
53.92245335692777
 30
0.0
 10
123.9738736411037
 20
53.87267490499595
 30
0.0
 10
123.9263214256151
 20
53.84394150648547
 30
0.0
 10
123.9022235960927
 20
53.82938040703323
 30
0.0
  0
SPLINE
  5
CF
330
1F
100
AcDbEntity
  8
0
  6
Continuous
 62
     7
370
    25
100
AcDbSpline
210
0.0
220
0.0
230
1.0
 70
     8
 71
     3
 72
    31
 73
    27
 74
     0
 42
0.000000001
 43
0.00000001
 40
0.0
 40
0.0
 40
0.0
 40
0.0
 40
0.033995044812672
 40
0.0673947171980935
 40
0.1004896505027092
 40
0.1330221893437307
 40
0.1658426432595989
 40
0.1986017894409938
 40
0.2320676034283164
 40
0.2658705105943633
 40
0.3001997943085083
 40
0.3353553484150754
 40
0.3709642920596514
 40
0.4074069001705487
 40
0.4452012950221238
 40
0.4839267413422293
 40
0.5243577914819513
 40
0.5663267935249854
 40
0.6102221464991021
 40
0.6571575539644641
 40
0.7065097690990744
 40
0.7590464082298742
 40
0.8142868549322111
 40
0.8728983502737808
 40
0.9348824198378299
 40
1.0
 40
1.0
 40
1.0
 40
1.0
 10
122.0638822499389
 20
57.01177223395631
 30
0.0
 10
122.0884478933845
 20
57.02527854892335
 30
0.0
 10
122.1371489497276
 20
57.05205463592684
 30
0.0
 10
122.2134101633622
 20
57.08461822162877
 30
0.0
 10
122.2902194899039
 20
57.11240361960582
 30
0.0
 10
122.3688801513093
 20
57.13277153352623
 30
0.0
 10
122.4486061089753
 20
57.14672142603669
 30
0.0
 10
122.5299478313487
 20
57.15451087647287
 30
0.0
 10
122.6124645799461
 20
57.15585632151931
 30
0.0
 10
122.696111797112
 20
57.15081112536181
 30
0.0
 10
122.7806240240772
 20
57.13986792619431
 30
0.0
 10
122.865248620121
 20
57.1208008469415
 30
0.0
 10
122.9496094427581
 20
57.09436421149712
 30
0.0
 10
123.0344521016372
 20
57.06249374297544
 30
0.0
 10
123.118068292363
 20
57.02129516336358
 30
0.0
 10
123.2020560200222
 20
56.97395628127787
 30
0.0
 10
123.286289576036
 20
56.9202284265934
 30
0.0
 10
123.3697590873294
 20
56.85793440847232
 30
0.0
 10
123.4541794308297
 20
56.78817246617091
 30
0.0
 10
123.5377118898417
 20
56.70822796002972
 30
0.0
 10
123.6216133075981
 20
56.61868089723252
 30
0.0
 10
123.7046250278916
 20
56.51919503398582
 30
0.0
 10
123.7873780170115
 20
56.40981138800916
 30
0.0
 10
123.8711218457607
 20
56.29149092365565
 30
0.0
 10
123.9534032497313
 20
56.16236510325582
 30
0.0
 10
124.006719268696
 20
56.0721927186737
 30
0.0
 10
124.0340344935286
 20
56.02599499036658
 30
0.0
  0
SPLINE
  5
D0
330
1F
100
AcDbEntity
  8
0
  6
Continuous
 62
     7
370
    25
100
AcDbSpline
210
0.0
220
0.0
230
1.0
 70
     8
 71
     3
 72
    31
 73
    27
 74
     0
 42
0.000000001
 43
0.00000001
 40
0.0
 40
0.0
 40
0.0
 40
0.0
 40
0.0684257301809695
 40
0.133078045707295
 40
0.1938999893094367
 40
0.2508424588443161
 40
0.3040062327028832
 40
0.3535151699365257
 40
0.3995944435228868
 40
0.4426248176767029
 40
0.4831971491225836
 40
0.5224017257989388
 40
0.5601112408004743
 40
0.5967683221327202
 40
0.6325636909717398
 40
0.6674234486983378
 40
0.7018485540728234
 40
0.7359592900885501
 40
0.769688673523804
 40
0.8027595434531145
 40
0.8355715158028186
 40
0.8680158003674373
 40
0.900339117782649
 40
0.933153577301002
 40
0.9662355504268414
 40
1.0
 40
1.0
 40
1.0
 40
1.0
 10
121.9664263204517
 20
54.83198457369991
 30
0.0
 10
121.9387210001852
 20
54.88063233038899
 30
0.0
 10
121.8848382010247
 20
54.97524510793782
 30
0.0
 10
121.8123068725398
 20
55.11635780905076
 30
0.0
 10
121.7473803198954
 20
55.25075131977319
 30
0.0
 10
121.6918518304086
 20
55.37913164146639
 30
0.0
 10
121.645214427441
 20
55.50115841545322
 30
0.0
 10
121.6080517715812
 20
55.61708389326972
 30
0.0
 10
121.5786002541688
 20
55.72667323520401
 30
0.0
 10
121.5589641097626
 20
55.83103064023864
 30
0.0
 10
121.54693275861
 20
55.93084188051918
 30
0.0
 10
121.5414459037326
 20
56.02684760696468
 30
0.0
 10
121.541095196489
 20
56.11981895939335
 30
0.0
 10
121.5474130856934
 20
56.2098032080296
 30
0.0
 10
121.5599046275703
 20
56.2967823317532
 30
0.0
 10
121.5788833216273
 20
56.38072661879151
 30
0.0
 10
121.6043158236209
 20
56.46149041030034
 30
0.0
 10
121.635120973161
 20
56.53933473628005
 30
0.0
 10
121.6711788434035
 20
56.61374254578715
 30
0.0
 10
121.7140377987322
 20
56.68313910028568
 30
0.0
 10
121.7597461280495
 20
56.74942893107665
 30
0.0
 10
121.8114980357614
 20
56.81033381756471
 30
0.0
 10
121.8669578284036
 20
56.86787695527948
 30
0.0
 10
121.9282266230718
 20
56.91999526750184
 30
0.0
 10
121.9934804229032
 20
56.96904106367464
 30
0.0
 10
122.0402557880554
 20
56.99743189069525
 30
0.0
 10
122.0638822499389
 20
57.01177223395631
 30
0.0
  0
SPLINE
  5
D1
330
1F
100
AcDbEntity
  8
0
  6
Continuous
 62
     7
370
    25
100
AcDbSpline
210
0.0
220
0.0
230
1.0
 70
    24
 71
     3
 72
    18
 73
    14
 74
     0
 42
0.000000001
 43
0.00000001
 40
0.0
 40
0.0
 40
0.0
 40
0.0
 40
0.2500000000000003
 40
0.2500000000000003
 40
0.5000000000000007
 40
0.5000000000000007
 40
0.5625000000000008
 40
0.5625000000000008
 40
0.6250000000000007
 40
0.6250000000000007
 40
0.7500000000000006
 40
0.7500000000000006
 40
1.0
 40
1.0
 40
1.0
 40
1.0
 10
142.3084809248554
 20
41.83449977886423
 30
0.0
 10
140.8389512924721
 20
40.98606645002558
 30
0.0
 10
139.3587079433141
 20
40.13144755392305
 30
0.0
 10
136.3673508272883
 20
38.40438671774324
 30
0.0
 10
134.8560075656321
 20
37.53181227878812
 30
0.0
 10
132.9431005650858
 20
36.42739490708801
 30
0.0
 10
132.5585800436885
 20
36.20539188055032
 30
0.0
 10
131.7930270079098
 20
35.76339962926455
 30
0.0
 10
131.4115803962133
 20
35.5431713253201
 30
0.0
 10
130.2710576126776
 20
34.88469018922888
 30
0.0
 10
129.5158074164326
 20
34.44864628512126
 30
0.0
 10
127.2635030102578
 20
33.14827772991929
 30
0.0
 10
125.7798425899489
 20
32.29168598686798
 30
0.0
 10
124.3084809248554
 20
31.44219493345094
 30
0.0
  0
SPLINE
  5
D2
330
1F
100
AcDbEntity
  8
0
  6
Continuous
 62
     7
370
    25
100
AcDbSpline
210
0.0
220
0.0
230
1.0
 70
    24
 71
     3
 72
    18
 73
    14
 74
     0
 42
0.000000001
 43
0.00000001
 40
0.0
 40
0.0
 40
0.0
 40
0.0
 40
0.2500000000000001
 40
0.2500000000000001
 40
0.5000000000000001
 40
0.5000000000000001
 40
0.5625000000000001
 40
0.5625000000000001
 40
0.6250000000000001
 40
0.6250000000000001
 40
0.7500000000000002
 40
0.7500000000000002
 40
1.0
 40
1.0
 40
1.0
 40
1.0
 10
124.3084809248554
 20
31.44219493345093
 30
0.0
 10
122.8389512924721
 20
32.29062826228958
 30
0.0
 10
121.3587079433141
 20
33.14524715839211
 30
0.0
 10
118.3673508272883
 20
34.87230799457192
 30
0.0
 10
116.8560075656321
 20
35.74488243352702
 30
0.0
 10
114.9431005650858
 20
36.84929980522715
 30
0.0
 10
114.5585800436885
 20
37.07130283176484
 30
0.0
 10
113.7930270079098
 20
37.51329508305059
 30
0.0
 10
113.4115803962133
 20
37.73352338699506
 30
0.0
 10
112.2710576126776
 20
38.39200452308629
 30
0.0
 10
111.5158074164325
 20
38.82804842719389
 30
0.0
 10
109.2635030102578
 20
40.12841698239586
 30
0.0
 10
107.7798425899489
 20
40.98500872544717
 30
0.0
 10
106.3084809248554
 20
41.83449977886421
 30
0.0
  0
SPLINE
  5
D3
330
1F
100
AcDbEntity
  8
0
  6
Continuous
 62
     7
370
    25
100
AcDbSpline
210
0.0
220
0.0
230
1.0
 70
    24
 71
     3
 72
    18
 73
    14
 74
     0
 42
0.000000001
 43
0.00000001
 40
0.0
 40
0.0
 40
0.0
 40
0.0
 40
0.125
 40
0.125
 40
0.25
 40
0.25
 40
0.5
 40
0.5
 40
0.625
 40
0.625
 40
0.75
 40
0.75
 40
1.0
 40
1.0
 40
1.0
 40
1.0
 10
106.3084809248554
 20
41.83449977886421
 30
0.0
 10
106.3084809248554
 20
42.68047959539122
 30
0.0
 10
106.3084809248554
 20
43.53543238066232
 30
0.0
 10
106.3084809248554
 20
45.26037238751874
 30
0.0
 10
106.3084809248554
 20
46.12509140907524
 30
0.0
 10
106.3084809248554
 20
48.72712915850121
 30
0.0
 10
106.3084809248554
 20
50.47249120332248
 30
0.0
 10
106.3084809248554
 20
53.10935362944986
 30
0.0
 10
106.3084809248554
 20
53.99185862595821
 30
0.0
 10
106.3084809248554
 20
55.76117083421692
 30
0.0
 10
106.3084809248554
 20
56.63634118597871
 30
0.0
 10
106.3084809248554
 20
59.23741170825189
 30
0.0
 10
106.3084809248554
 20
60.9390421296255
 30
0.0
 10
106.3084809248554
 20
62.61910946969075
 30
0.0
  0
SPLINE
  5
D4
330
1F
100
AcDbEntity
  8
0
  6
Continuous
 62
     7
370
    25
100
AcDbSpline
210
0.0
220
0.0
230
1.0
 70
    24
 71
     3
 72
    18
 73
    14
 74
     0
 42
0.000000001
 43
0.00000001
 40
0.0
 40
0.0
 40
0.0
 40
0.0
 40
0.2500000000000001
 40
0.2500000000000001
 40
0.5000000000000002
 40
0.5000000000000002
 40
0.5625000000000001
 40
0.5625000000000001
 40
0.6250000000000001
 40
0.6250000000000001
 40
0.7500000000000002
 40
0.7500000000000002
 40
1.0
 40
1.0
 40
1.0
 40
1.0
 10
106.3084809248554
 20
62.61910946969073
 30
0.0
 10
107.7780105572387
 20
63.46754279852939
 30
0.0
 10
109.2582539063967
 20
64.32216169463192
 30
0.0
 10
112.2496110224225
 20
66.04922253081172
 30
0.0
 10
113.7609542840787
 20
66.92179696976683
 30
0.0
 10
115.673861284625
 20
68.02621434146695
 30
0.0
 10
116.0583818060224
 20
68.24821736800463
 30
0.0
 10
116.823934841801
 20
68.6902096192904
 30
0.0
 10
117.2053814534976
 20
68.91043792323487
 30
0.0
 10
118.3459042370332
 20
69.56891905932608
 30
0.0
 10
119.1011544332783
 20
70.0049629634337
 30
0.0
 10
121.353458839453
 20
71.30533151863567
 30
0.0
 10
122.8371192597619
 20
72.16192326168698
 30
0.0
 10
124.3084809248554
 20
73.01141431510402
 30
0.0
  0
SPLINE
  5
D5
330
1F
100
AcDbEntity
  8
0
  6
Continuous
 62
     7
370
    25
100
AcDbSpline
210
0.0
220
0.0
230
1.0
 70
    24
 71
     3
 72
    18
 73
    14
 74
     0
 42
0.000000001
 43
0.00000001
 40
0.0
 40
0.0
 40
0.0
 40
0.0
 40
0.2499999999999999
 40
0.2499999999999999
 40
0.4999999999999998
 40
0.4999999999999998
 40
0.5624999999999998
 40
0.5624999999999998
 40
0.6249999999999998
 40
0.6249999999999998
 40
0.7499999999999998
 40
0.7499999999999998
 40
1.0
 40
1.0
 40
1.0
 40
1.0
 10
124.3084809248554
 20
73.01141431510402
 30
0.0
 10
125.7780105572387
 20
72.16298098626537
 30
0.0
 10
127.2582539063967
 20
71.30836209016283
 30
0.0
 10
130.2496110224226
 20
69.58130125398304
 30
0.0
 10
131.7609542840787
 20
68.70872681502792
 30
0.0
 10
133.673861284625
 20
67.60430944332781
 30
0.0
 10
134.0583818060223
 20
67.38230641679012
 30
0.0
 10
134.823934841801
 20
66.94031416550436
 30
0.0
 10
135.2053814534976
 20
66.7200858615599
 30
0.0
 10
136.3459042370332
 20
66.06160472546868
 30
0.0
 10
137.1011544332783
 20
65.62556082136106
 30
0.0
 10
139.3534588394531
 20
64.32519226615908
 30
0.0
 10
140.8371192597619
 20
63.46860052310778
 30
0.0
 10
142.3084809248554
 20
62.61910946969073
 30
0.0
  0
SPLINE
  5
D6
330
1F
100
AcDbEntity
  8
0
  6
Continuous
 62
     7
370
    25
100
AcDbSpline
210
0.0
220
0.0
230
1.0
 70
    24
 71
     3
 72
    18
 73
    14
 74
     0
 42
0.000000001
 43
0.00000001
 40
0.0
 40
0.0
 40
0.0
 40
0.0
 40
0.125
 40
0.125
 40
0.2500000000000001
 40
0.2500000000000001
 40
0.5
 40
0.5
 40
0.625
 40
0.625
 40
0.75
 40
0.75
 40
1.0
 40
1.0
 40
1.0
 40
1.0
 10
142.3084809248554
 20
41.83449977886421
 30
0.0
 10
142.3084809248554
 20
42.68047959539123
 30
0.0
 10
142.3084809248554
 20
43.53543238066233
 30
0.0
 10
142.3084809248554
 20
45.26037238751874
 30
0.0
 10
142.3084809248554
 20
46.12509140907525
 30
0.0
 10
142.3084809248554
 20
48.72712915850121
 30
0.0
 10
142.3084809248554
 20
50.47249120332248
 30
0.0
 10
142.3084809248554
 20
53.10935362944987
 30
0.0
 10
142.3084809248554
 20
53.99185862595822
 30
0.0
 10
142.3084809248554
 20
55.76117083421693
 30
0.0
 10
142.3084809248554
 20
56.63634118597871
 30
0.0
 10
142.3084809248554
 20
59.2374117082519
 30
0.0
 10
142.3084809248554
 20
60.93904212962551
 30
0.0
 10
142.3084809248554
 20
62.61910946969075
 30
0.0
  0
LINE
  5
D7
330
1F
100
AcDbEntity
  8
0
  6
Continuous
 62
     7
370
    25
100
AcDbLine
 10
125.4182456852
 20
57.7229604668
 30
0.0
 11
125.2555854288
 21
55.944915595
 31
0.0
  0
LINE
  5
D8
330
1F
100
AcDbEntity
  8
0
  6
Continuous
 62
     7
370
    25
100
AcDbLine
 10
126.1474123519
 20
56.4602401143
 30
0.0
 11
125.4182456852
 21
57.7229604668
 31
0.0
  0
LINE
  5
D9
330
1F
100
AcDbEntity
  8
0
  6
Continuous
 62
     7
370
    25
100
AcDbLine
 10
125.2555854288
 20
55.944915595
 30
0.0
 11
126.1474123519
 21
56.4602401143
 31
0.0
  0
LINE
  5
DA
330
1F
100
AcDbEntity
  8
0
  6
Continuous
 62
     7
370
    25
100
AcDbLine
 10
123.0627874778
 20
51.5940728265
 30
0.0
 11
123.6573387599
 21
50.5641249098
 31
0.0
  0
LINE
  5
DB
330
1F
100
AcDbEntity
  8
0
  6
Continuous
 62
     7
370
    25
100
AcDbLine
 10
123.5977434073
 20
51.9025664162
 30
0.0
 11
123.0627874778
 21
51.5940728265
 31
0.0
  0
SPLINE
  5
DC
330
1F
100
AcDbEntity
  8
0
  6
Continuous
 62
     7
370
    25
100
AcDbSpline
210
0.0
220
0.0
230
1.0
 70
     8
 71
     3
 72
    23
 73
    19
 74
     0
 42
0.000000001
 43
0.00000001
 40
0.0
 40
0.0
 40
0.0
 40
0.0
 40
0.0726650988704534
 40
0.1432791835201254
 40
0.2141492063059419
 40
0.2864034591881085
 40
0.3580746850496256
 40
0.4274852584225197
 40
0.4955995541135629
 40
0.5653878306507095
 40
0.6026512098767125
 40
0.6448815372906992
 40
0.6911636126211443
 40
0.7425540665786067
 40
0.799592958021406
 40
0.861345007947068
 40
0.9281274466669558
 40
1.0
 40
1.0
 40
1.0
 40
1.0
 10
124.6354036637108
 20
51.81843180082809
 30
0.0
 10
124.6199402417523
 20
51.84274988936375
 30
0.0
 10
124.5894498618166
 20
51.89069967439563
 30
0.0
 10
124.5323308814879
 20
51.95399994187188
 30
0.0
 10
124.466451107764
 20
52.00760734380296
 30
0.0
 10
124.3932335800257
 20
52.05150992056556
 30
0.0
 10
124.3151001171665
 20
52.08436846655422
 30
0.0
 10
124.2345563438068
 20
52.10531685439595
 30
0.0
 10
124.1523918486259
 20
52.11211427762991
 30
0.0
 10
124.0828462785241
 20
52.10764811349544
 30
0.0
 10
124.0247798167116
 20
52.0961988182151
 30
0.0
 10
123.9767071793413
 20
52.08292521543777
 30
0.0
 10
123.9246011770949
 20
52.06400782654399
 30
0.0
 10
123.8674437624245
 20
52.04186747061057
 30
0.0
 10
123.806304611515
 20
52.01341778065578
 30
0.0
 10
123.7401919828523
 20
51.98130468129244
 30
0.0
 10
123.6700807299684
 20
51.94404420357954
 30
0.0
 10
123.6224388364515
 20
51.91672662731094
 30
0.0
 10
123.5977434073005
 20
51.90256641621271
 30
0.0
  0
LINE
  5
DD
330
1F
100
AcDbEntity
  8
0
  6
Continuous
 62
     7
370
    25
100
AcDbLine
 10
123.6573387599
 20
50.5641249098
 30
0.0
 11
124.1740655227
 21
50.8536882111
 31
0.0
  0
SPLINE
  5
DE
330
1F
100
AcDbEntity
  8
0
  6
Continuous
 62
     7
370
    25
100
AcDbSpline
210
0.0
220
0.0
230
1.0
 70
     8
 71
     3
 72
    23
 73
    19
 74
     0
 42
0.000000001
 43
0.00000001
 40
0.0
 40
0.0
 40
0.0
 40
0.0
 40
0.0713918962798022
 40
0.1375818375840157
 40
0.1989757648444548
 40
0.2557889034621065
 40
0.3073301432539901
 40
0.354982200535668
 40
0.397672469715657
 40
0.4363999540212032
 40
0.5080022246883871
 40
0.577688266133291
 40
0.6464766970873451
 40
0.7166520016022216
 40
0.7873809845268784
 40
0.856760377851849
 40
0.9274893607765061
 40
1.0
 40
1.0
 40
1.0
 40
1.0
 10
124.1740655226852
 20
50.8536882110845
 30
0.0
 10
124.199217414447
 20
50.86817500664278
 30
0.0
 10
124.2476885108549
 20
50.89609302055573
 30
0.0
 10
124.3154492562433
 20
50.94028407006321
 30
0.0
 10
124.3783088231014
 20
50.98112562370974
 30
0.0
 10
124.434172205293
 20
51.02167409784186
 30
0.0
 10
124.483820513071
 20
51.06117240347349
 30
0.0
 10
124.5268776407836
 20
51.09956080428012
 30
0.0
 10
124.5647554550074
 20
51.13592487427032
 30
0.0
 10
124.6053761828874
 20
51.18314647629649
 30
0.0
 10
124.6464309154379
 20
51.24397400908518
 30
0.0
 10
124.6847972628447
 20
51.32071257382592
 30
0.0
 10
124.7075386438087
 20
51.40286240149275
 30
0.0
 10
124.7188677524002
 20
51.48757956114198
 30
0.0
 10
124.717569288798
 20
51.57341657666017
 30
0.0
 10
124.7031028507545
 20
51.65813811501577
 30
0.0
 10
124.676840022203
 20
51.74096381426696
 30
0.0
 10
124.6493298430918
 20
51.79239589621694
 30
0.0
 10
124.6354036637108
 20
51.81843180082809
 30
0.0
  0
SPLINE
  5
DF
330
1F
100
AcDbEntity
  8
0
  6
Continuous
 62
     7
370
    25
100
AcDbSpline
210
0.0
220
0.0
230
1.0
 70
     8
 71
     3
 72
    27
 73
    23
 74
     0
 42
0.000000001
 43
0.00000001
 40
0.0
 40
0.0
 40
0.0
 40
0.0
 40
0.0593292303258795
 40
0.118240427047736
 40
0.1792014033712483
 40
0.2433956689168408
 40
0.2764899414798796
 40
0.3100835429170461
 40
0.3442473001829792
 40
0.3794554532768049
 40
0.4158980793336965
 40
0.4534222192089831
 40
0.4922161219929368
 40
0.5327160579953072
 40
0.5759425118312828
 40
0.623304332931849
 40
0.674979357409571
 40
0.7309686931381825
 40
0.791501417047956
 40
0.8561811647926613
 40
0.925874262082135
 40
1.0
 40
1.0
 40
1.0
 40
1.0
 10
122.2412660640414
 20
56.72992127241785
 30
0.0
 10
122.2088346796229
 20
56.70908291922771
 30
0.0
 10
122.1442004222369
 20
56.66755303983032
 30
0.0
 10
122.062150960629
 20
56.58420278884753
 30
0.0
 10
121.9918291593057
 20
56.48734068191891
 30
0.0
 10
121.9463412734387
 20
56.39495609115663
 30
0.0
 10
121.9160799832513
 20
56.31562697105782
 30
0.0
 10
121.8998384625627
 20
56.25221942815407
 30
0.0
 10
121.8869075883578
 20
56.18673748830673
 30
0.0
 10
121.8790398070216
 20
56.11850860586035
 30
0.0
 10
121.8775906507374
 20
56.04773180383241
 30
0.0
 10
121.8791082025942
 20
55.97461753737353
 30
0.0
 10
121.8876275842419
 20
55.89933703280892
 30
0.0
 10
121.8991289240983
 20
55.82075457341086
 30
0.0
 10
121.9177697952214
 20
55.73778993477223
 30
0.0
 10
121.9439807529138
 20
55.64934759588092
 30
0.0
 10
121.9780485642433
 20
55.55480545336264
 30
0.0
 10
122.0186985394046
 20
55.45364918347457
 30
0.0
 10
122.0672658066643
 20
55.34670876285101
 30
0.0
 10
122.1230523409272
 20
55.23338733640541
 30
0.0
 10
122.1857964283672
 20
55.11370076374437
 30
0.0
 10
122.2321160185488
 20
55.03282396995032
 30
0.0
 10
122.2559896217337
 20
54.9911392211358
 30
0.0
  0
SPLINE
  5
E0
330
1F
100
AcDbEntity
  8
0
  6
Continuous
 62
     7
370
    25
100
AcDbSpline
210
0.0
220
0.0
230
1.0
 70
     8
 71
     3
 72
    27
 73
    23
 74
     0
 42
0.000000001
 43
0.00000001
 40
0.0
 40
0.0
 40
0.0
 40
0.0
 40
0.0663761225369531
 40
0.1298706752245194
 40
0.1901543770972347
 40
0.2477046404488028
 40
0.3026252319514871
 40
0.3545558245485415
 40
0.4040852554866611
 40
0.4511035046020918
 40
0.4959900448391388
 40
0.5385941188655639
 40
0.5788559835951627
 40
0.6176403260715041
 40
0.6549602536194782
 40
0.6903714879073207
 40
0.7247915445284058
 40
0.7585056600941753
 40
0.8225113834632436
 40
0.8830809066995241
 40
0.9418515002100256
 40
1.0
 40
1.0
 40
1.0
 40
1.0
 10
123.7535857755799
 20
55.8563235160076
 30
0.0
 10
123.7319057840592
 20
55.8934260663785
 30
0.0
 10
123.6894869890161
 20
55.96602044346852
 30
0.0
 10
123.6225269450305
 20
56.06933880627677
 30
0.0
 10
123.5568791756835
 20
56.166655859346
 30
0.0
 10
123.4902954042115
 20
56.25656350484753
 30
0.0
 10
123.4229108008573
 20
56.33895902679262
 30
0.0
 10
123.3564249029627
 20
56.41534023007444
 30
0.0
 10
123.289072450809
 20
56.48398309174236
 30
0.0
 10
123.2216114033523
 20
56.5459439551719
 30
0.0
 10
123.1543079852622
 20
56.60123354152314
 30
0.0
 10
123.0879358612122
 20
56.65066284004987
 30
0.0
 10
123.0213953001902
 20
56.69287398501816
 30
0.0
 10
122.9556186306214
 20
56.72970594987937
 30
0.0
 10
122.8898534774466
 20
56.75964660116849
 30
0.0
 10
122.824835960505
 20
56.78399129299209
 30
0.0
 10
122.760067432095
 20
56.80169299848077
 30
0.0
 10
122.6756589608931
 20
56.81608258348145
 30
0.0
 10
122.5729571893305
 20
56.82200552253536
 30
0.0
 10
122.4543639581513
 20
56.8111904549118
 30
0.0
 10
122.3424785345777
 20
56.78144535337238
 30
0.0
 10
122.2748836697778
 20
56.7470349366756
 30
0.0
 10
122.2412660640414
 20
56.72992127241785
 30
0.0
  0
SPLINE
  5
E1
330
1F
100
AcDbEntity
  8
0
  6
Continuous
 62
     7
370
    25
100
AcDbSpline
210
0.0
220
0.0
230
1.0
 70
     8
 71
     3
 72
    27
 73
    23
 74
     0
 42
0.000000001
 43
0.00000001
 40
0.0
 40
0.0
 40
0.0
 40
0.0
 40
0.0737614008206082
 40
0.1428343052085163
 40
0.2075809484773593
 40
0.2678540571918489
 40
0.3236449465211942
 40
0.3750693914371047
 40
0.4222863347144216
 40
0.4656860447939371
 40
0.5062033097640232
 40
0.5452529151892668
 40
0.583002336656432
 40
0.619317441385985
 40
0.6543776564942101
 40
0.689182586684851
 40
0.7230491035711443
 40
0.7563867717042347
 40
0.821073065761615
 40
0.8819992578406555
 40
0.9410812706387877
 40
1.0
 40
1.0
 40
1.0
 40
1.0
 10
122.2559896217337
 20
54.9911392211358
 30
0.0
 10
122.2800495506595
 20
54.94985933715817
 30
0.0
 10
122.3266400870816
 20
54.86992344275491
 30
0.0
 10
122.3983657392722
 20
54.7561625741501
 30
0.0
 10
122.4684799995349
 20
54.65179929803166
 30
0.0
 10
122.5361519321467
 20
54.55619012437182
 30
0.0
 10
122.602648831308
 20
54.47040975684224
 30
0.0
 10
122.6680361017655
 20
54.39466763113958
 30
0.0
 10
122.7310116119689
 20
54.32753693550352
 30
0.0
 10
122.7931463459242
 20
54.26952081267507
 30
0.0
 10
122.8549182912633
 20
54.21916236130771
 30
0.0
 10
122.9166625087133
 20
54.17477293821823
 30
0.0
 10
122.9790537767511
 20
54.13626025239493
 30
0.0
 10
123.0415332357614
 20
54.10307520510246
 30
0.0
 10
123.1046056809363
 20
54.07552911419558
 30
0.0
 10
123.1679380837266
 20
54.0528183789736
 30
0.0
 10
123.2321801645458
 20
54.03699877629675
 30
0.0
 10
123.3163152747373
 20
54.02193019103962
 30
0.0
 10
123.419631363789
 20
54.01616068582867
 30
0.0
 10
123.5390144297554
 20
54.02808740201985
 30
0.0
 10
123.6519920467937
 20
54.05755676025014
 30
0.0
 10
123.7202200840125
 20
54.0924210845654
 30
0.0
 10
123.7542868973748
 20
54.10982912498196
 30
0.0
  0
SPLINE
  5
E2
330
1F
100
AcDbEntity
  8
0
  6
Continuous
 62
     7
370
    25
100
AcDbSpline
210
0.0
220
0.0
230
1.0
 70
     8
 71
     3
 72
    15
 73
    11
 74
     0
 42
0.000000001
 43
0.00000001
 40
0.0
 40
0.0
 40
0.0
 40
0.0
 40
0.1099846140738843
 40
0.2238443135472959
 40
0.3416645312227519
 40
0.464657457982752
 40
0.5906390018519554
 40
0.7219234699877933
 40
0.8583134771985059
 40
1.0
 40
1.0
 40
1.0
 40
1.0
 10
124.0894231153235
 20
55.01217287498196
 30
0.0
 10
124.0828044254467
 20
55.04498391596615
 30
0.0
 10
124.0693338495436
 20
55.11176202859328
 30
0.0
 10
124.0413278897059
 20
55.21194329414619
 30
0.0
 10
124.008409419902
 20
55.31472394509121
 30
0.0
 10
123.9692975340865
 20
55.41929414729209
 30
0.0
 10
123.9238304086249
 20
55.5257018981883
 30
0.0
 10
123.8735320005809
 20
55.63441519716282
 30
0.0
 10
123.8167337901694
 20
55.74530680359943
 30
0.0
 10
123.7749007115873
 20
55.81885101372677
 30
0.0
 10
123.7535857755799
 20
55.8563235160076
 30
0.0
  0
SPLINE
  5
E3
330
1F
100
AcDbEntity
  8
0
  6
Continuous
 62
     7
370
    25
100
AcDbSpline
210
0.0
220
0.0
230
1.0
 70
     8
 71
     3
 72
    19
 73
    15
 74
     0
 42
0.000000001
 43
0.00000001
 40
0.0
 40
0.0
 40
0.0
 40
0.0
 40
0.1119071934397899
 40
0.2225480018728378
 40
0.3365832845264889
 40
0.4555385087741077
 40
0.5170876437384417
 40
0.579975606723938
 40
0.6442897159047881
 40
0.7106263615116052
 40
0.7786677120021299
 40
0.8494688778532025
 40
0.9233909709940038
 40
1.0
 40
1.0
 40
1.0
 40
1.0
 10
123.7542868973748
 20
54.10982912498196
 30
0.0
 10
123.7866705532455
 20
54.1307109255654
 30
0.0
 10
123.8510713990341
 20
54.17223822021471
 30
0.0
 10
123.9335211554693
 20
54.25454394304168
 30
0.0
 10
124.0024271974745
 20
54.35086270166339
 30
0.0
 10
124.0484955356252
 20
54.44150253762987
 30
0.0
 10
124.0769166853717
 20
54.52019564134991
 30
0.0
 10
124.0948743058406
 20
54.5826024298127
 30
0.0
 10
124.1063854624894
 20
54.64817515606241
 30
0.0
 10
124.1137079680561
 20
54.71611923352085
 30
0.0
 10
124.1144714409157
 20
54.78667042180111
 30
0.0
 10
124.1120804313336
 20
54.85976020283509
 30
0.0
 10
124.1034739739516
 20
54.93540411883004
 30
0.0
 10
124.094162139361
 20
54.98628057968785
 30
0.0
 10
124.0894231153235
 20
55.01217287498196
 30
0.0
  0
INSERT
  5
EF
330
1F
100
AcDbEntity
  8
0
  6
Continuous
 62
     7
370
    18
100
AcDbBlockReference
  2
SW_CENTERMARKSYMBOL_0
 10
124.3084809249
 20
52.2268046243
 30
0.0
  0
LINE
  5
F0
330
1F
100
AcDbEntity
  8
0
  6
Continuous
 62
     7
370
    25
100
AcDbLine
 10
80.8602820859
 20
88.9181433526
 30
0.0
 11
81.0046196532
 21
89.1681433526
 31
0.0
  0
LINE
  5
F1
330
1F
100
AcDbEntity
  8
0
  6
Continuous
 62
     7
370
    25
100
AcDbLine
 10
81.0046196532
 20
124.6681433526
 30
0.0
 11
80.8602820859
 21
124.9181433526
 31
0.0
  0
LINE
  5
F2
330
1F
100
AcDbEntity
  8
0
  6
Continuous
 62
     7
370
    25
100
AcDbLine
 10
67.1489572205
 20
124.9181433526
 30
0.0
 11
67.0046196532
 21
124.6681433526
 31
0.0
  0
LINE
  5
F3
330
1F
100
AcDbEntity
  8
0
  6
Continuous
 62
     7
370
    25
100
AcDbLine
 10
67.0046196532
 20
89.1681433526
 30
0.0
 11
67.1489572205
 21
88.9181433526
 31
0.0
  0
LINE
  5
F4
330
1F
100
AcDbEntity
  8
0
  6
Continuous
 62
     7
370
    25
100
AcDbLine
 10
67.0046196532
 20
124.6681433526
 30
0.0
 11
65.0046196532
 21
124.6681433526
 31
0.0
  0
LINE
  5
F5
330
1F
100
AcDbEntity
  8
0
  6
Continuous
 62
     7
370
    25
100
AcDbLine
 10
65.0046196532
 20
89.1681433526
 30
0.0
 11
67.0046196532
 21
89.1681433526
 31
0.0
  0
LINE
  5
F6
330
1F
100
AcDbEntity
  8
0
  6
Continuous
 62
     7
370
    25
100
AcDbLine
 10
50.0046196532
 20
120.1386433526
 30
0.0
 11
49.0046196532
 21
119.1386433526
 31
0.0
  0
LINE
  5
F7
330
1F
100
AcDbEntity
  8
0
  6
Continuous
 62
     7
370
    25
100
AcDbLine
 10
49.0046196532
 20
94.6976433526
 30
0.0
 11
50.0046196532
 21
93.6976433526
 31
0.0
  0
LINE
  5
F8
330
1F
100
AcDbEntity
  8
0
  6
Continuous
 62
     7
370
    25
100
AcDbLine
 10
62.0046196532
 20
120.1386433526
 30
0.0
 11
50.0046196532
 21
120.1386433526
 31
0.0
  0
LINE
  5
F9
330
1F
100
AcDbEntity
  8
0
  6
Continuous
 62
     7
370
    25
100
AcDbLine
 10
50.0046196532
 20
93.6976433526
 30
0.0
 11
62.0046196532
 21
93.6976433526
 31
0.0
  0
LINE
  5
FA
330
1F
100
AcDbEntity
  8
0
  6
Continuous
 62
     7
370
    25
100
AcDbLine
 10
62.0046196532
 20
93.6976433526
 30
0.0
 11
63.0046196532
 21
94.6976433526
 31
0.0
  0
LINE
  5
FB
330
1F
100
AcDbEntity
  8
0
  6
Continuous
 62
     7
370
    25
100
AcDbLine
 10
63.0046196532
 20
119.1386433526
 30
0.0
 11
62.0046196532
 21
120.1386433526
 31
0.0
  0
LINE
  5
FC
330
1F
100
AcDbEntity
  8
0
  6
Continuous
 62
     7
370
    25
100
AcDbLine
 10
65.0046196532
 20
118.9181433526
 30
0.0
 11
63.0046196532
 21
118.9181433526
 31
0.0
  0
LINE
  5
FD
330
1F
100
AcDbEntity
  8
0
  6
Continuous
 62
     7
370
    25
100
AcDbLine
 10
63.0046196532
 20
94.9181433526
 30
0.0
 11
65.0046196532
 21
94.9181433526
 31
0.0
  0
LINE
  5
FE
330
1F
100
AcDbEntity
  8
0
  6
Continuous
 62
     7
370
    25
100
AcDbLine
 10
81.0046196532
 20
124.6681433526
 30
0.0
 11
81.0046196532
 21
89.1681433526
 31
0.0
  0
SPLINE
  5
FF
330
1F
100
AcDbEntity
  8
0
  6
Continuous
 62
     7
370
    25
100
AcDbSpline
210
0.0
220
0.0
230
1.0
 70
    24
 71
     3
 72
    13
 73
     9
 74
     0
 42
0.000000001
 43
0.00000001
 40
0.0
 40
0.0
 40
0.0
 40
0.0
 40
0.1176254773156912
 40
0.2467606507449569
 40
0.4337685672089311
 40
0.6213808060383609
 40
0.8105017507507812
 40
1.0
 40
1.0
 40
1.0
 40
1.0
 10
80.85786294042693
 20
88.91814335260119
 30
0.0
 10
80.85403888386915
 20
88.91814335260119
 30
0.0
 10
80.84601658541631
 20
88.91814335260119
 30
0.0
 10
80.7481063866717
 20
88.91814335260119
 30
0.0
 10
80.55045291451034
 20
88.9181433526012
 30
0.0
 10
80.21525501120952
 20
88.91814335260119
 30
0.0
 10
79.78635959283321
 20
88.91814335260119
 30
0.0
 10
79.43062931683927
 20
88.9181433526012
 30
0.0
 10
79.25258693129499
 20
88.91814335260119
 30
0.0
  0
SPLINE
  5
100
330
1F
100
AcDbEntity
  8
0
  6
Continuous
 62
     7
370
    25
100
AcDbSpline
210
0.0
220
0.0
230
1.0
 70
     8
 71
     3
 72
    18
 73
    14
 74
     0
 42
0.000000001
 43
0.00000001
 40
0.0
 40
0.0
 40
0.0
 40
0.0
 40
0.2500000000000001
 40
0.2500000000000001
 40
0.5000000000000002
 40
0.5000000000000002
 40
0.5625000000000001
 40
0.5625000000000001
 40
0.6250000000000001
 40
0.6250000000000001
 40
0.7500000000000002
 40
0.7500000000000002
 40
1.0
 40
1.0
 40
1.0
 40
1.0
 10
79.25258693129518
 20
88.91814335260118
 30
0.0
 10
79.74243014208963
 20
90.38767298498452
 30
0.0
 10
80.14614954284419
 20
91.8679163341425
 30
0.0
 10
80.70543188785796
 20
94.85927345016832
 30
0.0
 10
80.85915000403618
 20
96.37061671182448
 30
0.0
 10
80.86055719782854
 20
98.28352371237077
 30
0.0
 10
80.85137753641867
 20
98.66804423376811
 30
0.0
 10
80.81439099917566
 20
99.43359726954678
 30
0.0
 10
80.78662689757846
 20
99.81504388124334
 30
0.0
 10
80.67672576307534
 20
100.955566664779
 30
0.0
 10
80.56791769059262
 20
101.7108168610241
 30
0.0
 10
80.1477595591633
 20
103.9631212671988
 30
0.0
 10
79.7430408196596
 20
105.4467816875077
 30
0.0
 10
79.25258693129508
 20
106.9181433526012
 30
0.0
  0
SPLINE
  5
101
330
1F
100
AcDbEntity
  8
0
  6
Continuous
 62
     7
370
    25
100
AcDbSpline
210
0.0
220
0.0
230
1.0
 70
     8
 71
     3
 72
    18
 73
    14
 74
     0
 42
0.000000001
 43
0.00000001
 40
0.0
 40
0.0
 40
0.0
 40
0.0
 40
0.2499999999999999
 40
0.2499999999999999
 40
0.4999999999999998
 40
0.4999999999999998
 40
0.5624999999999998
 40
0.5624999999999998
 40
0.6249999999999998
 40
0.6249999999999998
 40
0.7499999999999998
 40
0.7499999999999998
 40
1.0
 40
1.0
 40
1.0
 40
1.0
 10
79.25258693129518
 20
106.9181433526012
 30
0.0
 10
79.74243014208962
 20
108.3876729849845
 30
0.0
 10
80.14614954284419
 20
109.8679163341425
 30
0.0
 10
80.70543188785796
 20
112.8592734501683
 30
0.0
 10
80.85915000403618
 20
114.3706167118245
 30
0.0
 10
80.86055719782854
 20
116.2835237123708
 30
0.0
 10
80.85137753641868
 20
116.6680442337681
 30
0.0
 10
80.81439099917564
 20
117.4335972695468
 30
0.0
 10
80.78662689757844
 20
117.8150438812433
 30
0.0
 10
80.67672576307535
 20
118.955566664779
 30
0.0
 10
80.56791769059262
 20
119.7108168610241
 30
0.0
 10
80.14775955916329
 20
121.9631212671988
 30
0.0
 10
79.7430408196596
 20
123.4467816875077
 30
0.0
 10
79.25258693129508
 20
124.9181433526012
 30
0.0
  0
SPLINE
  5
102
330
1F
100
AcDbEntity
  8
0
  6
Continuous
 62
     7
370
    25
100
AcDbSpline
210
0.0
220
0.0
230
1.0
 70
    24
 71
     3
 72
    13
 73
     9
 74
     0
 42
0.000000001
 43
0.00000001
 40
0.0
 40
0.0
 40
0.0
 40
0.0
 40
0.1872757197764535
 40
0.3748807317136554
 40
0.5637689474637075
 40
0.7532378955932033
 40
0.878231701172666
 40
1.0
 40
1.0
 40
1.0
 40
1.0
 10
79.25258693129499
 20
124.9181433526012
 30
0.0
 10
79.42861608609132
 20
124.9181433526012
 30
0.0
 10
79.7809839126935
 20
124.9181433526012
 30
0.0
 10
80.20948015888493
 20
124.9181433526012
 30
0.0
 10
80.54766955147677
 20
124.9181433526012
 30
0.0
 10
80.74612464551322
 20
124.9181433526012
 30
0.0
 10
80.84487914824243
 20
124.9181433526012
 30
0.0
 10
80.85472318685862
 20
124.9181433526012
 30
0.0
 10
80.85958086887088
 20
124.9181433526012
 30
0.0
  0
LINE
  5
103
330
1F
100
AcDbEntity
  8
0
  6
Continuous
 62
     7
370
    25
100
AcDbLine
 10
79.2525869313
 20
106.9181433526
 30
0.0
 11
68.7566523751
 21
106.9181433526
 31
0.0
  0
SPLINE
  5
104
330
1F
100
AcDbEntity
  8
0
  6
Continuous
 62
     7
370
    25
100
AcDbSpline
210
0.0
220
0.0
230
1.0
 70
     8
 71
     3
 72
    18
 73
    14
 74
     0
 42
0.000000001
 43
0.00000001
 40
0.0
 40
0.0
 40
0.0
 40
0.0
 40
0.2499999999999999
 40
0.2499999999999999
 40
0.4999999999999999
 40
0.4999999999999999
 40
0.5624999999999999
 40
0.5624999999999999
 40
0.6249999999999999
 40
0.6249999999999999
 40
0.7499999999999999
 40
0.7499999999999999
 40
1.0
 40
1.0
 40
1.0
 40
1.0
 10
68.75665237506307
 20
124.9181433526012
 30
0.0
 10
68.26680916426862
 20
123.4486137202179
 30
0.0
 10
67.86308976351407
 20
121.9683703710599
 30
0.0
 10
67.30380741850028
 20
118.9770132550341
 30
0.0
 10
67.15008930232207
 20
117.4656699933779
 30
0.0
 10
67.1486821085297
 20
115.5527629928316
 30
0.0
 10
67.15786176993959
 20
115.1682424714343
 30
0.0
 10
67.1948483071826
 20
114.4026894356556
 30
0.0
 10
67.22261240877981
 20
114.021242823959
 30
0.0
 10
67.3325135432829
 20
112.8807200404234
 30
0.0
 10
67.44132161576563
 20
112.1254698441783
 30
0.0
 10
67.86147974719496
 20
109.8731654380036
 30
0.0
 10
68.26619848669866
 20
108.3895050176947
 30
0.0
 10
68.75665237506317
 20
106.9181433526012
 30
0.0
  0
LINE
  5
105
330
1F
100
AcDbEntity
  8
0
  6
Continuous
 62
     7
370
    25
100
AcDbLine
 10
79.2525869313
 20
124.9181433526
 30
0.0
 11
68.7566523751
 21
124.9181433526
 31
0.0
  0
LINE
  5
106
330
1F
100
AcDbEntity
  8
0
  6
Continuous
 62
     7
370
    25
100
AcDbLine
 10
67.0046196532
 20
89.1681433526
 30
0.0
 11
67.0046196532
 21
124.6681433526
 31
0.0
  0
SPLINE
  5
107
330
1F
100
AcDbEntity
  8
0
  6
Continuous
 62
     7
370
    25
100
AcDbSpline
210
0.0
220
0.0
230
1.0
 70
    24
 71
     3
 72
    13
 73
     9
 74
     0
 42
0.000000001
 43
0.00000001
 40
0.0
 40
0.0
 40
0.0
 40
0.0
 40
0.096441666197262
 40
0.2262710947036778
 40
0.4182721466251215
 40
0.6109378290430179
 40
0.805262204544255
 40
1.0
 40
1.0
 40
1.0
 40
1.0
 10
67.15471895018887
 20
124.9181433526012
 30
0.0
 10
67.15566675359167
 20
124.9181433526012
 30
0.0
 10
67.15789048656907
 20
124.9181433526012
 30
0.0
 10
67.2439130453188
 20
124.9181433526012
 30
0.0
 10
67.43484719972692
 20
124.9181433526012
 30
0.0
 10
67.77204595071964
 20
124.9181433526012
 30
0.0
 10
68.20871425262318
 20
124.9181433526012
 30
0.0
 10
68.57387699282779
 20
124.9181433526012
 30
0.0
 10
68.75665237506325
 20
124.9181433526012
 30
0.0
  0
SPLINE
  5
108
330
1F
100
AcDbEntity
  8
0
  6
Continuous
 62
     7
370
    25
100
AcDbSpline
210
0.0
220
0.0
230
1.0
 70
     8
 71
     3
 72
    18
 73
    14
 74
     0
 42
0.000000001
 43
0.00000001
 40
0.0
 40
0.0
 40
0.0
 40
0.0
 40
0.2500000000000002
 40
0.2500000000000002
 40
0.5000000000000004
 40
0.5000000000000004
 40
0.5625000000000003
 40
0.5625000000000003
 40
0.6250000000000003
 40
0.6250000000000003
 40
0.7500000000000002
 40
0.7500000000000002
 40
1.0
 40
1.0
 40
1.0
 40
1.0
 10
68.75665237506307
 20
106.9181433526012
 30
0.0
 10
68.26680916426862
 20
105.4486137202179
 30
0.0
 10
67.86308976351407
 20
103.9683703710599
 30
0.0
 10
67.30380741850028
 20
100.9770132550341
 30
0.0
 10
67.15008930232207
 20
99.4656699933779
 30
0.0
 10
67.1486821085297
 20
97.5527629928316
 30
0.0
 10
67.15786176993957
 20
97.16824247143427
 30
0.0
 10
67.19484830718258
 20
96.40268943565557
 30
0.0
 10
67.22261240877981
 20
96.02124282395904
 30
0.0
 10
67.3325135432829
 20
94.88072004042337
 30
0.0
 10
67.44132161576563
 20
94.1254698441783
 30
0.0
 10
67.86147974719496
 20
91.87316543800355
 30
0.0
 10
68.26619848669866
 20
90.38950501769469
 30
0.0
 10
68.75665237506317
 20
88.91814335260118
 30
0.0
  0
SPLINE
  5
109
330
1F
100
AcDbEntity
  8
0
  6
Continuous
 62
     7
370
    25
100
AcDbSpline
210
0.0
220
0.0
230
1.0
 70
    24
 71
     3
 72
    13
 73
     9
 74
     0
 42
0.000000001
 43
0.00000001
 40
0.0
 40
0.0
 40
0.0
 40
0.0
 40
0.1922987880698004
 40
0.3849566660228088
 40
0.579021842931729
 40
0.7737270769488623
 40
0.8993972688352319
 40
1.0
 40
1.0
 40
1.0
 40
1.0
 10
68.75665237506325
 20
88.91814335260119
 30
0.0
 10
68.576081856477
 20
88.91814335260119
 30
0.0
 10
68.21460363025052
 20
88.91814335260119
 30
0.0
 10
67.77830217722122
 20
88.9181433526012
 30
0.0
 10
67.43778523460571
 20
88.9181433526012
 30
0.0
 10
67.24577274355244
 20
88.91814335260119
 30
0.0
 10
67.15903702437396
 20
88.91814335260119
 30
0.0
 10
67.15518146352241
 20
88.91814335260119
 30
0.0
 10
67.15346725067447
 20
88.91814335260119
 30
0.0
  0
LINE
  5
10A
330
1F
100
AcDbEntity
  8
0
  6
Continuous
 62
     7
370
    25
100
AcDbLine
 10
79.2525869313
 20
88.9181433526
 30
0.0
 11
68.7566523751
 21
88.9181433526
 31
0.0
  0
LINE
  5
10B
330
1F
100
AcDbEntity
  8
0
  6
Continuous
 62
     7
370
    25
100
AcDbLine
 10
65.0046196532
 20
89.1681433526
 30
0.0
 11
65.0046196532
 21
124.6681433526
 31
0.0
  0
LINE
  5
10C
330
1F
100
AcDbEntity
  8
0
  6
Continuous
 62
     7
370
    25
100
AcDbLine
 10
49.0046196532
 20
94.6976433526
 30
0.0
 11
49.0046196532
 21
119.1386433526
 31
0.0
  0
LINE
  5
10D
330
1F
100
AcDbEntity
  8
0
  6
Continuous
 62
     7
370
    25
100
AcDbLine
 10
50.0046196532
 20
120.1386433526
 30
0.0
 11
50.0046196532
 21
93.6976433526
 31
0.0
  0
LINE
  5
10E
330
1F
100
AcDbEntity
  8
0
  6
Continuous
 62
     7
370
    25
100
AcDbLine
 10
62.0046196532
 20
93.6976433526
 30
0.0
 11
62.0046196532
 21
120.1386433526
 31
0.0
  0
LINE
  5
10F
330
1F
100
AcDbEntity
  8
0
  6
Continuous
 62
     7
370
    25
100
AcDbLine
 10
63.0046196532
 20
119.1386433526
 30
0.0
 11
63.0046196532
 21
94.6976433526
 31
0.0
  0
LINE
  5
110
330
1F
100
AcDbEntity
  8
0
  6
Continuous
 62
     7
370
    18
100
AcDbLine
 10
49.0046196532
 20
118.9766433526
 30
0.0
 11
63.0046196532
 21
118.9766433526
 31
0.0
  0
LINE
  5
111
330
1F
100
AcDbEntity
  8
0
  6
Continuous
 62
     7
370
    18
100
AcDbLine
 10
49.0046196532
 20
94.8596433526
 30
0.0
 11
63.0046196532
 21
94.8596433526
 31
0.0
  0
LINE
  5
112
330
1F
100
AcDbEntity
  8
0
  6
CENTERX2
 62
     7
370
    18
100
AcDbLine
 10
44.1670573862
 20
106.9181433526
 30
0.0
 11
84.5023159219
 21
106.9181433526
 31
0.0
  0
ENDSEC
  0
SECTION
  2
OBJECTS
  0
DICTIONARY
  5
C
330
0
100
AcDbDictionary
281
     1
  3
ACAD_GROUP
350
D
  3
ACAD_LAYOUT
350
1A
  3
ACAD_MLINESTYLE
350
17
  3
ACAD_PLOTSETTINGS
350
19
  3
ACAD_PLOTSTYLENAME
350
E
  3
ACAD_SCALELIST
350
47
  0
DICTIONARY
  5
D
102
{ACAD_REACTORS
330
C
102
}
330
C
100
AcDbDictionary
281
     1
  0
DICTIONARY
  5
1A
102
{ACAD_REACTORS
330
C
102
}
330
C
100
AcDbDictionary
281
     1
  3
Layout1
350
1E
  3
Layout2
350
26
  3
Model
350
22
  0
DICTIONARY
  5
17
102
{ACAD_REACTORS
330
C
102
}
330
C
100
AcDbDictionary
281
     1
  3
Standard
350
18
  0
DICTIONARY
  5
19
102
{ACAD_REACTORS
330
C
102
}
330
C
100
AcDbDictionary
281
     1
  0
ACDBDICTIONARYWDFLT
  5
E
102
{ACAD_REACTORS
330
C
102
}
330
C
100
AcDbDictionary
281
     1
  3
Normal
350
F
100
AcDbDictionaryWithDefault
340
F
  0
DICTIONARY
  5
47
102
{ACAD_REACTORS
330
C
102
}
330
C
100
AcDbDictionary
281
     1
  3
A0
350
48
  3
A1
350
49
  3
A2
350
4A
  3
A3
350
4B
  3
A4
350
4C
  3
A5
350
4D
  3
A6
350
4E
  3
A7
350
4F
  3
A8
350
50
  3
A9
350
51
  3
B0
350
52
  3
B1
350
53
  3
B2
350
54
  3
B3
350
55
  3
B4
350
56
  3
B5
350
57
  3
B6
350
58
  3
B7
350
59
  3
B8
350
5A
  3
B9
350
5B
  3
C0
350
5C
  3
C1
350
5D
  3
C2
350
5E
  3
C3
350
5F
  3
C4
350
60
  3
C5
350
61
  3
C6
350
62
  3
C7
350
63
  3
C8
350
64
  3
C9
350
65
  3
D0
350
66
  3
D1
350
67
  3
D2
350
68
  0
LAYOUT
  5
1E
102
{ACAD_REACTORS
330
1A
102
}
330
1A
100
AcDbPlotSettings
  1

  2
none_device
  4

  6

 40
0.0
 41
0.0
 42
0.0
 43
0.0
 44
0.0
 45
0.0
 46
0.0
 47
0.0
 48
0.0
 49
0.0
140
0.0
141
0.0
142
1.0
143
1.0
 70
   688
 72
     1
 73
     0
 74
     5
  7

 75
    16
147
1.0
148
0.0
149
0.0
100
AcDbLayout
  1
Layout1
 70
     1
 71
     1
 10
0.0
 20
0.0
 11
420.0
 21
297.0
 12
0.0
 22
0.0
 32
0.0
 14
1.0000000000E+20
 24
1.0000000000E+20
 34
1.0000000000E+20
 15
-1.0000000000E+20
 25
-1.0000000000E+20
 35
-1.0000000000E+20
146
0.0
 13
0.0
 23
0.0
 33
0.0
 16
1.0
 26
0.0
 36
0.0
 17
0.0
 27
1.0
 37
0.0
 76
     0
330
1B
  0
LAYOUT
  5
26
102
{ACAD_REACTORS
330
1A
102
}
330
1A
100
AcDbPlotSettings
  1

  2
none_device
  4

  6

 40
0.0
 41
0.0
 42
0.0
 43
0.0
 44
0.0
 45
0.0
 46
0.0
 47
0.0
 48
0.0
 49
0.0
140
0.0
141
0.0
142
1.0
143
1.0
 70
   688
 72
     1
 73
     0
 74
     5
  7

 75
    16
147
1.0
148
0.0
149
0.0
100
AcDbLayout
  1
Layout2
 70
     1
 71
     2
 10
0.0
 20
0.0
 11
0.0
 21
0.0
 12
0.0
 22
0.0
 32
0.0
 14
0.0
 24
0.0
 34
0.0
 15
0.0
 25
0.0
 35
0.0
146
0.0
 13
0.0
 23
0.0
 33
0.0
 16
1.0
 26
0.0
 36
0.0
 17
0.0
 27
1.0
 37
0.0
 76
     0
330
23
  0
LAYOUT
  5
22
102
{ACAD_REACTORS
330
1A
102
}
330
1A
100
AcDbPlotSettings
  1

  2
none_device
  4
Letter_(8.50_x_11.00_Inches)
  6

 40
6.35
 41
6.35
 42
6.35000508
 43
6.35000508
 44
215.9
 45
279.4
 46
0.0
 47
0.0
 48
0.0
 49
0.0
140
0.0
141
0.0
142
1.0
143
1.0
 70
  1712
 72
     1
 73
     0
 74
     0
  7

 75
     0
147
1.0
148
0.0
149
0.0
100
AcDbLayout
  1
Model
 70
     1
 71
     0
 10
0.0
 20
0.0
 11
431.8
 21
279.4
 12
0.0
 22
0.0
 32
0.0
 14
0.0
 24
0.0
 34
0.0
 15
431.8
 25
279.4
 35
0.0
146
0.0
 13
0.0
 23
0.0
 33
0.0
 16
1.0
 26
0.0
 36
0.0
 17
0.0
 27
1.0
 37
0.0
 76
     0
330
1F
331
29
  0
MLINESTYLE
  5
18
102
{ACAD_REACTORS
330
17
102
}
330
17
100
AcDbMlineStyle
  2
Standard
 70
     0
  3

 62
   256
 51
90.0
 52
90.0
 71
     2
 49
0.5
 62
   256
  6
BYLAYER
 49
-0.5
 62
   256
  6
BYLAYER
  0
ACDBPLACEHOLDER
  5
F
102
{ACAD_REACTORS
330
E
102
}
330
E
  0
SCALE
  5
48
102
{ACAD_REACTORS
330
47
102
}
330
47
100
AcDbScale
 70
     0
300
1:1
140
1.0
141
1.0
290
     1
  0
SCALE
  5
49
102
{ACAD_REACTORS
330
47
102
}
330
47
100
AcDbScale
 70
     0
300
1:2
140
1.0
141
2.0
290
     0
  0
SCALE
  5
4A
102
{ACAD_REACTORS
330
47
102
}
330
47
100
AcDbScale
 70
     0
300
1:4
140
1.0
141
4.0
290
     0
  0
SCALE
  5
4B
102
{ACAD_REACTORS
330
47
102
}
330
47
100
AcDbScale
 70
     0
300
1:5
140
1.0
141
5.0
290
     0
  0
SCALE
  5
4C
102
{ACAD_REACTORS
330
47
102
}
330
47
100
AcDbScale
 70
     0
300
1:8
140
1.0
141
8.0
290
     0
  0
SCALE
  5
4D
102
{ACAD_REACTORS
330
47
102
}
330
47
100
AcDbScale
 70
     0
300
1:10
140
1.0
141
10.0
290
     0
  0
SCALE
  5
4E
102
{ACAD_REACTORS
330
47
102
}
330
47
100
AcDbScale
 70
     0
300
1:16
140
1.0
141
16.0
290
     0
  0
SCALE
  5
4F
102
{ACAD_REACTORS
330
47
102
}
330
47
100
AcDbScale
 70
     0
300
1:20
140
1.0
141
20.0
290
     0
  0
SCALE
  5
50
102
{ACAD_REACTORS
330
47
102
}
330
47
100
AcDbScale
 70
     0
300
1:30
140
1.0
141
30.0
290
     0
  0
SCALE
  5
51
102
{ACAD_REACTORS
330
47
102
}
330
47
100
AcDbScale
 70
     0
300
1:40
140
1.0
141
40.0
290
     0
  0
SCALE
  5
52
102
{ACAD_REACTORS
330
47
102
}
330
47
100
AcDbScale
 70
     0
300
1:50
140
1.0
141
50.0
290
     0
  0
SCALE
  5
53
102
{ACAD_REACTORS
330
47
102
}
330
47
100
AcDbScale
 70
     0
300
1:100
140
1.0
141
100.0
290
     0
  0
SCALE
  5
54
102
{ACAD_REACTORS
330
47
102
}
330
47
100
AcDbScale
 70
     0
300
2:1
140
2.0
141
1.0
290
     0
  0
SCALE
  5
55
102
{ACAD_REACTORS
330
47
102
}
330
47
100
AcDbScale
 70
     0
300
4:1
140
4.0
141
1.0
290
     0
  0
SCALE
  5
56
102
{ACAD_REACTORS
330
47
102
}
330
47
100
AcDbScale
 70
     0
300
8:1
140
8.0
141
1.0
290
     0
  0
SCALE
  5
57
102
{ACAD_REACTORS
330
47
102
}
330
47
100
AcDbScale
 70
     0
300
10:1
140
10.0
141
1.0
290
     0
  0
SCALE
  5
58
102
{ACAD_REACTORS
330
47
102
}
330
47
100
AcDbScale
 70
     0
300
100:1
140
100.0
141
1.0
290
     0
  0
SCALE
  5
59
102
{ACAD_REACTORS
330
47
102
}
330
47
100
AcDbScale
 70
     0
300
1/128" = 1'-0"
140
0.0078125
141
12.0
290
     0
  0
SCALE
  5
5A
102
{ACAD_REACTORS
330
47
102
}
330
47
100
AcDbScale
 70
     0
300
1/64" = 1'-0"
140
0.015625
141
12.0
290
     0
  0
SCALE
  5
5B
102
{ACAD_REACTORS
330
47
102
}
330
47
100
AcDbScale
 70
     0
300
1/32" = 1'-0"
140
0.03125
141
12.0
290
     0
  0
SCALE
  5
5C
102
{ACAD_REACTORS
330
47
102
}
330
47
100
AcDbScale
 70
     0
300
1/16" = 1'-0"
140
0.0625
141
12.0
290
     0
  0
SCALE
  5
5D
102
{ACAD_REACTORS
330
47
102
}
330
47
100
AcDbScale
 70
     0
300
3/32" = 1'-0"
140
0.09375
141
12.0
290
     0
  0
SCALE
  5
5E
102
{ACAD_REACTORS
330
47
102
}
330
47
100
AcDbScale
 70
     0
300
1/8" = 1'-0"
140
0.125
141
12.0
290
     0
  0
SCALE
  5
5F
102
{ACAD_REACTORS
330
47
102
}
330
47
100
AcDbScale
 70
     0
300
3/16" = 1'-0"
140
0.1875
141
12.0
290
     0
  0
SCALE
  5
60
102
{ACAD_REACTORS
330
47
102
}
330
47
100
AcDbScale
 70
     0
300
1/4" = 1'-0"
140
0.25
141
12.0
290
     0
  0
SCALE
  5
61
102
{ACAD_REACTORS
330
47
102
}
330
47
100
AcDbScale
 70
     0
300
3/8" = 1'-0"
140
0.375
141
12.0
290
     0
  0
SCALE
  5
62
102
{ACAD_REACTORS
330
47
102
}
330
47
100
AcDbScale
 70
     0
300
1/2" = 1'-0"
140
0.5
141
12.0
290
     0
  0
SCALE
  5
63
102
{ACAD_REACTORS
330
47
102
}
330
47
100
AcDbScale
 70
     0
300
3/4" = 1'-0"
140
0.75
141
12.0
290
     0
  0
SCALE
  5
64
102
{ACAD_REACTORS
330
47
102
}
330
47
100
AcDbScale
 70
     0
300
1" = 1'-0"
140
1.0
141
12.0
290
     0
  0
SCALE
  5
65
102
{ACAD_REACTORS
330
47
102
}
330
47
100
AcDbScale
 70
     0
300
1-1/2" = 1'-0"
140
1.5
141
12.0
290
     0
  0
SCALE
  5
66
102
{ACAD_REACTORS
330
47
102
}
330
47
100
AcDbScale
 70
     0
300
3" = 1'-0"
140
3.0
141
12.0
290
     0
  0
SCALE
  5
67
102
{ACAD_REACTORS
330
47
102
}
330
47
100
AcDbScale
 70
     0
300
6" = 1'-0"
140
6.0
141
12.0
290
     0
  0
SCALE
  5
68
102
{ACAD_REACTORS
330
47
102
}
330
47
100
AcDbScale
 70
     0
300
1'-0" = 1'-0"
140
12.0
141
12.0
290
     0
  0
ENDSEC
  0
EOF
