  0
SECTION
  2
HEADER
  9
$ACADVER
  1
AC1015
  9
$ACADMAINTVER
 70
     6
  9
$DWGCODEPAGE
  3
DOS932
  9
$INSBASE
 10
0.0
 20
0.0
 30
0.0
  9
$EXTMIN
 10
0.0
 20
0.0
 30
0.0
  9
$EXTMAX
 10
215.9
 20
139.7
 30
0.0
  9
$LIMMIN
 10
0.0
 20
0.0
  9
$LIMMAX
 10
215.9
 20
139.7
  9
$ORTHOMODE
 70
     0
  9
$REGENMODE
 70
     1
  9
$FILLMODE
 70
     1
  9
$QTEXTMODE
 70
     0
  9
$MIRRTEXT
 70
     1
  9
$LTSCALE
 40
0.5
  9
$ATTMODE
 70
     1
  9
$TEXTSIZE
 40
1.75
  9
$TRACEWID
 40
1.0
  9
$TEXTSTYLE
  7
Standard
  9
$CLAYER
  8
0
  9
$CELTYPE
  6
ByLayer
  9
$CECOLOR
 62
   256
  9
$CELTSCALE
 40
1.0
  9
$DISPSILH
 70
     0
  9
$DIMSCALE
 40
1.0
  9
$DIMASZ
 40
1.651
  9
$DIMEXO
 40
0.5
  9
$DIMDLI
 40
3.75
  9
$DIMRND
 40
0.0
  9
$DIMDLE
 40
0.0
  9
$DIMEXE
 40
0.5
  9
$DIMTP
 40
0.0
  9
$DIMTM
 40
0.0
  9
$DIMTXT
 40
1.75
  9
$DIMCEN
 40
2.5
  9
$DIMTSZ
 40
0.0
  9
$DIMTOL
 70
     0
  9
$DIMLIM
 70
     0
  9
$DIMTIH
 70
     1
  9
$DIMTOH
 70
     1
  9
$DIMSE1
 70
     0
  9
$DIMSE2
 70
     0
  9
$DIMTAD
 70
     1
  9
$DIMZIN
 70
     1
  9
$DIMBLK
  1

  9
$DIMASO
 70
     1
  9
$DIMSHO
 70
     1
  9
$DIMPOST
  1

  9
$DIMAPOST
  1

  9
$DIMALT
 70
     0
  9
$DIMALTD
 70
     3
  9
$DIMALTF
 40
0.0393700787
  9
$DIMLFAC
 40
1.0
  9
$DIMTOFL
 70
     1
  9
$DIMTVP
 40
0.0
  9
$DIMTIX
 70
     0
  9
$DIMSOXD
 70
     0
  9
$DIMSAH
 70
     0
  9
$DIMBLK1
  1

  9
$DIMBLK2
  1

  9
$DIMSTYLE
  2
ISO-25
  9
$DIMCLRD
 70
     0
  9
$DIMCLRE
 70
     0
  9
$DIMCLRT
 70
     0
  9
$DIMTFAC
 40
1.0
  9
$DIMGAP
 40
0.762
  9
$DIMJUST
 70
     0
  9
$DIMSD1
 70
     0
  9
$DIMSD2
 70
     0
  9
$DIMTOLJ
 70
     0
  9
$DIMTZIN
 70
     1
  9
$DIMALTZ
 70
     0
  9
$DIMALTTZ
 70
     0
  9
$DIMUPT
 70
     0
  9
$DIMDEC
 70
     2
  9
$DIMTDEC
 70
     2
  9
$DIMALTU
 70
     2
  9
$DIMALTTD
 70
     3
  9
$DIMTXSTY
  7
Standard
  9
$DIMAUNIT
 70
     0
  9
$DIMADEC
 70
     2
  9
$DIMALTRND
 40
0.0
  9
$DIMAZIN
 70
     0
  9
$DIMDSEP
 70
    44
  9
$DIMATFIT
 70
     3
  9
$DIMFRAC
 70
     0
  9
$DIMLDRBLK
  1

  9
$DIMLUNIT
 70
     2
  9
$DIMLWD
 70
    -2
  9
$DIMLWE
 70
    -2
  9
$DIMTMOVE
 70
     0
  9
$LUNITS
 70
     2
  9
$LUPREC
 70
     2
  9
$SKETCHINC
 40
1.0
  9
$FILLETRAD
 40
10.0
  9
$AUNITS
 70
     0
  9
$AUPREC
 70
     2
  9
$MENU
  1
.
  9
$ELEVATION
 40
0.0
  9
$PELEVATION
 40
0.0
  9
$THICKNESS
 40
0.0
  9
$LIMCHECK
 70
     0
  9
$CHAMFERA
 40
0.0
  9
$CHAMFERB
 40
0.0
  9
$CHAMFERC
 40
0.0
  9
$CHAMFERD
 40
0.0
  9
$SKPOLY
 70
     0
  9
$TDCREATE
 40
2460087.724454514
  9
$TDUCREATE
 40
2460087.349454514
  9
$TDUPDATE
 40
2460087.724454884
  9
$TDUUPDATE
 40
2460087.349454884
  9
$TDINDWG
 40
0.0000000116
  9
$TDUSRTIMER
 40
0.0000000116
  9
$USRTIMER
 70
     1
  9
$ANGBASE
 50
0.0
  9
$ANGDIR
 70
     0
  9
$PDMODE
 70
     0
  9
$PDSIZE
 40
-1.0
  9
$PLINEWID
 40
0.0
  9
$SPLFRAME
 70
     0
  9
$SPLINETYPE
 70
     6
  9
$SPLINESEGS
 70
     8
  9
$HANDSEED
  5
113
  9
$SURFTAB1
 70
     6
  9
$SURFTAB2
 70
     6
  9
$SURFTYPE
 70
     6
  9
$SURFU
 70
     6
  9
$SURFV
 70
     6
  9
$UCSBASE
  2

  9
$UCSNAME
  2

  9
$UCSORG
 10
0.0
 20
0.0
 30
0.0
  9
$UCSXDIR
 10
1.0
 20
0.0
 30
0.0
  9
$UCSYDIR
 10
0.0
 20
1.0
 30
0.0
  9
$UCSORTHOREF
  2

  9
$UCSORTHOVIEW
 70
     0
  9
$UCSORGTOP
 10
0.0
 20
0.0
 30
0.0
  9
$UCSORGBOTTOM
 10
0.0
 20
0.0
 30
0.0
  9
$UCSORGLEFT
 10
0.0
 20
0.0
 30
0.0
  9
$UCSORGRIGHT
 10
0.0
 20
0.0
 30
0.0
  9
$UCSORGFRONT
 10
0.0
 20
0.0
 30
0.0
  9
$UCSORGBACK
 10
0.0
 20
0.0
 30
0.0
  9
$PUCSBASE
  2

  9
$PUCSNAME
  2

  9
$PUCSORG
 10
0.0
 20
0.0
 30
0.0
  9
$PUCSXDIR
 10
1.0
 20
0.0
 30
0.0
  9
$PUCSYDIR
 10
0.0
 20
1.0
 30
0.0
  9
$PUCSORTHOREF
  2

  9
$PUCSORTHOVIEW
 70
     0
  9
$PUCSORGTOP
 10
0.0
 20
0.0
 30
0.0
  9
$PUCSORGBOTTOM
 10
0.0
 20
0.0
 30
0.0
  9
$PUCSORGLEFT
 10
0.0
 20
0.0
 30
0.0
  9
$PUCSORGRIGHT
 10
0.0
 20
0.0
 30
0.0
  9
$PUCSORGFRONT
 10
0.0
 20
0.0
 30
0.0
  9
$PUCSORGBACK
 10
0.0
 20
0.0
 30
0.0
  9
$USERI1
 70
     0
  9
$USERI2
 70
     0
  9
$USERI3
 70
     0
  9
$USERI4
 70
     0
  9
$USERI5
 70
     0
  9
$USERR1
 40
0.0
  9
$USERR2
 40
0.0
  9
$USERR3
 40
0.0
  9
$USERR4
 40
0.0
  9
$USERR5
 40
0.0
  9
$WORLDVIEW
 70
     1
  9
$SHADEDGE
 70
     3
  9
$SHADEDIF
 70
    70
  9
$TILEMODE
 70
     1
  9
$MAXACTVP
 70
    64
  9
$PINSBASE
 10
0.0
 20
0.0
 30
0.0
  9
$PLIMCHECK
 70
     0
  9
$PEXTMIN
 10
1.0000000000E+20
 20
1.0000000000E+20
 30
1.0000000000E+20
  9
$PEXTMAX
 10
-1.0000000000E+20
 20
-1.0000000000E+20
 30
-1.0000000000E+20
  9
$PLIMMIN
 10
0.0
 20
0.0
  9
$PLIMMAX
 10
420.0
 20
297.0
  9
$UNITMODE
 70
     0
  9
$VISRETAIN
 70
     1
  9
$PLINEGEN
 70
     0
  9
$PSLTSCALE
 70
     1
  9
$TREEDEPTH
 70
  3020
  9
$CMLSTYLE
  2
Standard
  9
$CMLJUST
 70
     0
  9
$CMLSCALE
 40
20.0
  9
$PROXYGRAPHICS
 70
     1
  9
$MEASUREMENT
 70
     1
  9
$CELWEIGHT
370
    -1
  9
$ENDCAPS
280
     0
  9
$JOINSTYLE
280
     0
  9
$LWDISPLAY
290
     1
  9
$INSUNITS
 70
     4
  9
$HYPERLINKBASE
  1

  9
$STYLESHEET
  1

  9
$XEDIT
290
     1
  9
$CEPSNTYPE
380
     0
  9
$PSTYLEMODE
290
     1
  9
$FINGERPRINTGUID
  2
{CC05F5B3-18E1-4CB0-A337-3B3EC648F0D8}
  9
$VERSIONGUID
  2
{FAEB1C32-E019-11D5-929B-00C0DF256EC4}
  9
$EXTNAMES
290
     1
  9
$PSVPSCALE
 40
0.0
  9
$OLESTARTUP
290
     0
  0
ENDSEC
  0
SECTION
  2
CLASSES
  0
CLASS
  1
ACDBDICTIONARYWDFLT
  2
AcDbDictionaryWithDefault
  3
ObjectDBX Classes
 90
        0
280
     0
281
     0
  0
CLASS
  1
VISUALSTYLE
  2
AcDbVisualStyle
  3
ObjectDBX Classes
 90
     4095
280
     0
281
     0
  0
CLASS
  1
MATERIAL
  2
AcDbMaterial
  3
ObjectDBX Classes
 90
     1153
280
     0
281
     0
  0
CLASS
  1
SCALE
  2
AcDbScale
  3
ObjectDBX Classes
 90
     1153
280
     0
281
     0
  0
CLASS
  1
TABLESTYLE
  2
AcDbTableStyle
  3
ObjectDBX Classes
 90
     4095
280
     0
281
     0
  0
CLASS
  1
MLEADERSTYLE
  2
AcDbMLeaderStyle
  3
ACDB_MLEADERSTYLE_CLASS
 90
     4095
280
     0
281
     0
  0
CLASS
  1
SUN
  2
AcDbSun
  3
SCENEOE
 90
     1153
280
     0
281
     0
  0
CLASS
  1
ACDBPLACEHOLDER
  2
AcDbPlaceHolder
  3
ObjectDBX Classes
 90
        0
280
     0
281
     0
  0
CLASS
  1
LAYOUT
  2
AcDbLayout
  3
ObjectDBX Classes
 90
        0
280
     0
281
     0
  0
ENDSEC
  0
SECTION
  2
TABLES
  0
TABLE
  2
VPORT
  5
8
330
0
100
AcDbSymbolTable
 70
     1
  0
VPORT
  5
29
330
8
100
AcDbSymbolTableRecord
100
AcDbViewportTableRecord
  2
*Active
 70
     0
 10
0.0
 20
0.0
 11
1.0
 21
1.0
 12
107.95
 22
69.85
 13
0.0
 23
0.0
 14
10.0
 24
10.0
 15
10.0
 25
10.0
 16
0.0
 26
0.0
 36
1.0
 17
0.0
 27
0.0
 37
0.0
 40
139.7
 41
1.5454545455
 42
50.0
 43
0.0
 44
0.0
 50
0.0
 51
0.0
 71
     0
 72
  2000
 73
     1
 74
     3
 75
     0
 76
     0
 77
     0
 78
     0
281
     0
 65
     1
110
0.0
120
0.0
130
0.0
111
1.0
121
0.0
131
0.0
112
0.0
122
1.0
132
0.0
 79
     0
146
0.0
  0
ENDTAB
  0
TABLE
  2
LTYPE
  5
5
330
0
100
AcDbSymbolTable
 70
     6
  0
LTYPE
  5
14
330
5
100
AcDbSymbolTableRecord
100
AcDbLinetypeTableRecord
  2
ByBlock
 70
     0
  3

 72
    65
 73
     0
 40
0.0
  0
LTYPE
  5
15
330
5
100
AcDbSymbolTableRecord
100
AcDbLinetypeTableRecord
  2
ByLayer
 70
     0
  3

 72
    65
 73
     0
 40
0.0
  0
LTYPE
  5
16
330
5
100
AcDbSymbolTableRecord
100
AcDbLinetypeTableRecord
  2
Continuous
 70
     0
  3
Solid line
 72
    65
 73
     0
 40
0.0
  0
LTYPE
  5
6E
330
5
100
AcDbSymbolTableRecord
100
AcDbLinetypeTableRecord
  2
HIDDEN
 70
     0
  3
Hidden __ __ __ __ __ __ __ __ __ __ __ __ __ __
 72
    65
 73
     2
 40
1.905
 49
1.27
 74
     0
 49
-0.635
 74
     0
  0
LTYPE
  5
6F
330
5
100
AcDbSymbolTableRecord
100
AcDbLinetypeTableRecord
  2
PHANTOM
 70
     0
  3
Phantom ______  __  __  ______  __  __  ______
 72
    65
 73
     6
 40
12.7
 49
6.35
 74
     0
 49
-1.27
 74
     0
 49
1.27
 74
     0
 49
-1.27
 74
     0
 49
1.27
 74
     0
 49
-1.27
 74
     0
  0
LTYPE
  5
70
330
5
100
AcDbSymbolTableRecord
100
AcDbLinetypeTableRecord
  2
CENTER
 70
     0
  3
Center ____ _ ____ _ ____ _ ____ _ ____ _ ____
 72
    65
 73
     4
 40
10.16
 49
6.35
 74
     0
 49
-1.27
 74
     0
 49
1.27
 74
     0
 49
-1.27
 74
     0
  0
LTYPE
  5
71
330
5
100
AcDbSymbolTableRecord
100
AcDbLinetypeTableRecord
  2
CENTERX2
 70
     0
  3
Center (2x) ________  __  ________  __  _____
 72
    65
 73
     4
 40
20.32
 49
12.7
 74
     0
 49
-2.54
 74
     0
 49
2.54
 74
     0
 49
-2.54
 74
     0
  0
LTYPE
  5
72
330
5
100
AcDbSymbolTableRecord
100
AcDbLinetypeTableRecord
  2
DOT2
 70
     0
  3
Dot (.5x) ........................................
 72
    65
 73
     2
 40
0.635
 49
0.0
 74
     0
 49
-0.635
 74
     0
  0
ENDTAB
  0
TABLE
  2
LAYER
  5
2
330
0
100
AcDbSymbolTable
 70
     1
  0
LAYER
  5
10
330
2
100
AcDbSymbolTableRecord
100
AcDbLayerTableRecord
  2
0
 70
     0
 62
     7
  6
Continuous
370
    -3
390
F
  0
ENDTAB
  0
TABLE
  2
STYLE
  5
3
330
0
100
AcDbSymbolTable
 70
     2
  0
STYLE
  5
11
330
3
100
AcDbSymbolTableRecord
100
AcDbTextStyleTableRecord
  2
Standard
 70
     0
 40
0.0
 41
1.0
 50
0.0
 71
     0
 42
1.75
  3
txt
  4
bigfont
  0
STYLE
  5
73
330
3
100
AcDbSymbolTableRecord
100
AcDbTextStyleTableRecord
  2
SLDTEXTSTYLE0
 70
     0
 40
0.0
 41
0.7
 50
0.0
 71
     0
 42
1.75
  3
TXT
  4
bigfont
  0
ENDTAB
  0
TABLE
  2
VIEW
  5
6
330
0
100
AcDbSymbolTable
 70
     0
  0
ENDTAB
  0
TABLE
  2
UCS
  5
7
330
0
100
AcDbSymbolTable
 70
     0
  0
ENDTAB
  0
TABLE
  2
APPID
  5
9
330
0
100
AcDbSymbolTable
 70
     1
  0
APPID
  5
12
330
9
100
AcDbSymbolTableRecord
100
AcDbRegAppTableRecord
  2
ACAD
 70
     0
  0
ENDTAB
  0
TABLE
  2
DIMSTYLE
  5
A
330
0
100
AcDbSymbolTable
 70
     1
100
AcDbDimStyleTable
  0
DIMSTYLE
105
27
330
A
100
AcDbSymbolTableRecord
100
AcDbDimStyleTableRecord
  2
ISO-25
 70
     0
 41
2.5
 42
0.625
 43
3.75
 44
1.25
 73
     0
 74
     0
 77
     1
 78
     8
140
2.5
141
2.5
143
0.0393700787
147
0.625
171
     3
172
     1
178
     0
271
     2
272
     2
274
     3
278
    44
283
     0
284
     8
340
11
  0
ENDTAB
  0
TABLE
  2
BLOCK_RECORD
  5
1
330
0
100
AcDbSymbolTable
 70
     2
  0
BLOCK_RECORD
  5
1F
330
1
100
AcDbSymbolTableRecord
100
AcDbBlockTableRecord
  2
*Model_Space
340
22
  0
BLOCK_RECORD
  5
1B
330
1
100
AcDbSymbolTableRecord
100
AcDbBlockTableRecord
  2
*Paper_Space
340
1E
  0
BLOCK_RECORD
  5
23
330
1
100
AcDbSymbolTableRecord
100
AcDbBlockTableRecord
  2
*Paper_Space0
340
26
  0
BLOCK_RECORD
  5
E3
330
1
100
AcDbSymbolTableRecord
100
AcDbBlockTableRecord
  2
SW_CENTERMARKSYMBOL_0
340
0
102
{BLKREFS
331
EE
102
}
  0
ENDTAB
  0
ENDSEC
  0
SECTION
  2
BLOCKS
  0
BLOCK
  5
20
330
1F
100
AcDbEntity
  8
0
100
AcDbBlockBegin
  2
*Model_Space
 70
     0
 10
0.0
 20
0.0
 30
0.0
  3
*Model_Space
  1

  0
ENDBLK
  5
21
330
1F
100
AcDbEntity
  8
0
100
AcDbBlockEnd
  0
BLOCK
  5
1C
330
1B
100
AcDbEntity
 67
     1
  8
0
100
AcDbBlockBegin
  2
*Paper_Space
 70
     0
 10
0.0
 20
0.0
 30
0.0
  3
*Paper_Space
  1

  0
ENDBLK
  5
1D
330
1B
100
AcDbEntity
 67
     1
  8
0
100
AcDbBlockEnd
  0
BLOCK
  5
24
330
23
100
AcDbEntity
  8
0
100
AcDbBlockBegin
  2
*Paper_Space0
 70
     0
 10
0.0
 20
0.0
 30
0.0
  3
*Paper_Space0
  1

  0
ENDBLK
  5
25
330
23
100
AcDbEntity
  8
0
100
AcDbBlockEnd
  0
BLOCK
  5
E4
330
E3
100
AcDbEntity
  8
0
100
AcDbBlockBegin
  2
SW_CENTERMARKSYMBOL_0
 70
     0
 10
0.0
 20
0.0
 30
0.0
  3
SW_CENTERMARKSYMBOL_0
  1

  0
LINE
  5
E6
330
E3
100
AcDbEntity
  8
0
  6
Continuous
 62
     0
370
    18
100
AcDbLine
 10
0.0
 20
0.0
 30
0.0
 11
0.0
 21
2.5
 31
0.0
  0
LINE
  5
E7
330
E3
100
AcDbEntity
  8
0
  6
Continuous
 62
     0
370
    18
100
AcDbLine
 10
0.0
 20
0.0
 30
0.0
 11
-2.5
 21
0.0
 31
0.0
  0
LINE
  5
E8
330
E3
100
AcDbEntity
  8
0
  6
Continuous
 62
     0
370
    18
100
AcDbLine
 10
0.0
 20
0.0
 30
0.0
 11
0.0
 21
-2.5
 31
0.0
  0
LINE
  5
E9
330
E3
100
AcDbEntity
  8
0
  6
Continuous
 62
     0
370
    18
100
AcDbLine
 10
0.0
 20
0.0
 30
0.0
 11
2.5
 21
0.0
 31
0.0
  0
LINE
  5
EA
330
E3
100
AcDbEntity
  8
0
  6
Continuous
 62
     0
370
    18
100
AcDbLine
 10
0.0
 20
5.0
 30
0.0
 11
0.0
 21
15.75
 31
0.0
  0
LINE
  5
EB
330
E3
100
AcDbEntity
  8
0
  6
Continuous
 62
     0
370
    18
100
AcDbLine
 10
-5.0
 20
0.0
 30
0.0
 11
-15.75
 21
0.0
 31
0.0
  0
LINE
  5
EC
330
E3
100
AcDbEntity
  8
0
  6
Continuous
 62
     0
370
    18
100
AcDbLine
 10
0.0
 20
-5.0
 30
0.0
 11
0.0
 21
-15.75
 31
0.0
  0
LINE
  5
ED
330
E3
100
AcDbEntity
  8
0
  6
Continuous
 62
     0
370
    18
100
AcDbLine
 10
5.0
 20
0.0
 30
0.0
 11
15.75
 21
0.0
 31
0.0
  0
ENDBLK
  5
E5
330
E3
100
AcDbEntity
  8
0
100
AcDbBlockEnd
  0
ENDSEC
  0
SECTION
  2
ENTITIES
  0
MTEXT
  5
74
330
1F
100
AcDbEntity
  8
0
  6
Continuous
 62
     7
370
     0
100
AcDbMText
 10
47.6190025651
 20
52.9100887282
 30
0.0
 40
2.38125
 41
0.0
 71
     1
 72
     1
  1
六角プラグ　HP-7004
  7
SLDTEXTSTYLE0
 73
     1
 44
1.0
  0
LINE
  5
75
330
1F
100
AcDbEntity
  8
0
  6
Continuous
 62
     7
370
    25
100
AcDbLine
 10
30.0925667367
 20
36.759871141
 30
0.0
 11
28.7424578035
 21
34.4214138728
 31
0.0
  0
LINE
  5
76
330
1F
100
AcDbEntity
  8
0
  6
Continuous
 62
     7
370
    25
100
AcDbLine
 10
28.7424578035
 20
7.9214138728
 30
0.0
 11
30.0925667367
 21
5.5829566047
 31
0.0
  0
LINE
  5
77
330
1F
100
AcDbEntity
  8
0
  6
Continuous
 62
     7
370
    25
100
AcDbLine
 10
38.3923488702
 20
5.5829566047
 30
0.0
 11
39.7424578035
 21
7.9214138728
 31
0.0
  0
LINE
  5
78
330
1F
100
AcDbEntity
  8
0
  6
Continuous
 62
     7
370
    25
100
AcDbLine
 10
39.7424578035
 20
34.4214138728
 30
0.0
 11
38.3923488702
 21
36.759871141
 31
0.0
  0
LINE
  5
79
330
1F
100
AcDbEntity
  8
0
  6
Continuous
 62
     7
370
    25
100
AcDbLine
 10
28.7424578035
 20
34.4214138728
 30
0.0
 11
26.7424578035
 21
34.4214138728
 31
0.0
  0
LINE
  5
7A
330
1F
100
AcDbEntity
  8
0
  6
Continuous
 62
     7
370
    25
100
AcDbLine
 10
26.7424578035
 20
7.9214138728
 30
0.0
 11
28.7424578035
 21
7.9214138728
 31
0.0
  0
LINE
  5
7B
330
1F
100
AcDbEntity
  8
0
  6
Continuous
 62
     7
370
    25
100
AcDbLine
 10
23.7424578035
 20
10.6939138728
 30
0.0
 11
24.7424578035
 21
11.6939138728
 31
0.0
  0
LINE
  5
7C
330
1F
100
AcDbEntity
  8
0
  6
Continuous
 62
     7
370
    25
100
AcDbLine
 10
24.7424578035
 20
30.6489138728
 30
0.0
 11
23.7424578035
 21
31.6489138728
 31
0.0
  0
LINE
  5
7D
330
1F
100
AcDbEntity
  8
0
  6
Continuous
 62
     7
370
    25
100
AcDbLine
 10
23.7424578035
 20
31.6489138728
 30
0.0
 11
13.7424578035
 21
31.6489138728
 31
0.0
  0
LINE
  5
7E
330
1F
100
AcDbEntity
  8
0
  6
Continuous
 62
     7
370
    25
100
AcDbLine
 10
13.7424578035
 20
10.6939138728
 30
0.0
 11
23.7424578035
 21
10.6939138728
 31
0.0
  0
LINE
  5
7F
330
1F
100
AcDbEntity
  8
0
  6
Continuous
 62
     7
370
    25
100
AcDbLine
 10
13.7424578035
 20
31.6489138728
 30
0.0
 11
12.7424578035
 21
30.6489138728
 31
0.0
  0
LINE
  5
80
330
1F
100
AcDbEntity
  8
0
  6
Continuous
 62
     7
370
    25
100
AcDbLine
 10
12.7424578035
 20
11.6939138728
 30
0.0
 11
13.7424578035
 21
10.6939138728
 31
0.0
  0
LINE
  5
81
330
1F
100
AcDbEntity
  8
0
  6
Continuous
 62
     7
370
    25
100
AcDbLine
 10
26.7424578035
 20
30.1714138728
 30
0.0
 11
24.7424578035
 21
30.1714138728
 31
0.0
  0
LINE
  5
82
330
1F
100
AcDbEntity
  8
0
  6
Continuous
 62
     7
370
    25
100
AcDbLine
 10
24.7424578035
 20
12.1714138728
 30
0.0
 11
26.7424578035
 21
12.1714138728
 31
0.0
  0
SPLINE
  5
83
330
1F
100
AcDbEntity
  8
0
  6
Continuous
 62
     7
370
    25
100
AcDbSpline
210
0.0
220
0.0
230
1.0
 70
     8
 71
     3
 72
    16
 73
    12
 74
     0
 42
0.000000001
 43
0.00000001
 40
0.0
 40
0.0
 40
0.0
 40
0.0
 40
0.2500000000000001
 40
0.2500000000000001
 40
0.5000000000000002
 40
0.5000000000000002
 40
0.6250000000000001
 40
0.6250000000000001
 40
0.7500000000000001
 40
0.7500000000000001
 40
1.0
 40
1.0
 40
1.0
 40
1.0
 10
38.39234887023098
 20
5.582956604712447
 30
0.0
 10
38.75973123291699
 20
6.219281522689299
 30
0.0
 10
39.06252079331116
 20
6.86024567364195
 30
0.0
 10
39.48198260161651
 20
8.155541433573562
 30
0.0
 10
39.59727122707108
 20
8.809972418128421
 30
0.0
 10
39.59853762393499
 20
9.803948458798562
 30
0.0
 10
39.57035406684597
 20
10.13683318540315
 30
0.0
 10
39.460452897804
 20
10.79531421896341
 30
0.0
 10
39.37884683573107
 20
11.12234709524217
 30
0.0
 10
39.06372824084024
 20
12.09762335495577
 30
0.0
 10
38.76018922450407
 20
12.74006705609709
 30
0.0
 10
38.39234887023086
 20
13.37718523877242
 30
0.0
  0
LINE
  5
84
330
1F
100
AcDbEntity
  8
0
  6
Continuous
 62
     7
370
    25
100
AcDbLine
 10
38.3923488702
 20
5.5829566047
 30
0.0
 11
30.0925667367
 21
5.5829566047
 31
0.0
  0
SPLINE
  5
85
330
1F
100
AcDbEntity
  8
0
  6
Continuous
 62
     7
370
    25
100
AcDbSpline
210
0.0
220
0.0
230
1.0
 70
     8
 71
     3
 72
    16
 73
    12
 74
     0
 42
0.000000001
 43
0.00000001
 40
0.0
 40
0.0
 40
0.0
 40
0.0
 40
0.2500000000000001
 40
0.2500000000000001
 40
0.5000000000000002
 40
0.5000000000000002
 40
0.6250000000000001
 40
0.6250000000000001
 40
0.7500000000000001
 40
0.7500000000000001
 40
1.0
 40
1.0
 40
1.0
 40
1.0
 10
30.09256673670537
 20
13.37718523877243
 30
0.0
 10
29.72518437401937
 20
12.74086032079557
 30
0.0
 10
29.42239481362519
 20
12.09989616984292
 30
0.0
 10
29.00293300531985
 20
10.80460040991131
 30
0.0
 10
28.88764437986527
 20
10.15016942535645
 30
0.0
 10
28.88637798300137
 20
9.156193384686313
 30
0.0
 10
28.91456154009039
 20
8.823308658081714
 30
0.0
 10
29.02446270913236
 20
8.16482762452146
 30
0.0
 10
29.10606877120528
 20
7.837794748242713
 30
0.0
 10
29.42118736609611
 20
6.862518488529108
 30
0.0
 10
29.72472638243229
 20
6.220074787387791
 30
0.0
 10
30.0925667367055
 20
5.582956604712455
 30
0.0
  0
LINE
  5
86
330
1F
100
AcDbEntity
  8
0
  6
Continuous
 62
     7
370
    25
100
AcDbLine
 10
38.3923488702
 20
13.3771852388
 30
0.0
 11
30.0925667367
 21
13.3771852388
 31
0.0
  0
SPLINE
  5
87
330
1F
100
AcDbEntity
  8
0
  6
Continuous
 62
     7
370
    25
100
AcDbSpline
210
0.0
220
0.0
230
1.0
 70
     8
 71
     3
 72
    18
 73
    14
 74
     0
 42
0.000000001
 43
0.00000001
 40
0.0
 40
0.0
 40
0.0
 40
0.0
 40
0.1249999999999999
 40
0.1249999999999999
 40
0.2499999999999998
 40
0.2499999999999998
 40
0.4999999999999999
 40
0.4999999999999999
 40
0.6249999999999999
 40
0.6249999999999999
 40
0.75
 40
0.75
 40
1.0
 40
1.0
 40
1.0
 40
1.0
 10
38.39234887023076
 20
13.3771852387724
 30
0.0
 10
38.57562539144894
 20
14.01207373194114
 30
0.0
 10
38.74421907386415
 20
14.65437834348439
 30
0.0
 10
39.04184330673857
 20
15.94703499452404
 30
0.0
 10
39.17038528111333
 20
16.59517854755913
 30
0.0
 10
39.48489628111902
 20
18.5459776753605
 30
0.0
 10
39.59829174958858
 20
19.85513234211311
 30
0.0
 10
39.59803418239734
 20
21.83411955869822
 30
0.0
 10
39.5697469754285
 20
22.49782738388149
 30
0.0
 10
39.45816222342314
 20
23.8235874772073
 30
0.0
 10
39.37560544924092
 20
24.47951214973525
 30
0.0
 10
39.05888518506744
 20
26.42934187524912
 30
0.0
 10
38.75614234839487
 20
27.70542493160731
 30
0.0
 10
38.39234887023073
 20
28.96564250689232
 30
0.0
  0
SPLINE
  5
88
330
1F
100
AcDbEntity
  8
0
  6
Continuous
 62
     7
370
    25
100
AcDbSpline
210
0.0
220
0.0
230
1.0
 70
     8
 71
     3
 72
    18
 73
    14
 74
     0
 42
0.000000001
 43
0.00000001
 40
0.0
 40
0.0
 40
0.0
 40
0.0
 40
0.125
 40
0.125
 40
0.2499999999999999
 40
0.2499999999999999
 40
0.4999999999999999
 40
0.4999999999999999
 40
0.6249999999999999
 40
0.6249999999999999
 40
0.7499999999999998
 40
0.7499999999999998
 40
1.0
 40
1.0
 40
1.0
 40
1.0
 10
30.0925667367056
 20
13.3771852387724
 30
0.0
 10
29.9092693162895
 20
14.0121461288864
 30
0.0
 10
29.7406397688627
 20
14.65461160832223
 30
0.0
 10
29.44306301718556
 20
15.94708859227371
 30
0.0
 10
29.31453377283868
 20
16.59516524626369
 30
0.0
 10
29.00003802028528
 20
18.54584556263816
 30
0.0
 10
28.88662004199614
 20
19.85503173582465
 30
0.0
 10
28.88688334551509
 20
21.83427093394334
 30
0.0
 10
28.91519713689667
 20
22.49827771860553
 30
0.0
 10
29.02678253744176
 20
23.82382214630646
 30
0.0
 10
29.10933295630931
 20
24.47966749256343
 30
0.0
 10
29.42603313292059
 20
26.42932858715045
 30
0.0
 10
29.7287633650407
 20
27.70539065951526
 30
0.0
 10
30.09256673670563
 20
28.96564250689232
 30
0.0
  0
LINE
  5
89
330
1F
100
AcDbEntity
  8
0
  6
Continuous
 62
     7
370
    25
100
AcDbLine
 10
38.3923488702
 20
28.9656425069
 30
0.0
 11
30.0925667367
 21
28.9656425069
 31
0.0
  0
LINE
  5
8A
330
1F
100
AcDbEntity
  8
0
  6
Continuous
 62
     7
370
    25
100
AcDbLine
 10
28.7424578035
 20
21.1714138728
 30
0.0
 11
28.7424578035
 21
34.4214138728
 31
0.0
  0
LINE
  5
8B
330
1F
100
AcDbEntity
  8
0
  6
Continuous
 62
     7
370
    25
100
AcDbLine
 10
28.7424578035
 20
7.9214138728
 30
0.0
 11
28.7424578035
 21
21.1714138728
 31
0.0
  0
SPLINE
  5
8C
330
1F
100
AcDbEntity
  8
0
  6
Continuous
 62
     7
370
    25
100
AcDbSpline
210
0.0
220
0.0
230
1.0
 70
     8
 71
     3
 72
    16
 73
    12
 74
     0
 42
0.000000001
 43
0.00000001
 40
0.0
 40
0.0
 40
0.0
 40
0.0
 40
0.2500000000000003
 40
0.2500000000000003
 40
0.5000000000000004
 40
0.5000000000000004
 40
0.6250000000000004
 40
0.6250000000000004
 40
0.7500000000000004
 40
0.7500000000000004
 40
1.0
 40
1.0
 40
1.0
 40
1.0
 10
30.09256673670537
 20
36.75987114095228
 30
0.0
 10
29.72518437401937
 20
36.12354622297542
 30
0.0
 10
29.4223948136252
 20
35.48258207202277
 30
0.0
 10
29.00293300531985
 20
34.18728631209116
 30
0.0
 10
28.88764437986528
 20
33.5328553275363
 30
0.0
 10
28.88637798300137
 20
32.53887928686616
 30
0.0
 10
28.91456154009039
 20
32.20599456026156
 30
0.0
 10
29.02446270913236
 20
31.54751352670131
 30
0.0
 10
29.10606877120529
 20
31.22048065042256
 30
0.0
 10
29.42118736609611
 20
30.24520439070895
 30
0.0
 10
29.72472638243229
 20
29.60276068956763
 30
0.0
 10
30.0925667367055
 20
28.9656425068923
 30
0.0
  0
LINE
  5
8D
330
1F
100
AcDbEntity
  8
0
  6
Continuous
 62
     7
370
    25
100
AcDbLine
 10
39.7424578035
 20
34.4214138728
 30
0.0
 11
39.7424578035
 21
7.9214138728
 31
0.0
  0
SPLINE
  5
8E
330
1F
100
AcDbEntity
  8
0
  6
Continuous
 62
     7
370
    25
100
AcDbSpline
210
0.0
220
0.0
230
1.0
 70
     8
 71
     3
 72
    16
 73
    12
 74
     0
 42
0.000000001
 43
0.00000001
 40
0.0
 40
0.0
 40
0.0
 40
0.0
 40
0.2500000000000001
 40
0.2500000000000001
 40
0.5000000000000001
 40
0.5000000000000001
 40
0.625
 40
0.625
 40
0.7499999999999999
 40
0.7499999999999999
 40
1.0
 40
1.0
 40
1.0
 40
1.0
 10
38.39234887023098
 20
28.96564250689229
 30
0.0
 10
38.75973123291699
 20
29.60196742486915
 30
0.0
 10
39.06252079331116
 20
30.2429315758218
 30
0.0
 10
39.48198260161651
 20
31.53822733575341
 30
0.0
 10
39.59727122707108
 20
32.19265832030827
 30
0.0
 10
39.59853762393498
 20
33.18663436097842
 30
0.0
 10
39.57035406684597
 20
33.51951908758301
 30
0.0
 10
39.460452897804
 20
34.17800012114326
 30
0.0
 10
39.37884683573107
 20
34.50503299742201
 30
0.0
 10
39.06372824084024
 20
35.48030925713562
 30
0.0
 10
38.76018922450407
 20
36.12275295827694
 30
0.0
 10
38.39234887023086
 20
36.75987114095227
 30
0.0
  0
LINE
  5
8F
330
1F
100
AcDbEntity
  8
0
  6
Continuous
 62
     7
370
    25
100
AcDbLine
 10
38.3923488702
 20
36.759871141
 30
0.0
 11
30.0925667367
 21
36.759871141
 31
0.0
  0
LINE
  5
90
330
1F
100
AcDbEntity
  8
0
  6
Continuous
 62
     7
370
    25
100
AcDbLine
 10
26.7424578035
 20
21.1714138728
 30
0.0
 11
26.7424578035
 21
34.4214138728
 31
0.0
  0
LINE
  5
91
330
1F
100
AcDbEntity
  8
0
  6
Continuous
 62
     7
370
    25
100
AcDbLine
 10
26.7424578035
 20
7.9214138728
 30
0.0
 11
26.7424578035
 21
21.1714138728
 31
0.0
  0
LINE
  5
92
330
1F
100
AcDbEntity
  8
0
  6
Continuous
 62
     7
370
    25
100
AcDbLine
 10
23.7424578035
 20
21.1714138728
 30
0.0
 11
23.7424578035
 21
31.6489138728
 31
0.0
  0
LINE
  5
93
330
1F
100
AcDbEntity
  8
0
  6
Continuous
 62
     7
370
    25
100
AcDbLine
 10
23.7424578035
 20
10.6939138728
 30
0.0
 11
23.7424578035
 21
21.1714138728
 31
0.0
  0
LINE
  5
94
330
1F
100
AcDbEntity
  8
0
  6
Continuous
 62
     7
370
    25
100
AcDbLine
 10
24.7424578035
 20
21.1714138728
 30
0.0
 11
24.7424578035
 21
11.6939138728
 31
0.0
  0
LINE
  5
95
330
1F
100
AcDbEntity
  8
0
  6
Continuous
 62
     7
370
    25
100
AcDbLine
 10
24.7424578035
 20
30.6489138728
 30
0.0
 11
24.7424578035
 21
21.1714138728
 31
0.0
  0
LINE
  5
96
330
1F
100
AcDbEntity
  8
0
  6
Continuous
 62
     7
370
    25
100
AcDbLine
 10
13.7424578035
 20
21.1714138728
 30
0.0
 11
13.7424578035
 21
10.6939138728
 31
0.0
  0
LINE
  5
97
330
1F
100
AcDbEntity
  8
0
  6
Continuous
 62
     7
370
    25
100
AcDbLine
 10
13.7424578035
 20
31.6489138728
 30
0.0
 11
13.7424578035
 21
21.1714138728
 31
0.0
  0
LINE
  5
98
330
1F
100
AcDbEntity
  8
0
  6
Continuous
 62
     7
370
    25
100
AcDbLine
 10
12.7424578035
 20
21.1714138728
 30
0.0
 11
12.7424578035
 21
30.6489138728
 31
0.0
  0
LINE
  5
99
330
1F
100
AcDbEntity
  8
0
  6
Continuous
 62
     7
370
    25
100
AcDbLine
 10
12.7424578035
 20
11.6939138728
 30
0.0
 11
12.7424578035
 21
21.1714138728
 31
0.0
  0
LINE
  5
9A
330
1F
100
AcDbEntity
  8
0
  6
Continuous
 62
     7
370
    18
100
AcDbLine
 10
12.7424578035
 20
30.4869138728
 30
0.0
 11
24.7424578035
 21
30.4869138728
 31
0.0
  0
LINE
  5
9B
330
1F
100
AcDbEntity
  8
0
  6
Continuous
 62
     7
370
    18
100
AcDbLine
 10
12.7424578035
 20
11.8559138728
 30
0.0
 11
24.7424578035
 21
11.8559138728
 31
0.0
  0
LINE
  5
9C
330
1F
100
AcDbEntity
  8
0
  6
CENTERX2
 62
     7
370
    18
100
AcDbLine
 10
10.1313409519
 20
21.1714138728
 30
0.0
 11
42.0994143086
 21
21.1714138728
 31
0.0
  0
LINE
  5
9D
330
1F
100
AcDbEntity
  8
0
  6
Continuous
 62
     7
370
    25
100
AcDbLine
 10
64.5520067442
 20
24.1206652118
 30
0.0
 11
64.8104202058
 21
27.0154969425
 31
0.0
  0
LINE
  5
9E
330
1F
100
AcDbEntity
  8
0
  6
Continuous
 62
     7
370
    25
100
AcDbLine
 10
65.7929923212
 20
24.8376123272
 30
0.0
 11
64.5520067442
 21
24.1206652118
 31
0.0
  0
LINE
  5
9F
330
1F
100
AcDbEntity
  8
0
  6
Continuous
 62
     7
370
    25
100
AcDbLine
 10
66.1415500135
 20
24.233645981
 30
0.0
 11
65.7929923212
 21
24.8376123272
 31
0.0
  0
LINE
  5
A0
330
1F
100
AcDbEntity
  8
0
  6
Continuous
 62
     7
370
    25
100
AcDbLine
 10
66.4011653981
 20
24.3832854041
 30
0.0
 11
66.1415500135
 21
24.233645981
 31
0.0
  0
LINE
  5
A1
330
1F
100
AcDbEntity
  8
0
  6
Continuous
 62
     7
370
    25
100
AcDbLine
 10
66.0526077058
 20
24.9872517502
 30
0.0
 11
66.4011653981
 21
24.3832854041
 31
0.0
  0
LINE
  5
A2
330
1F
100
AcDbEntity
  8
0
  6
Continuous
 62
     7
370
    25
100
AcDbLine
 10
66.3669105904
 20
25.1693430964
 30
0.0
 11
66.0526077058
 21
24.9872517502
 31
0.0
  0
LINE
  5
A3
330
1F
100
AcDbEntity
  8
0
  6
Continuous
 62
     7
370
    25
100
AcDbLine
 10
66.2226798212
 20
25.4181411733
 30
0.0
 11
66.3669105904
 21
25.1693430964
 31
0.0
  0
LINE
  5
A4
330
1F
100
AcDbEntity
  8
0
  6
Continuous
 62
     7
370
    25
100
AcDbLine
 10
65.9083769365
 20
25.2360498272
 30
0.0
 11
66.2226798212
 21
25.4181411733
 31
0.0
  0
LINE
  5
A5
330
1F
100
AcDbEntity
  8
0
  6
Continuous
 62
     7
370
    25
100
AcDbLine
 10
64.8633048212
 20
27.0455450195
 30
0.0
 11
65.9083769365
 21
25.2360498272
 31
0.0
  0
LINE
  5
A6
330
1F
100
AcDbEntity
  8
0
  6
Continuous
 62
     7
370
    25
100
AcDbLine
 10
64.8104202058
 20
27.0154969425
 30
0.0
 11
64.8633048212
 21
27.0455450195
 31
0.0
  0
LINE
  5
A7
330
1F
100
AcDbEntity
  8
0
  6
Continuous
 62
     7
370
    25
100
AcDbLine
 10
63.7864069309
 20
18.326356361
 30
0.0
 11
62.2864069309
 21
20.9231111687
 31
0.0
  0
LINE
  5
A8
330
1F
100
AcDbEntity
  8
0
  6
Continuous
 62
     7
370
    25
100
AcDbLine
 10
64.0460223155
 20
18.4765967456
 30
0.0
 11
63.7864069309
 21
18.326356361
 31
0.0
  0
LINE
  5
A9
330
1F
100
AcDbEntity
  8
0
  6
Continuous
 62
     7
370
    25
100
AcDbLine
 10
63.3489069309
 20
19.6839284764
 30
0.0
 11
64.0460223155
 21
18.4765967456
 31
0.0
  0
LINE
  5
AA
330
1F
100
AcDbEntity
  8
0
  6
Continuous
 62
     7
370
    25
100
AcDbLine
 10
63.5340030847
 20
19.7902986687
 30
0.0
 11
63.3489069309
 21
19.6839284764
 31
0.0
  0
SPLINE
  5
AB
330
1F
100
AcDbEntity
  8
0
  6
Continuous
 62
     7
370
    25
100
AcDbSpline
210
0.0
220
0.0
230
1.0
 70
     8
 71
     3
 72
    15
 73
    11
 74
     0
 42
0.000000001
 43
0.00000001
 40
0.0
 40
0.0
 40
0.0
 40
0.0
 40
0.0756123032498289
 40
0.1644872655319284
 40
0.2677853868718778
 40
0.3857854682946376
 40
0.5179322862644449
 40
0.6638659903914277
 40
0.8244577581462259
 40
1.0
 40
1.0
 40
1.0
 40
1.0
 10
64.16982039239657
 20
20.2145775148224
 30
0.0
 10
64.15556291491123
 20
20.20156072207198
 30
0.0
 10
64.12454714916737
 20
20.17324394618383
 30
0.0
 10
64.07022596781755
 20
20.13168082381784
 30
0.0
 10
64.0066560084433
 20
20.08451379763153
 30
0.0
 10
63.93197802665431
 20
20.0338759642753
 30
0.0
 10
63.84741934399393
 20
19.97847589696828
 30
0.0
 10
63.75199467525136
 20
19.91990709859179
 30
0.0
 10
63.64694753385481
 20
19.8558572920127
 30
0.0
 10
63.57275126141203
 20
19.81279005395718
 30
0.0
 10
63.53400308470427
 20
19.79029866866855
 30
0.0
  0
SPLINE
  5
AC
330
1F
100
AcDbEntity
  8
0
  6
Continuous
 62
     7
370
    25
100
AcDbSpline
210
0.0
220
0.0
230
1.0
 70
     8
 71
     3
 72
    23
 73
    19
 74
     0
 42
0.000000001
 43
0.00000001
 40
0.0
 40
0.0
 40
0.0
 40
0.0
 40
0.0701767959831225
 40
0.1370783948533104
 40
0.2015402158160997
 40
0.2643019848993743
 40
0.325851106585645
 40
0.3855625253801133
 40
0.4451090710974653
 40
0.5050396151009584
 40
0.5646549133475233
 40
0.6238731027730341
 40
0.6835103850890277
 40
0.7439310552880054
 40
0.80509830356097
 40
0.8678522399879646
 40
0.9328002663636268
 40
1.0
 40
1.0
 40
1.0
 40
1.0
 10
64.30804154624275
 20
21.16830347636086
 30
0.0
 10
64.32005077978717
 20
21.1468648523639
 30
0.0
 10
64.34350876806703
 20
21.10498815901821
 30
0.0
 10
64.37142375165405
 20
21.04012034581165
 30
0.0
 10
64.39478396124039
 20
20.97628124065919
 30
0.0
 10
64.41166556275934
 20
20.9123103743072
 30
0.0
 10
64.42250046091738
 20
20.84874985720576
 30
0.0
 10
64.42744313684783
 20
20.785581368313
 30
0.0
 10
64.42624809514783
 20
20.7227818313557
 30
0.0
 10
64.41888868581054
 20
20.66046596078384
 30
0.0
 10
64.40643632432362
 20
20.59906584907836
 30
0.0
 10
64.38796920442584
 20
20.5393385674097
 30
0.0
 10
64.36550507211611
 20
20.4806717489426
 30
0.0
 10
64.33624301735789
 20
20.42428106869594
 30
0.0
 10
64.30231634028618
 20
20.36938061209485
 30
0.0
 10
64.26395054323083
 20
20.31546763772162
 30
0.0
 10
64.2191398279116
 20
20.26392206199682
 30
0.0
 10
64.18644589828607
 20
20.23121148581366
 30
0.0
 10
64.16982039239657
 20
20.2145775148224
 30
0.0
  0
SPLINE
  5
AD
330
1F
100
AcDbEntity
  8
0
  6
Continuous
 62
     7
370
    25
100
AcDbSpline
210
0.0
220
0.0
230
1.0
 70
     8
 71
     3
 72
    23
 73
    19
 74
     0
 42
0.000000001
 43
0.00000001
 40
0.0
 40
0.0
 40
0.0
 40
0.0
 40
0.0629356290675137
 40
0.1249173864663111
 40
0.1857052460120457
 40
0.245635039309602
 40
0.3051624435162111
 40
0.3646585631624179
 40
0.4250581585413429
 40
0.4863258165608511
 40
0.5475962370601507
 40
0.609029423996281
 40
0.6706716427956787
 40
0.7327325403902579
 40
0.7965017194925583
 40
0.8620715477041123
 40
0.9294466560771697
 40
1.0
 40
1.0
 40
1.0
 40
1.0
 10
63.42643096931966
 20
21.52948136097624
 30
0.0
 10
63.44739062103739
 20
21.53502008714223
 30
0.0
 10
63.48899225357236
 20
21.54601359284414
 30
0.0
 10
63.55213848691932
 20
21.55655176014301
 30
0.0
 10
63.61477898010428
 20
21.56285669616425
 30
0.0
 10
63.67692959909013
 20
21.56346510634634
 30
0.0
 10
63.73841805676698
 20
21.55852054289986
 30
0.0
 10
63.79947251360606
 20
21.54878309574291
 30
0.0
 10
63.86027263998416
 20
21.53452727975822
 30
0.0
 10
63.92009981723014
 20
21.51459510994965
 30
0.0
 10
63.97859231973843
 20
21.49011186415563
 30
0.0
 10
64.03463160475287
 20
21.46005592603978
 30
0.0
 10
64.08750014445089
 20
21.42430969444975
 30
0.0
 10
64.13802756737667
 20
21.38397196442357
 30
0.0
 10
64.18461336086226
 20
21.33721256094812
 30
0.0
 10
64.22916040383369
 20
21.28615922314831
 30
0.0
 10
64.27122959841559
 20
21.22997358816551
 30
0.0
 10
64.29558383500547
 20
21.18917356040095
 30
0.0
 10
64.30804154624275
 20
21.16830347636086
 30
0.0
  0
SPLINE
  5
AE
330
1F
100
AcDbEntity
  8
0
  6
Continuous
 62
     7
370
    25
100
AcDbSpline
210
0.0
220
0.0
230
1.0
 70
     8
 71
     3
 72
    15
 73
    11
 74
     0
 42
0.000000001
 43
0.00000001
 40
0.0
 40
0.0
 40
0.0
 40
0.0
 40
0.177204747523677
 40
0.3392086991137759
 40
0.486811660435993
 40
0.6185381308101382
 40
0.7363717983370404
 40
0.8384571247495143
 40
0.9265189260755418
 40
1.0
 40
1.0
 40
1.0
 40
1.0
 10
62.80383481547351
 20
21.22178905328394
 30
0.0
 10
62.83943830432734
 20
21.24231536407911
 30
0.0
 10
62.90759118006451
 20
21.28160721872599
 30
0.0
 10
63.00624503945168
 20
21.33651956414675
 30
0.0
 10
63.09672497495298
 20
21.38437894718875
 30
0.0
 10
63.17880602357192
 20
21.42618003202661
 30
0.0
 10
63.2523013351252
 20
21.46155008847837
 30
0.0
 10
63.31747587974651
 20
21.49077451404214
 30
0.0
 10
63.37431422404415
 20
21.51346015117241
 30
0.0
 10
63.41013648347796
 20
21.52447227272763
 30
0.0
 10
63.42643096931966
 20
21.52948136097624
 30
0.0
  0
LINE
  5
AF
330
1F
100
AcDbEntity
  8
0
  6
Continuous
 62
     7
370
    25
100
AcDbLine
 10
62.2864069309
 20
20.9231111687
 30
0.0
 11
62.8038348155
 21
21.2217890533
 31
0.0
  0
LINE
  5
B0
330
1F
100
AcDbEntity
  8
0
  6
Continuous
 62
     7
370
    25
100
AcDbLine
 10
66.2392029511
 20
19.8147207707
 30
0.0
 11
64.7392029511
 21
22.4114755784
 31
0.0
  0
LINE
  5
B1
330
1F
100
AcDbEntity
  8
0
  6
Continuous
 62
     7
370
    25
100
AcDbLine
 10
66.4970154511
 20
19.9637592322
 30
0.0
 11
66.2392029511
 21
19.8147207707
 31
0.0
  0
LINE
  5
B2
330
1F
100
AcDbEntity
  8
0
  6
Continuous
 62
     7
370
    25
100
AcDbLine
 10
65.7620394896
 20
21.2365957707
 30
0.0
 11
66.4970154511
 21
19.9637592322
 31
0.0
  0
LINE
  5
B3
330
1F
100
AcDbEntity
  8
0
  6
Continuous
 62
     7
370
    25
100
AcDbLine
 10
66.8053087203
 20
21.8387592322
 30
0.0
 11
65.7620394896
 21
21.2365957707
 31
0.0
  0
LINE
  5
B4
330
1F
100
AcDbEntity
  8
0
  6
Continuous
 62
     7
370
    25
100
AcDbLine
 10
66.6574721819
 20
22.0947688476
 30
0.0
 11
66.8053087203
 21
21.8387592322
 31
0.0
  0
LINE
  5
B5
330
1F
100
AcDbEntity
  8
0
  6
Continuous
 62
     7
370
    25
100
AcDbLine
 10
65.6142029511
 20
21.4926053861
 30
0.0
 11
66.6574721819
 21
22.0947688476
 31
0.0
  0
LINE
  5
B6
330
1F
100
AcDbEntity
  8
0
  6
Continuous
 62
     7
370
    25
100
AcDbLine
 10
65.1448519896
 20
22.3045044245
 30
0.0
 11
65.6142029511
 21
21.4926053861
 31
0.0
  0
LINE
  5
B7
330
1F
100
AcDbEntity
  8
0
  6
Continuous
 62
     7
370
    25
100
AcDbLine
 10
66.1881212203
 20
22.9066678861
 30
0.0
 11
65.1448519896
 21
22.3045044245
 31
0.0
  0
LINE
  5
B8
330
1F
100
AcDbEntity
  8
0
  6
Continuous
 62
     7
370
    25
100
AcDbLine
 10
66.0402846819
 20
23.1626775015
 30
0.0
 11
66.1881212203
 21
22.9066678861
 31
0.0
  0
LINE
  5
B9
330
1F
100
AcDbEntity
  8
0
  6
Continuous
 62
     7
370
    25
100
AcDbLine
 10
64.7392029511
 20
22.4114755784
 30
0.0
 11
66.0402846819
 21
23.1626775015
 31
0.0
  0
SPLINE
  5
BA
330
1F
100
AcDbEntity
  8
0
  6
Continuous
 62
     7
370
    25
100
AcDbSpline
210
0.0
220
0.0
230
1.0
 70
     8
 71
     3
 72
    19
 73
    15
 74
     0
 42
0.000000001
 43
0.00000001
 40
0.0
 40
0.0
 40
0.0
 40
0.0
 40
0.1166985365897384
 40
0.2282590101784686
 40
0.3372185427251282
 40
0.4465132849869342
 40
0.5027658480382593
 40
0.562035087268572
 40
0.6248184910357906
 40
0.6915349811923928
 40
0.7617985431967301
 40
0.8366234562169637
 40
0.9161906330044081
 40
1.0
 40
1.0
 40
1.0
 40
1.0
 10
59.74333180575267
 20
23.7210310860519
 30
0.0
 10
59.71691433391024
 20
23.70419573456928
 30
0.0
 10
59.66524251222005
 20
23.67126626709071
 30
0.0
 10
59.5986740563784
 20
23.60917408009917
 30
0.0
 10
59.5460866116144
 20
23.53765292836963
 30
0.0
 10
59.51180127109704
 20
23.47212155101204
 30
0.0
 10
59.49175581778606
 20
23.41518654638514
 30
0.0
 10
59.48045346178525
 20
23.36867728399826
 30
0.0
 10
59.47266152177828
 20
23.31861656367709
 30
0.0
 10
59.4688536261513
 20
23.26517540077286
 30
0.0
 10
59.46724163796701
 20
23.20837520327727
 30
0.0
 10
59.47091310446411
 20
23.14822378966253
 30
0.0
 10
59.47651790624454
 20
23.08459746161472
 30
0.0
 10
59.48326175169187
 20
23.04131246868091
 30
0.0
 10
59.4867212288296
 20
23.01910800912882
 30
0.0
  0
SPLINE
  5
BB
330
1F
100
AcDbEntity
  8
0
  6
Continuous
 62
     7
370
    25
100
AcDbSpline
210
0.0
220
0.0
230
1.0
 70
     8
 71
     3
 72
    23
 73
    19
 74
     0
 42
0.000000001
 43
0.00000001
 40
0.0
 40
0.0
 40
0.0
 40
0.0
 40
0.059179105152185
 40
0.1169459291115958
 40
0.1743720545453769
 40
0.2311010381228905
 40
0.2884654328875998
 40
0.3475708060626697
 40
0.4090094634832993
 40
0.4724043085594233
 40
0.536856517855829
 40
0.6005045056844477
 40
0.664036773699403
 40
0.727958223529868
 40
0.7931462364758863
 40
0.8592187722458995
 40
0.928339418201375
 40
1.0
 40
1.0
 40
1.0
 40
1.0
 10
60.46087988267575
 20
23.57920416297498
 30
0.0
 10
60.45232609803753
 20
23.59280502106553
 30
0.0
 10
60.43542266076242
 20
23.61968215923829
 30
0.0
 10
60.40567154778665
 20
23.65662377767111
 30
0.0
 10
60.37264138596619
 20
23.68967115220881
 30
0.0
 10
60.33630502072595
 20
23.71893014605029
 30
0.0
 10
60.29617583149626
 20
23.74359108066658
 30
0.0
 10
60.25267102365405
 20
23.76465653672492
 30
0.0
 10
60.2058230012419
 20
23.7821143555443
 30
0.0
 10
60.15605422213101
 20
23.79506265995444
 30
0.0
 10
60.10485260746059
 20
23.80425159776182
 30
0.0
 10
60.05285852109284
 20
23.80796692098384
 30
0.0
 10
60.00100768719004
 20
23.80566898555228
 30
0.0
 10
59.94892771885383
 20
23.80026261342734
 30
0.0
 10
59.89734196391217
 20
23.78774129082165
 30
0.0
 10
59.8456396773848
 20
23.77079405764981
 30
0.0
 10
59.7940035846219
 20
23.74854678909588
 30
0.0
 10
59.76042434117301
 20
23.73031264551932
 30
0.0
 10
59.74333180575267
 20
23.7210310860519
 30
0.0
  0
SPLINE
  5
BC
330
1F
100
AcDbEntity
  8
0
  6
Continuous
 62
     7
370
    25
100
AcDbSpline
210
0.0
220
0.0
230
1.0
 70
     8
 71
     3
 72
    19
 73
    15
 74
     0
 42
0.000000001
 43
0.00000001
 40
0.0
 40
0.0
 40
0.0
 40
0.0
 40
0.105515010230526
 40
0.2072590054948931
 40
0.3055242150184234
 40
0.4018902536748166
 40
0.493794154848387
 40
0.5775887882812993
 40
0.6553337114377281
 40
0.7280006663003297
 40
0.797795471673489
 40
0.86519863932921
 40
0.9322283304823006
 40
1.0
 40
1.0
 40
1.0
 40
1.0
 10
60.10751449806036
 20
22.79615127835959
 30
0.0
 10
60.13606149583116
 20
22.81392135265085
 30
0.0
 10
60.19213524642755
 20
22.84882641418789
 30
0.0
 10
60.26964490310949
 20
22.90811401968513
 30
0.0
 10
60.33707839853477
 20
22.97447273049339
 30
0.0
 10
60.39632613846942
 20
23.04406196623874
 30
0.0
 10
60.44556156754128
 20
23.11568354882505
 30
0.0
 10
60.48207334464394
 20
23.18793503396967
 30
0.0
 10
60.5070185564733
 20
23.25859473403432
 30
0.0
 10
60.5183711117971
 20
23.32814216424506
 30
0.0
 10
60.5192828312808
 20
23.39530037491109
 30
0.0
 10
60.50910930084142
 20
23.45976409474393
 30
0.0
 10
60.49104407243295
 20
23.52197874644623
 30
0.0
 10
60.47097144075529
 20
23.56005915629077
 30
0.0
 10
60.46087988267575
 20
23.57920416297498
 30
0.0
  0
LINE
  5
BD
330
1F
100
AcDbEntity
  8
0
  6
Continuous
 62
     7
370
    25
100
AcDbLine
 10
60.2451346904
 20
22.5575695476
 30
0.0
 11
60.1075144981
 21
22.7961512784
 31
0.0
  0
SPLINE
  5
BE
330
1F
100
AcDbEntity
  8
0
  6
Continuous
 62
     7
370
    25
100
AcDbSpline
210
0.0
220
0.0
230
1.0
 70
     8
 71
     3
 72
    23
 73
    19
 74
     0
 42
0.000000001
 43
0.00000001
 40
0.0
 40
0.0
 40
0.0
 40
0.0
 40
0.0703423198343876
 40
0.1398634517743602
 40
0.2103803753631116
 40
0.2827027172989061
 40
0.3555923664656343
 40
0.4269508105709606
 40
0.4987761996993966
 40
0.5720888555685788
 40
0.6110005129072676
 40
0.6539353186604214
 40
0.7011226343296136
 40
0.7519637186827001
 40
0.8073262203581311
 40
0.8673192372193631
 40
0.9313794321640367
 40
1.0
 40
1.0
 40
1.0
 40
1.0
 10
61.33347603652191
 20
22.43076666297497
 30
0.0
 10
61.31794864448309
 20
22.45512210490421
 30
0.0
 10
61.28707512975234
 20
22.50354865929894
 30
0.0
 10
61.2281731293014
 20
22.56716240949924
 30
0.0
 10
61.16043432017394
 20
22.62227300573253
 30
0.0
 10
61.08411008742466
 20
22.66750674788993
 30
0.0
 10
61.00246909944274
 20
22.70302531081002
 30
0.0
 10
60.91662980837125
 20
22.72627715825164
 30
0.0
 10
60.82814731383574
 20
22.73623625039981
 30
0.0
 10
60.75247633525402
 20
22.73478384137168
 30
0.0
 10
60.68930412502192
 20
22.72687584827118
 30
0.0
 10
60.63750822077664
 20
22.71582732453424
 30
0.0
 10
60.5819589611078
 20
22.69983594527891
 30
0.0
 10
60.52203392007507
 20
22.68072613053288
 30
0.0
 10
60.45833897718407
 20
22.65645125258944
 30
0.0
 10
60.39069397364329
 20
22.62754867775586
 30
0.0
 10
60.31899893215624
 20
22.59437311759408
 30
0.0
 10
60.27031388912821
 20
22.57011532592332
 30
0.0
 10
60.24513469036806
 20
22.55756954759036
 30
0.0
  0
SPLINE
  5
BF
330
1F
100
AcDbEntity
  8
0
  6
Continuous
 62
     7
370
    25
100
AcDbSpline
210
0.0
220
0.0
230
1.0
 70
     8
 71
     3
 72
    23
 73
    19
 74
     0
 42
0.000000001
 43
0.00000001
 40
0.0
 40
0.0
 40
0.0
 40
0.0
 40
0.0732531278746231
 40
0.1430767870781043
 40
0.2103746387958365
 40
0.2752906500029054
 40
0.3392596226892455
 40
0.4018859929105242
 40
0.4644270360797879
 40
0.5278378401523588
 40
0.5906903737125639
 40
0.6509224245648336
 40
0.7100706904963927
 40
0.7676159933197221
 40
0.8248315818707155
 40
0.8821963083100987
 40
0.9404609388752492
 40
1.0
 40
1.0
 40
1.0
 40
1.0
 10
61.03539911344498
 20
21.50288204759036
 30
0.0
 10
61.05809552937439
 20
21.51671773917889
 30
0.0
 10
61.10242579026
 20
21.54374138113009
 30
0.0
 10
61.16322331662251
 20
21.58998942263293
 30
0.0
 10
61.21848984382925
 20
21.63826134660635
 30
0.0
 10
61.26614157800024
 20
21.69126730881004
 30
0.0
 10
61.3079480896116
 20
21.74688710822893
 30
0.0
 10
61.3421709828961
 20
21.80648253834357
 30
0.0
 10
61.37088920256361
 20
21.86866543222579
 30
0.0
 10
61.39220620041039
 20
21.93389585837259
 30
0.0
 10
61.40681543793372
 20
21.99998993628232
 30
0.0
 10
61.41638761012584
 20
22.06548481267058
 30
0.0
 10
61.4184749971741
 20
22.12970499873682
 30
0.0
 10
61.41540322747031
 20
22.19282478621385
 30
0.0
 10
61.40405639632386
 20
22.25435140571888
 30
0.0
 10
61.38734650967881
 20
22.31483974330503
 30
0.0
 10
61.36380847665454
 20
22.37401959543481
 30
0.0
 10
61.34365950880063
 20
22.41171504079533
 30
0.0
 10
61.33347603652191
 20
22.43076666297497
 30
0.0
  0
SPLINE
  5
C0
330
1F
100
AcDbEntity
  8
0
  6
Continuous
 62
     7
370
    25
100
AcDbSpline
210
0.0
220
0.0
230
1.0
 70
     8
 71
     3
 72
    15
 73
    11
 74
     0
 42
0.000000001
 43
0.00000001
 40
0.0
 40
0.0
 40
0.0
 40
0.0
 40
0.1200312614629394
 40
0.2399649155124076
 40
0.3586107548455214
 40
0.4807865662367292
 40
0.6037828490368187
 40
0.7314727643053683
 40
0.8629426087683327
 40
1.0
 40
1.0
 40
1.0
 40
1.0
 10
60.54381257498345
 20
21.40973300912882
 30
0.0
 10
60.56399085532119
 20
21.40610213874861
 30
0.0
 10
60.60433100735673
 20
21.39884335055123
 30
0.0
 10
60.66558578050141
 20
21.39562429506137
 30
0.0
 10
60.72721891486059
 20
21.39776597925619
 30
0.0
 10
60.78868469033804
 20
21.4072122321817
 30
0.0
 10
60.85080785643055
 20
21.42142028023695
 30
0.0
 10
60.91242871589807
 20
21.44302298306299
 30
0.0
 10
60.97494278984212
 20
21.46905779738499
 30
0.0
 10
61.01496937955871
 20
21.49145197064527
 30
0.0
 10
61.03539911344498
 20
21.50288204759036
 30
0.0
  0
SPLINE
  5
C1
330
1F
100
AcDbEntity
  8
0
  6
Continuous
 62
     7
370
    25
100
AcDbSpline
210
0.0
220
0.0
230
1.0
 70
     8
 71
     3
 72
    15
 73
    11
 74
     0
 42
0.000000001
 43
0.00000001
 40
0.0
 40
0.0
 40
0.0
 40
0.0
 40
0.15133160443277
 40
0.2940975545230309
 40
0.4289487094265196
 40
0.5559279245516217
 40
0.6762753220694467
 40
0.7892273698219976
 40
0.8971134572546173
 40
0.9999999999999999
 40
0.9999999999999999
 40
0.9999999999999999
 40
0.9999999999999999
 10
60.14056738267575
 20
21.66393973989805
 30
0.0
 10
60.15809264770565
 20
21.64700892198254
 30
0.0
 10
60.19215121469819
 20
21.61410560239051
 30
0.0
 10
60.24352764751565
 20
21.56783221050456
 30
0.0
 10
60.29561933376969
 20
21.52863588863244
 30
0.0
 10
60.34584009648546
 20
21.49298246624738
 30
0.0
 10
60.39642490837452
 20
21.46436171162258
 30
0.0
 10
60.44606382035222
 20
21.44080959918964
 30
0.0
 10
60.49460192437888
 20
21.42139409978024
 30
0.0
 10
60.52767048782634
 20
21.4135580823463
 30
0.0
 10
60.54381257498345
 20
21.40973300912882
 30
0.0
  0
LINE
  5
C2
330
1F
100
AcDbEntity
  8
0
  6
Continuous
 62
     7
370
    25
100
AcDbLine
 10
59.8863606519
 20
21.516704163
 30
0.0
 11
60.1405673827
 21
21.6639397399
 31
0.0
  0
SPLINE
  5
C3
330
1F
100
AcDbEntity
  8
0
  6
Continuous
 62
     7
370
    25
100
AcDbSpline
210
0.0
220
0.0
230
1.0
 70
     8
 71
     3
 72
    23
 73
    19
 74
     0
 42
0.000000001
 43
0.00000001
 40
0.0
 40
0.0
 40
0.0
 40
0.0
 40
0.065621763238708
 40
0.1283604675836458
 40
0.189558384720664
 40
0.2488580074221896
 40
0.3074628849680239
 40
0.3655512283883331
 40
0.4232063363918938
 40
0.4818112139377281
 40
0.5407083869503939
 40
0.600473869789979
 40
0.6611093887128814
 40
0.7235118887421075
 40
0.7883544185590494
 40
0.855738560589516
 40
0.9260741804459054
 40
1.0
 40
1.0
 40
1.0
 40
1.0
 10
61.17782699806037
 20
21.24807435528267
 30
0.0
 10
61.15001930945665
 20
21.23277955167288
 30
0.0
 10
61.09562564894788
 20
21.20286191389453
 30
0.0
 10
61.01127840278605
 20
21.16666601567291
 30
0.0
 10
60.92723989918852
 20
21.13844903685047
 30
0.0
 10
60.84310833706402
 20
21.11745857703929
 30
0.0
 10
60.75871717598299
 20
21.10562773567212
 30
0.0
 10
60.67444137444433
 20
21.10134399475086
 30
0.0
 10
60.59010140231003
 20
21.10488459598694
 30
0.0
 10
60.5061465049415
 20
21.11690862180592
 30
0.0
 10
60.42279542877652
 20
21.13743527818237
 30
0.0
 10
60.34104447283737
 20
21.16656684512443
 30
0.0
 10
60.260457838258
 20
21.20316940096753
 30
0.0
 10
60.18219026416463
 20
21.24951889525862
 30
0.0
 10
60.10511724736951
 20
21.30364053387656
 30
0.0
 10
60.02993403856134
 20
21.36652958913453
 30
0.0
 10
59.95628276375742
 20
21.43769853624316
 30
0.0
 10
59.9100515376533
 20
21.48993561684973
 30
0.0
 10
59.88636065190652
 20
21.51670416297497
 30
0.0
  0
SPLINE
  5
C4
330
1F
100
AcDbEntity
  8
0
  6
Continuous
 62
     7
370
    25
100
AcDbSpline
210
0.0
220
0.0
230
1.0
 70
     8
 71
     3
 72
    23
 73
    19
 74
     0
 42
0.000000001
 43
0.00000001
 40
0.0
 40
0.0
 40
0.0
 40
0.0
 40
0.0805952943637352
 40
0.1604515434217348
 40
0.2418700207746967
 40
0.3254069365410276
 40
0.367522692821364
 40
0.409059180026604
 40
0.4501972477231492
 40
0.4912141426448574
 40
0.5317517532195375
 40
0.572960932581426
 40
0.614036676581567
 40
0.6558471726783921
 40
0.7396019872338637
 40
0.8238169869641273
 40
0.9104315104044918
 40
1.0
 40
1.0
 40
1.0
 40
1.0
 10
61.57686545959883
 20
22.60023781682113
 30
0.0
 10
61.59661677623799
 20
22.5628726719801
 30
0.0
 10
61.63593829326185
 20
22.48848501439724
 30
0.0
 10
61.67511126540916
 20
22.36747059319185
 30
0.0
 10
61.69965452208264
 20
22.24135309227272
 30
0.0
 10
61.70503143279345
 20
22.13272158270659
 30
0.0
 10
61.70203145520877
 20
22.04520364421656
 30
0.0
 10
61.69533965947543
 20
21.98016810754307
 30
0.0
 10
61.68476889357367
 20
21.91620931156741
 30
0.0
 10
61.66879238793211
 20
21.85393996461037
 30
0.0
 10
61.64972182078886
 20
21.79250855163814
 30
0.0
 10
61.62547742931484
 20
21.732892039002
 30
0.0
 10
61.59792294298236
 20
21.67399884770978
 30
0.0
 10
61.55447112737001
 20
21.59826669946414
 30
0.0
 10
61.49130353978783
 20
21.50800545884464
 30
0.0
 10
61.40052029664339
 20
21.4099887507025
 30
0.0
 10
61.29641063913771
 20
21.32118201234098
 30
0.0
 10
61.21779425136604
 20
21.27271445084466
 30
0.0
 10
61.17782699806037
 20
21.24807435528267
 30
0.0
  0
SPLINE
  5
C5
330
1F
100
AcDbEntity
  8
0
  6
Continuous
 62
     7
370
    25
100
AcDbSpline
210
0.0
220
0.0
230
1.0
 70
     8
 71
     3
 72
    15
 73
    11
 74
     0
 42
0.000000001
 43
0.00000001
 40
0.0
 40
0.0
 40
0.0
 40
0.0
 40
0.1304473747403712
 40
0.2573926146276503
 40
0.3826871558302635
 40
0.5055470499668897
 40
0.6279825865506222
 40
0.7497193271005594
 40
0.8738306203951085
 40
1.0
 40
1.0
 40
1.0
 40
1.0
 10
61.14056738267575
 20
22.96442050912882
 30
0.0
 10
61.16395074349008
 20
22.95494290626716
 30
0.0
 10
61.21008968948852
 20
22.93624214677837
 30
0.0
 10
61.27614979367244
 20
22.90256680276947
 30
0.0
 10
61.33707791204805
 20
22.86308907260569
 30
0.0
 10
61.3949796808829
 20
22.82071298735502
 30
0.0
 10
61.44711957651365
 20
22.77232781741183
 30
0.0
 10
61.494865922542
 20
22.71943550620167
 30
0.0
 10
61.53923731167043
 20
22.66262293268851
 30
0.0
 10
61.56425417146585
 20
22.62114654379089
 30
0.0
 10
61.57686545959883
 20
22.60023781682113
 30
0.0
  0
SPLINE
  5
C6
330
1F
100
AcDbEntity
  8
0
  6
Continuous
 62
     7
370
    25
100
AcDbSpline
210
0.0
220
0.0
230
1.0
 70
     8
 71
     3
 72
    11
 73
     7
 74
     0
 42
0.000000001
 43
0.00000001
 40
0.0
 40
0.0
 40
0.0
 40
0.0
 40
0.2575448221658417
 40
0.5076711529890842
 40
0.7542159986790766
 40
1.0
 40
1.0
 40
1.0
 40
1.0
 10
60.70487026729113
 20
23.00949262451344
 30
0.0
 10
60.74269074817269
 20
23.01344175537952
 30
0.0
 10
60.81724230379815
 20
23.02122626373512
 30
0.0
 10
60.92869336975767
 20
23.01643759005622
 30
0.0
 10
61.03726491005779
 20
22.99926023307
 30
0.0
 10
61.10616871975616
 20
22.97602177955045
 30
0.0
 10
61.14056738267575
 20
22.96442050912882
 30
0.0
  0
SPLINE
  5
C7
330
1F
100
AcDbEntity
  8
0
  6
Continuous
 62
     7
370
    25
100
AcDbSpline
210
0.0
220
0.0
230
1.0
 70
     8
 71
     3
 72
    15
 73
    11
 74
     0
 42
0.000000001
 43
0.00000001
 40
0.0
 40
0.0
 40
0.0
 40
0.0
 40
0.1242105454247699
 40
0.2439784061594679
 40
0.3611315929044477
 40
0.479582249370737
 40
0.6002641150141724
 40
0.7254208927559062
 40
0.8584975931303527
 40
1.0
 40
1.0
 40
1.0
 40
1.0
 10
60.73131257498345
 20
23.73365127835959
 30
0.0
 10
60.74619443367516
 20
23.70579109475109
 30
0.0
 10
60.77542586609403
 20
23.65106721306402
 30
0.0
 10
60.8039695278041
 20
23.56346993121309
 30
0.0
 10
60.82061137649807
 20
23.47457878376028
 30
0.0
 10
60.82446072536651
 20
23.38382924943985
 30
0.0
 10
60.81362664735031
 20
23.29163135571515
 30
0.0
 10
60.79008806988172
 20
23.19817861607919
 30
0.0
 10
60.75487586564966
 20
23.10266483315808
 30
0.0
 10
60.72187634010299
 20
23.04117894397096
 30
0.0
 10
60.70487026729113
 20
23.00949262451344
 30
0.0
  0
SPLINE
  5
C8
330
1F
100
AcDbEntity
  8
0
  6
Continuous
 62
     7
370
    25
100
AcDbSpline
210
0.0
220
0.0
230
1.0
 70
     8
 71
     3
 72
    19
 73
    15
 74
     0
 42
0.000000001
 43
0.00000001
 40
0.0
 40
0.0
 40
0.0
 40
0.0
 40
0.0895167400715857
 40
0.1773824364258329
 40
0.2650886758186743
 40
0.3534136836995492
 40
0.4408889443037023
 40
0.5246250034953632
 40
0.6070486876610646
 40
0.6892970473032735
 40
0.7700032014525419
 40
0.8477273803995539
 40
0.9238593810851459
 40
1.0
 40
1.0
 40
1.0
 40
1.0
 10
59.59729815190652
 20
23.97343493220574
 30
0.0
 10
59.63112829924984
 20
23.99159313513651
 30
0.0
 10
59.69816463184644
 20
24.02757463171913
 30
0.0
 10
59.80582266310867
 20
24.06496399106568
 30
0.0
 10
59.91626952917061
 20
24.09013282081937
 30
0.0
 10
60.02895395960837
 20
24.10045353928223
 30
0.0
 10
60.14036262253599
 20
24.09861812455359
 30
0.0
 10
60.24811210292906
 20
24.08229288772189
 30
0.0
 10
60.35052041200153
 20
24.05215679614531
 30
0.0
 10
60.44638200958867
 20
24.00824171565162
 30
0.0
 10
60.53386413650141
 20
23.95311530382208
 30
0.0
 10
60.61141057922016
 20
23.8889267427585
 30
0.0
 10
60.67914354481002
 20
23.81664710483994
 30
0.0
 10
60.71392224213141
 20
23.76131759768784
 30
0.0
 10
60.73131257498345
 20
23.73365127835959
 30
0.0
  0
SPLINE
  5
C9
330
1F
100
AcDbEntity
  8
0
  6
Continuous
 62
     7
370
    25
100
AcDbSpline
210
0.0
220
0.0
230
1.0
 70
     8
 71
     3
 72
    23
 73
    19
 74
     0
 42
0.000000001
 43
0.00000001
 40
0.0
 40
0.0
 40
0.0
 40
0.0
 40
0.0729609930162069
 40
0.1433311180329261
 40
0.2109700859339603
 40
0.2762068597424322
 40
0.3394872283090508
 40
0.4013263635807447
 40
0.462529636559047
 40
0.5233089730042774
 40
0.5834523609452178
 40
0.6423638086719393
 40
0.7005174356288074
 40
0.7590683331798079
 40
0.8175373240070813
 40
0.87705482219531
 40
0.9373924692431806
 40
1.0
 40
1.0
 40
1.0
 40
1.0
 10
59.22169719036806
 20
22.86586281682113
 30
0.0
 10
59.2130586826493
 20
22.89560325962158
 30
0.0
 10
59.19608842336034
 20
22.95402805266733
 30
0.0
 10
59.1783585539391
 20
23.04185267539631
 30
0.0
 10
59.1663751658974
 20
23.12735020827828
 30
0.0
 10
59.16265537346573
 20
23.21056207136527
 30
0.0
 10
59.16356174555358
 20
23.29144980127457
 30
0.0
 10
59.17398607762155
 20
23.36993851453579
 30
0.0
 10
59.18900533768966
 20
23.44656440188654
 30
0.0
 10
59.2122320947843
 20
23.52041082820141
 30
0.0
 10
59.24087974753002
 20
23.59121613528105
 30
0.0
 10
59.27525593108568
 20
23.65820092949129
 30
0.0
 10
59.3151387798334
 20
23.72128272242318
 30
0.0
 10
59.36096377332663
 20
23.77991419404143
 30
0.0
 10
59.41158086386816
 20
23.83528259047584
 30
0.0
 10
59.46838322996034
 20
23.88541455833559
 30
0.0
 10
59.53002529780851
 20
23.93244173685204
 30
0.0
 10
59.5745995488266
 20
23.95960337588504
 30
0.0
 10
59.59729815190652
 20
23.97343493220574
 30
0.0
  0
LINE
  5
CA
330
1F
100
AcDbEntity
  8
0
  6
Continuous
 62
     7
370
    25
100
AcDbLine
 10
59.4867212288
 20
23.0191080091
 30
0.0
 11
59.2216971904
 21
22.8658628168
 31
0.0
  0
CIRCLE
  5
CB
330
1F
100
AcDbEntity
  8
0
  6
Continuous
 62
     7
370
    25
100
AcDbCircle
 10
63.4721040462
 20
21.1714138728
 30
0.0
 40
13.25000000000001
  0
SPLINE
  5
CC
330
1F
100
AcDbEntity
  8
0
  6
Continuous
 62
     7
370
    25
100
AcDbSpline
210
0.0
220
0.0
230
1.0
 70
     8
 71
     3
 72
    31
 73
    27
 74
     0
 42
0.000000001
 43
0.00000001
 40
0.0
 40
0.0
 40
0.0
 40
0.0
 40
0.0336454959535058
 40
0.0668061893677439
 40
0.0994548521133312
 40
0.1319880772579627
 40
0.1641940984622829
 40
0.1966631542066579
 40
0.2295563983366921
 40
0.2630764713646239
 40
0.296888071026626
 40
0.3311645351872031
 40
0.3659854800217484
 40
0.401672920202808
 40
0.4385106255368216
 40
0.476678637821926
 40
0.5160999820396001
 40
0.5571674626939002
 40
0.6005637374573589
 40
0.6468765278579348
 40
0.6968748465194766
 40
0.75011722879498
 40
0.8069138714359885
 40
0.8675972931201279
 40
0.9317765500416318
 40
1.0
 40
1.0
 40
1.0
 40
1.0
 10
63.56492749416509
 20
22.66675101995039
 30
0.0
 10
63.54423899373822
 20
22.65545448894661
 30
0.0
 10
63.50316009630834
 20
22.63302420019474
 30
0.0
 10
63.43945542977489
 20
22.60454298968627
 30
0.0
 10
63.37409793859172
 20
22.58259881721751
 30
0.0
 10
63.30818686720036
 20
22.56470469394073
 30
0.0
 10
63.24091407000986
 20
22.55365106844587
 30
0.0
 10
63.17286358072534
 20
22.54675571851442
 30
0.0
 10
63.10353569796875
 20
22.54574451406499
 30
0.0
 10
63.03335769397371
 20
22.54968910523911
 30
0.0
 10
62.96291546442009
 20
22.56031169873113
 30
0.0
 10
62.89235130533118
 20
22.57547517358942
 30
0.0
 10
62.82252126715523
 20
22.59838323290986
 30
0.0
 10
62.75249654958172
 20
22.62589978826926
 30
0.0
 10
62.68269964173525
 20
22.65983182847246
 30
0.0
 10
62.61294804970613
 20
22.69943951515357
 30
0.0
 10
62.5437418875906
 20
22.74555577525502
 30
0.0
 10
62.47401296670017
 20
22.79730349381533
 30
0.0
 10
62.40473734003482
 20
22.85735887602115
 30
0.0
 10
62.33467272353613
 20
22.92574354654505
 30
0.0
 10
62.26398159511481
 20
23.00313803483942
 30
0.0
 10
62.19319024815175
 20
23.0901108912554
 30
0.0
 10
62.12147437369814
 20
23.18585094867856
 30
0.0
 10
62.04989193839921
 20
23.29108271359614
 30
0.0
 10
61.97666703243937
 20
23.40482937135016
 30
0.0
 10
61.92981449971244
 20
23.48487877698711
 30
0.0
 10
61.90567268647278
 20
23.52612601995039
 30
0.0
  0
SPLINE
  5
CD
330
1F
100
AcDbEntity
  8
0
  6
Continuous
 62
     7
370
    25
100
AcDbSpline
210
0.0
220
0.0
230
1.0
 70
     8
 71
     3
 72
    31
 73
    27
 74
     0
 42
0.000000001
 43
0.00000001
 40
0.0
 40
0.0
 40
0.0
 40
0.0
 40
0.0649405108784216
 40
0.1266531321298921
 40
0.1852084329316562
 40
0.2403085388748918
 40
0.2925800096996111
 40
0.3416115108261805
 40
0.3880909933565703
 40
0.4319205461414108
 40
0.4736192819603646
 40
0.5139981514266287
 40
0.5526138189906172
 40
0.5901970665880705
 40
0.6269782262858692
 40
0.6627922992646665
 40
0.6979017493416804
 40
0.7325396930703038
 40
0.76682092693516
 40
0.8003196689017154
 40
0.8335563157666558
 40
0.8664173676831503
 40
0.899340908279947
 40
0.9325387301079188
 40
0.9658129455270053
 40
1.0
 40
1.0
 40
1.0
 40
1.0
 10
63.67790826339585
 20
24.54956351995039
 30
0.0
 10
63.70035375306288
 20
24.50961600589317
 30
0.0
 10
63.74412907189028
 20
24.43170658221122
 30
0.0
 10
63.80464023088565
 20
24.31583198349779
 30
0.0
 10
63.85661632341304
 20
24.20350564709797
 30
0.0
 10
63.90224342106134
 20
24.09564961084612
 30
0.0
 10
63.93997291298098
 20
23.99189769233701
 30
0.0
 10
63.97109152390558
 20
23.89232443527432
 30
0.0
 10
63.99460680179152
 20
23.7967993975466
 30
0.0
 10
64.01114566456624
 20
23.70504918929898
 30
0.0
 10
64.02034682075778
 20
23.61665052072254
 30
0.0
 10
64.02581758501955
 20
23.53160164355684
 30
0.0
 10
64.02412955007097
 20
23.44930361288588
 30
0.0
 10
64.01872103600238
 20
23.36970244598369
 30
0.0
 10
64.00630547685115
 20
23.29287409153465
 30
0.0
 10
63.98975198146352
 20
23.21865065350367
 30
0.0
 10
63.96746730687516
 20
23.14747224329491
 30
0.0
 10
63.93963201989107
 20
23.07948136715883
 30
0.0
 10
63.90745644361267
 20
23.01468097084373
 30
0.0
 10
63.8702621845182
 20
22.95380765584957
 30
0.0
 10
63.83032910622738
 20
22.89592788664778
 30
0.0
 10
63.78572119623347
 20
22.84198896315961
 30
0.0
 10
63.73588507800235
 20
22.79295399545729
 30
0.0
 10
63.68327864611749
 20
22.7465278341457
 30
0.0
 10
63.62634181846022
 20
22.70386058963272
 30
0.0
 10
63.58558277661283
 20
22.67923196233801
 30
0.0
 10
63.56492749416509
 20
22.66675101995039
 30
0.0
  0
SPLINE
  5
CE
330
1F
100
AcDbEntity
  8
0
  6
Continuous
 62
     7
370
    25
100
AcDbSpline
210
0.0
220
0.0
230
1.0
 70
     8
 71
     3
 72
    31
 73
    27
 74
     0
 42
0.000000001
 43
0.00000001
 40
0.0
 40
0.0
 40
0.0
 40
0.0
 40
0.0339950448126721
 40
0.0673947171980935
 40
0.1004896505027092
 40
0.1330221893437307
 40
0.1658426432595988
 40
0.1986017894409938
 40
0.2320676034283164
 40
0.2658705105943632
 40
0.3001997943085083
 40
0.3353553484150753
 40
0.3709642920596514
 40
0.4074069001705486
 40
0.4452012950221238
 40
0.4839267413422293
 40
0.524357791481951
 40
0.5663267935249852
 40
0.6102221464991019
 40
0.6571575539644642
 40
0.7065097690990743
 40
0.759046408229874
 40
0.8142868549322111
 40
0.8728983502737808
 40
0.9348824198378298
 40
1.0
 40
1.0
 40
1.0
 40
1.0
 10
61.98920634031894
 20
25.39451544302731
 30
0.0
 10
62.01026260612949
 20
25.40609228442763
 30
0.0
 10
62.05200636870931
 20
25.4290432161449
 30
0.0
 10
62.11737312325324
 20
25.45695486103227
 30
0.0
 10
62.18320968886044
 20
25.48077091644118
 30
0.0
 10
62.25063311292219
 20
25.49822912837294
 30
0.0
 10
62.31896964806445
 20
25.5101861790962
 30
0.0
 10
62.38869112438447
 20
25.51686285089864
 30
0.0
 10
62.45941976603941
 20
25.51801608950987
 30
0.0
 10
62.53111738075302
 20
25.5136916356606
 30
0.0
 10
62.60355643243749
 20
25.50431175065987
 30
0.0
 10
62.67609180047504
 20
25.48796853987175
 30
0.0
 10
62.74840107702118
 20
25.46530856663371
 30
0.0
 10
62.8211233560604
 20
25.43799102218656
 30
0.0
 10
62.89279437668248
 20
25.40267795394782
 30
0.0
 10
62.96478385753323
 20
25.36210176930293
 30
0.0
 10
63.03698404840218
 20
25.31604932243052
 30
0.0
 10
63.10852934379655
 20
25.26265444975532
 30
0.0
 10
63.18088963822541
 20
25.20285849921125
 30
0.0
 10
63.25248888880709
 20
25.13433463680451
 30
0.0
 10
63.32440438974115
 20
25.05758001154977
 30
0.0
 10
63.39555729284981
 20
24.97230641448117
 30
0.0
 10
63.46648842638124
 20
24.87854900364404
 30
0.0
 10
63.53826885102333
 20
24.7771314627696
 30
0.0
 10
63.60879576871246
 20
24.66645218814117
 30
0.0
 10
63.65449521353936
 20
24.58916157278507
 30
0.0
 10
63.67790826339585
 20
24.54956351995039
 30
0.0
  0
SPLINE
  5
CF
330
1F
100
AcDbEntity
  8
0
  6
Continuous
 62
     7
370
    25
100
AcDbSpline
210
0.0
220
0.0
230
1.0
 70
     8
 71
     3
 72
    31
 73
    27
 74
     0
 42
0.000000001
 43
0.00000001
 40
0.0
 40
0.0
 40
0.0
 40
0.0
 40
0.0684257301809697
 40
0.133078045707295
 40
0.1938999893094368
 40
0.2508424588443161
 40
0.3040062327028835
 40
0.3535151699365259
 40
0.399594443522887
 40
0.442624817676703
 40
0.4831971491225835
 40
0.522401725798939
 40
0.5601112408004741
 40
0.5967683221327202
 40
0.6325636909717398
 40
0.6674234486983378
 40
0.7018485540728235
 40
0.7359592900885502
 40
0.7696886735238038
 40
0.8027595434531147
 40
0.8355715158028186
 40
0.8680158003674374
 40
0.900339117782649
 40
0.933153577301002
 40
0.9662355504268415
 40
1.0
 40
1.0
 40
1.0
 40
1.0
 10
61.90567268647278
 20
23.52612601995039
 30
0.0
 10
61.88192526910153
 20
23.56782409711246
 30
0.0
 10
61.8357400126782
 20
23.64892076358289
 30
0.0
 10
61.77357030254836
 20
23.76987450739398
 30
0.0
 10
61.71791897171025
 20
23.88506894515606
 30
0.0
 10
61.67032312357875
 20
23.99510922089309
 30
0.0
 10
61.6303482067493
 20
24.09970359859609
 30
0.0
 10
61.59849450172669
 20
24.19906829386737
 30
0.0
 10
61.57325034394464
 20
24.29300201552534
 30
0.0
 10
61.55641936302497
 20
24.38245121984073
 30
0.0
 10
61.5461067763228
 20
24.46800371150976
 30
0.0
 10
61.54140375785644
 20
24.55029433417733
 30
0.0
 10
61.54110315164758
 20
24.62998406483048
 30
0.0
 10
61.54651848525137
 20
24.7071134208044
 30
0.0
 10
61.55722552114588
 20
24.78166695542464
 30
0.0
 10
61.57349297319474
 20
24.85361920145748
 30
0.0
 10
61.59529226061781
 20
24.92284530846504
 30
0.0
 10
61.62169667450933
 20
24.98956901644766
 30
0.0
 10
61.6526034204315
 20
25.05334713888231
 30
0.0
 10
61.68933966785604
 20
25.11282989988105
 30
0.0
 10
61.72851823584235
 20
25.16964975484474
 30
0.0
 10
61.7728770138811
 20
25.22185394326307
 30
0.0
 10
61.820413979003
 20
25.27117663273289
 30
0.0
 10
61.8729300887186
 20
25.31584947178062
 30
0.0
 10
61.92886191714553
 20
25.35788872564302
 30
0.0
 10
61.96895508727594
 20
25.38222372023211
 30
0.0
 10
61.98920634031894
 20
25.39451544302731
 30
0.0
  0
SPLINE
  5
D0
330
1F
100
AcDbEntity
  8
0
  6
Continuous
 62
     7
370
    25
100
AcDbSpline
210
0.0
220
0.0
230
1.0
 70
    24
 71
     3
 72
    16
 73
    12
 74
     0
 42
0.000000001
 43
0.00000001
 40
0.0
 40
0.0
 40
0.0
 40
0.0
 40
0.25
 40
0.25
 40
0.5
 40
0.5
 40
0.625
 40
0.625
 40
0.75
 40
0.75
 40
1.0
 40
1.0
 40
1.0
 40
1.0
 10
76.97210404624278
 20
13.37718523877243
 30
0.0
 10
75.86995695818476
 20
12.74086032079558
 30
0.0
 10
74.75977448290452
 20
12.09989616984293
 30
0.0
 10
72.51625641587442
 20
10.80460040991132
 30
0.0
 10
71.38274870057809
 20
10.15016942535646
 30
0.0
 10
69.66113169663126
 20
9.15619338468631
 30
0.0
 10
69.08455843708842
 20
8.823308658081718
 30
0.0
 10
67.9440358311416
 20
8.164827624521465
 30
0.0
 10
67.37759827368141
 20
7.837794748242711
 30
0.0
 10
65.6883702404417
 20
6.862518488529102
 30
0.0
 10
64.57562510906234
 20
6.220074787387789
 30
0.0
 10
63.47210404624272
 20
5.582956604712455
 30
0.0
  0
SPLINE
  5
D1
330
1F
100
AcDbEntity
  8
0
  6
Continuous
 62
     7
370
    25
100
AcDbSpline
210
0.0
220
0.0
230
1.0
 70
    24
 71
     3
 72
    16
 73
    12
 74
     0
 42
0.000000001
 43
0.00000001
 40
0.0
 40
0.0
 40
0.0
 40
0.0
 40
0.2500000000000001
 40
0.2500000000000001
 40
0.5000000000000002
 40
0.5000000000000002
 40
0.6250000000000001
 40
0.6250000000000001
 40
0.7500000000000001
 40
0.7500000000000001
 40
1.0
 40
1.0
 40
1.0
 40
1.0
 10
63.47210404624278
 20
5.582956604712447
 30
0.0
 10
62.36995695818476
 20
6.219281522689299
 30
0.0
 10
61.25977448290453
 20
6.86024567364195
 30
0.0
 10
59.01625641587444
 20
8.155541433573562
 30
0.0
 10
57.88274870057809
 20
8.809972418128421
 30
0.0
 10
56.16113169663126
 20
9.803948458798562
 30
0.0
 10
55.58455843708843
 20
10.13683318540315
 30
0.0
 10
54.4440358311416
 20
10.79531421896341
 30
0.0
 10
53.87759827368141
 20
11.12234709524217
 30
0.0
 10
52.18837024044171
 20
12.09762335495577
 30
0.0
 10
51.07562510906235
 20
12.74006705609709
 30
0.0
 10
49.97210404624272
 20
13.37718523877242
 30
0.0
  0
SPLINE
  5
D2
330
1F
100
AcDbEntity
  8
0
  6
Continuous
 62
     7
370
    25
100
AcDbSpline
210
0.0
220
0.0
230
1.0
 70
    24
 71
     3
 72
    18
 73
    14
 74
     0
 42
0.000000001
 43
0.00000001
 40
0.0
 40
0.0
 40
0.0
 40
0.0
 40
0.1249999999999999
 40
0.1249999999999999
 40
0.2499999999999998
 40
0.2499999999999998
 40
0.4999999999999999
 40
0.4999999999999999
 40
0.6249999999999999
 40
0.6249999999999999
 40
0.75
 40
0.75
 40
1.0
 40
1.0
 40
1.0
 40
1.0
 10
49.97210404624273
 20
13.3771852387724
 30
0.0
 10
49.97210404624273
 20
14.01207373194114
 30
0.0
 10
49.97210404624273
 20
14.65437834348439
 30
0.0
 10
49.97210404624273
 20
15.94703499452404
 30
0.0
 10
49.97210404624273
 20
16.59517854755913
 30
0.0
 10
49.97210404624273
 20
18.5459776753605
 30
0.0
 10
49.97210404624273
 20
19.85513234211311
 30
0.0
 10
49.97210404624274
 20
21.83411955869822
 30
0.0
 10
49.97210404624274
 20
22.49782738388149
 30
0.0
 10
49.97210404624274
 20
23.8235874772073
 30
0.0
 10
49.97210404624274
 20
24.47951214973525
 30
0.0
 10
49.97210404624273
 20
26.42934187524912
 30
0.0
 10
49.97210404624274
 20
27.70542493160731
 30
0.0
 10
49.97210404624274
 20
28.96564250689232
 30
0.0
  0
SPLINE
  5
D3
330
1F
100
AcDbEntity
  8
0
  6
Continuous
 62
     7
370
    25
100
AcDbSpline
210
0.0
220
0.0
230
1.0
 70
    24
 71
     3
 72
    16
 73
    12
 74
     0
 42
0.000000001
 43
0.00000001
 40
0.0
 40
0.0
 40
0.0
 40
0.0
 40
0.2500000000000001
 40
0.2500000000000001
 40
0.5000000000000001
 40
0.5000000000000001
 40
0.625
 40
0.625
 40
0.7499999999999999
 40
0.7499999999999999
 40
1.0
 40
1.0
 40
1.0
 40
1.0
 10
49.97210404624271
 20
28.96564250689229
 30
0.0
 10
51.07425113430072
 20
29.60196742486915
 30
0.0
 10
52.18443360958096
 20
30.2429315758218
 30
0.0
 10
54.42795167661104
 20
31.53822733575341
 30
0.0
 10
55.56145939190739
 20
32.19265832030827
 30
0.0
 10
57.28307639585422
 20
33.18663436097842
 30
0.0
 10
57.85964965539706
 20
33.51951908758301
 30
0.0
 10
59.00017226134388
 20
34.17800012114326
 30
0.0
 10
59.56660981880407
 20
34.50503299742201
 30
0.0
 10
61.25583785204378
 20
35.48030925713562
 30
0.0
 10
62.36858298342313
 20
36.12275295827694
 30
0.0
 10
63.47210404624276
 20
36.75987114095227
 30
0.0
  0
SPLINE
  5
D4
330
1F
100
AcDbEntity
  8
0
  6
Continuous
 62
     7
370
    25
100
AcDbSpline
210
0.0
220
0.0
230
1.0
 70
    24
 71
     3
 72
    16
 73
    12
 74
     0
 42
0.000000001
 43
0.00000001
 40
0.0
 40
0.0
 40
0.0
 40
0.0
 40
0.2500000000000002
 40
0.2500000000000002
 40
0.5000000000000003
 40
0.5000000000000003
 40
0.6250000000000004
 40
0.6250000000000004
 40
0.7500000000000004
 40
0.7500000000000004
 40
1.0
 40
1.0
 40
1.0
 40
1.0
 10
63.47210404624271
 20
36.75987114095228
 30
0.0
 10
64.57425113430071
 20
36.12354622297542
 30
0.0
 10
65.68443360958095
 20
35.48258207202277
 30
0.0
 10
67.92795167661104
 20
34.18728631209116
 30
0.0
 10
69.06145939190739
 20
33.5328553275363
 30
0.0
 10
70.78307639585422
 20
32.53887928686616
 30
0.0
 10
71.35964965539705
 20
32.20599456026156
 30
0.0
 10
72.50017226134388
 20
31.54751352670131
 30
0.0
 10
73.06660981880405
 20
31.22048065042256
 30
0.0
 10
74.75583785204377
 20
30.24520439070895
 30
0.0
 10
75.86858298342312
 20
29.60276068956763
 30
0.0
 10
76.97210404624276
 20
28.9656425068923
 30
0.0
  0
SPLINE
  5
D5
330
1F
100
AcDbEntity
  8
0
  6
Continuous
 62
     7
370
    25
100
AcDbSpline
210
0.0
220
0.0
230
1.0
 70
    24
 71
     3
 72
    18
 73
    14
 74
     0
 42
0.000000001
 43
0.00000001
 40
0.0
 40
0.0
 40
0.0
 40
0.0
 40
0.1250000000000001
 40
0.1250000000000001
 40
0.2500000000000001
 40
0.2500000000000001
 40
0.5000000000000001
 40
0.5000000000000001
 40
0.6250000000000001
 40
0.6250000000000001
 40
0.7500000000000001
 40
0.7500000000000001
 40
1.0
 40
1.0
 40
1.0
 40
1.0
 10
76.97210404624275
 20
13.3771852387724
 30
0.0
 10
76.97210404624275
 20
14.0120737319399
 30
0.0
 10
76.97210404624275
 20
14.65437834347815
 30
0.0
 10
76.97210404624275
 20
15.94703499452407
 30
0.0
 10
76.97210404624275
 20
16.59517854756368
 30
0.0
 10
76.97210404624275
 20
18.54597767538356
 30
0.0
 10
76.97210404624275
 20
19.85513234215521
 30
0.0
 10
76.97210404624275
 20
21.83411955878124
 30
0.0
 10
76.97210404624275
 20
22.49782738400913
 30
0.0
 10
76.97210404624275
 20
23.8235874772895
 30
0.0
 10
76.97210404624275
 20
24.47951214979924
 30
0.0
 10
76.97210404624275
 20
26.4293418752695
 30
0.0
 10
76.97210404624273
 20
27.70542493161313
 30
0.0
 10
76.97210404624275
 20
28.96564250689231
 30
0.0
  0
LINE
  5
D6
330
1F
100
AcDbEntity
  8
0
  6
Continuous
 62
     7
370
    25
100
AcDbLine
 10
65.6487615519
 20
25.0864104041
 30
0.0
 11
65.0237615519
 21
26.1687421348
 31
0.0
  0
LINE
  5
D7
330
1F
100
AcDbEntity
  8
0
  6
Continuous
 62
     7
370
    25
100
AcDbLine
 10
65.0237615519
 20
26.1687421348
 30
0.0
 11
64.884338475
 21
24.6447036733
 31
0.0
  0
LINE
  5
D8
330
1F
100
AcDbEntity
  8
0
  6
Continuous
 62
     7
370
    25
100
AcDbLine
 10
64.884338475
 20
24.6447036733
 30
0.0
 11
65.6487615519
 21
25.0864104041
 31
0.0
  0
SPLINE
  5
D9
330
1F
100
AcDbEntity
  8
0
  6
Continuous
 62
     7
370
    25
100
AcDbSpline
210
0.0
220
0.0
230
1.0
 70
     8
 71
     3
 72
    27
 73
    23
 74
     0
 42
0.000000001
 43
0.00000001
 40
0.0
 40
0.0
 40
0.0
 40
0.0
 40
0.0593292303258794
 40
0.118240427047736
 40
0.1792014033712483
 40
0.2433956689168406
 40
0.2764899414798794
 40
0.3100835429170463
 40
0.344247300182979
 40
0.3794554532768045
 40
0.4158980793336966
 40
0.4534222192089832
 40
0.4922161219929369
 40
0.5327160579953073
 40
0.5759425118312825
 40
0.6233043329318491
 40
0.674979357409571
 40
0.7309686931381825
 40
0.7915014170479562
 40
0.8561811647926614
 40
0.925874262082135
 40
1.0
 40
1.0
 40
1.0
 40
1.0
 10
62.1412496095497
 20
25.15292890456577
 30
0.0
 10
62.1134512800481
 20
25.13506745897422
 30
0.0
 10
62.05805048800294
 20
25.09947041949074
 30
0.0
 10
61.98772237805331
 20
25.02802734721978
 30
0.0
 10
61.92744654834763
 20
24.9450026841381
 30
0.0
 10
61.88845693189025
 20
24.86581589205615
 30
0.0
 10
61.86251868315814
 20
24.79781950340003
 30
0.0
 10
61.84859737971082
 20
24.7434701809111
 30
0.0
 10
61.83751377324949
 20
24.6873428038991
 30
0.0
 10
61.83076996067557
 20
24.62886090465934
 30
0.0
 10
61.82952782671765
 20
24.56819507434967
 30
0.0
 10
61.83082858545207
 20
24.5055257030992
 30
0.0
 10
61.83813091257867
 20
24.44099955632955
 30
0.0
 10
61.84798920388421
 20
24.37364316255977
 30
0.0
 10
61.8639670934183
 20
24.30253061515523
 30
0.0
 10
61.88643362858319
 20
24.22672289610554
 30
0.0
 10
61.91563460972272
 20
24.14568677394701
 30
0.0
 10
61.95047744557531
 20
24.05898139975724
 30
0.0
 10
61.99210653179788
 20
23.9673181820799
 30
0.0
 10
62.03992356116606
 20
23.87018553084082
 30
0.0
 10
62.09370420754319
 20
23.7675970399885
 30
0.0
 10
62.13340671341314
 20
23.69827407387931
 30
0.0
 10
62.1538698018574
 20
23.66254428918116
 30
0.0
  0
SPLINE
  5
DA
330
1F
100
AcDbEntity
  8
0
  6
Continuous
 62
     7
370
    25
100
AcDbSpline
210
0.0
220
0.0
230
1.0
 70
     8
 71
     3
 72
    27
 73
    23
 74
     0
 42
0.000000001
 43
0.00000001
 40
0.0
 40
0.0
 40
0.0
 40
0.0
 40
0.0663761225369527
 40
0.1298706752245191
 40
0.1901543770972346
 40
0.2477046404488028
 40
0.3026252319514871
 40
0.3545558245485416
 40
0.4040852554866611
 40
0.4511035046020919
 40
0.4959900448391387
 40
0.5385941188655639
 40
0.5788559835951625
 40
0.617640326071504
 40
0.6549602536194783
 40
0.6903714879073207
 40
0.7247915445284056
 40
0.7585056600941751
 40
0.8225113834632436
 40
0.8830809066995241
 40
0.9418515002100257
 40
1.0
 40
1.0
 40
1.0
 40
1.0
 10
63.43752364801124
 20
24.40413082764269
 30
0.0
 10
63.41894079813637
 20
24.43593301367489
 30
0.0
 10
63.38258183095655
 20
24.49815676546634
 30
0.0
 10
63.32518750754035
 20
24.58671536215913
 30
0.0
 10
63.26891799095717
 20
24.67012997907561
 30
0.0
 10
63.21184618683835
 20
24.74719367521979
 30
0.0
 10
63.15408795539187
 20
24.81781840831557
 30
0.0
 10
63.09710004291077
 20
24.88328801112856
 30
0.0
 10
63.03936936963616
 20
24.94212474970106
 30
0.0
 10
62.98154561467335
 20
24.99523406121209
 30
0.0
 10
62.92385697059608
 20
25.04262513522745
 30
0.0
 10
62.86696657855326
 20
25.08499310539321
 30
0.0
 10
62.80993181196295
 20
25.12117408679461
 30
0.0
 10
62.7535518094754
 20
25.15274434238993
 30
0.0
 10
62.69718167818271
 20
25.1784077577806
 30
0.0
 10
62.64145237794705
 20
25.19927463648655
 30
0.0
 10
62.58593649645279
 20
25.21444752690542
 30
0.0
 10
62.51358637827974
 20
25.226781456906
 30
0.0
 10
62.42555628836887
 20
25.23185826180935
 30
0.0
 10
62.32390494735813
 20
25.2225882038463
 30
0.0
 10
62.22800315572366
 20
25.1970924025268
 30
0.0
 10
62.17006470018083
 20
25.16759775964385
 30
0.0
 10
62.1412496095497
 20
25.15292890456577
 30
0.0
  0
SPLINE
  5
DB
330
1F
100
AcDbEntity
  8
0
  6
Continuous
 62
     7
370
    25
100
AcDbSpline
210
0.0
220
0.0
230
1.0
 70
     8
 71
     3
 72
    19
 73
    15
 74
     0
 42
0.000000001
 43
0.00000001
 40
0.0
 40
0.0
 40
0.0
 40
0.0
 40
0.1119071934397899
 40
0.2225480018728378
 40
0.3365832845264889
 40
0.4555385087741075
 40
0.5170876437384421
 40
0.5799756067239384
 40
0.6442897159047883
 40
0.7106263615116055
 40
0.7786677120021299
 40
0.8494688778532022
 40
0.9233909709940042
 40
1.0
 40
1.0
 40
1.0
 40
1.0
 10
63.4381246095497
 20
22.907135635335
 30
0.0
 10
63.46588202886744
 20
22.92503432154938
 30
0.0
 10
63.52108275382916
 20
22.9606291455345
 30
0.0
 10
63.5917539736307
 20
23.03117690795762
 30
0.0
 10
63.65081629534946
 20
23.11373584391909
 30
0.0
 10
63.69030344233582
 20
23.19142713189035
 30
0.0
 10
63.71466442783283
 20
23.25887836365039
 30
0.0
 10
63.73005667394904
 20
23.3123698966185
 30
0.0
 10
63.739923379648
 20
23.36857509054682
 30
0.0
 10
63.7461998129909
 20
23.42681287122548
 30
0.0
 10
63.74685421829906
 20
23.48728531832284
 30
0.0
 10
63.74480478151441
 20
23.54993370206626
 30
0.0
 10
63.73742781804417
 20
23.61477134434765
 30
0.0
 10
63.72944624553793
 20
23.65837973936863
 30
0.0
 10
63.72538422493432
 20
23.680573135335
 30
0.0
  0
SPLINE
  5
DC
330
1F
100
AcDbEntity
  8
0
  6
Continuous
 62
     7
370
    25
100
AcDbSpline
210
0.0
220
0.0
230
1.0
 70
     8
 71
     3
 72
    27
 73
    23
 74
     0
 42
0.000000001
 43
0.00000001
 40
0.0
 40
0.0
 40
0.0
 40
0.0
 40
0.0737614008206085
 40
0.1428343052085163
 40
0.2075809484773594
 40
0.2678540571918488
 40
0.3236449465211945
 40
0.3750693914371045
 40
0.4222863347144216
 40
0.465686044793937
 40
0.5062033097640232
 40
0.5452529151892669
 40
0.583002336656432
 40
0.6193174413859849
 40
0.65437765649421
 40
0.6891825866848509
 40
0.7230491035711442
 40
0.7563867717042346
 40
0.8210730657616149
 40
0.8819992578406552
 40
0.9410812706387875
 40
1.0
 40
1.0
 40
1.0
 40
1.0
 10
62.1538698018574
 20
23.66254428918116
 30
0.0
 10
62.17449259807949
 20
23.62716153148604
 30
0.0
 10
62.21442734358415
 20
23.55864505056896
 30
0.0
 10
62.2759064740332
 20
23.46113573462199
 30
0.0
 10
62.33600441140129
 20
23.37168149794903
 30
0.0
 10
62.39400892506851
 20
23.28973077766917
 30
0.0
 10
62.45100626720679
 20
23.21620474835811
 30
0.0
 10
62.50705249902745
 20
23.15128292632725
 30
0.0
 10
62.56103150777323
 20
23.09374233006777
 30
0.0
 10
62.61428985116349
 20
23.04401422478624
 30
0.0
 10
62.66723723288271
 20
23.00084983789993
 30
0.0
 10
62.72016084783985
 20
22.96280176096609
 30
0.0
 10
62.77363907758652
 20
22.92979088740327
 30
0.0
 10
62.82719289959536
 20
22.90134656115257
 30
0.0
 10
62.88125499545956
 20
22.87773562608954
 30
0.0
 10
62.93553991213699
 20
22.85826928161355
 30
0.0
 10
62.99060455283914
 20
22.84470962217625
 30
0.0
 10
63.06272036157475
 20
22.83179369195586
 30
0.0
 10
63.15127700933337
 20
22.82684840177504
 30
0.0
 10
63.25360535159025
 20
22.83707130136748
 30
0.0
 10
63.35044330905163
 20
22.86233075127915
 30
0.0
 10
63.40892448381067
 20
22.8922144578351
 30
0.0
 10
63.4381246095497
 20
22.907135635335
 30
0.0
  0
SPLINE
  5
DD
330
1F
100
AcDbEntity
  8
0
  6
Continuous
 62
     7
370
    25
100
AcDbSpline
210
0.0
220
0.0
230
1.0
 70
     8
 71
     3
 72
    15
 73
    11
 74
     0
 42
0.000000001
 43
0.00000001
 40
0.0
 40
0.0
 40
0.0
 40
0.0
 40
0.1099846140738841
 40
0.2238443135472955
 40
0.3416645312227521
 40
0.4646574579827513
 40
0.5906390018519554
 40
0.7219234699877929
 40
0.8583134771985058
 40
0.9999999999999999
 40
0.9999999999999999
 40
0.9999999999999999
 40
0.9999999999999999
 10
63.72538422493432
 20
23.680573135335
 30
0.0
 10
63.71971106218278
 20
23.70869688475002
 30
0.0
 10
63.70816485426588
 20
23.76593526700185
 30
0.0
 10
63.68415974583357
 20
23.85180492319006
 30
0.0
 10
63.65594391457309
 20
23.93990262400007
 30
0.0
 10
63.62241944101689
 20
24.02953422588654
 30
0.0
 10
63.58344761919271
 20
24.12074086951187
 30
0.0
 10
63.54033469801211
 20
24.21392369720432
 30
0.0
 10
63.49165051765941
 20
24.30897364557854
 30
0.0
 10
63.45579359316048
 20
24.37201153997341
 30
0.0
 10
63.43752364801124
 20
24.40413082764269
 30
0.0
  0
LINE
  5
DE
330
1F
100
AcDbEntity
  8
0
  6
Continuous
 62
     7
370
    25
100
AcDbLine
 10
62.6920559693
 20
20.8209477071
 30
0.0
 11
63.2016713539
 21
19.9381352071
 31
0.0
  0
LINE
  5
DF
330
1F
100
AcDbEntity
  8
0
  6
Continuous
 62
     7
370
    25
100
AcDbLine
 10
63.1505896232
 20
21.0853707841
 30
0.0
 11
62.6920559693
 21
20.8209477071
 31
0.0
  0
LINE
  5
E0
330
1F
100
AcDbEntity
  8
0
  6
Continuous
 62
     7
370
    25
100
AcDbLine
 10
63.2016713539
 20
19.9381352071
 30
0.0
 11
63.6445800078
 21
20.1863323225
 31
0.0
  0
SPLINE
  5
E1
330
1F
100
AcDbEntity
  8
0
  6
Continuous
 62
     7
370
    25
100
AcDbSpline
210
0.0
220
0.0
230
1.0
 70
     8
 71
     3
 72
    23
 73
    19
 74
     0
 42
0.000000001
 43
0.00000001
 40
0.0
 40
0.0
 40
0.0
 40
0.0
 40
0.0726650988704534
 40
0.1432791835201253
 40
0.214149206305942
 40
0.2864034591881086
 40
0.3580746850496256
 40
0.4274852584225196
 40
0.4955995541135628
 40
0.5653878306507094
 40
0.6026512098767124
 40
0.6448815372906991
 40
0.6911636126211442
 40
0.7425540665786066
 40
0.7995929580214058
 40
0.861345007947068
 40
0.9281274466669559
 40
1.0
 40
1.0
 40
1.0
 40
1.0
 10
64.0400127000889
 20
21.01325539943778
 30
0.0
 10
64.02675833841023
 20
21.03409947532549
 30
0.0
 10
64.0006237270367
 20
21.0751992910671
 30
0.0
 10
63.9516646010407
 20
21.1294566631896
 30
0.0
 10
63.89519622356308
 20
21.17540586484481
 30
0.0
 10
63.8324383426445
 20
21.21303664492704
 30
0.0
 10
63.76546680305088
 20
21.24120111291733
 30
0.0
 10
63.69642928302832
 20
21.25915687392452
 30
0.0
 10
63.62600257287328
 20
21.26498323669648
 30
0.0
 10
63.56639208421462
 20
21.26115509600979
 30
0.0
 10
63.51662083123241
 20
21.25134141434093
 30
0.0
 10
63.47541571348648
 20
21.23996404053179
 30
0.0
 10
63.43075342584668
 20
21.2237491357657
 30
0.0
 10
63.3817613561292
 20
21.20477168782276
 30
0.0
 10
63.32935636963534
 20
21.18038623929008
 30
0.0
 10
63.2726884022102
 20
21.15286072555008
 30
0.0
 10
63.21259304259538
 20
21.12092317322473
 30
0.0
 10
63.17175713386666
 20
21.09750810785166
 30
0.0
 10
63.15058962316581
 20
21.08537078405317
 30
0.0
  0
SPLINE
  5
E2
330
1F
100
AcDbEntity
  8
0
  6
Continuous
 62
     7
370
    25
100
AcDbSpline
210
0.0
220
0.0
230
1.0
 70
     8
 71
     3
 72
    23
 73
    19
 74
     0
 42
0.000000001
 43
0.00000001
 40
0.0
 40
0.0
 40
0.0
 40
0.0
 40
0.0713918962798023
 40
0.1375818375840158
 40
0.1989757648444549
 40
0.2557889034621066
 40
0.3073301432539901
 40
0.3549822005356681
 40
0.3976724697156572
 40
0.4363999540212033
 40
0.5080022246883872
 40
0.5776882661332912
 40
0.646476697087345
 40
0.7166520016022214
 40
0.7873809845268785
 40
0.8567603778518491
 40
0.9274893607765062
 40
1.0
 40
1.0
 40
1.0
 40
1.0
 10
63.6445800077812
 20
20.18633232251471
 30
0.0
 10
63.66613877214854
 20
20.19874957585037
 30
0.0
 10
63.70768542621239
 20
20.22267930206147
 30
0.0
 10
63.76576606511677
 20
20.26055734449646
 30
0.0
 10
63.81964569385222
 20
20.2955643904792
 30
0.0
 10
63.86752859287363
 20
20.33032022544959
 30
0.0
 10
63.9100842852548
 20
20.36417591599098
 30
0.0
 10
63.94699039472271
 20
20.39708025953952
 30
0.0
 10
63.97945709262886
 20
20.42824946238826
 30
0.0
 10
64.01427485938316
 20
20.46872512126784
 30
0.0
 10
64.04946463014075
 20
20.52086300651528
 30
0.0
 10
64.08235007077505
 20
20.5866389191502
 30
0.0
 10
64.10184268302993
 20
20.65705305715035
 30
0.0
 10
64.11155334753698
 20
20.72966776542112
 30
0.0
 10
64.11044037873506
 20
20.803242350151
 30
0.0
 10
64.09804057469775
 20
20.87586081159864
 30
0.0
 10
64.07552957879646
 20
20.94685426809967
 30
0.0
 10
64.05194942527262
 20
20.99093890977108
 30
0.0
 10
64.0400127000889
 20
21.01325539943778
 30
0.0
  0
INSERT
  5
EE
330
1F
100
AcDbEntity
  8
0
  6
Continuous
 62
     7
370
    18
100
AcDbBlockReference
  2
SW_CENTERMARKSYMBOL_0
 10
63.4721040462
 20
21.1714138728
 30
0.0
  0
LINE
  5
EF
330
1F
100
AcDbEntity
  8
0
  6
Continuous
 62
     7
370
    25
100
AcDbLine
 10
39.5981202362
 20
49.019383815
 30
0.0
 11
39.7424578035
 21
49.269383815
 31
0.0
  0
LINE
  5
F0
330
1F
100
AcDbEntity
  8
0
  6
Continuous
 62
     7
370
    25
100
AcDbLine
 10
39.7424578035
 20
75.769383815
 30
0.0
 11
39.5981202362
 21
76.019383815
 31
0.0
  0
LINE
  5
F1
330
1F
100
AcDbEntity
  8
0
  6
Continuous
 62
     7
370
    25
100
AcDbLine
 10
28.8867953708
 20
76.019383815
 30
0.0
 11
28.7424578035
 21
75.769383815
 31
0.0
  0
LINE
  5
F2
330
1F
100
AcDbEntity
  8
0
  6
Continuous
 62
     7
370
    25
100
AcDbLine
 10
28.7424578035
 20
49.269383815
 30
0.0
 11
28.8867953708
 21
49.019383815
 31
0.0
  0
LINE
  5
F3
330
1F
100
AcDbEntity
  8
0
  6
Continuous
 62
     7
370
    25
100
AcDbLine
 10
28.7424578035
 20
75.769383815
 30
0.0
 11
26.7424578035
 21
75.769383815
 31
0.0
  0
LINE
  5
F4
330
1F
100
AcDbEntity
  8
0
  6
Continuous
 62
     7
370
    25
100
AcDbLine
 10
26.7424578035
 20
49.269383815
 30
0.0
 11
28.7424578035
 21
49.269383815
 31
0.0
  0
LINE
  5
F5
330
1F
100
AcDbEntity
  8
0
  6
Continuous
 62
     7
370
    25
100
AcDbLine
 10
13.7424578035
 20
72.996883815
 30
0.0
 11
12.7424578035
 21
71.996883815
 31
0.0
  0
LINE
  5
F6
330
1F
100
AcDbEntity
  8
0
  6
Continuous
 62
     7
370
    25
100
AcDbLine
 10
12.7424578035
 20
53.041883815
 30
0.0
 11
13.7424578035
 21
52.041883815
 31
0.0
  0
LINE
  5
F7
330
1F
100
AcDbEntity
  8
0
  6
Continuous
 62
     7
370
    25
100
AcDbLine
 10
23.7424578035
 20
72.996883815
 30
0.0
 11
13.7424578035
 21
72.996883815
 31
0.0
  0
LINE
  5
F8
330
1F
100
AcDbEntity
  8
0
  6
Continuous
 62
     7
370
    25
100
AcDbLine
 10
13.7424578035
 20
52.041883815
 30
0.0
 11
23.7424578035
 21
52.041883815
 31
0.0
  0
LINE
  5
F9
330
1F
100
AcDbEntity
  8
0
  6
Continuous
 62
     7
370
    25
100
AcDbLine
 10
23.7424578035
 20
52.041883815
 30
0.0
 11
24.7424578035
 21
53.041883815
 31
0.0
  0
LINE
  5
FA
330
1F
100
AcDbEntity
  8
0
  6
Continuous
 62
     7
370
    25
100
AcDbLine
 10
24.7424578035
 20
71.996883815
 30
0.0
 11
23.7424578035
 21
72.996883815
 31
0.0
  0
LINE
  5
FB
330
1F
100
AcDbEntity
  8
0
  6
Continuous
 62
     7
370
    25
100
AcDbLine
 10
26.7424578035
 20
71.519383815
 30
0.0
 11
24.7424578035
 21
71.519383815
 31
0.0
  0
LINE
  5
FC
330
1F
100
AcDbEntity
  8
0
  6
Continuous
 62
     7
370
    25
100
AcDbLine
 10
24.7424578035
 20
53.519383815
 30
0.0
 11
26.7424578035
 21
53.519383815
 31
0.0
  0
LINE
  5
FD
330
1F
100
AcDbEntity
  8
0
  6
Continuous
 62
     7
370
    25
100
AcDbLine
 10
39.7437078035
 20
63.4739900418
 30
0.0
 11
39.7424578035
 21
63.4739900418
 31
0.0
  0
LINE
  5
FE
330
1F
100
AcDbEntity
  8
0
  6
Continuous
 62
     7
370
    25
100
AcDbLine
 10
39.7424578035
 20
75.769383815
 30
0.0
 11
39.7424578035
 21
49.269383815
 31
0.0
  0
SPLINE
  5
FF
330
1F
100
AcDbEntity
  8
0
  6
Continuous
 62
     7
370
    25
100
AcDbSpline
210
0.0
220
0.0
230
1.0
 70
    24
 71
     3
 72
    13
 73
     9
 74
     0
 42
0.000000001
 43
0.00000001
 40
0.0
 40
0.0
 40
0.0
 40
0.0
 40
0.0981104647509655
 40
0.2278844891761481
 40
0.4194926873821495
 40
0.6117606236598679
 40
0.8056750683633845
 40
1.0
 40
1.0
 40
1.0
 40
1.0
 10
39.59395160787809
 20
49.0193838150289
 30
0.0
 10
39.59309865521318
 20
49.0193838150289
 30
0.0
 10
39.59111747325846
 20
49.0193838150289
 30
0.0
 10
39.52592366345487
 20
49.0193838150289
 30
0.0
 10
39.3823069024517
 20
49.0193838150289
 30
0.0
 10
39.12951514801603
 20
49.0193838150289
 30
0.0
 10
38.80246622369726
 20
49.0193838150289
 30
0.0
 10
38.52915098045982
 20
49.0193838150289
 30
0.0
 10
38.39234887023073
 20
49.0193838150289
 30
0.0
  0
SPLINE
  5
100
330
1F
100
AcDbEntity
  8
0
  6
Continuous
 62
     7
370
    25
100
AcDbSpline
210
0.0
220
0.0
230
1.0
 70
     8
 71
     3
 72
    16
 73
    12
 74
     0
 42
0.000000001
 43
0.00000001
 40
0.0
 40
0.0
 40
0.0
 40
0.0
 40
0.2500000000000001
 40
0.2500000000000001
 40
0.5000000000000001
 40
0.5000000000000001
 40
0.625
 40
0.625
 40
0.7499999999999999
 40
0.7499999999999999
 40
1.0
 40
1.0
 40
1.0
 40
1.0
 10
38.39234887023098
 20
49.01938381502887
 30
0.0
 10
38.75973123291699
 20
50.12153090308689
 30
0.0
 10
39.06252079331116
 20
51.23171337836713
 30
0.0
 10
39.48198260161651
 20
53.47523144539721
 30
0.0
 10
39.59727122707108
 20
54.60873916069355
 30
0.0
 10
39.59853762393498
 20
56.33035616464039
 30
0.0
 10
39.57035406684597
 20
56.90692942418322
 30
0.0
 10
39.460452897804
 20
58.04745203013005
 30
0.0
 10
39.37884683573107
 20
58.61388958759023
 30
0.0
 10
39.06372824084024
 20
60.30311762082994
 30
0.0
 10
38.76018922450407
 20
61.4158627522093
 30
0.0
 10
38.39234887023086
 20
62.51938381502892
 30
0.0
  0
SPLINE
  5
101
330
1F
100
AcDbEntity
  8
0
  6
Continuous
 62
     7
370
    25
100
AcDbSpline
210
0.0
220
0.0
230
1.0
 70
     8
 71
     3
 72
    16
 73
    12
 74
     0
 42
0.000000001
 43
0.00000001
 40
0.0
 40
0.0
 40
0.0
 40
0.0
 40
0.2500000000000002
 40
0.2500000000000002
 40
0.5000000000000003
 40
0.5000000000000003
 40
0.6250000000000004
 40
0.6250000000000004
 40
0.7500000000000004
 40
0.7500000000000004
 40
1.0
 40
1.0
 40
1.0
 40
1.0
 10
38.39234887023098
 20
62.51938381502886
 30
0.0
 10
38.75973123291698
 20
63.62153090308688
 30
0.0
 10
39.06252079331116
 20
64.73171337836713
 30
0.0
 10
39.48198260161651
 20
66.97523144539721
 30
0.0
 10
39.59727122707108
 20
68.10873916069355
 30
0.0
 10
39.59853762393498
 20
69.83035616464038
 30
0.0
 10
39.57035406684597
 20
70.4069294241832
 30
0.0
 10
39.460452897804
 20
71.54745203013005
 30
0.0
 10
39.37884683573107
 20
72.11388958759022
 30
0.0
 10
39.06372824084024
 20
73.80311762082995
 30
0.0
 10
38.76018922450406
 20
74.91586275220929
 30
0.0
 10
38.39234887023085
 20
76.01938381502893
 30
0.0
  0
SPLINE
  5
102
330
1F
100
AcDbEntity
  8
0
  6
Continuous
 62
     7
370
    25
100
AcDbSpline
210
0.0
220
0.0
230
1.0
 70
    24
 71
     3
 72
    13
 73
     9
 74
     0
 42
0.000000001
 43
0.00000001
 40
0.0
 40
0.0
 40
0.0
 40
0.0
 40
0.1919034904727726
 40
0.3841636585546204
 40
0.5778210516730056
 40
0.7721136777552314
 40
0.897729755112475
 40
1.0
 40
1.0
 40
1.0
 40
1.0
 10
38.39234887023073
 20
76.0193838150289
 30
0.0
 10
38.52750898827583
 20
76.0193838150289
 30
0.0
 10
38.79808043703356
 20
76.0193838150289
 30
0.0
 10
39.12485199487396
 20
76.0193838150289
 30
0.0
 10
39.38011240450943
 20
76.0193838150289
 30
0.0
 10
39.52452119760641
 20
76.0193838150289
 30
0.0
 10
39.5902582631736
 20
76.0193838150289
 30
0.0
 10
39.59347467805638
 20
76.0193838150289
 30
0.0
 10
39.59491813255809
 20
76.0193838150289
 30
0.0
  0
LINE
  5
103
330
1F
100
AcDbEntity
  8
0
  6
Continuous
 62
     7
370
    25
100
AcDbLine
 10
38.3923488702
 20
62.519383815
 30
0.0
 11
30.0925667367
 21
62.519383815
 31
0.0
  0
SPLINE
  5
104
330
1F
100
AcDbEntity
  8
0
  6
Continuous
 62
     7
370
    25
100
AcDbSpline
210
0.0
220
0.0
230
1.0
 70
     8
 71
     3
 72
    16
 73
    12
 74
     0
 42
0.000000001
 43
0.00000001
 40
0.0
 40
0.0
 40
0.0
 40
0.0
 40
0.2500000000000001
 40
0.2500000000000001
 40
0.5000000000000001
 40
0.5000000000000001
 40
0.625
 40
0.625
 40
0.7499999999999999
 40
0.7499999999999999
 40
1.0
 40
1.0
 40
1.0
 40
1.0
 10
30.09256673670537
 20
76.01938381502893
 30
0.0
 10
29.72518437401937
 20
74.91723672697093
 30
0.0
 10
29.4223948136252
 20
73.80705425169067
 30
0.0
 10
29.00293300531985
 20
71.56353618466059
 30
0.0
 10
28.88764437986528
 20
70.43002846936425
 30
0.0
 10
28.88637798300137
 20
68.70841146541741
 30
0.0
 10
28.91456154009039
 20
68.1318382058746
 30
0.0
 10
29.02446270913236
 20
66.99131559992776
 30
0.0
 10
29.10606877120529
 20
66.42487804246758
 30
0.0
 10
29.42118736609611
 20
64.73565000922785
 30
0.0
 10
29.72472638243229
 20
63.62290487784851
 30
0.0
 10
30.0925667367055
 20
62.51938381502887
 30
0.0
  0
LINE
  5
105
330
1F
100
AcDbEntity
  8
0
  6
Continuous
 62
     7
370
    25
100
AcDbLine
 10
38.3923488702
 20
76.019383815
 30
0.0
 11
30.0925667367
 21
76.019383815
 31
0.0
  0
LINE
  5
106
330
1F
100
AcDbEntity
  8
0
  6
Continuous
 62
     7
370
    25
100
AcDbLine
 10
28.7424578035
 20
49.269383815
 30
0.0
 11
28.7424578035
 21
75.769383815
 31
0.0
  0
SPLINE
  5
107
330
1F
100
AcDbEntity
  8
0
  6
Continuous
 62
     7
370
    25
100
AcDbSpline
210
0.0
220
0.0
230
1.0
 70
    24
 71
     3
 72
    13
 73
     9
 74
     0
 42
0.000000001
 43
0.00000001
 40
0.0
 40
0.0
 40
0.0
 40
0.0
 40
0.0946083224089918
 40
0.2244987148924737
 40
0.4169312678269013
 40
0.6100338550807303
 40
0.8048085973870783
 40
1.0
 40
1.0
 40
1.0
 40
1.0
 10
28.89127553637205
 20
76.0193838150289
 30
0.0
 10
28.89183569104515
 20
76.0193838150289
 30
0.0
 10
28.89316489762075
 20
76.0193838150289
 30
0.0
 10
28.95694322526673
 20
76.0193838150289
 30
0.0
 10
29.09968268777718
 20
76.01938381502892
 30
0.0
 10
29.35269753820624
 20
76.0193838150289
 30
0.0
 10
29.68069439007303
 20
76.0193838150289
 30
0.0
 10
29.95517819685728
 20
76.0193838150289
 30
0.0
 10
30.09256673670563
 20
76.0193838150289
 30
0.0
  0
SPLINE
  5
108
330
1F
100
AcDbEntity
  8
0
  6
Continuous
 62
     7
370
    25
100
AcDbSpline
210
0.0
220
0.0
230
1.0
 70
     8
 71
     3
 72
    16
 73
    12
 74
     0
 42
0.000000001
 43
0.00000001
 40
0.0
 40
0.0
 40
0.0
 40
0.0
 40
0.2500000000000003
 40
0.2500000000000003
 40
0.5000000000000004
 40
0.5000000000000004
 40
0.6250000000000004
 40
0.6250000000000004
 40
0.7500000000000004
 40
0.7500000000000004
 40
1.0
 40
1.0
 40
1.0
 40
1.0
 10
30.09256673670537
 20
62.51938381502893
 30
0.0
 10
29.72518437401937
 20
61.41723672697092
 30
0.0
 10
29.4223948136252
 20
60.30705425169068
 30
0.0
 10
29.00293300531985
 20
58.06353618466059
 30
0.0
 10
28.88764437986528
 20
56.93002846936426
 30
0.0
 10
28.88637798300137
 20
55.20841146541742
 30
0.0
 10
28.91456154009039
 20
54.63183820587459
 30
0.0
 10
29.02446270913236
 20
53.49131559992776
 30
0.0
 10
29.10606877120529
 20
52.92487804246758
 30
0.0
 10
29.42118736609611
 20
51.23565000922786
 30
0.0
 10
29.72472638243229
 20
50.12290487784851
 30
0.0
 10
30.0925667367055
 20
49.01938381502888
 30
0.0
  0
SPLINE
  5
109
330
1F
100
AcDbEntity
  8
0
  6
Continuous
 62
     7
370
    25
100
AcDbSpline
210
0.0
220
0.0
230
1.0
 70
    24
 71
     3
 72
    13
 73
     9
 74
     0
 42
0.000000001
 43
0.00000001
 40
0.0
 40
0.0
 40
0.0
 40
0.0
 40
0.1927329760799096
 40
0.3858277055001505
 40
0.5803408623248789
 40
0.7754994069945083
 40
0.9012291610161236
 40
1.0
 40
1.0
 40
1.0
 40
1.0
 10
30.09256673670563
 20
49.0193838150289
 30
0.0
 10
29.95684471871345
 20
49.0193838150289
 30
0.0
 10
29.68514593704747
 20
49.0193838150289
 30
0.0
 10
29.35742170510393
 20
49.0193838150289
 30
0.0
 10
29.10189611051621
 20
49.01938381502891
 30
0.0
 10
28.9583294452634
 20
49.0193838150289
 30
0.0
 10
28.89402558629764
 20
49.0193838150289
 30
0.0
 10
28.89148501852771
 20
49.0193838150289
 30
0.0
 10
28.8903672753326
 20
49.0193838150289
 30
0.0
  0
LINE
  5
10A
330
1F
100
AcDbEntity
  8
0
  6
Continuous
 62
     7
370
    25
100
AcDbLine
 10
38.3923488702
 20
49.019383815
 30
0.0
 11
30.0925667367
 21
49.019383815
 31
0.0
  0
LINE
  5
10B
330
1F
100
AcDbEntity
  8
0
  6
Continuous
 62
     7
370
    25
100
AcDbLine
 10
26.7424578035
 20
49.269383815
 30
0.0
 11
26.7424578035
 21
75.769383815
 31
0.0
  0
LINE
  5
10C
330
1F
100
AcDbEntity
  8
0
  6
Continuous
 62
     7
370
    25
100
AcDbLine
 10
12.7424578035
 20
53.041883815
 30
0.0
 11
12.7424578035
 21
71.996883815
 31
0.0
  0
LINE
  5
10D
330
1F
100
AcDbEntity
  8
0
  6
Continuous
 62
     7
370
    25
100
AcDbLine
 10
13.7424578035
 20
72.996883815
 30
0.0
 11
13.7424578035
 21
52.041883815
 31
0.0
  0
LINE
  5
10E
330
1F
100
AcDbEntity
  8
0
  6
Continuous
 62
     7
370
    25
100
AcDbLine
 10
23.7424578035
 20
52.041883815
 30
0.0
 11
23.7424578035
 21
72.996883815
 31
0.0
  0
LINE
  5
10F
330
1F
100
AcDbEntity
  8
0
  6
Continuous
 62
     7
370
    25
100
AcDbLine
 10
24.7424578035
 20
71.996883815
 30
0.0
 11
24.7424578035
 21
53.041883815
 31
0.0
  0
LINE
  5
110
330
1F
100
AcDbEntity
  8
0
  6
Continuous
 62
     7
370
    18
100
AcDbLine
 10
12.7424578035
 20
71.834883815
 30
0.0
 11
24.7424578035
 21
71.834883815
 31
0.0
  0
LINE
  5
111
330
1F
100
AcDbEntity
  8
0
  6
Continuous
 62
     7
370
    18
100
AcDbLine
 10
12.7424578035
 20
53.203883815
 30
0.0
 11
24.7424578035
 21
53.203883815
 31
0.0
  0
LINE
  5
112
330
1F
100
AcDbEntity
  8
0
  6
CENTERX2
 62
     7
370
    18
100
AcDbLine
 10
10.4280947977
 20
62.519383815
 30
0.0
 11
42.3862867052
 21
62.519383815
 31
0.0
  0
ENDSEC
  0
SECTION
  2
OBJECTS
  0
DICTIONARY
  5
C
330
0
100
AcDbDictionary
281
     1
  3
ACAD_GROUP
350
D
  3
ACAD_LAYOUT
350
1A
  3
ACAD_MLINESTYLE
350
17
  3
ACAD_PLOTSETTINGS
350
19
  3
ACAD_PLOTSTYLENAME
350
E
  3
ACAD_SCALELIST
350
47
  0
DICTIONARY
  5
D
102
{ACAD_REACTORS
330
C
102
}
330
C
100
AcDbDictionary
281
     1
  0
DICTIONARY
  5
1A
102
{ACAD_REACTORS
330
C
102
}
330
C
100
AcDbDictionary
281
     1
  3
Layout1
350
1E
  3
Layout2
350
26
  3
Model
350
22
  0
DICTIONARY
  5
17
102
{ACAD_REACTORS
330
C
102
}
330
C
100
AcDbDictionary
281
     1
  3
Standard
350
18
  0
DICTIONARY
  5
19
102
{ACAD_REACTORS
330
C
102
}
330
C
100
AcDbDictionary
281
     1
  0
ACDBDICTIONARYWDFLT
  5
E
102
{ACAD_REACTORS
330
C
102
}
330
C
100
AcDbDictionary
281
     1
  3
Normal
350
F
100
AcDbDictionaryWithDefault
340
F
  0
DICTIONARY
  5
47
102
{ACAD_REACTORS
330
C
102
}
330
C
100
AcDbDictionary
281
     1
  3
A0
350
48
  3
A1
350
49
  3
A2
350
4A
  3
A3
350
4B
  3
A4
350
4C
  3
A5
350
4D
  3
A6
350
4E
  3
A7
350
4F
  3
A8
350
50
  3
A9
350
51
  3
B0
350
52
  3
B1
350
53
  3
B2
350
54
  3
B3
350
55
  3
B4
350
56
  3
B5
350
57
  3
B6
350
58
  3
B7
350
59
  3
B8
350
5A
  3
B9
350
5B
  3
C0
350
5C
  3
C1
350
5D
  3
C2
350
5E
  3
C3
350
5F
  3
C4
350
60
  3
C5
350
61
  3
C6
350
62
  3
C7
350
63
  3
C8
350
64
  3
C9
350
65
  3
D0
350
66
  3
D1
350
67
  3
D2
350
68
  0
LAYOUT
  5
1E
102
{ACAD_REACTORS
330
1A
102
}
330
1A
100
AcDbPlotSettings
  1

  2
none_device
  4

  6

 40
0.0
 41
0.0
 42
0.0
 43
0.0
 44
0.0
 45
0.0
 46
0.0
 47
0.0
 48
0.0
 49
0.0
140
0.0
141
0.0
142
1.0
143
1.0
 70
   688
 72
     1
 73
     0
 74
     5
  7

 75
    16
147
1.0
148
0.0
149
0.0
100
AcDbLayout
  1
Layout1
 70
     1
 71
     1
 10
0.0
 20
0.0
 11
420.0
 21
297.0
 12
0.0
 22
0.0
 32
0.0
 14
1.0000000000E+20
 24
1.0000000000E+20
 34
1.0000000000E+20
 15
-1.0000000000E+20
 25
-1.0000000000E+20
 35
-1.0000000000E+20
146
0.0
 13
0.0
 23
0.0
 33
0.0
 16
1.0
 26
0.0
 36
0.0
 17
0.0
 27
1.0
 37
0.0
 76
     0
330
1B
  0
LAYOUT
  5
26
102
{ACAD_REACTORS
330
1A
102
}
330
1A
100
AcDbPlotSettings
  1

  2
none_device
  4

  6

 40
0.0
 41
0.0
 42
0.0
 43
0.0
 44
0.0
 45
0.0
 46
0.0
 47
0.0
 48
0.0
 49
0.0
140
0.0
141
0.0
142
1.0
143
1.0
 70
   688
 72
     1
 73
     0
 74
     5
  7

 75
    16
147
1.0
148
0.0
149
0.0
100
AcDbLayout
  1
Layout2
 70
     1
 71
     2
 10
0.0
 20
0.0
 11
0.0
 21
0.0
 12
0.0
 22
0.0
 32
0.0
 14
0.0
 24
0.0
 34
0.0
 15
0.0
 25
0.0
 35
0.0
146
0.0
 13
0.0
 23
0.0
 33
0.0
 16
1.0
 26
0.0
 36
0.0
 17
0.0
 27
1.0
 37
0.0
 76
     0
330
23
  0
LAYOUT
  5
22
102
{ACAD_REACTORS
330
1A
102
}
330
1A
100
AcDbPlotSettings
  1

  2
none_device
  4
Letter_(8.50_x_11.00_Inches)
  6

 40
6.35
 41
6.35
 42
6.35000508
 43
6.35000508
 44
215.9
 45
279.4
 46
0.0
 47
0.0
 48
0.0
 49
0.0
140
0.0
141
0.0
142
1.0
143
1.0
 70
  1712
 72
     1
 73
     0
 74
     0
  7

 75
     0
147
1.0
148
0.0
149
0.0
100
AcDbLayout
  1
Model
 70
     1
 71
     0
 10
0.0
 20
0.0
 11
215.9
 21
139.7
 12
0.0
 22
0.0
 32
0.0
 14
0.0
 24
0.0
 34
0.0
 15
215.9
 25
139.7
 35
0.0
146
0.0
 13
0.0
 23
0.0
 33
0.0
 16
1.0
 26
0.0
 36
0.0
 17
0.0
 27
1.0
 37
0.0
 76
     0
330
1F
331
29
  0
MLINESTYLE
  5
18
102
{ACAD_REACTORS
330
17
102
}
330
17
100
AcDbMlineStyle
  2
Standard
 70
     0
  3

 62
   256
 51
90.0
 52
90.0
 71
     2
 49
0.5
 62
   256
  6
BYLAYER
 49
-0.5
 62
   256
  6
BYLAYER
  0
ACDBPLACEHOLDER
  5
F
102
{ACAD_REACTORS
330
E
102
}
330
E
  0
SCALE
  5
48
102
{ACAD_REACTORS
330
47
102
}
330
47
100
AcDbScale
 70
     0
300
1:1
140
1.0
141
1.0
290
     1
  0
SCALE
  5
49
102
{ACAD_REACTORS
330
47
102
}
330
47
100
AcDbScale
 70
     0
300
1:2
140
1.0
141
2.0
290
     0
  0
SCALE
  5
4A
102
{ACAD_REACTORS
330
47
102
}
330
47
100
AcDbScale
 70
     0
300
1:4
140
1.0
141
4.0
290
     0
  0
SCALE
  5
4B
102
{ACAD_REACTORS
330
47
102
}
330
47
100
AcDbScale
 70
     0
300
1:5
140
1.0
141
5.0
290
     0
  0
SCALE
  5
4C
102
{ACAD_REACTORS
330
47
102
}
330
47
100
AcDbScale
 70
     0
300
1:8
140
1.0
141
8.0
290
     0
  0
SCALE
  5
4D
102
{ACAD_REACTORS
330
47
102
}
330
47
100
AcDbScale
 70
     0
300
1:10
140
1.0
141
10.0
290
     0
  0
SCALE
  5
4E
102
{ACAD_REACTORS
330
47
102
}
330
47
100
AcDbScale
 70
     0
300
1:16
140
1.0
141
16.0
290
     0
  0
SCALE
  5
4F
102
{ACAD_REACTORS
330
47
102
}
330
47
100
AcDbScale
 70
     0
300
1:20
140
1.0
141
20.0
290
     0
  0
SCALE
  5
50
102
{ACAD_REACTORS
330
47
102
}
330
47
100
AcDbScale
 70
     0
300
1:30
140
1.0
141
30.0
290
     0
  0
SCALE
  5
51
102
{ACAD_REACTORS
330
47
102
}
330
47
100
AcDbScale
 70
     0
300
1:40
140
1.0
141
40.0
290
     0
  0
SCALE
  5
52
102
{ACAD_REACTORS
330
47
102
}
330
47
100
AcDbScale
 70
     0
300
1:50
140
1.0
141
50.0
290
     0
  0
SCALE
  5
53
102
{ACAD_REACTORS
330
47
102
}
330
47
100
AcDbScale
 70
     0
300
1:100
140
1.0
141
100.0
290
     0
  0
SCALE
  5
54
102
{ACAD_REACTORS
330
47
102
}
330
47
100
AcDbScale
 70
     0
300
2:1
140
2.0
141
1.0
290
     0
  0
SCALE
  5
55
102
{ACAD_REACTORS
330
47
102
}
330
47
100
AcDbScale
 70
     0
300
4:1
140
4.0
141
1.0
290
     0
  0
SCALE
  5
56
102
{ACAD_REACTORS
330
47
102
}
330
47
100
AcDbScale
 70
     0
300
8:1
140
8.0
141
1.0
290
     0
  0
SCALE
  5
57
102
{ACAD_REACTORS
330
47
102
}
330
47
100
AcDbScale
 70
     0
300
10:1
140
10.0
141
1.0
290
     0
  0
SCALE
  5
58
102
{ACAD_REACTORS
330
47
102
}
330
47
100
AcDbScale
 70
     0
300
100:1
140
100.0
141
1.0
290
     0
  0
SCALE
  5
59
102
{ACAD_REACTORS
330
47
102
}
330
47
100
AcDbScale
 70
     0
300
1/128" = 1'-0"
140
0.0078125
141
12.0
290
     0
  0
SCALE
  5
5A
102
{ACAD_REACTORS
330
47
102
}
330
47
100
AcDbScale
 70
     0
300
1/64" = 1'-0"
140
0.015625
141
12.0
290
     0
  0
SCALE
  5
5B
102
{ACAD_REACTORS
330
47
102
}
330
47
100
AcDbScale
 70
     0
300
1/32" = 1'-0"
140
0.03125
141
12.0
290
     0
  0
SCALE
  5
5C
102
{ACAD_REACTORS
330
47
102
}
330
47
100
AcDbScale
 70
     0
300
1/16" = 1'-0"
140
0.0625
141
12.0
290
     0
  0
SCALE
  5
5D
102
{ACAD_REACTORS
330
47
102
}
330
47
100
AcDbScale
 70
     0
300
3/32" = 1'-0"
140
0.09375
141
12.0
290
     0
  0
SCALE
  5
5E
102
{ACAD_REACTORS
330
47
102
}
330
47
100
AcDbScale
 70
     0
300
1/8" = 1'-0"
140
0.125
141
12.0
290
     0
  0
SCALE
  5
5F
102
{ACAD_REACTORS
330
47
102
}
330
47
100
AcDbScale
 70
     0
300
3/16" = 1'-0"
140
0.1875
141
12.0
290
     0
  0
SCALE
  5
60
102
{ACAD_REACTORS
330
47
102
}
330
47
100
AcDbScale
 70
     0
300
1/4" = 1'-0"
140
0.25
141
12.0
290
     0
  0
SCALE
  5
61
102
{ACAD_REACTORS
330
47
102
}
330
47
100
AcDbScale
 70
     0
300
3/8" = 1'-0"
140
0.375
141
12.0
290
     0
  0
SCALE
  5
62
102
{ACAD_REACTORS
330
47
102
}
330
47
100
AcDbScale
 70
     0
300
1/2" = 1'-0"
140
0.5
141
12.0
290
     0
  0
SCALE
  5
63
102
{ACAD_REACTORS
330
47
102
}
330
47
100
AcDbScale
 70
     0
300
3/4" = 1'-0"
140
0.75
141
12.0
290
     0
  0
SCALE
  5
64
102
{ACAD_REACTORS
330
47
102
}
330
47
100
AcDbScale
 70
     0
300
1" = 1'-0"
140
1.0
141
12.0
290
     0
  0
SCALE
  5
65
102
{ACAD_REACTORS
330
47
102
}
330
47
100
AcDbScale
 70
     0
300
1-1/2" = 1'-0"
140
1.5
141
12.0
290
     0
  0
SCALE
  5
66
102
{ACAD_REACTORS
330
47
102
}
330
47
100
AcDbScale
 70
     0
300
3" = 1'-0"
140
3.0
141
12.0
290
     0
  0
SCALE
  5
67
102
{ACAD_REACTORS
330
47
102
}
330
47
100
AcDbScale
 70
     0
300
6" = 1'-0"
140
6.0
141
12.0
290
     0
  0
SCALE
  5
68
102
{ACAD_REACTORS
330
47
102
}
330
47
100
AcDbScale
 70
     0
300
1'-0" = 1'-0"
140
12.0
141
12.0
290
     0
  0
ENDSEC
  0
EOF
