  0
SECTION
  2
HEADER
  9
$ACADVER
  1
AC1015
  9
$ACADMAINTVER
 70
     6
  9
$DWGCODEPAGE
  3
DOS932
  9
$INSBASE
 10
0.0
 20
0.0
 30
0.0
  9
$EXTMIN
 10
0.0
 20
0.0
 30
0.0
  9
$EXTMAX
 10
215.9
 20
139.7
 30
0.0
  9
$LIMMIN
 10
0.0
 20
0.0
  9
$LIMMAX
 10
215.9
 20
139.7
  9
$ORTHOMODE
 70
     0
  9
$REGENMODE
 70
     1
  9
$FILLMODE
 70
     1
  9
$QTEXTMODE
 70
     0
  9
$MIRRTEXT
 70
     1
  9
$LTSCALE
 40
0.5
  9
$ATTMODE
 70
     1
  9
$TEXTSIZE
 40
1.75
  9
$TRACEWID
 40
1.0
  9
$TEXTSTYLE
  7
Standard
  9
$CLAYER
  8
0
  9
$CELTYPE
  6
ByLayer
  9
$CECOLOR
 62
   256
  9
$CELTSCALE
 40
1.0
  9
$DISPSILH
 70
     0
  9
$DIMSCALE
 40
1.0
  9
$DIMASZ
 40
1.651
  9
$DIMEXO
 40
0.5
  9
$DIMDLI
 40
3.75
  9
$DIMRND
 40
0.0
  9
$DIMDLE
 40
0.0
  9
$DIMEXE
 40
0.5
  9
$DIMTP
 40
0.0
  9
$DIMTM
 40
0.0
  9
$DIMTXT
 40
1.75
  9
$DIMCEN
 40
2.5
  9
$DIMTSZ
 40
0.0
  9
$DIMTOL
 70
     0
  9
$DIMLIM
 70
     0
  9
$DIMTIH
 70
     1
  9
$DIMTOH
 70
     1
  9
$DIMSE1
 70
     0
  9
$DIMSE2
 70
     0
  9
$DIMTAD
 70
     1
  9
$DIMZIN
 70
     1
  9
$DIMBLK
  1

  9
$DIMASO
 70
     1
  9
$DIMSHO
 70
     1
  9
$DIMPOST
  1

  9
$DIMAPOST
  1

  9
$DIMALT
 70
     0
  9
$DIMALTD
 70
     3
  9
$DIMALTF
 40
0.0393700787
  9
$DIMLFAC
 40
1.0
  9
$DIMTOFL
 70
     1
  9
$DIMTVP
 40
0.0
  9
$DIMTIX
 70
     0
  9
$DIMSOXD
 70
     0
  9
$DIMSAH
 70
     0
  9
$DIMBLK1
  1

  9
$DIMBLK2
  1

  9
$DIMSTYLE
  2
ISO-25
  9
$DIMCLRD
 70
     0
  9
$DIMCLRE
 70
     0
  9
$DIMCLRT
 70
     0
  9
$DIMTFAC
 40
1.0
  9
$DIMGAP
 40
0.762
  9
$DIMJUST
 70
     0
  9
$DIMSD1
 70
     0
  9
$DIMSD2
 70
     0
  9
$DIMTOLJ
 70
     0
  9
$DIMTZIN
 70
     1
  9
$DIMALTZ
 70
     0
  9
$DIMALTTZ
 70
     0
  9
$DIMUPT
 70
     0
  9
$DIMDEC
 70
     2
  9
$DIMTDEC
 70
     2
  9
$DIMALTU
 70
     2
  9
$DIMALTTD
 70
     3
  9
$DIMTXSTY
  7
Standard
  9
$DIMAUNIT
 70
     0
  9
$DIMADEC
 70
     2
  9
$DIMALTRND
 40
0.0
  9
$DIMAZIN
 70
     0
  9
$DIMDSEP
 70
    44
  9
$DIMATFIT
 70
     3
  9
$DIMFRAC
 70
     0
  9
$DIMLDRBLK
  1

  9
$DIMLUNIT
 70
     2
  9
$DIMLWD
 70
    -2
  9
$DIMLWE
 70
    -2
  9
$DIMTMOVE
 70
     0
  9
$LUNITS
 70
     2
  9
$LUPREC
 70
     2
  9
$SKETCHINC
 40
1.0
  9
$FILLETRAD
 40
10.0
  9
$AUNITS
 70
     0
  9
$AUPREC
 70
     2
  9
$MENU
  1
.
  9
$ELEVATION
 40
0.0
  9
$PELEVATION
 40
0.0
  9
$THICKNESS
 40
0.0
  9
$LIMCHECK
 70
     0
  9
$CHAMFERA
 40
0.0
  9
$CHAMFERB
 40
0.0
  9
$CHAMFERC
 40
0.0
  9
$CHAMFERD
 40
0.0
  9
$SKPOLY
 70
     0
  9
$TDCREATE
 40
2460087.723046817
  9
$TDUCREATE
 40
2460087.348046817
  9
$TDUPDATE
 40
2460087.723047361
  9
$TDUUPDATE
 40
2460087.348047361
  9
$TDINDWG
 40
0.0000000116
  9
$TDUSRTIMER
 40
0.0000000116
  9
$USRTIMER
 70
     1
  9
$ANGBASE
 50
0.0
  9
$ANGDIR
 70
     0
  9
$PDMODE
 70
     0
  9
$PDSIZE
 40
-1.0
  9
$PLINEWID
 40
0.0
  9
$SPLFRAME
 70
     0
  9
$SPLINETYPE
 70
     6
  9
$SPLINESEGS
 70
     8
  9
$HANDSEED
  5
114
  9
$SURFTAB1
 70
     6
  9
$SURFTAB2
 70
     6
  9
$SURFTYPE
 70
     6
  9
$SURFU
 70
     6
  9
$SURFV
 70
     6
  9
$UCSBASE
  2

  9
$UCSNAME
  2

  9
$UCSORG
 10
0.0
 20
0.0
 30
0.0
  9
$UCSXDIR
 10
1.0
 20
0.0
 30
0.0
  9
$UCSYDIR
 10
0.0
 20
1.0
 30
0.0
  9
$UCSORTHOREF
  2

  9
$UCSORTHOVIEW
 70
     0
  9
$UCSORGTOP
 10
0.0
 20
0.0
 30
0.0
  9
$UCSORGBOTTOM
 10
0.0
 20
0.0
 30
0.0
  9
$UCSORGLEFT
 10
0.0
 20
0.0
 30
0.0
  9
$UCSORGRIGHT
 10
0.0
 20
0.0
 30
0.0
  9
$UCSORGFRONT
 10
0.0
 20
0.0
 30
0.0
  9
$UCSORGBACK
 10
0.0
 20
0.0
 30
0.0
  9
$PUCSBASE
  2

  9
$PUCSNAME
  2

  9
$PUCSORG
 10
0.0
 20
0.0
 30
0.0
  9
$PUCSXDIR
 10
1.0
 20
0.0
 30
0.0
  9
$PUCSYDIR
 10
0.0
 20
1.0
 30
0.0
  9
$PUCSORTHOREF
  2

  9
$PUCSORTHOVIEW
 70
     0
  9
$PUCSORGTOP
 10
0.0
 20
0.0
 30
0.0
  9
$PUCSORGBOTTOM
 10
0.0
 20
0.0
 30
0.0
  9
$PUCSORGLEFT
 10
0.0
 20
0.0
 30
0.0
  9
$PUCSORGRIGHT
 10
0.0
 20
0.0
 30
0.0
  9
$PUCSORGFRONT
 10
0.0
 20
0.0
 30
0.0
  9
$PUCSORGBACK
 10
0.0
 20
0.0
 30
0.0
  9
$USERI1
 70
     0
  9
$USERI2
 70
     0
  9
$USERI3
 70
     0
  9
$USERI4
 70
     0
  9
$USERI5
 70
     0
  9
$USERR1
 40
0.0
  9
$USERR2
 40
0.0
  9
$USERR3
 40
0.0
  9
$USERR4
 40
0.0
  9
$USERR5
 40
0.0
  9
$WORLDVIEW
 70
     1
  9
$SHADEDGE
 70
     3
  9
$SHADEDIF
 70
    70
  9
$TILEMODE
 70
     1
  9
$MAXACTVP
 70
    64
  9
$PINSBASE
 10
0.0
 20
0.0
 30
0.0
  9
$PLIMCHECK
 70
     0
  9
$PEXTMIN
 10
1.0000000000E+20
 20
1.0000000000E+20
 30
1.0000000000E+20
  9
$PEXTMAX
 10
-1.0000000000E+20
 20
-1.0000000000E+20
 30
-1.0000000000E+20
  9
$PLIMMIN
 10
0.0
 20
0.0
  9
$PLIMMAX
 10
420.0
 20
297.0
  9
$UNITMODE
 70
     0
  9
$VISRETAIN
 70
     1
  9
$PLINEGEN
 70
     0
  9
$PSLTSCALE
 70
     1
  9
$TREEDEPTH
 70
  3020
  9
$CMLSTYLE
  2
Standard
  9
$CMLJUST
 70
     0
  9
$CMLSCALE
 40
20.0
  9
$PROXYGRAPHICS
 70
     1
  9
$MEASUREMENT
 70
     1
  9
$CELWEIGHT
370
    -1
  9
$ENDCAPS
280
     0
  9
$JOINSTYLE
280
     0
  9
$LWDISPLAY
290
     1
  9
$INSUNITS
 70
     4
  9
$HYPERLINKBASE
  1

  9
$STYLESHEET
  1

  9
$XEDIT
290
     1
  9
$CEPSNTYPE
380
     0
  9
$PSTYLEMODE
290
     1
  9
$FINGERPRINTGUID
  2
{42FC18A6-1E76-49F5-9FB9-56739083BA7D}
  9
$VERSIONGUID
  2
{FAEB1C32-E019-11D5-929B-00C0DF256EC4}
  9
$EXTNAMES
290
     1
  9
$PSVPSCALE
 40
0.0
  9
$OLESTARTUP
290
     0
  0
ENDSEC
  0
SECTION
  2
CLASSES
  0
CLASS
  1
ACDBDICTIONARYWDFLT
  2
AcDbDictionaryWithDefault
  3
ObjectDBX Classes
 90
        0
280
     0
281
     0
  0
CLASS
  1
VISUALSTYLE
  2
AcDbVisualStyle
  3
ObjectDBX Classes
 90
     4095
280
     0
281
     0
  0
CLASS
  1
MATERIAL
  2
AcDbMaterial
  3
ObjectDBX Classes
 90
     1153
280
     0
281
     0
  0
CLASS
  1
SCALE
  2
AcDbScale
  3
ObjectDBX Classes
 90
     1153
280
     0
281
     0
  0
CLASS
  1
TABLESTYLE
  2
AcDbTableStyle
  3
ObjectDBX Classes
 90
     4095
280
     0
281
     0
  0
CLASS
  1
MLEADERSTYLE
  2
AcDbMLeaderStyle
  3
ACDB_MLEADERSTYLE_CLASS
 90
     4095
280
     0
281
     0
  0
CLASS
  1
SUN
  2
AcDbSun
  3
SCENEOE
 90
     1153
280
     0
281
     0
  0
CLASS
  1
ACDBPLACEHOLDER
  2
AcDbPlaceHolder
  3
ObjectDBX Classes
 90
        0
280
     0
281
     0
  0
CLASS
  1
LAYOUT
  2
AcDbLayout
  3
ObjectDBX Classes
 90
        0
280
     0
281
     0
  0
ENDSEC
  0
SECTION
  2
TABLES
  0
TABLE
  2
VPORT
  5
8
330
0
100
AcDbSymbolTable
 70
     1
  0
VPORT
  5
29
330
8
100
AcDbSymbolTableRecord
100
AcDbViewportTableRecord
  2
*Active
 70
     0
 10
0.0
 20
0.0
 11
1.0
 21
1.0
 12
107.95
 22
69.85
 13
0.0
 23
0.0
 14
10.0
 24
10.0
 15
10.0
 25
10.0
 16
0.0
 26
0.0
 36
1.0
 17
0.0
 27
0.0
 37
0.0
 40
139.7
 41
1.5454545455
 42
50.0
 43
0.0
 44
0.0
 50
0.0
 51
0.0
 71
     0
 72
  2000
 73
     1
 74
     3
 75
     0
 76
     0
 77
     0
 78
     0
281
     0
 65
     1
110
0.0
120
0.0
130
0.0
111
1.0
121
0.0
131
0.0
112
0.0
122
1.0
132
0.0
 79
     0
146
0.0
  0
ENDTAB
  0
TABLE
  2
LTYPE
  5
5
330
0
100
AcDbSymbolTable
 70
     6
  0
LTYPE
  5
14
330
5
100
AcDbSymbolTableRecord
100
AcDbLinetypeTableRecord
  2
ByBlock
 70
     0
  3

 72
    65
 73
     0
 40
0.0
  0
LTYPE
  5
15
330
5
100
AcDbSymbolTableRecord
100
AcDbLinetypeTableRecord
  2
ByLayer
 70
     0
  3

 72
    65
 73
     0
 40
0.0
  0
LTYPE
  5
16
330
5
100
AcDbSymbolTableRecord
100
AcDbLinetypeTableRecord
  2
Continuous
 70
     0
  3
Solid line
 72
    65
 73
     0
 40
0.0
  0
LTYPE
  5
6E
330
5
100
AcDbSymbolTableRecord
100
AcDbLinetypeTableRecord
  2
HIDDEN
 70
     0
  3
Hidden __ __ __ __ __ __ __ __ __ __ __ __ __ __
 72
    65
 73
     2
 40
1.905
 49
1.27
 74
     0
 49
-0.635
 74
     0
  0
LTYPE
  5
6F
330
5
100
AcDbSymbolTableRecord
100
AcDbLinetypeTableRecord
  2
PHANTOM
 70
     0
  3
Phantom ______  __  __  ______  __  __  ______
 72
    65
 73
     6
 40
12.7
 49
6.35
 74
     0
 49
-1.27
 74
     0
 49
1.27
 74
     0
 49
-1.27
 74
     0
 49
1.27
 74
     0
 49
-1.27
 74
     0
  0
LTYPE
  5
70
330
5
100
AcDbSymbolTableRecord
100
AcDbLinetypeTableRecord
  2
CENTER
 70
     0
  3
Center ____ _ ____ _ ____ _ ____ _ ____ _ ____
 72
    65
 73
     4
 40
10.16
 49
6.35
 74
     0
 49
-1.27
 74
     0
 49
1.27
 74
     0
 49
-1.27
 74
     0
  0
LTYPE
  5
71
330
5
100
AcDbSymbolTableRecord
100
AcDbLinetypeTableRecord
  2
CENTERX2
 70
     0
  3
Center (2x) ________  __  ________  __  _____
 72
    65
 73
     4
 40
20.32
 49
12.7
 74
     0
 49
-2.54
 74
     0
 49
2.54
 74
     0
 49
-2.54
 74
     0
  0
LTYPE
  5
72
330
5
100
AcDbSymbolTableRecord
100
AcDbLinetypeTableRecord
  2
DOT2
 70
     0
  3
Dot (.5x) ........................................
 72
    65
 73
     2
 40
0.635
 49
0.0
 74
     0
 49
-0.635
 74
     0
  0
ENDTAB
  0
TABLE
  2
LAYER
  5
2
330
0
100
AcDbSymbolTable
 70
     1
  0
LAYER
  5
10
330
2
100
AcDbSymbolTableRecord
100
AcDbLayerTableRecord
  2
0
 70
     0
 62
     7
  6
Continuous
370
    -3
390
F
  0
ENDTAB
  0
TABLE
  2
STYLE
  5
3
330
0
100
AcDbSymbolTable
 70
     2
  0
STYLE
  5
11
330
3
100
AcDbSymbolTableRecord
100
AcDbTextStyleTableRecord
  2
Standard
 70
     0
 40
0.0
 41
1.0
 50
0.0
 71
     0
 42
1.75
  3
txt
  4
bigfont
  0
STYLE
  5
73
330
3
100
AcDbSymbolTableRecord
100
AcDbTextStyleTableRecord
  2
SLDTEXTSTYLE0
 70
     0
 40
0.0
 41
0.7
 50
0.0
 71
     0
 42
1.75
  3
TXT
  4
bigfont
  0
ENDTAB
  0
TABLE
  2
VIEW
  5
6
330
0
100
AcDbSymbolTable
 70
     0
  0
ENDTAB
  0
TABLE
  2
UCS
  5
7
330
0
100
AcDbSymbolTable
 70
     0
  0
ENDTAB
  0
TABLE
  2
APPID
  5
9
330
0
100
AcDbSymbolTable
 70
     1
  0
APPID
  5
12
330
9
100
AcDbSymbolTableRecord
100
AcDbRegAppTableRecord
  2
ACAD
 70
     0
  0
ENDTAB
  0
TABLE
  2
DIMSTYLE
  5
A
330
0
100
AcDbSymbolTable
 70
     1
100
AcDbDimStyleTable
  0
DIMSTYLE
105
27
330
A
100
AcDbSymbolTableRecord
100
AcDbDimStyleTableRecord
  2
ISO-25
 70
     0
 41
2.5
 42
0.625
 43
3.75
 44
1.25
 73
     0
 74
     0
 77
     1
 78
     8
140
2.5
141
2.5
143
0.0393700787
147
0.625
171
     3
172
     1
178
     0
271
     2
272
     2
274
     3
278
    44
283
     0
284
     8
340
11
  0
ENDTAB
  0
TABLE
  2
BLOCK_RECORD
  5
1
330
0
100
AcDbSymbolTable
 70
     2
  0
BLOCK_RECORD
  5
1F
330
1
100
AcDbSymbolTableRecord
100
AcDbBlockTableRecord
  2
*Model_Space
340
22
  0
BLOCK_RECORD
  5
1B
330
1
100
AcDbSymbolTableRecord
100
AcDbBlockTableRecord
  2
*Paper_Space
340
1E
  0
BLOCK_RECORD
  5
23
330
1
100
AcDbSymbolTableRecord
100
AcDbBlockTableRecord
  2
*Paper_Space0
340
26
  0
BLOCK_RECORD
  5
E4
330
1
100
AcDbSymbolTableRecord
100
AcDbBlockTableRecord
  2
SW_CENTERMARKSYMBOL_0
340
0
102
{BLKREFS
331
EF
102
}
  0
ENDTAB
  0
ENDSEC
  0
SECTION
  2
BLOCKS
  0
BLOCK
  5
20
330
1F
100
AcDbEntity
  8
0
100
AcDbBlockBegin
  2
*Model_Space
 70
     0
 10
0.0
 20
0.0
 30
0.0
  3
*Model_Space
  1

  0
ENDBLK
  5
21
330
1F
100
AcDbEntity
  8
0
100
AcDbBlockEnd
  0
BLOCK
  5
1C
330
1B
100
AcDbEntity
 67
     1
  8
0
100
AcDbBlockBegin
  2
*Paper_Space
 70
     0
 10
0.0
 20
0.0
 30
0.0
  3
*Paper_Space
  1

  0
ENDBLK
  5
1D
330
1B
100
AcDbEntity
 67
     1
  8
0
100
AcDbBlockEnd
  0
BLOCK
  5
24
330
23
100
AcDbEntity
  8
0
100
AcDbBlockBegin
  2
*Paper_Space0
 70
     0
 10
0.0
 20
0.0
 30
0.0
  3
*Paper_Space0
  1

  0
ENDBLK
  5
25
330
23
100
AcDbEntity
  8
0
100
AcDbBlockEnd
  0
BLOCK
  5
E5
330
E4
100
AcDbEntity
  8
0
100
AcDbBlockBegin
  2
SW_CENTERMARKSYMBOL_0
 70
     0
 10
0.0
 20
0.0
 30
0.0
  3
SW_CENTERMARKSYMBOL_0
  1

  0
LINE
  5
E7
330
E4
100
AcDbEntity
  8
0
  6
Continuous
 62
     0
370
    18
100
AcDbLine
 10
0.0
 20
0.0
 30
0.0
 11
0.0
 21
2.5
 31
0.0
  0
LINE
  5
E8
330
E4
100
AcDbEntity
  8
0
  6
Continuous
 62
     0
370
    18
100
AcDbLine
 10
0.0
 20
0.0
 30
0.0
 11
-2.5
 21
0.0
 31
0.0
  0
LINE
  5
E9
330
E4
100
AcDbEntity
  8
0
  6
Continuous
 62
     0
370
    18
100
AcDbLine
 10
0.0
 20
0.0
 30
0.0
 11
0.0
 21
-2.5
 31
0.0
  0
LINE
  5
EA
330
E4
100
AcDbEntity
  8
0
  6
Continuous
 62
     0
370
    18
100
AcDbLine
 10
0.0
 20
0.0
 30
0.0
 11
2.5
 21
0.0
 31
0.0
  0
LINE
  5
EB
330
E4
100
AcDbEntity
  8
0
  6
Continuous
 62
     0
370
    18
100
AcDbLine
 10
0.0
 20
5.0
 30
0.0
 11
0.0
 21
13.25
 31
0.0
  0
LINE
  5
EC
330
E4
100
AcDbEntity
  8
0
  6
Continuous
 62
     0
370
    18
100
AcDbLine
 10
-5.0
 20
0.0
 30
0.0
 11
-13.25
 21
0.0
 31
0.0
  0
LINE
  5
ED
330
E4
100
AcDbEntity
  8
0
  6
Continuous
 62
     0
370
    18
100
AcDbLine
 10
0.0
 20
-5.0
 30
0.0
 11
0.0
 21
-13.25
 31
0.0
  0
LINE
  5
EE
330
E4
100
AcDbEntity
  8
0
  6
Continuous
 62
     0
370
    18
100
AcDbLine
 10
5.0
 20
0.0
 30
0.0
 11
13.25
 21
0.0
 31
0.0
  0
ENDBLK
  5
E6
330
E4
100
AcDbEntity
  8
0
100
AcDbBlockEnd
  0
ENDSEC
  0
SECTION
  2
ENTITIES
  0
MTEXT
  5
74
330
1F
100
AcDbEntity
  8
0
  6
Continuous
 62
     7
370
     0
100
AcDbMText
 10
47.7166535884
 20
45.8382837829
 30
0.0
 40
2.1166666667
 41
0.0
 71
     1
 72
     1
  1
六角プラグ　HP-7003
  7
SLDTEXTSTYLE0
 73
     1
 44
1.0
  0
LINE
  5
75
330
1F
100
AcDbEntity
  8
0
  6
Continuous
 62
     7
370
    25
100
AcDbLine
 10
36.6098387079
 20
8.7991738466
 30
0.0
 11
37.7366566474
 21
10.7508797688
 31
0.0
  0
LINE
  5
76
330
1F
100
AcDbEntity
  8
0
  6
Continuous
 62
     7
370
    25
100
AcDbLine
 10
37.7366566474
 20
32.2508797688
 30
0.0
 11
36.6098387079
 21
34.202585691
 31
0.0
  0
LINE
  5
77
330
1F
100
AcDbEntity
  8
0
  6
Continuous
 62
     7
370
    25
100
AcDbLine
 10
30.8634745869
 20
34.202585691
 30
0.0
 11
29.7366566474
 21
32.2508797688
 31
0.0
  0
LINE
  5
78
330
1F
100
AcDbEntity
  8
0
  6
Continuous
 62
     7
370
    25
100
AcDbLine
 10
29.7366566474
 20
10.7508797688
 30
0.0
 11
30.8634745869
 21
8.7991738466
 31
0.0
  0
LINE
  5
79
330
1F
100
AcDbEntity
  8
0
  6
Continuous
 62
     7
370
    25
100
AcDbLine
 10
29.7366566474
 20
32.2508797688
 30
0.0
 11
27.7366566474
 21
32.2508797688
 31
0.0
  0
LINE
  5
7A
330
1F
100
AcDbEntity
  8
0
  6
Continuous
 62
     7
370
    25
100
AcDbLine
 10
27.7366566474
 20
10.7508797688
 30
0.0
 11
29.7366566474
 21
10.7508797688
 31
0.0
  0
LINE
  5
7B
330
1F
100
AcDbEntity
  8
0
  6
Continuous
 62
     7
370
    25
100
AcDbLine
 10
24.9866566474
 20
13.1698797688
 30
0.0
 11
25.7366566474
 21
13.9198797688
 31
0.0
  0
LINE
  5
7C
330
1F
100
AcDbEntity
  8
0
  6
Continuous
 62
     7
370
    25
100
AcDbLine
 10
25.7366566474
 20
29.0818797688
 30
0.0
 11
24.9866566474
 21
29.8318797688
 31
0.0
  0
LINE
  5
7D
330
1F
100
AcDbEntity
  8
0
  6
Continuous
 62
     7
370
    25
100
AcDbLine
 10
24.9866566474
 20
29.8318797688
 30
0.0
 11
16.4866566474
 21
29.8318797688
 31
0.0
  0
LINE
  5
7E
330
1F
100
AcDbEntity
  8
0
  6
Continuous
 62
     7
370
    25
100
AcDbLine
 10
16.4866566474
 20
13.1698797688
 30
0.0
 11
24.9866566474
 21
13.1698797688
 31
0.0
  0
LINE
  5
7F
330
1F
100
AcDbEntity
  8
0
  6
Continuous
 62
     7
370
    25
100
AcDbLine
 10
16.4866566474
 20
29.8318797688
 30
0.0
 11
15.7366566474
 21
29.0818797688
 31
0.0
  0
LINE
  5
80
330
1F
100
AcDbEntity
  8
0
  6
Continuous
 62
     7
370
    25
100
AcDbLine
 10
15.7366566474
 20
13.9198797688
 30
0.0
 11
16.4866566474
 21
13.1698797688
 31
0.0
  0
LINE
  5
81
330
1F
100
AcDbEntity
  8
0
  6
Continuous
 62
     7
370
    25
100
AcDbLine
 10
27.7366566474
 20
28.5008797688
 30
0.0
 11
25.7366566474
 21
28.5008797688
 31
0.0
  0
LINE
  5
82
330
1F
100
AcDbEntity
  8
0
  6
Continuous
 62
     7
370
    25
100
AcDbLine
 10
25.7366566474
 20
14.5008797688
 30
0.0
 11
27.7366566474
 21
14.5008797688
 31
0.0
  0
LINE
  5
83
330
1F
100
AcDbEntity
  8
0
  6
Continuous
 62
     7
370
    25
100
AcDbLine
 10
37.7366566474
 20
21.4869108742
 30
0.0
 11
37.7379066474
 21
21.4869108742
 31
0.0
  0
SPLINE
  5
84
330
1F
100
AcDbEntity
  8
0
  6
Continuous
 62
     7
370
    25
100
AcDbSpline
210
0.0
220
0.0
230
1.0
 70
     8
 71
     3
 72
    16
 73
    12
 74
     0
 42
0.000000001
 43
0.00000001
 40
0.0
 40
0.0
 40
0.0
 40
0.0
 40
0.2500000000000002
 40
0.2500000000000002
 40
0.5000000000000003
 40
0.5000000000000003
 40
0.6250000000000003
 40
0.6250000000000003
 40
0.7500000000000002
 40
0.7500000000000002
 40
1.0
 40
1.0
 40
1.0
 40
1.0
 10
36.60983870785429
 20
8.799173846614327
 30
0.0
 10
36.90918726603731
 20
9.317660758559809
 30
0.0
 10
37.15590469289889
 20
9.839927828876442
 30
0.0
 10
37.49768842525517
 20
10.89535410200879
 30
0.0
 10
37.59162733364015
 20
11.42859427856599
 30
0.0
 10
37.59265915511966
 20
12.23850098292311
 30
0.0
 10
37.56969474826332
 20
12.50974033796521
 30
0.0
 10
37.48014562197771
 20
13.04628036343447
 30
0.0
 10
37.41365178791016
 20
13.31275155758542
 30
0.0
 10
37.15688849109637
 20
14.10742098647025
 30
0.0
 10
36.90956043207595
 20
14.63089355321591
 30
0.0
 10
36.60983870785414
 20
15.15002680770024
 30
0.0
  0
LINE
  5
85
330
1F
100
AcDbEntity
  8
0
  6
Continuous
 62
     7
370
    25
100
AcDbLine
 10
36.6098387079
 20
8.7991738466
 30
0.0
 11
30.8634745869
 21
8.7991738466
 31
0.0
  0
SPLINE
  5
86
330
1F
100
AcDbEntity
  8
0
  6
Continuous
 62
     7
370
    25
100
AcDbSpline
210
0.0
220
0.0
230
1.0
 70
     8
 71
     3
 72
    16
 73
    12
 74
     0
 42
0.000000001
 43
0.00000001
 40
0.0
 40
0.0
 40
0.0
 40
0.0
 40
0.2500000000000003
 40
0.2500000000000003
 40
0.5000000000000006
 40
0.5000000000000006
 40
0.6250000000000004
 40
0.6250000000000004
 40
0.7500000000000003
 40
0.7500000000000003
 40
1.0
 40
1.0
 40
1.0
 40
1.0
 10
30.86347458694336
 20
15.15002680770025
 30
0.0
 10
30.56412602876034
 20
14.63153989575477
 30
0.0
 10
30.31740860189876
 20
14.10927282543813
 30
0.0
 10
29.97562486954248
 20
13.05384655230579
 30
0.0
 10
29.88168596115751
 20
12.52060637574858
 30
0.0
 10
29.880654139678
 20
11.71069967139146
 30
0.0
 10
29.90361854653435
 20
11.43946031634937
 30
0.0
 10
29.99316767281994
 20
10.90292029088011
 30
0.0
 10
30.05966150688749
 20
10.63644909672916
 30
0.0
 10
30.31642480370128
 20
9.841779667844326
 30
0.0
 10
30.56375286272171
 20
9.318307101098661
 30
0.0
 10
30.86347458694352
 20
8.799173846614337
 30
0.0
  0
LINE
  5
87
330
1F
100
AcDbEntity
  8
0
  6
Continuous
 62
     7
370
    25
100
AcDbLine
 10
36.6098387079
 20
15.1500268077
 30
0.0
 11
30.8634745869
 21
15.1500268077
 31
0.0
  0
SPLINE
  5
88
330
1F
100
AcDbEntity
  8
0
  6
Continuous
 62
     7
370
    25
100
AcDbSpline
210
0.0
220
0.0
230
1.0
 70
     8
 71
     3
 72
    16
 73
    12
 74
     0
 42
0.000000001
 43
0.00000001
 40
0.0
 40
0.0
 40
0.0
 40
0.0
 40
0.2500000000000001
 40
0.2500000000000001
 40
0.5000000000000001
 40
0.5000000000000001
 40
0.6250000000000001
 40
0.6250000000000001
 40
0.7500000000000001
 40
0.7500000000000001
 40
1.0
 40
1.0
 40
1.0
 40
1.0
 10
36.609838707854
 20
15.15002680770022
 30
0.0
 10
36.90848036387492
 20
16.18455185066972
 30
0.0
 10
37.15836924996859
 20
17.24222353769472
 30
0.0
 10
37.5000763204787
 20
19.36173191366581
 30
0.0
 10
37.59245605169648
 20
20.42842866755849
 30
0.0
 10
37.59225036174289
 20
22.04075122761828
 30
0.0
 10
37.5692216529582
 20
22.58132071103562
 30
0.0
 10
37.47830137837838
 20
23.66173146092374
 30
0.0
 10
37.41102818717487
 20
24.19624822058336
 30
0.0
 10
37.15294482296488
 20
25.78512549410264
 30
0.0
 10
36.90625591040242
 20
26.82491341976934
 30
0.0
 10
36.60983870785397
 20
27.85173272987201
 30
0.0
  0
SPLINE
  5
89
330
1F
100
AcDbEntity
  8
0
  6
Continuous
 62
     7
370
    25
100
AcDbSpline
210
0.0
220
0.0
230
1.0
 70
     8
 71
     3
 72
    16
 73
    12
 74
     0
 42
0.000000001
 43
0.00000001
 40
0.0
 40
0.0
 40
0.0
 40
0.0
 40
0.25
 40
0.25
 40
0.5
 40
0.5
 40
0.625
 40
0.625
 40
0.75
 40
0.75
 40
1.0
 40
1.0
 40
1.0
 40
1.0
 10
30.86347458694366
 20
15.15002680770022
 30
0.0
 10
30.56484283253426
 20
16.1845175504812
 30
0.0
 10
30.31494499857979
 20
17.24221440679228
 30
0.0
 10
29.97323262677333
 20
19.36176209531099
 30
0.0
 10
29.88085811249547
 20
20.42845223970802
 30
0.0
 10
29.8810624954281
 20
22.04071640546524
 30
0.0
 10
29.90408475824222
 20
22.58121177370807
 30
0.0
 10
29.99500480131013
 20
23.66167404665591
 30
0.0
 10
30.06227948027931
 20
24.19620981511866
 30
0.0
 10
30.32036760816615
 20
25.78512769873194
 30
0.0
 10
30.56705958821476
 20
26.82492105402412
 30
0.0
 10
30.86347458694368
 20
27.85173272987201
 30
0.0
  0
LINE
  5
8A
330
1F
100
AcDbEntity
  8
0
  6
Continuous
 62
     7
370
    25
100
AcDbLine
 10
36.6098387079
 20
27.8517327299
 30
0.0
 11
30.8634745869
 21
27.8517327299
 31
0.0
  0
SPLINE
  5
8B
330
1F
100
AcDbEntity
  8
0
  6
Continuous
 62
     7
370
    25
100
AcDbSpline
210
0.0
220
0.0
230
1.0
 70
     8
 71
     3
 72
    16
 73
    12
 74
     0
 42
0.000000001
 43
0.00000001
 40
0.0
 40
0.0
 40
0.0
 40
0.0
 40
0.25
 40
0.25
 40
0.5
 40
0.5
 40
0.625
 40
0.625
 40
0.7500000000000001
 40
0.7500000000000001
 40
1.0
 40
1.0
 40
1.0
 40
1.0
 10
36.60983870785429
 20
27.85173272987198
 30
0.0
 10
36.90918726603731
 20
28.37021964181747
 30
0.0
 10
37.15590469289889
 20
28.8924867121341
 30
0.0
 10
37.49768842525517
 20
29.94791298526644
 30
0.0
 10
37.59162733364014
 20
30.48115316182365
 30
0.0
 10
37.59265915511966
 20
31.29105986618078
 30
0.0
 10
37.56969474826332
 20
31.56229922122286
 30
0.0
 10
37.48014562197771
 20
32.09883924669212
 30
0.0
 10
37.41365178791016
 20
32.36531044084308
 30
0.0
 10
37.15688849109637
 20
33.15997986972791
 30
0.0
 10
36.90956043207594
 20
33.68345243647357
 30
0.0
 10
36.60983870785414
 20
34.2025856909579
 30
0.0
  0
SPLINE
  5
8C
330
1F
100
AcDbEntity
  8
0
  6
Continuous
 62
     7
370
    25
100
AcDbSpline
210
0.0
220
0.0
230
1.0
 70
     8
 71
     3
 72
    16
 73
    12
 74
     0
 42
0.000000001
 43
0.00000001
 40
0.0
 40
0.0
 40
0.0
 40
0.0
 40
0.2500000000000002
 40
0.2500000000000002
 40
0.5000000000000003
 40
0.5000000000000003
 40
0.6250000000000003
 40
0.6250000000000003
 40
0.7500000000000002
 40
0.7500000000000002
 40
1.0
 40
1.0
 40
1.0
 40
1.0
 10
30.86347458694337
 20
34.20258569095791
 30
0.0
 10
30.56412602876034
 20
33.68409877901242
 30
0.0
 10
30.31740860189876
 20
33.16183170869579
 30
0.0
 10
29.97562486954249
 20
32.10640543556345
 30
0.0
 10
29.88168596115752
 20
31.57316525900624
 30
0.0
 10
29.880654139678
 20
30.76325855464913
 30
0.0
 10
29.90361854653435
 20
30.49201919960703
 30
0.0
 10
29.99316767281995
 20
29.95547917413777
 30
0.0
 10
30.05966150688749
 20
29.68900797998682
 30
0.0
 10
30.31642480370128
 20
28.89433855110198
 30
0.0
 10
30.56375286272171
 20
28.37086598435632
 30
0.0
 10
30.86347458694352
 20
27.85173272987199
 30
0.0
  0
LINE
  5
8D
330
1F
100
AcDbEntity
  8
0
  6
Continuous
 62
     7
370
    25
100
AcDbLine
 10
36.6098387079
 20
34.202585691
 30
0.0
 11
30.8634745869
 21
34.202585691
 31
0.0
  0
LINE
  5
8E
330
1F
100
AcDbEntity
  8
0
  6
Continuous
 62
     7
370
    25
100
AcDbLine
 10
37.7366566474
 20
32.2508797688
 30
0.0
 11
37.7366566474
 21
10.7508797688
 31
0.0
  0
LINE
  5
8F
330
1F
100
AcDbEntity
  8
0
  6
Continuous
 62
     7
370
    25
100
AcDbLine
 10
29.7366566474
 20
21.5008797688
 30
0.0
 11
29.7366566474
 21
32.2508797688
 31
0.0
  0
LINE
  5
90
330
1F
100
AcDbEntity
  8
0
  6
Continuous
 62
     7
370
    25
100
AcDbLine
 10
29.7366566474
 20
10.7508797688
 30
0.0
 11
29.7366566474
 21
21.5008797688
 31
0.0
  0
LINE
  5
91
330
1F
100
AcDbEntity
  8
0
  6
Continuous
 62
     7
370
    25
100
AcDbLine
 10
27.7366566474
 20
21.5008797688
 30
0.0
 11
27.7366566474
 21
32.2508797688
 31
0.0
  0
LINE
  5
92
330
1F
100
AcDbEntity
  8
0
  6
Continuous
 62
     7
370
    25
100
AcDbLine
 10
27.7366566474
 20
10.7508797688
 30
0.0
 11
27.7366566474
 21
21.5008797688
 31
0.0
  0
LINE
  5
93
330
1F
100
AcDbEntity
  8
0
  6
Continuous
 62
     7
370
    25
100
AcDbLine
 10
24.9866566474
 20
21.5008797688
 30
0.0
 11
24.9866566474
 21
29.8318797688
 31
0.0
  0
LINE
  5
94
330
1F
100
AcDbEntity
  8
0
  6
Continuous
 62
     7
370
    25
100
AcDbLine
 10
24.9866566474
 20
13.1698797688
 30
0.0
 11
24.9866566474
 21
21.5008797688
 31
0.0
  0
LINE
  5
95
330
1F
100
AcDbEntity
  8
0
  6
Continuous
 62
     7
370
    25
100
AcDbLine
 10
25.7366566474
 20
21.5008797688
 30
0.0
 11
25.7366566474
 21
13.9198797688
 31
0.0
  0
LINE
  5
96
330
1F
100
AcDbEntity
  8
0
  6
Continuous
 62
     7
370
    25
100
AcDbLine
 10
25.7366566474
 20
29.0818797688
 30
0.0
 11
25.7366566474
 21
21.5008797688
 31
0.0
  0
LINE
  5
97
330
1F
100
AcDbEntity
  8
0
  6
Continuous
 62
     7
370
    25
100
AcDbLine
 10
16.4866566474
 20
21.5008797688
 30
0.0
 11
16.4866566474
 21
13.1698797688
 31
0.0
  0
LINE
  5
98
330
1F
100
AcDbEntity
  8
0
  6
Continuous
 62
     7
370
    25
100
AcDbLine
 10
16.4866566474
 20
29.8318797688
 30
0.0
 11
16.4866566474
 21
21.5008797688
 31
0.0
  0
LINE
  5
99
330
1F
100
AcDbEntity
  8
0
  6
Continuous
 62
     7
370
    25
100
AcDbLine
 10
15.7366566474
 20
21.5008797688
 30
0.0
 11
15.7366566474
 21
29.0818797688
 31
0.0
  0
LINE
  5
9A
330
1F
100
AcDbEntity
  8
0
  6
Continuous
 62
     7
370
    25
100
AcDbLine
 10
15.7366566474
 20
13.9198797688
 30
0.0
 11
15.7366566474
 21
21.5008797688
 31
0.0
  0
LINE
  5
9B
330
1F
100
AcDbEntity
  8
0
  6
Continuous
 62
     7
370
    18
100
AcDbLine
 10
15.7366566474
 20
28.9758797688
 30
0.0
 11
25.7366566474
 21
28.9758797688
 31
0.0
  0
LINE
  5
9C
330
1F
100
AcDbEntity
  8
0
  6
Continuous
 62
     7
370
    18
100
AcDbLine
 10
15.7366566474
 20
14.0258797688
 30
0.0
 11
25.7366566474
 21
14.0258797688
 31
0.0
  0
LINE
  5
9D
330
1F
100
AcDbEntity
  8
0
  6
CENTERX2
 62
     7
370
    18
100
AcDbLine
 10
13.6995373384
 20
21.5008797688
 30
0.0
 11
39.2040087324
 21
21.5008797688
 31
0.0
  0
LINE
  5
9E
330
1F
100
AcDbEntity
  8
0
  6
Continuous
 62
     7
370
    25
100
AcDbLine
 10
60.6982049564
 20
22.9531150067
 30
0.0
 11
60.8704805974
 21
24.8830028272
 31
0.0
  0
LINE
  5
9F
330
1F
100
AcDbEntity
  8
0
  6
Continuous
 62
     7
370
    25
100
AcDbLine
 10
61.5255286743
 20
23.4310797503
 30
0.0
 11
60.6982049564
 21
22.9531150067
 31
0.0
  0
LINE
  5
A0
330
1F
100
AcDbEntity
  8
0
  6
Continuous
 62
     7
370
    25
100
AcDbLine
 10
61.7579004692
 20
23.0284355195
 30
0.0
 11
61.5255286743
 21
23.4310797503
 31
0.0
  0
LINE
  5
A1
330
1F
100
AcDbEntity
  8
0
  6
Continuous
 62
     7
370
    25
100
AcDbLine
 10
61.9309773923
 20
23.1281951349
 30
0.0
 11
61.7579004692
 21
23.0284355195
 31
0.0
  0
LINE
  5
A2
330
1F
100
AcDbEntity
  8
0
  6
Continuous
 62
     7
370
    25
100
AcDbLine
 10
61.6986055974
 20
23.5308393656
 30
0.0
 11
61.9309773923
 21
23.1281951349
 31
0.0
  0
LINE
  5
A3
330
1F
100
AcDbEntity
  8
0
  6
Continuous
 62
     7
370
    25
100
AcDbLine
 10
61.9081408538
 20
23.6522335964
 30
0.0
 11
61.6986055974
 21
23.5308393656
 31
0.0
  0
LINE
  5
A4
330
1F
100
AcDbEntity
  8
0
  6
Continuous
 62
     7
370
    25
100
AcDbLine
 10
61.8119870077
 20
23.818098981
 30
0.0
 11
61.9081408538
 21
23.6522335964
 31
0.0
  0
LINE
  5
A5
330
1F
100
AcDbEntity
  8
0
  6
Continuous
 62
     7
370
    25
100
AcDbLine
 10
61.6024517513
 20
23.6967047503
 30
0.0
 11
61.8119870077
 21
23.818098981
 31
0.0
  0
LINE
  5
A6
330
1F
100
AcDbEntity
  8
0
  6
Continuous
 62
     7
370
    25
100
AcDbLine
 10
60.9057370077
 20
24.9030348785
 30
0.0
 11
61.6024517513
 21
23.6967047503
 31
0.0
  0
LINE
  5
A7
330
1F
100
AcDbEntity
  8
0
  6
Continuous
 62
     7
370
    25
100
AcDbLine
 10
60.8704805974
 20
24.8830028272
 30
0.0
 11
60.9057370077
 21
24.9030348785
 31
0.0
  0
LINE
  5
A8
330
1F
100
AcDbEntity
  8
0
  6
Continuous
 62
     7
370
    25
100
AcDbLine
 10
60.2457455055
 20
19.4526964732
 30
0.0
 11
59.2457455055
 21
21.183866345
 31
0.0
  0
LINE
  5
A9
330
1F
100
AcDbEntity
  8
0
  6
Continuous
 62
     7
370
    25
100
AcDbLine
 10
60.4188224286
 20
19.5528567296
 30
0.0
 11
60.2457455055
 21
19.4526964732
 31
0.0
  0
LINE
  5
AA
330
1F
100
AcDbEntity
  8
0
  6
Continuous
 62
     7
370
    25
100
AcDbLine
 10
59.9540788388
 20
20.3577445501
 30
0.0
 11
60.4188224286
 21
19.5528567296
 31
0.0
  0
LINE
  5
AB
330
1F
100
AcDbEntity
  8
0
  6
Continuous
 62
     7
370
    25
100
AcDbLine
 10
60.0774762747
 20
20.4286580117
 30
0.0
 11
59.9540788388
 21
20.3577445501
 31
0.0
  0
SPLINE
  5
AC
330
1F
100
AcDbEntity
  8
0
  6
Continuous
 62
     7
370
    25
100
AcDbSpline
210
0.0
220
0.0
230
1.0
 70
     8
 71
     3
 72
    15
 73
    11
 74
     0
 42
0.000000001
 43
0.00000001
 40
0.0
 40
0.0
 40
0.0
 40
0.0
 40
0.0756123032498289
 40
0.1644872655319284
 40
0.2677853868718776
 40
0.3857854682946374
 40
0.5179322862644448
 40
0.6638659903914276
 40
0.8244577581462259
 40
1.0
 40
1.0
 40
1.0
 40
1.0
 10
60.50135447987247
 20
20.71151057577032
 30
0.0
 10
60.49184949488223
 20
20.7028327139367
 30
0.0
 10
60.47117231771966
 20
20.6839548633446
 30
0.0
 10
60.43495819681977
 20
20.65624611510061
 30
0.0
 10
60.39257822390361
 20
20.6248014309764
 30
0.0
 10
60.34279290271095
 20
20.59104287540559
 30
0.0
 10
60.28642044760404
 20
20.5541094972009
 30
0.0
 10
60.22280400177566
 20
20.51506363161657
 30
0.0
 10
60.15277257417795
 20
20.47236376056385
 30
0.0
 10
60.10330839254943
 20
20.44365226852684
 30
0.0
 10
60.07747627474426
 20
20.42865801166775
 30
0.0
  0
SPLINE
  5
AD
330
1F
100
AcDbEntity
  8
0
  6
Continuous
 62
     7
370
    25
100
AcDbSpline
210
0.0
220
0.0
230
1.0
 70
     8
 71
     3
 72
    23
 73
    19
 74
     0
 42
0.000000001
 43
0.00000001
 40
0.0
 40
0.0
 40
0.0
 40
0.0
 40
0.0701767959831227
 40
0.1370783948533101
 40
0.2015402158160995
 40
0.2643019848993742
 40
0.325851106585645
 40
0.3855625253801132
 40
0.4451090710974652
 40
0.5050396151009584
 40
0.5646549133475235
 40
0.623873102773034
 40
0.6835103850890274
 40
0.7439310552880052
 40
0.8050983035609699
 40
0.8678522399879645
 40
0.9328002663636267
 40
0.9999999999999999
 40
0.9999999999999999
 40
0.9999999999999999
 40
0.9999999999999999
 10
60.59350191576991
 20
21.34732788346263
 30
0.0
 10
60.60150807146619
 20
21.33303546746465
 30
0.0
 10
60.61714673031943
 20
21.30511767190086
 30
0.0
 10
60.63575671937745
 20
21.26187246309649
 30
0.0
 10
60.651330192435
 20
21.21931305966151
 30
0.0
 10
60.66258459344765
 20
21.17666581542685
 30
0.0
 10
60.66980785888633
 20
21.13429213735923
 30
0.0
 10
60.6731029761733
 20
21.09217981143072
 30
0.0
 10
60.67230628170662
 20
21.05031345345919
 30
0.0
 10
60.66740000881511
 20
21.00876953974461
 30
0.0
 10
60.6590984344905
 20
20.96783613194096
 30
0.0
 10
60.64678702122531
 20
20.92801794416185
 30
0.0
 10
60.63181093301882
 20
20.88890673185045
 30
0.0
 10
60.61230289651333
 20
20.85131294501934
 30
0.0
 10
60.58968511179887
 20
20.81471264061862
 30
0.0
 10
60.56410791376197
 20
20.77877065770313
 30
0.0
 10
60.53423410354915
 20
20.74440694055326
 30
0.0
 10
60.51243815046546
 20
20.72259988976449
 30
0.0
 10
60.50135447987247
 20
20.71151057577032
 30
0.0
  0
SPLINE
  5
AE
330
1F
100
AcDbEntity
  8
0
  6
Continuous
 62
     7
370
    25
100
AcDbSpline
210
0.0
220
0.0
230
1.0
 70
     8
 71
     3
 72
    23
 73
    19
 74
     0
 42
0.000000001
 43
0.00000001
 40
0.0
 40
0.0
 40
0.0
 40
0.0
 40
0.0629356290675136
 40
0.124917386466311
 40
0.1857052460120456
 40
0.2456350393096019
 40
0.305162443516211
 40
0.3646585631624177
 40
0.4250581585413427
 40
0.4863258165608511
 40
0.5475962370601505
 40
0.6090294239962809
 40
0.6706716427956784
 40
0.7327325403902578
 40
0.7965017194925578
 40
0.8620715477041121
 40
0.9294466560771697
 40
1.0
 40
1.0
 40
1.0
 40
1.0
 10
60.00576153115452
 20
21.58811313987288
 30
0.0
 10
60.01973463229967
 20
21.59180562398354
 30
0.0
 10
60.04746905398966
 20
21.59913462778481
 30
0.0
 10
60.08956654288762
 20
21.60616007265073
 30
0.0
 10
60.13132687167759
 20
21.61036336333155
 30
0.0
 10
60.17276061766817
 20
21.61076897011961
 30
0.0
 10
60.21375292278606
 20
21.60747259448863
 30
0.0
 10
60.25445589401212
 20
21.60098096305066
 30
0.0
 10
60.29498931159751
 20
21.59147708572753
 30
0.0
 10
60.33487409642817
 20
21.57818897252182
 30
0.0
 10
60.37386909810037
 20
21.56186680865914
 30
0.0
 10
60.41122862144333
 20
21.5418295165819
 30
0.0
 10
60.44647431457534
 20
21.51799869552188
 30
0.0
 10
60.48015926319253
 20
21.49110687550444
 30
0.0
 10
60.51121645884959
 20
21.45993393985414
 30
0.0
 10
60.5409144874972
 20
21.42589838132092
 30
0.0
 10
60.56896061721847
 20
21.38844129133239
 30
0.0
 10
60.58519677494506
 20
21.36124127282268
 30
0.0
 10
60.59350191576991
 20
21.34732788346263
 30
0.0
  0
SPLINE
  5
AF
330
1F
100
AcDbEntity
  8
0
  6
Continuous
 62
     7
370
    25
100
AcDbSpline
210
0.0
220
0.0
230
1.0
 70
     8
 71
     3
 72
    15
 73
    11
 74
     0
 42
0.000000001
 43
0.00000001
 40
0.0
 40
0.0
 40
0.0
 40
0.0
 40
0.1772047475236776
 40
0.3392086991137762
 40
0.486811660435993
 40
0.6185381308101384
 40
0.7363717983370404
 40
0.838457124749514
 40
0.9265189260755414
 40
1.0
 40
1.0
 40
1.0
 40
1.0
 10
59.59069742859042
 20
21.38298493474468
 30
0.0
 10
59.61443308782631
 20
21.39666914194146
 30
0.0
 10
59.65986833831775
 20
21.42286371170605
 30
0.0
 10
59.7256375779092
 20
21.45947194198655
 30
0.0
 10
59.78595753491007
 20
21.49137819734788
 30
0.0
 10
59.84067823398937
 20
21.51924558723979
 30
0.0
 10
59.8896751083582
 20
21.5428256248743
 30
0.0
 10
59.93312480477241
 20
21.56230857525014
 30
0.0
 10
59.97101703430418
 20
21.57743233333699
 30
0.0
 10
59.99489854059338
 20
21.58477374770714
 30
0.0
 10
60.00576153115452
 20
21.58811313987288
 30
0.0
  0
LINE
  5
B0
330
1F
100
AcDbEntity
  8
0
  6
Continuous
 62
     7
370
    25
100
AcDbLine
 10
59.2457455055
 20
21.183866345
 30
0.0
 11
59.5906974286
 21
21.3829849347
 31
0.0
  0
LINE
  5
B1
330
1F
100
AcDbEntity
  8
0
  6
Continuous
 62
     7
370
    25
100
AcDbLine
 10
61.7494458384
 20
20.3163186243
 30
0.0
 11
60.7494458384
 21
22.0474884961
 31
0.0
  0
LINE
  5
B2
330
1F
100
AcDbEntity
  8
0
  6
Continuous
 62
     7
370
    25
100
AcDbLine
 10
61.9213208384
 20
20.4156775986
 30
0.0
 11
61.7494458384
 21
20.3163186243
 31
0.0
  0
LINE
  5
B3
330
1F
100
AcDbEntity
  8
0
  6
Continuous
 62
     7
370
    25
100
AcDbLine
 10
61.431336864
 20
21.2642352909
 30
0.0
 11
61.9213208384
 21
20.4156775986
 31
0.0
  0
LINE
  5
B4
330
1F
100
AcDbEntity
  8
0
  6
Continuous
 62
     7
370
    25
100
AcDbLine
 10
62.1268496846
 20
21.6656775986
 30
0.0
 11
61.431336864
 21
21.2642352909
 31
0.0
  0
LINE
  5
B5
330
1F
100
AcDbEntity
  8
0
  6
Continuous
 62
     7
370
    25
100
AcDbLine
 10
62.0282919923
 20
21.8363506755
 30
0.0
 11
62.1268496846
 21
21.6656775986
 31
0.0
  0
LINE
  5
B6
330
1F
100
AcDbEntity
  8
0
  6
Continuous
 62
     7
370
    25
100
AcDbLine
 10
61.3327791717
 20
21.4349083678
 30
0.0
 11
62.0282919923
 21
21.8363506755
 31
0.0
  0
LINE
  5
B7
330
1F
100
AcDbEntity
  8
0
  6
Continuous
 62
     7
370
    25
100
AcDbLine
 10
61.0198785307
 20
21.9761743935
 30
0.0
 11
61.3327791717
 21
21.4349083678
 31
0.0
  0
LINE
  5
B8
330
1F
100
AcDbEntity
  8
0
  6
Continuous
 62
     7
370
    25
100
AcDbLine
 10
61.7153913512
 20
22.3776167012
 30
0.0
 11
61.0198785307
 21
21.9761743935
 31
0.0
  0
LINE
  5
B9
330
1F
100
AcDbEntity
  8
0
  6
Continuous
 62
     7
370
    25
100
AcDbLine
 10
61.6168336589
 20
22.5482897781
 30
0.0
 11
61.7153913512
 21
22.3776167012
 31
0.0
  0
LINE
  5
BA
330
1F
100
AcDbEntity
  8
0
  6
Continuous
 62
     7
370
    25
100
AcDbLine
 10
60.7494458384
 20
22.0474884961
 30
0.0
 11
61.6168336589
 21
22.5482897781
 31
0.0
  0
SPLINE
  5
BB
330
1F
100
AcDbEntity
  8
0
  6
Continuous
 62
     7
370
    25
100
AcDbSpline
210
0.0
220
0.0
230
1.0
 70
     8
 71
     3
 72
    19
 73
    15
 74
     0
 42
0.000000001
 43
0.00000001
 40
0.0
 40
0.0
 40
0.0
 40
0.0
 40
0.116698536589739
 40
0.2282590101784684
 40
0.3372185427251284
 40
0.4465132849869349
 40
0.50276584803826
 40
0.5620350872685727
 40
0.6248184910357915
 40
0.6915349811923932
 40
0.7617985431967307
 40
0.8366234562169642
 40
0.9161906330044087
 40
1.0
 40
1.0
 40
1.0
 40
1.0
 10
57.7946594366768
 20
23.03660768619749
 30
0.0
 10
57.77704778878184
 20
23.02538411854242
 30
0.0
 10
57.74259990765505
 20
23.00343114022337
 30
0.0
 10
57.69822093709395
 20
22.96203634889568
 30
0.0
 10
57.66316264058462
 20
22.91435558107598
 30
0.0
 10
57.64030574690639
 20
22.87066799617092
 30
0.0
 10
57.62694211136572
 20
22.83271132641966
 30
0.0
 10
57.61940720736519
 20
22.80170515149506
 30
0.0
 10
57.61421258069387
 20
22.76833133794762
 30
0.0
 10
57.61167398360922
 20
22.73270389601146
 30
0.0
 10
57.6105993248197
 20
22.69483709768107
 30
0.0
 10
57.61304696915109
 20
22.65473615527124
 30
0.0
 10
57.61678350367138
 20
22.61231860323938
 30
0.0
 10
57.62127940063627
 20
22.58346194128351
 30
0.0
 10
57.62358571872808
 20
22.56865896824878
 30
0.0
  0
SPLINE
  5
BC
330
1F
100
AcDbEntity
  8
0
  6
Continuous
 62
     7
370
    25
100
AcDbSpline
210
0.0
220
0.0
230
1.0
 70
     8
 71
     3
 72
    23
 73
    19
 74
     0
 42
0.000000001
 43
0.00000001
 40
0.0
 40
0.0
 40
0.0
 40
0.0
 40
0.0591791051521848
 40
0.1169459291115961
 40
0.1743720545453772
 40
0.2311010381228904
 40
0.2884654328876002
 40
0.3475708060626696
 40
0.409009463483299
 40
0.4724043085594233
 40
0.5368565178558284
 40
0.6005045056844478
 40
0.6640367736994025
 40
0.7279582235298679
 40
0.7931462364758861
 40
0.8592187722458992
 40
0.9283394182013749
 40
1.0
 40
1.0
 40
1.0
 40
1.0
 10
58.27302482129219
 20
22.94205640414621
 30
0.0
 10
58.26732229820004
 20
22.95112364287325
 30
0.0
 10
58.25605334001663
 20
22.96904173498842
 30
0.0
 10
58.23621926469946
 20
22.9936694806103
 30
0.0
 10
58.21419915681914
 20
23.01570106363544
 30
0.0
 10
58.18997491332566
 20
23.03520705952975
 30
0.0
 10
58.16322212050586
 20
23.05164768260728
 30
0.0
 10
58.13421891527771
 20
23.06569131997951
 30
0.0
 10
58.10298690033628
 20
23.07732986585909
 30
0.0
 10
58.06980771426236
 20
23.08596206879919
 30
0.0
 10
58.03567330448208
 20
23.09208802733744
 30
0.0
 10
58.00101058023692
 20
23.09456490948546
 30
0.0
 10
57.96644335763504
 20
23.09303295253108
 30
0.0
 10
57.93172337874424
 20
23.08942870444779
 30
0.0
 10
57.8973328754498
 20
23.08108115604399
 30
0.0
 10
57.86286468443155
 20
23.0697830005961
 30
0.0
 10
57.82844062258962
 20
23.05495148822681
 30
0.0
 10
57.80605446029035
 20
23.04279539250911
 30
0.0
 10
57.7946594366768
 20
23.03660768619749
 30
0.0
  0
SPLINE
  5
BD
330
1F
100
AcDbEntity
  8
0
  6
Continuous
 62
     7
370
    25
100
AcDbSpline
210
0.0
220
0.0
230
1.0
 70
     8
 71
     3
 72
    19
 73
    15
 74
     0
 42
0.000000001
 43
0.00000001
 40
0.0
 40
0.0
 40
0.0
 40
0.0
 40
0.1055150102305262
 40
0.2072590054948936
 40
0.3055242150184235
 40
0.4018902536748169
 40
0.4937941548483872
 40
0.5775887882812993
 40
0.655333711437728
 40
0.7280006663003296
 40
0.797795471673489
 40
0.8651986393292102
 40
0.9322283304823006
 40
0.9999999999999999
 40
0.9999999999999999
 40
0.9999999999999999
 40
0.9999999999999999
 10
58.03744789821526
 20
22.42002114773596
 30
0.0
 10
58.05647923006246
 20
22.43186786393013
 30
0.0
 10
58.09386173046006
 20
22.45513790495482
 30
0.0
 10
58.14553483491468
 20
22.49466297528631
 30
0.0
 10
58.19049049853153
 20
22.53890211582515
 30
0.0
 10
58.2299889918213
 20
22.58529493965539
 30
0.0
 10
58.26281261120253
 20
22.63304266137959
 30
0.0
 10
58.28715379593764
 20
22.68121031814267
 30
0.0
 10
58.30378393715723
 20
22.72831678485244
 30
0.0
 10
58.31135230737308
 20
22.77468173832627
 30
0.0
 10
58.31196012036222
 20
22.81945387877029
 30
0.0
 10
58.30517776673597
 20
22.86242969199218
 30
0.0
 10
58.29313428113031
 20
22.90390612646038
 30
0.0
 10
58.27975252667854
 20
22.92929306635674
 30
0.0
 10
58.27302482129219
 20
22.94205640414621
 30
0.0
  0
LINE
  5
BE
330
1F
100
AcDbEntity
  8
0
  6
Continuous
 62
     7
370
    25
100
AcDbLine
 10
58.1291946931
 20
22.2609666606
 30
0.0
 11
58.0374478982
 21
22.4200211477
 31
0.0
  0
SPLINE
  5
BF
330
1F
100
AcDbEntity
  8
0
  6
Continuous
 62
     7
370
    25
100
AcDbSpline
210
0.0
220
0.0
230
1.0
 70
     8
 71
     3
 72
    23
 73
    19
 74
     0
 42
0.000000001
 43
0.00000001
 40
0.0
 40
0.0
 40
0.0
 40
0.0
 40
0.0703423198343876
 40
0.1398634517743602
 40
0.2103803753631115
 40
0.2827027172989062
 40
0.3555923664656343
 40
0.4269508105709605
 40
0.4987761996993966
 40
0.5720888555685788
 40
0.6110005129072674
 40
0.6539353186604211
 40
0.7011226343296134
 40
0.7519637186826998
 40
0.8073262203581311
 40
0.8673192372193631
 40
0.931379432164037
 40
0.9999999999999999
 40
0.9999999999999999
 40
0.9999999999999999
 40
0.9999999999999999
 10
58.85475559052296
 20
22.17643140414621
 30
0.0
 10
58.84440399583041
 20
22.19266836543236
 30
0.0
 10
58.82382165267658
 20
22.22495273502885
 30
0.0
 10
58.78455365237595
 20
22.26736190182906
 30
0.0
 10
58.73939444629098
 20
22.30410229931792
 30
0.0
 10
58.68851162445812
 20
22.33425812742285
 30
0.0
 10
58.63408429913685
 20
22.35793716936957
 30
0.0
 10
58.57685810508918
 20
22.37343840099732
 30
0.0
 10
58.51786977539885
 20
22.38007779576276
 30
0.0
 10
58.46742245634437
 20
22.37910952307735
 30
0.0
 10
58.42530764952297
 20
22.37383752767702
 30
0.0
 10
58.39077704669278
 20
22.36647184518572
 30
0.0
 10
58.35374420691355
 20
22.35581092568216
 30
0.0
 10
58.31379417955841
 20
22.34307104918481
 30
0.0
 10
58.27133088429773
 20
22.32688779722252
 30
0.0
 10
58.22623421527054
 20
22.30761941400014
 30
0.0
 10
58.17843752094585
 20
22.28550237389229
 30
0.0
 10
58.14598082559383
 20
22.26933051277844
 30
0.0
 10
58.12919469308707
 20
22.26096666055647
 30
0.0
  0
SPLINE
  5
C0
330
1F
100
AcDbEntity
  8
0
  6
Continuous
 62
     7
370
    25
100
AcDbSpline
210
0.0
220
0.0
230
1.0
 70
     8
 71
     3
 72
    23
 73
    19
 74
     0
 42
0.000000001
 43
0.00000001
 40
0.0
 40
0.0
 40
0.0
 40
0.0
 40
0.0732531278746229
 40
0.143076787078104
 40
0.2103746387958365
 40
0.2752906500029053
 40
0.3392596226892456
 40
0.4018859929105241
 40
0.4644270360797879
 40
0.5278378401523588
 40
0.5906903737125638
 40
0.6509224245648336
 40
0.7100706904963927
 40
0.7676159933197219
 40
0.8248315818707156
 40
0.8821963083100987
 40
0.9404609388752492
 40
0.9999999999999999
 40
0.9999999999999999
 40
0.9999999999999999
 40
0.9999999999999999
 10
58.65603764180501
 20
21.55784166055647
 30
0.0
 10
58.67116858575795
 20
21.56706545494882
 30
0.0
 10
58.70072209301502
 20
21.58508121624962
 30
0.0
 10
58.74125377725669
 20
21.61591324391818
 30
0.0
 10
58.77809812872785
 20
21.64809452656712
 30
0.0
 10
58.80986595150851
 20
21.68343183470292
 30
0.0
 10
58.83773695924942
 20
21.72051170098218
 30
0.0
 10
58.86055222143909
 20
21.76024198772528
 30
0.0
 10
58.87969770121742
 20
21.80169725031342
 30
0.0
 10
58.89390903311528
 20
21.84518420107795
 30
0.0
 10
58.9036485247975
 20
21.88924691968444
 30
0.0
 10
58.91002997292558
 20
21.93291017060995
 30
0.0
 10
58.91142156429108
 20
21.97572362798744
 30
0.0
 10
58.9093737178219
 20
22.01780348630546
 30
0.0
 10
58.90180916372427
 20
22.05882123264215
 30
0.0
 10
58.89066923929423
 20
22.09914679103291
 30
0.0
 10
58.87497721727805
 20
22.1386000257861
 30
0.0
 10
58.86154457204211
 20
22.16373032269311
 30
0.0
 10
58.85475559052296
 20
22.17643140414621
 30
0.0
  0
SPLINE
  5
C1
330
1F
100
AcDbEntity
  8
0
  6
Continuous
 62
     7
370
    25
100
AcDbSpline
210
0.0
220
0.0
230
1.0
 70
     8
 71
     3
 72
    15
 73
    11
 74
     0
 42
0.000000001
 43
0.00000001
 40
0.0
 40
0.0
 40
0.0
 40
0.0
 40
0.1200312614629397
 40
0.2399649155124079
 40
0.3586107548455215
 40
0.4807865662367299
 40
0.6037828490368189
 40
0.7314727643053685
 40
0.8629426087683327
 40
1.0
 40
1.0
 40
1.0
 40
1.0
 10
58.32831328283065
 20
21.49574230158211
 30
0.0
 10
58.34176546972248
 20
21.49332172132863
 30
0.0
 10
58.36865890441284
 20
21.48848252919705
 30
0.0
 10
58.40949541984263
 20
21.48633649220381
 30
0.0
 10
58.45058417608209
 20
21.48776428166702
 30
0.0
 10
58.49156135973372
 20
21.49406178361736
 30
0.0
 10
58.53297680379539
 20
21.50353381565419
 30
0.0
 10
58.57405737677373
 20
21.51793561753822
 30
0.0
 10
58.61573342606977
 20
21.53529216041956
 30
0.0
 10
58.64241781921417
 20
21.55022160925974
 30
0.0
 10
58.65603764180501
 20
21.55784166055647
 30
0.0
  0
SPLINE
  5
C2
330
1F
100
AcDbEntity
  8
0
  6
Continuous
 62
     7
370
    25
100
AcDbSpline
210
0.0
220
0.0
230
1.0
 70
     8
 71
     3
 72
    15
 73
    11
 74
     0
 42
0.000000001
 43
0.00000001
 40
0.0
 40
0.0
 40
0.0
 40
0.0
 40
0.1513316044327706
 40
0.2940975545230309
 40
0.4289487094265199
 40
0.5559279245516218
 40
0.6762753220694476
 40
0.7892273698219985
 40
0.8971134572546169
 40
1.0
 40
1.0
 40
1.0
 40
1.0
 10
58.05948315462553
 20
21.66521345542826
 30
0.0
 10
58.07116666464546
 20
21.65392624348459
 30
0.0
 10
58.09387237597381
 20
21.6319906970899
 30
0.0
 10
58.12812333118545
 20
21.60114176916593
 30
0.0
 10
58.16285112202148
 20
21.57501088791785
 30
0.0
 10
58.19633163049865
 20
21.55124193966114
 30
0.0
 10
58.2300548384247
 20
21.53216143657795
 30
0.0
 10
58.26314744640983
 20
21.51646002828932
 30
0.0
 10
58.2955061824276
 20
21.50351636201638
 30
0.0
 10
58.31755189139258
 20
21.49829235039376
 30
0.0
 10
58.32831328283065
 20
21.49574230158211
 30
0.0
  0
LINE
  5
C3
330
1F
100
AcDbEntity
  8
0
  6
Continuous
 62
     7
370
    25
100
AcDbLine
 10
57.8900120008
 20
21.5670564041
 30
0.0
 11
58.0594831546
 21
21.6652134554
 31
0.0
  0
SPLINE
  5
C4
330
1F
100
AcDbEntity
  8
0
  6
Continuous
 62
     7
370
    25
100
AcDbSpline
210
0.0
220
0.0
230
1.0
 70
     8
 71
     3
 72
    23
 73
    19
 74
     0
 42
0.000000001
 43
0.00000001
 40
0.0
 40
0.0
 40
0.0
 40
0.0
 40
0.0656217632387079
 40
0.1283604675836459
 40
0.1895583847206637
 40
0.2488580074221896
 40
0.3074628849680241
 40
0.3655512283883335
 40
0.4232063363918941
 40
0.4818112139377281
 40
0.5407083869503938
 40
0.6004738697899791
 40
0.6611093887128816
 40
0.7235118887421076
 40
0.7883544185590496
 40
0.8557385605895164
 40
0.9260741804459054
 40
1.0
 40
1.0
 40
1.0
 40
1.0
 10
58.75098956488193
 20
21.38796986568467
 30
0.0
 10
58.73245110581279
 20
21.37777332994481
 30
0.0
 10
58.69618866547361
 20
21.35782823809258
 30
0.0
 10
58.6399571680324
 20
21.33369763927816
 30
0.0
 10
58.58393149896737
 20
21.31488632006321
 30
0.0
 10
58.52784379088437
 20
21.30089268018908
 30
0.0
 10
58.47158301683035
 20
21.29300545261097
 30
0.0
 10
58.41539914913791
 20
21.29014962533013
 30
0.0
 10
58.35917250104838
 20
21.29251002615419
 30
0.0
 10
58.30320256946935
 20
21.30052604336684
 30
0.0
 10
58.24763518535936
 20
21.31421048095114
 30
0.0
 10
58.1931345480666
 20
21.33363152557918
 30
0.0
 10
58.13941012501369
 20
21.35803322947458
 30
0.0
 10
58.08723174228478
 20
21.38893289233531
 30
0.0
 10
58.03584973108802
 20
21.42501398474727
 30
0.0
 10
57.98572759188257
 20
21.46694002158591
 30
0.0
 10
57.9366267420133
 20
21.51438598632501
 30
0.0
 10
57.90580592461055
 20
21.54921070672938
 30
0.0
 10
57.89001200077936
 20
21.56705640414621
 30
0.0
  0
SPLINE
  5
C5
330
1F
100
AcDbEntity
  8
0
  6
Continuous
 62
     7
370
    25
100
AcDbSpline
210
0.0
220
0.0
230
1.0
 70
     8
 71
     3
 72
    23
 73
    19
 74
     0
 42
0.000000001
 43
0.00000001
 40
0.0
 40
0.0
 40
0.0
 40
0.0
 40
0.0805952943637352
 40
0.1604515434217349
 40
0.2418700207746968
 40
0.3254069365410276
 40
0.3675226928213641
 40
0.409059180026604
 40
0.4501972477231492
 40
0.4912141426448573
 40
0.5317517532195374
 40
0.572960932581426
 40
0.614036676581567
 40
0.6558471726783921
 40
0.7396019872338637
 40
0.823816986964127
 40
0.9104315104044917
 40
1.0
 40
1.0
 40
1.0
 40
1.0
 10
59.01701520590758
 20
22.28941217337698
 30
0.0
 10
59.03018275033369
 20
22.2645020768163
 30
0.0
 10
59.05639709501626
 20
22.21491030509439
 30
0.0
 10
59.08251240978113
 20
22.13423402429079
 30
0.0
 10
59.09887458089678
 20
22.05015569034471
 30
0.0
 10
59.10245918803732
 20
21.97773468396729
 30
0.0
 10
59.10045920298087
 20
21.9193893916406
 30
0.0
 10
59.0959980058253
 20
21.87603236719161
 30
0.0
 10
59.08895082855746
 20
21.8333931698745
 30
0.0
 10
59.07829982479643
 20
21.79188027190314
 30
0.0
 10
59.06558611336759
 20
21.75092599658832
 30
0.0
 10
59.04942318571824
 20
21.7111816548309
 30
0.0
 10
59.03105352816326
 20
21.67191952730275
 30
0.0
 10
59.00208565108836
 20
21.62143142847232
 30
0.0
 10
58.95997392603358
 20
21.56125726805932
 30
0.0
 10
58.89945176393728
 20
21.49591279596456
 30
0.0
 10
58.83004532560015
 20
21.43670830372355
 30
0.0
 10
58.77763440041905
 20
21.40439659605933
 30
0.0
 10
58.75098956488193
 20
21.38796986568467
 30
0.0
  0
SPLINE
  5
C6
330
1F
100
AcDbEntity
  8
0
  6
Continuous
 62
     7
370
    25
100
AcDbSpline
210
0.0
220
0.0
230
1.0
 70
     8
 71
     3
 72
    15
 73
    11
 74
     0
 42
0.000000001
 43
0.00000001
 40
0.0
 40
0.0
 40
0.0
 40
0.0
 40
0.1304473747403708
 40
0.2573926146276505
 40
0.3826871558302637
 40
0.5055470499668895
 40
0.627982586550622
 40
0.7497193271005594
 40
0.8738306203951082
 40
1.0
 40
1.0
 40
1.0
 40
1.0
 10
58.72614982129218
 20
22.53220063491544
 30
0.0
 10
58.74173872850174
 20
22.52588223300767
 30
0.0
 10
58.77249802583403
 20
22.51341506001514
 30
0.0
 10
58.81653809528997
 20
22.49096483067587
 30
0.0
 10
58.85715684087373
 20
22.46464634390002
 30
0.0
 10
58.89575802009696
 20
22.43639562039957
 30
0.0
 10
58.93051795051745
 20
22.40413884043745
 30
0.0
 10
58.96234884786968
 20
22.36887729963068
 30
0.0
 10
58.99192977395531
 20
22.3310022506219
 30
0.0
 10
59.00860768048559
 20
22.30335132469015
 30
0.0
 10
59.01701520590758
 20
22.28941217337698
 30
0.0
  0
SPLINE
  5
C7
330
1F
100
AcDbEntity
  8
0
  6
Continuous
 62
     7
370
    25
100
AcDbSpline
210
0.0
220
0.0
230
1.0
 70
     8
 71
     3
 72
    11
 73
     7
 74
     0
 42
0.000000001
 43
0.00000001
 40
0.0
 40
0.0
 40
0.0
 40
0.0
 40
0.2575448221658422
 40
0.5076711529890837
 40
0.754215998679076
 40
1.0
 40
1.0
 40
1.0
 40
1.0
 10
58.43568507770244
 20
22.56224871183852
 30
0.0
 10
58.46089873162348
 20
22.56488146574924
 30
0.0
 10
58.51059976870712
 20
22.57007113798631
 30
0.0
 10
58.5849004793468
 20
22.56687868886704
 30
0.0
 10
58.65728150621354
 20
22.55542711754289
 30
0.0
 10
58.70321737934579
 20
22.53993481519653
 30
0.0
 10
58.72614982129218
 20
22.53220063491544
 30
0.0
  0
SPLINE
  5
C8
330
1F
100
AcDbEntity
  8
0
  6
Continuous
 62
     7
370
    25
100
AcDbSpline
210
0.0
220
0.0
230
1.0
 70
     8
 71
     3
 72
    15
 73
    11
 74
     0
 42
0.000000001
 43
0.00000001
 40
0.0
 40
0.0
 40
0.0
 40
0.0
 40
0.1242105454247704
 40
0.2439784061594682
 40
0.361131592904448
 40
0.4795822493707376
 40
0.600264115014172
 40
0.7254208927559062
 40
0.8584975931303527
 40
1.0
 40
1.0
 40
1.0
 40
1.0
 10
58.45331328283065
 20
23.04502114773596
 30
0.0
 10
58.46323452195846
 20
23.02644769199695
 30
0.0
 10
58.48272214357104
 20
22.98996510420557
 30
0.0
 10
58.50175125137775
 20
22.93156691630496
 30
0.0
 10
58.51284581717373
 20
22.87230615133641
 30
0.0
 10
58.5154120497527
 20
22.81180646178946
 30
0.0
 10
58.50818933107523
 20
22.75034119930633
 30
0.0
 10
58.49249694609617
 20
22.68803937288235
 30
0.0
 10
58.46902214327479
 20
22.62436351760161
 30
0.0
 10
58.44702245957701
 20
22.5833729248102
 30
0.0
 10
58.43568507770244
 20
22.56224871183852
 30
0.0
  0
SPLINE
  5
C9
330
1F
100
AcDbEntity
  8
0
  6
Continuous
 62
     7
370
    25
100
AcDbSpline
210
0.0
220
0.0
230
1.0
 70
     8
 71
     3
 72
    19
 73
    15
 74
     0
 42
0.000000001
 43
0.00000001
 40
0.0
 40
0.0
 40
0.0
 40
0.0
 40
0.0895167400715858
 40
0.1773824364258328
 40
0.2650886758186742
 40
0.3534136836995491
 40
0.4408889443037026
 40
0.5246250034953633
 40
0.6070486876610646
 40
0.6892970473032739
 40
0.7700032014525421
 40
0.8477273803995541
 40
0.923859381085146
 40
1.0
 40
1.0
 40
1.0
 40
1.0
 10
57.69730366744604
 20
23.20487691696673
 30
0.0
 10
57.71985709900824
 20
23.21698238558723
 30
0.0
 10
57.76454798740598
 20
23.24097004997565
 30
0.0
 10
57.83632000824747
 20
23.26589628954001
 30
0.0
 10
57.90995125228876
 20
23.2826755093758
 30
0.0
 10
57.98507420591394
 20
23.28955598835105
 30
0.0
 10
58.05934664786568
 20
23.28833237853195
 30
0.0
 10
58.13117963479439
 20
23.27744888731082
 30
0.0
 10
58.19945184084271
 20
23.2573581595931
 30
0.0
 10
58.26335957256747
 20
23.22808143926397
 30
0.0
 10
58.32168099050929
 20
23.19133049804428
 30
0.0
 10
58.37337861898846
 20
23.1485381240019
 30
0.0
 10
58.4185339293817
 20
23.10035169872286
 30
0.0
 10
58.44171972759596
 20
23.06346536062145
 30
0.0
 10
58.45331328283065
 20
23.04502114773596
 30
0.0
  0
SPLINE
  5
CA
330
1F
100
AcDbEntity
  8
0
  6
Continuous
 62
     7
370
    25
100
AcDbSpline
210
0.0
220
0.0
230
1.0
 70
     8
 71
     3
 72
    23
 73
    19
 74
     0
 42
0.000000001
 43
0.00000001
 40
0.0
 40
0.0
 40
0.0
 40
0.0
 40
0.0729609930162067
 40
0.1433311180329259
 40
0.2109700859339602
 40
0.2762068597424321
 40
0.3394872283090505
 40
0.4013263635807447
 40
0.4625296365590468
 40
0.5233089730042774
 40
0.5834523609452176
 40
0.6423638086719395
 40
0.7005174356288075
 40
0.7590683331798082
 40
0.8175373240070818
 40
0.8770548221953101
 40
0.9373924692431809
 40
1.0
 40
1.0
 40
1.0
 40
1.0
 10
57.44690302642039
 20
22.46649550671031
 30
0.0
 10
57.44114402127455
 20
22.48632246857728
 30
0.0
 10
57.42983051508191
 20
22.52527233060778
 30
0.0
 10
57.41801060213442
 20
22.58382207909376
 30
0.0
 10
57.41002167677328
 20
22.64082043434841
 30
0.0
 10
57.40754181515217
 20
22.69629500973974
 30
0.0
 10
57.40814606321074
 20
22.75022016301261
 30
0.0
 10
57.41509561792272
 20
22.80254597185342
 30
0.0
 10
57.42510845796813
 20
22.85362989675392
 30
0.0
 10
57.44059296269788
 20
22.9028608476305
 30
0.0
 10
57.4596913978617
 20
22.95006438568359
 30
0.0
 10
57.48260885356547
 20
22.99472091515709
 30
0.0
 10
57.5091974193973
 20
23.03677544377835
 30
0.0
 10
57.53974741505944
 20
23.07586309152385
 30
0.0
 10
57.57349214208713
 20
23.11277535581345
 30
0.0
 10
57.61136038614858
 20
23.14619666771995
 30
0.0
 10
57.65245509804736
 20
23.17754812006425
 30
0.0
 10
57.68217126539276
 20
23.19565587941959
 30
0.0
 10
57.69730366744604
 20
23.20487691696673
 30
0.0
  0
LINE
  5
CB
330
1F
100
AcDbEntity
  8
0
  6
Continuous
 62
     7
370
    25
100
AcDbLine
 10
57.6235857187
 20
22.5686589682
 30
0.0
 11
57.4469030264
 21
22.4664955067
 31
0.0
  0
CIRCLE
  5
CC
330
1F
100
AcDbEntity
  8
0
  6
Continuous
 62
     7
370
    25
100
AcDbCircle
 10
60.3474564162
 20
21.5008797688
 30
0.0
 40
10.75
  0
SPLINE
  5
CD
330
1F
100
AcDbEntity
  8
0
  6
Continuous
 62
     7
370
    25
100
AcDbSpline
210
0.0
220
0.0
230
1.0
 70
     8
 71
     3
 72
    31
 73
    27
 74
     0
 42
0.000000001
 43
0.00000001
 40
0.0
 40
0.0
 40
0.0
 40
0.0
 40
0.0336454959535058
 40
0.0668061893677439
 40
0.0994548521133313
 40
0.1319880772579627
 40
0.1641940984622829
 40
0.1966631542066579
 40
0.2295563983366922
 40
0.2630764713646239
 40
0.2968880710266261
 40
0.3311645351872032
 40
0.3659854800217485
 40
0.4016729202028079
 40
0.4385106255368216
 40
0.476678637821926
 40
0.5160999820396
 40
0.5571674626939
 40
0.6005637374573588
 40
0.6468765278579348
 40
0.6968748465194767
 40
0.7501172287949801
 40
0.8069138714359886
 40
0.8675972931201279
 40
0.9317765500416318
 40
1.0
 40
1.0
 40
1.0
 40
1.0
 10
60.21351165392313
 20
22.16704597970697
 30
0.0
 10
60.19971932030523
 20
22.15951495903779
 30
0.0
 10
60.17233338868531
 20
22.14456143320321
 30
0.0
 10
60.12986361099634
 20
22.12557395953089
 30
0.0
 10
60.08629195020757
 20
22.11094451121838
 30
0.0
 10
60.04235123594665
 20
22.09901509570053
 30
0.0
 10
59.99750270448632
 20
22.0916460120373
 30
0.0
 10
59.95213571162997
 20
22.08704911208299
 30
0.0
 10
59.90591712312558
 20
22.08637497578337
 30
0.0
 10
59.85913178712889
 20
22.08900470323279
 30
0.0
 10
59.81217030075981
 20
22.09608643222747
 30
0.0
 10
59.76512752803386
 20
22.10619541546632
 30
0.0
 10
59.71857416924991
 20
22.12146745501329
 30
0.0
 10
59.67189102420089
 20
22.13981182525288
 30
0.0
 10
59.62535975230325
 20
22.16243318538835
 30
0.0
 10
59.5788586909505
 20
22.18883830984243
 30
0.0
 10
59.53272124954015
 20
22.2195824832434
 30
0.0
 10
59.48623530227985
 20
22.2540809622836
 30
0.0
 10
59.44005155116962
 20
22.29411788375414
 30
0.0
 10
59.39334180683716
 20
22.33970766410341
 30
0.0
 10
59.34621438788962
 20
22.39130398963299
 30
0.0
 10
59.29902015658092
 20
22.44928589391031
 30
0.0
 10
59.25120957361185
 20
22.51311259885908
 30
0.0
 10
59.20348795007922
 20
22.58326710880414
 30
0.0
 10
59.15467134610599
 20
22.65909821397348
 30
0.0
 10
59.12343632428804
 20
22.71246448439812
 30
0.0
 10
59.10734178212827
 20
22.73996264637364
 30
0.0
  0
SPLINE
  5
CE
330
1F
100
AcDbEntity
  8
0
  6
Continuous
 62
     7
370
    25
100
AcDbSpline
210
0.0
220
0.0
230
1.0
 70
     8
 71
     3
 72
    31
 73
    27
 74
     0
 42
0.000000001
 43
0.00000001
 40
0.0
 40
0.0
 40
0.0
 40
0.0
 40
0.0649405108784214
 40
0.126653132129892
 40
0.185208432931656
 40
0.2403085388748918
 40
0.2925800096996111
 40
0.3416115108261806
 40
0.3880909933565703
 40
0.4319205461414108
 40
0.4736192819603647
 40
0.5139981514266289
 40
0.5526138189906175
 40
0.5901970665880706
 40
0.6269782262858692
 40
0.6627922992646668
 40
0.6979017493416805
 40
0.7325396930703039
 40
0.7668209269351601
 40
0.8003196689017155
 40
0.833556315766656
 40
0.8664173676831504
 40
0.8993409082799471
 40
0.9325387301079189
 40
0.9658129455270054
 40
1.0
 40
1.0
 40
1.0
 40
1.0
 10
60.28883216674365
 20
23.4222543130403
 30
0.0
 10
60.30379582652166
 20
23.39562263700216
 30
0.0
 10
60.33297937240661
 20
23.34368302121419
 30
0.0
 10
60.37332014507018
 20
23.26643328873858
 30
0.0
 10
60.40797087342176
 20
23.19154906447202
 30
0.0
 10
60.43838893852064
 20
23.11964504030413
 30
0.0
 10
60.46354193313373
 20
23.05047709463138
 30
0.0
 10
60.48428767375013
 20
22.98409492325626
 30
0.0
 10
60.49996452567409
 20
22.92041156477111
 30
0.0
 10
60.51099043419057
 20
22.85924475927269
 30
0.0
 10
60.51712453831826
 20
22.80031231355508
 30
0.0
 10
60.52077171449279
 20
22.74361306211127
 30
0.0
 10
60.5196463578604
 20
22.68874770833063
 30
0.0
 10
60.51604068181467
 20
22.63568026372917
 30
0.0
 10
60.50776364238052
 20
22.58446136076315
 30
0.0
 10
60.49672797878876
 20
22.53497906874249
 30
0.0
 10
60.48187152906319
 20
22.48752679526999
 30
0.0
 10
60.4633146710738
 20
22.4421995445126
 30
0.0
 10
60.4418642868882
 20
22.39899928030253
 30
0.0
 10
60.41706811415855
 20
22.35841707030643
 30
0.0
 10
60.39044606196466
 20
22.31983055750523
 30
0.0
 10
60.36070745530207
 20
22.28387127517978
 30
0.0
 10
60.32748337648131
 20
22.25118129671157
 30
0.0
 10
60.29241242189141
 20
22.22023052250384
 30
0.0
 10
60.25445453678656
 20
22.19178569282852
 30
0.0
 10
60.22728184222163
 20
22.17536660796539
 30
0.0
 10
60.21351165392313
 20
22.16704597970697
 30
0.0
  0
SPLINE
  5
CF
330
1F
100
AcDbEntity
  8
0
  6
Continuous
 62
     7
370
    25
100
AcDbSpline
210
0.0
220
0.0
230
1.0
 70
     8
 71
     3
 72
    31
 73
    27
 74
     0
 42
0.000000001
 43
0.00000001
 40
0.0
 40
0.0
 40
0.0
 40
0.0
 40
0.0339950448126718
 40
0.0673947171980934
 40
0.1004896505027091
 40
0.1330221893437305
 40
0.1658426432595987
 40
0.1986017894409937
 40
0.2320676034283163
 40
0.2658705105943631
 40
0.3001997943085081
 40
0.3353553484150752
 40
0.3709642920596512
 40
0.4074069001705485
 40
0.4452012950221236
 40
0.4839267413422292
 40
0.524357791481951
 40
0.5663267935249849
 40
0.6102221464991016
 40
0.6571575539644638
 40
0.7065097690990741
 40
0.7590464082298738
 40
0.814286854932211
 40
0.8728983502737807
 40
0.9348824198378298
 40
1.0
 40
1.0
 40
1.0
 40
1.0
 10
59.16303088469237
 20
23.98555559509159
 30
0.0
 10
59.17706839523274
 20
23.99327348935846
 30
0.0
 10
59.20489757028596
 20
24.00857411050331
 30
0.0
 10
59.24847540664857
 20
24.02718187376156
 30
0.0
 10
59.29236645038671
 20
24.04305924403416
 30
0.0
 10
59.3373153997612
 20
24.05469805198868
 30
0.0
 10
59.38287308985605
 20
24.06266941913751
 30
0.0
 10
59.42935407406939
 20
24.06712053367248
 30
0.0
 10
59.47650650183935
 20
24.06788935941329
 30
0.0
 10
59.52430491164842
 20
24.06500639018044
 30
0.0
 10
59.57259761277141
 20
24.05875313351329
 30
0.0
 10
59.62095452479644
 20
24.04785765965455
 30
0.0
 10
59.66916070916053
 20
24.03275101082918
 30
0.0
 10
59.71764222852001
 20
24.01453931453109
 30
0.0
 10
59.76542290893474
 20
23.99099726903859
 30
0.0
 10
59.81341589616857
 20
23.96394647927533
 30
0.0
 10
59.86154935674786
 20
23.93324484802706
 30
0.0
 10
59.90924622034411
 20
23.89764826624359
 30
0.0
 10
59.95748641663002
 20
23.85778429921421
 30
0.0
 10
60.00521925035114
 20
23.81210172427639
 30
0.0
 10
60.05316291764052
 20
23.76093197410656
 30
0.0
 10
60.10059818637962
 20
23.70408290939416
 30
0.0
 10
60.1478856087339
 20
23.64157796883607
 30
0.0
 10
60.19573922516197
 20
23.57396627491978
 30
0.0
 10
60.24275717028806
 20
23.50018009183416
 30
0.0
 10
60.27322346683933
 20
23.44865301493009
 30
0.0
 10
60.28883216674365
 20
23.4222543130403
 30
0.0
  0
SPLINE
  5
D0
330
1F
100
AcDbEntity
  8
0
  6
Continuous
 62
     7
370
    25
100
AcDbSpline
210
0.0
220
0.0
230
1.0
 70
     8
 71
     3
 72
    31
 73
    27
 74
     0
 42
0.000000001
 43
0.00000001
 40
0.0
 40
0.0
 40
0.0
 40
0.0
 40
0.0684257301809696
 40
0.133078045707295
 40
0.1938999893094366
 40
0.2508424588443159
 40
0.3040062327028832
 40
0.3535151699365257
 40
0.3995944435228867
 40
0.4426248176767026
 40
0.4831971491225833
 40
0.5224017257989386
 40
0.5601112408004739
 40
0.5967683221327201
 40
0.6325636909717396
 40
0.6674234486983375
 40
0.7018485540728233
 40
0.73595929008855
 40
0.7696886735238033
 40
0.8027595434531145
 40
0.8355715158028184
 40
0.8680158003674369
 40
0.900339117782649
 40
0.9331535773010017
 40
0.9662355504268413
 40
0.9999999999999999
 40
0.9999999999999999
 40
0.9999999999999999
 40
0.9999999999999999
 10
59.10734178212827
 20
22.73996264637364
 30
0.0
 10
59.09151017054743
 20
22.76776136448169
 30
0.0
 10
59.06071999959855
 20
22.8218258087953
 30
0.0
 10
59.01927352617865
 20
22.9024616380027
 30
0.0
 10
58.98217263895325
 20
22.97925792984408
 30
0.0
 10
58.95044207353224
 20
23.05261811366877
 30
0.0
 10
58.92379212897928
 20
23.1223476988041
 30
0.0
 10
58.90255632563087
 20
23.18859082898496
 30
0.0
 10
58.8857268871095
 20
23.25121331009027
 30
0.0
 10
58.87450623316306
 20
23.3108461129672
 30
0.0
 10
58.86763117536161
 20
23.36788110741322
 30
0.0
 10
58.86449582971738
 20
23.42274152252493
 30
0.0
 10
58.86429542557813
 20
23.47586800962704
 30
0.0
 10
58.86790564798066
 20
23.52728758027632
 30
0.0
 10
58.87504367191033
 20
23.57698993668981
 30
0.0
 10
58.8858886399429
 20
23.6249581007117
 30
0.0
 10
58.90042149822495
 20
23.67110883871674
 30
0.0
 10
58.91802444081929
 20
23.71559131070515
 30
0.0
 10
58.93862893810074
 20
23.75811005899492
 30
0.0
 10
58.9631197697171
 20
23.79776523299407
 30
0.0
 10
58.98923881504131
 20
23.83564513630321
 30
0.0
 10
59.01881133373382
 20
23.8704479285821
 30
0.0
 10
59.05050264381507
 20
23.90332972156197
 30
0.0
 10
59.08551338362548
 20
23.93311161426046
 30
0.0
 10
59.12280126924343
 20
23.96113778350206
 30
0.0
 10
59.14953004933037
 20
23.97736111322812
 30
0.0
 10
59.16303088469237
 20
23.98555559509159
 30
0.0
  0
SPLINE
  5
D1
330
1F
100
AcDbEntity
  8
0
  6
Continuous
 62
     7
370
    25
100
AcDbSpline
210
0.0
220
0.0
230
1.0
 70
    24
 71
     3
 72
    16
 73
    12
 74
     0
 42
0.000000001
 43
0.00000001
 40
0.0
 40
0.0
 40
0.0
 40
0.0
 40
0.2500000000000002
 40
0.2500000000000002
 40
0.5000000000000003
 40
0.5000000000000003
 40
0.6250000000000004
 40
0.6250000000000004
 40
0.7500000000000003
 40
0.7500000000000003
 40
1.0
 40
1.0
 40
1.0
 40
1.0
 10
71.34745641615169
 20
15.15002680770025
 30
0.0
 10
70.44941074160262
 20
14.63153989575478
 30
0.0
 10
69.54481764069406
 20
14.10927282543814
 30
0.0
 10
67.71676571198576
 20
13.05384655230579
 30
0.0
 10
66.79316663355168
 20
12.52060637574859
 30
0.0
 10
65.39036707221449
 20
11.71069967139147
 30
0.0
 10
64.92056672826938
 20
11.43946031634938
 30
0.0
 10
63.99125214386233
 20
10.90292029088011
 30
0.0
 10
63.52971049683931
 20
10.63644909672916
 30
0.0
 10
62.15330267078904
 20
9.841779667844325
 30
0.0
 10
61.24662158881706
 20
9.318307101098663
 30
0.0
 10
60.34745641615163
 20
8.799173846614337
 30
0.0
  0
SPLINE
  5
D2
330
1F
100
AcDbEntity
  8
0
  6
Continuous
 62
     7
370
    25
100
AcDbSpline
210
0.0
220
0.0
230
1.0
 70
    24
 71
     3
 72
    16
 73
    12
 74
     0
 42
0.000000001
 43
0.00000001
 40
0.0
 40
0.0
 40
0.0
 40
0.0
 40
0.2500000000000002
 40
0.2500000000000002
 40
0.5000000000000003
 40
0.5000000000000003
 40
0.6250000000000003
 40
0.6250000000000003
 40
0.7500000000000002
 40
0.7500000000000002
 40
1.0
 40
1.0
 40
1.0
 40
1.0
 10
60.34745641615169
 20
8.799173846614327
 30
0.0
 10
59.44941074160262
 20
9.317660758559809
 30
0.0
 10
58.54481764069406
 20
9.839927828876442
 30
0.0
 10
56.71676571198577
 20
10.89535410200879
 30
0.0
 10
55.79316663355169
 20
11.42859427856599
 30
0.0
 10
54.3903670722145
 20
12.23850098292311
 30
0.0
 10
53.92056672826938
 20
12.50974033796521
 30
0.0
 10
52.99125214386231
 20
13.04628036343447
 30
0.0
 10
52.52971049683931
 20
13.31275155758542
 30
0.0
 10
51.15330267078903
 20
14.10742098647025
 30
0.0
 10
50.24662158881706
 20
14.63089355321591
 30
0.0
 10
49.34745641615162
 20
15.15002680770024
 30
0.0
  0
SPLINE
  5
D3
330
1F
100
AcDbEntity
  8
0
  6
Continuous
 62
     7
370
    25
100
AcDbSpline
210
0.0
220
0.0
230
1.0
 70
    24
 71
     3
 72
    16
 73
    12
 74
     0
 42
0.000000001
 43
0.00000001
 40
0.0
 40
0.0
 40
0.0
 40
0.0
 40
0.2500000000000001
 40
0.2500000000000001
 40
0.5000000000000001
 40
0.5000000000000001
 40
0.6250000000000001
 40
0.6250000000000001
 40
0.7500000000000001
 40
0.7500000000000001
 40
1.0
 40
1.0
 40
1.0
 40
1.0
 10
49.34745641615164
 20
15.15002680770022
 30
0.0
 10
49.34745641615164
 20
16.18455185066972
 30
0.0
 10
49.34745641615165
 20
17.24222353769472
 30
0.0
 10
49.34745641615164
 20
19.36173191366581
 30
0.0
 10
49.34745641615164
 20
20.42842866755849
 30
0.0
 10
49.34745641615164
 20
22.04075122761828
 30
0.0
 10
49.34745641615164
 20
22.58132071103562
 30
0.0
 10
49.34745641615164
 20
23.66173146092374
 30
0.0
 10
49.34745641615164
 20
24.19624822058336
 30
0.0
 10
49.34745641615164
 20
25.78512549410264
 30
0.0
 10
49.34745641615164
 20
26.82491341976934
 30
0.0
 10
49.34745641615164
 20
27.85173272987201
 30
0.0
  0
SPLINE
  5
D4
330
1F
100
AcDbEntity
  8
0
  6
Continuous
 62
     7
370
    25
100
AcDbSpline
210
0.0
220
0.0
230
1.0
 70
    24
 71
     3
 72
    16
 73
    12
 74
     0
 42
0.000000001
 43
0.00000001
 40
0.0
 40
0.0
 40
0.0
 40
0.0
 40
0.25
 40
0.25
 40
0.5
 40
0.5
 40
0.625
 40
0.625
 40
0.7500000000000001
 40
0.7500000000000001
 40
1.0
 40
1.0
 40
1.0
 40
1.0
 10
49.34745641615161
 20
27.85173272987198
 30
0.0
 10
50.24550209070068
 20
28.37021964181747
 30
0.0
 10
51.15009519160922
 20
28.8924867121341
 30
0.0
 10
52.97814712031752
 20
29.94791298526644
 30
0.0
 10
53.9017461987516
 20
30.48115316182365
 30
0.0
 10
55.30454576008879
 20
31.29105986618078
 30
0.0
 10
55.77434610403392
 20
31.56229922122286
 30
0.0
 10
56.70366068844098
 20
32.09883924669212
 30
0.0
 10
57.16520233546398
 20
32.36531044084308
 30
0.0
 10
58.54161016151425
 20
33.15997986972791
 30
0.0
 10
59.44829124348622
 20
33.68345243647357
 30
0.0
 10
60.34745641615167
 20
34.2025856909579
 30
0.0
  0
SPLINE
  5
D5
330
1F
100
AcDbEntity
  8
0
  6
Continuous
 62
     7
370
    25
100
AcDbSpline
210
0.0
220
0.0
230
1.0
 70
    24
 71
     3
 72
    16
 73
    12
 74
     0
 42
0.000000001
 43
0.00000001
 40
0.0
 40
0.0
 40
0.0
 40
0.0
 40
0.2500000000000002
 40
0.2500000000000002
 40
0.5000000000000003
 40
0.5000000000000003
 40
0.6250000000000003
 40
0.6250000000000003
 40
0.7500000000000002
 40
0.7500000000000002
 40
1.0
 40
1.0
 40
1.0
 40
1.0
 10
60.3474564161516
 20
34.20258569095791
 30
0.0
 10
61.24550209070067
 20
33.68409877901242
 30
0.0
 10
62.15009519160922
 20
33.16183170869579
 30
0.0
 10
63.97814712031752
 20
32.10640543556345
 30
0.0
 10
64.9017461987516
 20
31.57316525900624
 30
0.0
 10
66.30454576008879
 20
30.76325855464912
 30
0.0
 10
66.77434610403392
 20
30.49201919960703
 30
0.0
 10
67.70366068844098
 20
29.95547917413777
 30
0.0
 10
68.16520233546399
 20
29.68900797998682
 30
0.0
 10
69.54161016151426
 20
28.89433855110198
 30
0.0
 10
70.44829124348622
 20
28.37086598435632
 30
0.0
 10
71.34745641615167
 20
27.85173272987199
 30
0.0
  0
SPLINE
  5
D6
330
1F
100
AcDbEntity
  8
0
  6
Continuous
 62
     7
370
    25
100
AcDbSpline
210
0.0
220
0.0
230
1.0
 70
    24
 71
     3
 72
    16
 73
    12
 74
     0
 42
0.000000001
 43
0.00000001
 40
0.0
 40
0.0
 40
0.0
 40
0.0
 40
0.2500000000000001
 40
0.2500000000000001
 40
0.5000000000000001
 40
0.5000000000000001
 40
0.625
 40
0.625
 40
0.75
 40
0.75
 40
1.0
 40
1.0
 40
1.0
 40
1.0
 10
71.34745641615164
 20
15.15002680770022
 30
0.0
 10
71.34745641615164
 20
16.18455185066972
 30
0.0
 10
71.34745641615164
 20
17.24222353769472
 30
0.0
 10
71.34745641615164
 20
19.36173191366582
 30
0.0
 10
71.34745641615164
 20
20.42842866755849
 30
0.0
 10
71.34745641615164
 20
22.04075122761828
 30
0.0
 10
71.34745641615164
 20
22.58132071103562
 30
0.0
 10
71.34745641615164
 20
23.66173146092374
 30
0.0
 10
71.34745641615164
 20
24.19624822058336
 30
0.0
 10
71.34745641615164
 20
25.78512549410264
 30
0.0
 10
71.34745641615164
 20
26.82491341976934
 30
0.0
 10
71.34745641615164
 20
27.85173272987201
 30
0.0
  0
LINE
  5
D7
330
1F
100
AcDbEntity
  8
0
  6
Continuous
 62
     7
370
    25
100
AcDbLine
 10
61.4293748282
 20
23.5969451349
 30
0.0
 11
61.0127081615
 21
24.3184996221
 31
0.0
  0
LINE
  5
D8
330
1F
100
AcDbEntity
  8
0
  6
Continuous
 62
     7
370
    25
100
AcDbLine
 10
61.0127081615
 20
24.3184996221
 30
0.0
 11
60.9197594436
 21
23.302473981
 31
0.0
  0
LINE
  5
D9
330
1F
100
AcDbEntity
  8
0
  6
Continuous
 62
     7
370
    25
100
AcDbLine
 10
60.9197594436
 20
23.302473981
 30
0.0
 11
61.4293748282
 21
23.5969451349
 31
0.0
  0
SPLINE
  5
DA
330
1F
100
AcDbEntity
  8
0
  6
Continuous
 62
     7
370
    25
100
AcDbSpline
210
0.0
220
0.0
230
1.0
 70
     8
 71
     3
 72
    27
 73
    23
 74
     0
 42
0.000000001
 43
0.00000001
 40
0.0
 40
0.0
 40
0.0
 40
0.0
 40
0.0593292303258796
 40
0.1182404270477361
 40
0.1792014033712483
 40
0.2433956689168404
 40
0.2764899414798794
 40
0.3100835429170464
 40
0.3442473001829791
 40
0.3794554532768048
 40
0.4158980793336967
 40
0.4534222192089831
 40
0.4922161219929367
 40
0.5327160579953073
 40
0.5759425118312825
 40
0.6233043329318492
 40
0.6749793574095712
 40
0.7309686931381825
 40
0.791501417047956
 40
0.8561811647926614
 40
0.9258742620821351
 40
1.0
 40
1.0
 40
1.0
 40
1.0
 10
59.26439306417955
 20
23.82449790278389
 30
0.0
 10
59.24586084451181
 20
23.81259027238952
 30
0.0
 10
59.20892698314838
 20
23.78885891273387
 30
0.0
 10
59.16204157651529
 20
23.74123019788657
 30
0.0
 10
59.12185769004483
 20
23.68588042249878
 30
0.0
 10
59.09586461240658
 20
23.63308922777748
 30
0.0
 10
59.07857244658517
 20
23.58775830200673
 30
0.0
 10
59.0692915776203
 20
23.55152542034745
 30
0.0
 10
59.06190250664607
 20
23.51410716900611
 30
0.0
 10
59.0574066315968
 20
23.4751192361796
 30
0.0
 10
59.05657854229151
 20
23.4346753493065
 30
0.0
 10
59.05744571478113
 20
23.39289576847284
 30
0.0
 10
59.06231393286553
 20
23.34987833729308
 30
0.0
 10
59.06888612706923
 20
23.30497407477989
 30
0.0
 10
59.07953805342527
 20
23.25756570984354
 30
0.0
 10
59.0945157435352
 20
23.20702723047707
 30
0.0
 10
59.11398306429489
 20
23.15300314903805
 30
0.0
 10
59.13721162152996
 20
23.09519956624487
 30
0.0
 10
59.16496434567834
 20
23.03409075445998
 30
0.0
 10
59.19684236525712
 20
22.96933565363393
 30
0.0
 10
59.23269612950854
 20
22.90094332639904
 30
0.0
 10
59.25916446675517
 20
22.85472801565959
 30
0.0
 10
59.27280652571801
 20
22.83090815919415
 30
0.0
  0
SPLINE
  5
DB
330
1F
100
AcDbEntity
  8
0
  6
Continuous
 62
     7
370
    25
100
AcDbSpline
210
0.0
220
0.0
230
1.0
 70
     8
 71
     3
 72
    15
 73
    11
 74
     0
 42
0.000000001
 43
0.00000001
 40
0.0
 40
0.0
 40
0.0
 40
0.0
 40
0.1099846140738844
 40
0.2238443135472953
 40
0.3416645312227515
 40
0.4646574579827515
 40
0.5906390018519554
 40
0.7219234699877928
 40
0.8583134771985054
 40
1.0
 40
1.0
 40
1.0
 40
1.0
 10
60.32048280776929
 20
22.84292738996338
 30
0.0
 10
60.31670069926827
 20
22.86167655624006
 30
0.0
 10
60.30900322732366
 20
22.89983547774128
 30
0.0
 10
60.29299982170213
 20
22.95708191520008
 30
0.0
 10
60.27418926752848
 20
23.01581371574009
 30
0.0
 10
60.25183961849101
 20
23.07556811699774
 30
0.0
 10
60.22585840394155
 20
23.13637254608129
 30
0.0
 10
60.19711645648782
 20
23.19849443120959
 30
0.0
 10
60.16466033625269
 20
23.26186106345907
 30
0.0
 10
60.14075571992006
 20
23.30388632638899
 30
0.0
 10
60.12857575648724
 20
23.32529918483517
 30
0.0
  0
SPLINE
  5
DC
330
1F
100
AcDbEntity
  8
0
  6
Continuous
 62
     7
370
    25
100
AcDbSpline
210
0.0
220
0.0
230
1.0
 70
     8
 71
     3
 72
    19
 73
    15
 74
     0
 42
0.000000001
 43
0.00000001
 40
0.0
 40
0.0
 40
0.0
 40
0.0
 40
0.11190719343979
 40
0.2225480018728375
 40
0.3365832845264887
 40
0.4555385087741075
 40
0.5170876437384416
 40
0.5799756067239379
 40
0.6442897159047881
 40
0.7106263615116052
 40
0.7786677120021299
 40
0.8494688778532022
 40
0.9233909709940035
 40
1.0
 40
1.0
 40
1.0
 40
1.0
 10
60.12897639751289
 20
22.32730238996338
 30
0.0
 10
60.14748134372471
 20
22.33923484743963
 30
0.0
 10
60.18428182703252
 20
22.36296473009638
 30
0.0
 10
60.23139597356689
 20
22.40999657171179
 30
0.0
 10
60.27077085471272
 20
22.46503586235277
 30
0.0
 10
60.2970956193703
 20
22.51683005433362
 30
0.0
 10
60.3133362763683
 20
22.56179754217364
 30
0.0
 10
60.32359777377911
 20
22.59745856415238
 30
0.0
 10
60.33017557757841
 20
22.63492869343792
 30
0.0
 10
60.33435986647368
 20
22.67375388055703
 30
0.0
 10
60.33479613667912
 20
22.71406884528861
 30
0.0
 10
60.33342984548936
 20
22.75583443445088
 30
0.0
 10
60.32851186984252
 20
22.79905952930514
 30
0.0
 10
60.32319082150503
 20
22.82813179265246
 30
0.0
 10
60.32048280776929
 20
22.84292738996338
 30
0.0
  0
SPLINE
  5
DD
330
1F
100
AcDbEntity
  8
0
  6
Continuous
 62
     7
370
    25
100
AcDbSpline
210
0.0
220
0.0
230
1.0
 70
     8
 71
     3
 72
    27
 73
    23
 74
     0
 42
0.000000001
 43
0.00000001
 40
0.0
 40
0.0
 40
0.0
 40
0.0
 40
0.0737614008206083
 40
0.1428343052085164
 40
0.2075809484773593
 40
0.2678540571918489
 40
0.3236449465211944
 40
0.3750693914371048
 40
0.4222863347144217
 40
0.4656860447939371
 40
0.5062033097640232
 40
0.5452529151892669
 40
0.583002336656432
 40
0.619317441385985
 40
0.65437765649421
 40
0.689182586684851
 40
0.7230491035711442
 40
0.7563867717042346
 40
0.821073065761615
 40
0.8819992578406555
 40
0.9410812706387877
 40
1.0
 40
1.0
 40
1.0
 40
1.0
 10
59.27280652571801
 20
22.83090815919415
 30
0.0
 10
59.28655505653273
 20
22.80731965406408
 30
0.0
 10
59.31317822020252
 20
22.76164200011936
 30
0.0
 10
59.35416430716855
 20
22.69663578948804
 30
0.0
 10
59.39422959874727
 20
22.63699963170607
 30
0.0
 10
59.43289927452542
 20
22.58236581818616
 30
0.0
 10
59.47089750261761
 20
22.53334846531212
 30
0.0
 10
59.50826165716471
 20
22.49006725062488
 30
0.0
 10
59.54424766299523
 20
22.45170685311856
 30
0.0
 10
59.5797532252554
 20
22.41855478293087
 30
0.0
 10
59.61505147973489
 20
22.38977852500667
 30
0.0
 10
59.65033388970632
 20
22.36441314038411
 30
0.0
 10
59.68598604287077
 20
22.34240589134222
 30
0.0
 10
59.72168859087665
 20
22.3234430071751
 30
0.0
 10
59.75772998811946
 20
22.30770238379974
 30
0.0
 10
59.79391993257107
 20
22.29472482081575
 30
0.0
 10
59.83062969303917
 20
22.28568504785754
 30
0.0
 10
59.8787068988629
 20
22.27707442771062
 30
0.0
 10
59.93774466403533
 20
22.27377756759007
 30
0.0
 10
60.00596355887324
 20
22.28059283398504
 30
0.0
 10
60.07052219718083
 20
22.29743246725948
 30
0.0
 10
60.10950964702018
 20
22.31735493829678
 30
0.0
 10
60.12897639751289
 20
22.32730238996338
 30
0.0
  0
SPLINE
  5
DE
330
1F
100
AcDbEntity
  8
0
  6
Continuous
 62
     7
370
    25
100
AcDbSpline
210
0.0
220
0.0
230
1.0
 70
     8
 71
     3
 72
    27
 73
    23
 74
     0
 42
0.000000001
 43
0.00000001
 40
0.0
 40
0.0
 40
0.0
 40
0.0
 40
0.0663761225369528
 40
0.1298706752245191
 40
0.1901543770972346
 40
0.2477046404488027
 40
0.3026252319514871
 40
0.3545558245485417
 40
0.4040852554866611
 40
0.4511035046020919
 40
0.4959900448391388
 40
0.5385941188655637
 40
0.5788559835951628
 40
0.6176403260715041
 40
0.6549602536194784
 40
0.690371487907321
 40
0.7247915445284058
 40
0.7585056600941754
 40
0.8225113834632437
 40
0.8830809066995243
 40
0.9418515002100257
 40
1.0
 40
1.0
 40
1.0
 40
1.0
 10
60.12857575648724
 20
23.32529918483517
 30
0.0
 10
60.116187189904
 20
23.34650064218998
 30
0.0
 10
60.09194787845078
 20
23.38798314338427
 30
0.0
 10
60.05368499617331
 20
23.44702220784613
 30
0.0
 10
60.01617198511786
 20
23.50263195245712
 30
0.0
 10
59.97812411570531
 20
23.55400774988657
 30
0.0
 10
59.93961862807433
 20
23.60109090528376
 30
0.0
 10
59.90162668642026
 20
23.64473730715908
 30
0.0
 10
59.86313957090385
 20
23.68396179954075
 30
0.0
 10
59.82459040092865
 20
23.71936800721478
 30
0.0
 10
59.78613130487713
 20
23.75096205655835
 30
0.0
 10
59.74820437684858
 20
23.77920737000218
 30
0.0
 10
59.71018119912171
 20
23.80332802426978
 30
0.0
 10
59.67259453079667
 20
23.82437486133333
 30
0.0
 10
59.63501444326821
 20
23.84148380492712
 30
0.0
 10
59.59786157644445
 20
23.85539505739774
 30
0.0
 10
59.5608509887816
 20
23.86551031767699
 30
0.0
 10
59.51261757666624
 20
23.87373293767737
 30
0.0
 10
59.45393085005899
 20
23.87711747427961
 30
0.0
 10
59.38616328938517
 20
23.87093743563758
 30
0.0
 10
59.32222876162885
 20
23.85394023475791
 30
0.0
 10
59.2836031246003
 20
23.83427713950261
 30
0.0
 10
59.26439306417955
 20
23.82449790278389
 30
0.0
  0
LINE
  5
DF
330
1F
100
AcDbEntity
  8
0
  6
Continuous
 62
     7
370
    25
100
AcDbLine
 10
59.5161781978
 20
21.1157573706
 30
0.0
 11
59.8559217876
 21
20.527215704
 31
0.0
  0
LINE
  5
E0
330
1F
100
AcDbEntity
  8
0
  6
Continuous
 62
     7
370
    25
100
AcDbLine
 10
59.8218673004
 20
21.2920394219
 30
0.0
 11
59.5161781978
 21
21.1157573706
 31
0.0
  0
SPLINE
  5
E1
330
1F
100
AcDbEntity
  8
0
  6
Continuous
 62
     7
370
    25
100
AcDbSpline
210
0.0
220
0.0
230
1.0
 70
     8
 71
     3
 72
    23
 73
    19
 74
     0
 42
0.000000001
 43
0.00000001
 40
0.0
 40
0.0
 40
0.0
 40
0.0
 40
0.0726650988704533
 40
0.1432791835201251
 40
0.2141492063059417
 40
0.2864034591881084
 40
0.3580746850496254
 40
0.4274852584225196
 40
0.4955995541135628
 40
0.5653878306507093
 40
0.6026512098767123
 40
0.644881537290699
 40
0.691163612621144
 40
0.7425540665786063
 40
0.7995929580214058
 40
0.8613450079470679
 40
0.9281274466669558
 40
1.0
 40
1.0
 40
1.0
 40
1.0
 10
60.414816018334
 20
21.24396249884724
 30
0.0
 10
60.4059797772149
 20
21.25785854943904
 30
0.0
 10
60.38855670296588
 20
21.28525842660012
 30
0.0
 10
60.35591728563521
 20
21.32143000801512
 30
0.0
 10
60.31827170065014
 20
21.35206280911859
 30
0.0
 10
60.27643311337108
 20
21.37714999584008
 30
0.0
 10
60.23178542030867
 20
21.3959263078336
 30
0.0
 10
60.1857604069603
 20
21.40789681517173
 30
0.0
 10
60.13880926685692
 20
21.41178105701971
 30
0.0
 10
60.0990689410845
 20
21.40922896322858
 30
0.0
 10
60.06588810576302
 20
21.40268650878267
 30
0.0
 10
60.03841802726573
 20
21.39510159290991
 30
0.0
 10
60.00864316883921
 20
21.38429165639918
 30
0.0
 10
59.97598178902755
 20
21.37164002443723
 30
0.0
 10
59.94104513136497
 20
21.35538305874877
 30
0.0
 10
59.90326648641489
 20
21.33703271625544
 30
0.0
 10
59.86320291333833
 20
21.3157410147052
 30
0.0
 10
59.83597897418586
 20
21.30013097112315
 30
0.0
 10
59.82186730038529
 20
21.29203942192417
 30
0.0
  0
SPLINE
  5
E2
330
1F
100
AcDbEntity
  8
0
  6
Continuous
 62
     7
370
    25
100
AcDbSpline
210
0.0
220
0.0
230
1.0
 70
     8
 71
     3
 72
    23
 73
    19
 74
     0
 42
0.000000001
 43
0.00000001
 40
0.0
 40
0.0
 40
0.0
 40
0.0
 40
0.0713918962798021
 40
0.1375818375840157
 40
0.1989757648444549
 40
0.2557889034621066
 40
0.3073301432539901
 40
0.354982200535668
 40
0.3976724697156571
 40
0.4363999540212032
 40
0.5080022246883871
 40
0.5776882661332912
 40
0.6464766970873452
 40
0.7166520016022215
 40
0.7873809845268787
 40
0.8567603778518491
 40
0.9274893607765059
 40
1.0
 40
1.0
 40
1.0
 40
1.0
 10
60.15119422346221
 20
20.69268044756519
 30
0.0
 10
60.16556673304044
 20
20.70095861645563
 30
0.0
 10
60.19326450241633
 20
20.71691176726303
 30
0.0
 10
60.23198492835259
 20
20.74216379555302
 30
0.0
 10
60.2679046808429
 20
20.76550182620818
 30
0.0
 10
60.29982661352383
 20
20.78867238285511
 30
0.0
 10
60.32819707511128
 20
20.81124284321604
 30
0.0
 10
60.35280114808989
 20
20.8331790722484
 30
0.0
 10
60.37444561336065
 20
20.85395854081423
 30
0.0
 10
60.39765745786352
 20
20.88094231340061
 30
0.0
 10
60.42111730503524
 20
20.91570090356558
 30
0.0
 10
60.44304093212478
 20
20.95955151198885
 30
0.0
 10
60.45603600696137
 20
21.00649427065562
 30
0.0
 10
60.4625097832994
 20
21.05490407616946
 30
0.0
 10
60.46176780409812
 20
21.10395379932271
 30
0.0
 10
60.45350126807325
 20
21.15236610695448
 30
0.0
 10
60.43849393747239
 20
21.19969507795516
 30
0.0
 10
60.42277383512316
 20
21.22908483906944
 30
0.0
 10
60.414816018334
 20
21.24396249884724
 30
0.0
  0
LINE
  5
E3
330
1F
100
AcDbEntity
  8
0
  6
Continuous
 62
     7
370
    25
100
AcDbLine
 10
59.8559217876
 20
20.527215704
 30
0.0
 11
60.1511942235
 21
20.6926804476
 31
0.0
  0
INSERT
  5
EF
330
1F
100
AcDbEntity
  8
0
  6
Continuous
 62
     7
370
    18
100
AcDbBlockReference
  2
SW_CENTERMARKSYMBOL_0
 10
60.3474564162
 20
21.5008797688
 30
0.0
  0
LINE
  5
F0
330
1F
100
AcDbEntity
  8
0
  6
Continuous
 62
     7
370
    25
100
AcDbLine
 10
37.5923190801
 20
44.8899171539
 30
0.0
 11
37.7366566474
 21
45.1399171539
 31
0.0
  0
LINE
  5
F1
330
1F
100
AcDbEntity
  8
0
  6
Continuous
 62
     7
370
    25
100
AcDbLine
 10
37.7366566474
 20
66.6399171539
 30
0.0
 11
37.5923190801
 21
66.8899171539
 31
0.0
  0
LINE
  5
F2
330
1F
100
AcDbEntity
  8
0
  6
Continuous
 62
     7
370
    25
100
AcDbLine
 10
29.8809942147
 20
66.8899171539
 30
0.0
 11
29.7366566474
 21
66.6399171539
 31
0.0
  0
LINE
  5
F3
330
1F
100
AcDbEntity
  8
0
  6
Continuous
 62
     7
370
    25
100
AcDbLine
 10
29.7366566474
 20
45.1399171539
 30
0.0
 11
29.8809942147
 21
44.8899171539
 31
0.0
  0
LINE
  5
F4
330
1F
100
AcDbEntity
  8
0
  6
Continuous
 62
     7
370
    25
100
AcDbLine
 10
29.7366566474
 20
66.6399171539
 30
0.0
 11
27.7366566474
 21
66.6399171539
 31
0.0
  0
LINE
  5
F5
330
1F
100
AcDbEntity
  8
0
  6
Continuous
 62
     7
370
    25
100
AcDbLine
 10
27.7366566474
 20
45.1399171539
 30
0.0
 11
29.7366566474
 21
45.1399171539
 31
0.0
  0
LINE
  5
F6
330
1F
100
AcDbEntity
  8
0
  6
Continuous
 62
     7
370
    25
100
AcDbLine
 10
16.4866566474
 20
64.2209171539
 30
0.0
 11
15.7366566474
 21
63.4709171539
 31
0.0
  0
LINE
  5
F7
330
1F
100
AcDbEntity
  8
0
  6
Continuous
 62
     7
370
    25
100
AcDbLine
 10
15.7366566474
 20
48.3089171539
 30
0.0
 11
16.4866566474
 21
47.5589171539
 31
0.0
  0
LINE
  5
F8
330
1F
100
AcDbEntity
  8
0
  6
Continuous
 62
     7
370
    25
100
AcDbLine
 10
24.9866566474
 20
64.2209171539
 30
0.0
 11
16.4866566474
 21
64.2209171539
 31
0.0
  0
LINE
  5
F9
330
1F
100
AcDbEntity
  8
0
  6
Continuous
 62
     7
370
    25
100
AcDbLine
 10
16.4866566474
 20
47.5589171539
 30
0.0
 11
24.9866566474
 21
47.5589171539
 31
0.0
  0
LINE
  5
FA
330
1F
100
AcDbEntity
  8
0
  6
Continuous
 62
     7
370
    25
100
AcDbLine
 10
24.9866566474
 20
47.5589171539
 30
0.0
 11
25.7366566474
 21
48.3089171539
 31
0.0
  0
LINE
  5
FB
330
1F
100
AcDbEntity
  8
0
  6
Continuous
 62
     7
370
    25
100
AcDbLine
 10
25.7366566474
 20
63.4709171539
 30
0.0
 11
24.9866566474
 21
64.2209171539
 31
0.0
  0
LINE
  5
FC
330
1F
100
AcDbEntity
  8
0
  6
Continuous
 62
     7
370
    25
100
AcDbLine
 10
27.7366566474
 20
62.8899171539
 30
0.0
 11
25.7366566474
 21
62.8899171539
 31
0.0
  0
LINE
  5
FD
330
1F
100
AcDbEntity
  8
0
  6
Continuous
 62
     7
370
    25
100
AcDbLine
 10
25.7366566474
 20
48.8899171539
 30
0.0
 11
27.7366566474
 21
48.8899171539
 31
0.0
  0
LINE
  5
FE
330
1F
100
AcDbEntity
  8
0
  6
Continuous
 62
     7
370
    25
100
AcDbLine
 10
37.7379066474
 20
56.2150751381
 30
0.0
 11
37.7366566474
 21
56.2150751381
 31
0.0
  0
LINE
  5
FF
330
1F
100
AcDbEntity
  8
0
  6
Continuous
 62
     7
370
    25
100
AcDbLine
 10
37.7366566474
 20
66.6399171539
 30
0.0
 11
37.7366566474
 21
45.1399171539
 31
0.0
  0
SPLINE
  5
100
330
1F
100
AcDbEntity
  8
0
  6
Continuous
 62
     7
370
    25
100
AcDbSpline
210
0.0
220
0.0
230
1.0
 70
    24
 71
     3
 72
    13
 73
     9
 74
     0
 42
0.000000001
 43
0.00000001
 40
0.0
 40
0.0
 40
0.0
 40
0.0
 40
0.1013174118959256
 40
0.230985333376925
 40
0.4218383384208865
 40
0.6133417475491312
 40
0.8064684273158967
 40
1.0
 40
1.0
 40
1.0
 40
1.0
 10
37.58917903143018
 20
44.8899171539474
 30
0.0
 10
37.58825067407007
 20
44.8899171539474
 30
0.0
 10
37.5861341875718
 20
44.8899171539474
 30
0.0
 10
37.53194318790882
 20
44.88991715394739
 30
0.0
 10
37.41427811290688
 20
44.8899171539474
 30
0.0
 10
37.20847191601394
 20
44.88991715394739
 30
0.0
 10
36.94269862502931
 20
44.8899171539474
 30
0.0
 10
36.72086944376779
 20
44.8899171539474
 30
0.0
 10
36.60983870785397
 20
44.8899171539474
 30
0.0
  0
SPLINE
  5
101
330
1F
100
AcDbEntity
  8
0
  6
Continuous
 62
     7
370
    25
100
AcDbSpline
210
0.0
220
0.0
230
1.0
 70
     8
 71
     3
 72
    16
 73
    12
 74
     0
 42
0.000000001
 43
0.00000001
 40
0.0
 40
0.0
 40
0.0
 40
0.0
 40
0.25
 40
0.25
 40
0.5
 40
0.5
 40
0.625
 40
0.625
 40
0.7500000000000001
 40
0.7500000000000001
 40
1.0
 40
1.0
 40
1.0
 40
1.0
 10
36.60983870785429
 20
44.88991715394736
 30
0.0
 10
36.90918726603732
 20
45.78796282849643
 30
0.0
 10
37.1559046928989
 20
46.69255592940497
 30
0.0
 10
37.49768842525517
 20
48.52060785811327
 30
0.0
 10
37.59162733364015
 20
49.44420693654735
 30
0.0
 10
37.59265915511966
 20
50.84700649788454
 30
0.0
 10
37.56969474826332
 20
51.31680684182966
 30
0.0
 10
37.48014562197771
 20
52.24612142623672
 30
0.0
 10
37.41365178791016
 20
52.70766307325972
 30
0.0
 10
37.15688849109637
 20
54.08407089931
 30
0.0
 10
36.90956043207595
 20
54.99075198128197
 30
0.0
 10
36.60983870785414
 20
55.88991715394742
 30
0.0
  0
SPLINE
  5
102
330
1F
100
AcDbEntity
  8
0
  6
Continuous
 62
     7
370
    25
100
AcDbSpline
210
0.0
220
0.0
230
1.0
 70
     8
 71
     3
 72
    16
 73
    12
 74
     0
 42
0.000000001
 43
0.00000001
 40
0.0
 40
0.0
 40
0.0
 40
0.0
 40
0.2500000000000002
 40
0.2500000000000002
 40
0.5000000000000003
 40
0.5000000000000003
 40
0.6250000000000003
 40
0.6250000000000003
 40
0.7500000000000002
 40
0.7500000000000002
 40
1.0
 40
1.0
 40
1.0
 40
1.0
 10
36.60983870785429
 20
55.88991715394735
 30
0.0
 10
36.90918726603731
 20
56.78796282849641
 30
0.0
 10
37.15590469289889
 20
57.69255592940497
 30
0.0
 10
37.49768842525517
 20
59.52060785811327
 30
0.0
 10
37.59162733364014
 20
60.44420693654735
 30
0.0
 10
37.59265915511966
 20
61.84700649788454
 30
0.0
 10
37.56969474826332
 20
62.31680684182967
 30
0.0
 10
37.48014562197771
 20
63.24612142623673
 30
0.0
 10
37.41365178791016
 20
63.70766307325973
 30
0.0
 10
37.15688849109637
 20
65.08407089930999
 30
0.0
 10
36.90956043207595
 20
65.99075198128197
 30
0.0
 10
36.60983870785414
 20
66.88991715394742
 30
0.0
  0
SPLINE
  5
103
330
1F
100
AcDbEntity
  8
0
  6
Continuous
 62
     7
370
    25
100
AcDbSpline
210
0.0
220
0.0
230
1.0
 70
    24
 71
     3
 72
    13
 73
     9
 74
     0
 42
0.000000001
 43
0.00000001
 40
0.0
 40
0.0
 40
0.0
 40
0.0
 40
0.1911436511802191
 40
0.382639375465149
 40
0.575513109145403
 40
0.7690128777528504
 40
0.8945253926550231
 40
1.0
 40
1.0
 40
1.0
 40
1.0
 10
36.60983870785397
 20
66.8899171539474
 30
0.0
 10
36.71954964451896
 20
66.8899171539474
 30
0.0
 10
36.93917359764522
 20
66.8899171539474
 30
0.0
 10
37.20471752400282
 20
66.8899171539474
 30
0.0
 10
37.41250418739199
 20
66.8899171539474
 30
0.0
 10
37.53078858671044
 20
66.8899171539474
 30
0.0
 10
37.58543510518268
 20
66.8899171539474
 30
0.0
 10
37.58857581539739
 20
66.8899171539474
 30
0.0
 10
37.59000994373086
 20
66.8899171539474
 30
0.0
  0
LINE
  5
104
330
1F
100
AcDbEntity
  8
0
  6
Continuous
 62
     7
370
    25
100
AcDbLine
 10
36.6098387079
 20
55.8899171539
 30
0.0
 11
30.8634745869
 21
55.8899171539
 31
0.0
  0
SPLINE
  5
105
330
1F
100
AcDbEntity
  8
0
  6
Continuous
 62
     7
370
    25
100
AcDbSpline
210
0.0
220
0.0
230
1.0
 70
     8
 71
     3
 72
    16
 73
    12
 74
     0
 42
0.000000001
 43
0.00000001
 40
0.0
 40
0.0
 40
0.0
 40
0.0
 40
0.25
 40
0.25
 40
0.5
 40
0.5
 40
0.6250000000000001
 40
0.6250000000000001
 40
0.7500000000000002
 40
0.7500000000000002
 40
1.0
 40
1.0
 40
1.0
 40
1.0
 10
30.86347458694337
 20
66.88991715394744
 30
0.0
 10
30.56412602876035
 20
65.99187147939836
 30
0.0
 10
30.31740860189876
 20
65.08727837848981
 30
0.0
 10
29.97562486954249
 20
63.25922644978151
 30
0.0
 10
29.88168596115752
 20
62.33562737134744
 30
0.0
 10
29.88065413967801
 20
60.93282781001023
 30
0.0
 10
29.90361854653435
 20
60.46302746606512
 30
0.0
 10
29.99316767281995
 20
59.53371288165805
 30
0.0
 10
30.0596615068875
 20
59.07217123463506
 30
0.0
 10
30.31642480370129
 20
57.69576340858478
 30
0.0
 10
30.56375286272171
 20
56.7890823266128
 30
0.0
 10
30.86347458694352
 20
55.88991715394737
 30
0.0
  0
LINE
  5
106
330
1F
100
AcDbEntity
  8
0
  6
Continuous
 62
     7
370
    25
100
AcDbLine
 10
36.6098387079
 20
66.8899171539
 30
0.0
 11
30.8634745869
 21
66.8899171539
 31
0.0
  0
LINE
  5
107
330
1F
100
AcDbEntity
  8
0
  6
Continuous
 62
     7
370
    25
100
AcDbLine
 10
29.7366566474
 20
45.1399171539
 30
0.0
 11
29.7366566474
 21
66.6399171539
 31
0.0
  0
SPLINE
  5
108
330
1F
100
AcDbEntity
  8
0
  6
Continuous
 62
     7
370
    25
100
AcDbSpline
210
0.0
220
0.0
230
1.0
 70
    24
 71
     3
 72
    13
 73
     9
 74
     0
 42
0.000000001
 43
0.00000001
 40
0.0
 40
0.0
 40
0.0
 40
0.0
 40
0.1023352706017571
 40
0.2319696073192551
 40
0.4225828557687873
 40
0.6138435645835397
 40
0.8067202177159983
 40
0.9999999999999999
 40
0.9999999999999999
 40
0.9999999999999999
 40
0.9999999999999999
 10
29.88404799042474
 20
66.8899171539474
 30
0.0
 10
29.88505339825613
 20
66.8899171539474
 30
0.0
 10
29.88733241758615
 20
66.8899171539474
 30
0.0
 10
29.94186583074333
 20
66.8899171539474
 30
0.0
 10
30.05973321842117
 20
66.8899171539474
 30
0.0
 10
30.26548357190437
 20
66.8899171539474
 30
0.0
 10
30.53103044712722
 20
66.8899171539474
 30
0.0
 10
30.75258277693512
 20
66.8899171539474
 30
0.0
 10
30.86347458694368
 20
66.8899171539474
 30
0.0
  0
SPLINE
  5
109
330
1F
100
AcDbEntity
  8
0
  6
Continuous
 62
     7
370
    25
100
AcDbSpline
210
0.0
220
0.0
230
1.0
 70
     8
 71
     3
 72
    16
 73
    12
 74
     0
 42
0.000000001
 43
0.00000001
 40
0.0
 40
0.0
 40
0.0
 40
0.0
 40
0.2500000000000002
 40
0.2500000000000002
 40
0.5000000000000003
 40
0.5000000000000003
 40
0.6250000000000003
 40
0.6250000000000003
 40
0.7500000000000002
 40
0.7500000000000002
 40
1.0
 40
1.0
 40
1.0
 40
1.0
 10
30.86347458694337
 20
55.88991715394743
 30
0.0
 10
30.56412602876035
 20
54.99187147939836
 30
0.0
 10
30.31740860189876
 20
54.08727837848981
 30
0.0
 10
29.97562486954249
 20
52.25922644978151
 30
0.0
 10
29.88168596115752
 20
51.33562737134744
 30
0.0
 10
29.880654139678
 20
49.93282781001024
 30
0.0
 10
29.90361854653435
 20
49.46302746606512
 30
0.0
 10
29.99316767281995
 20
48.53371288165806
 30
0.0
 10
30.0596615068875
 20
48.07217123463506
 30
0.0
 10
30.31642480370129
 20
46.69576340858479
 30
0.0
 10
30.56375286272171
 20
45.78908232661281
 30
0.0
 10
30.86347458694352
 20
44.88991715394737
 30
0.0
  0
SPLINE
  5
10A
330
1F
100
AcDbEntity
  8
0
  6
Continuous
 62
     7
370
    25
100
AcDbSpline
210
0.0
220
0.0
230
1.0
 70
    24
 71
     3
 72
    13
 73
     9
 74
     0
 42
0.000000001
 43
0.00000001
 40
0.0
 40
0.0
 40
0.0
 40
0.0
 40
0.1909024305141082
 40
0.3821554813397807
 40
0.5747804823798045
 40
0.7680286190392883
 40
0.8935083706039496
 40
1.0
 40
1.0
 40
1.0
 40
1.0
 10
30.86347458694368
 20
44.8899171539474
 30
0.0
 10
30.75389686111969
 20
44.8899171539474
 30
0.0
 10
30.53454015390746
 20
44.88991715394739
 30
0.0
 10
30.26922367515802
 20
44.8899171539474
 30
0.0
 10
30.06150262951284
 20
44.8899171539474
 30
0.0
 10
29.94302414015172
 20
44.88991715394739
 30
0.0
 10
29.88803119490354
 20
44.8899171539474
 30
0.0
 10
29.88472233708759
 20
44.8899171539474
 30
0.0
 10
29.88320333220518
 20
44.8899171539474
 30
0.0
  0
LINE
  5
10B
330
1F
100
AcDbEntity
  8
0
  6
Continuous
 62
     7
370
    25
100
AcDbLine
 10
36.6098387079
 20
44.8899171539
 30
0.0
 11
30.8634745869
 21
44.8899171539
 31
0.0
  0
LINE
  5
10C
330
1F
100
AcDbEntity
  8
0
  6
Continuous
 62
     7
370
    25
100
AcDbLine
 10
27.7366566474
 20
45.1399171539
 30
0.0
 11
27.7366566474
 21
66.6399171539
 31
0.0
  0
LINE
  5
10D
330
1F
100
AcDbEntity
  8
0
  6
Continuous
 62
     7
370
    25
100
AcDbLine
 10
15.7366566474
 20
48.3089171539
 30
0.0
 11
15.7366566474
 21
63.4709171539
 31
0.0
  0
LINE
  5
10E
330
1F
100
AcDbEntity
  8
0
  6
Continuous
 62
     7
370
    25
100
AcDbLine
 10
16.4866566474
 20
64.2209171539
 30
0.0
 11
16.4866566474
 21
47.5589171539
 31
0.0
  0
LINE
  5
10F
330
1F
100
AcDbEntity
  8
0
  6
Continuous
 62
     7
370
    25
100
AcDbLine
 10
24.9866566474
 20
47.5589171539
 30
0.0
 11
24.9866566474
 21
64.2209171539
 31
0.0
  0
LINE
  5
110
330
1F
100
AcDbEntity
  8
0
  6
Continuous
 62
     7
370
    25
100
AcDbLine
 10
25.7366566474
 20
63.4709171539
 30
0.0
 11
25.7366566474
 21
48.3089171539
 31
0.0
  0
LINE
  5
111
330
1F
100
AcDbEntity
  8
0
  6
Continuous
 62
     7
370
    18
100
AcDbLine
 10
15.7366566474
 20
63.3649171539
 30
0.0
 11
25.7366566474
 21
63.3649171539
 31
0.0
  0
LINE
  5
112
330
1F
100
AcDbEntity
  8
0
  6
Continuous
 62
     7
370
    18
100
AcDbLine
 10
15.7366566474
 20
48.4149171539
 30
0.0
 11
25.7366566474
 21
48.4149171539
 31
0.0
  0
LINE
  5
113
330
1F
100
AcDbEntity
  8
0
  6
CENTERX2
 62
     7
370
    18
100
AcDbLine
 10
14.0411150802
 20
55.8899171539
 30
0.0
 11
38.7485717432
 21
55.8899171539
 31
0.0
  0
ENDSEC
  0
SECTION
  2
OBJECTS
  0
DICTIONARY
  5
C
330
0
100
AcDbDictionary
281
     1
  3
ACAD_GROUP
350
D
  3
ACAD_LAYOUT
350
1A
  3
ACAD_MLINESTYLE
350
17
  3
ACAD_PLOTSETTINGS
350
19
  3
ACAD_PLOTSTYLENAME
350
E
  3
ACAD_SCALELIST
350
47
  0
DICTIONARY
  5
D
102
{ACAD_REACTORS
330
C
102
}
330
C
100
AcDbDictionary
281
     1
  0
DICTIONARY
  5
1A
102
{ACAD_REACTORS
330
C
102
}
330
C
100
AcDbDictionary
281
     1
  3
Layout1
350
1E
  3
Layout2
350
26
  3
Model
350
22
  0
DICTIONARY
  5
17
102
{ACAD_REACTORS
330
C
102
}
330
C
100
AcDbDictionary
281
     1
  3
Standard
350
18
  0
DICTIONARY
  5
19
102
{ACAD_REACTORS
330
C
102
}
330
C
100
AcDbDictionary
281
     1
  0
ACDBDICTIONARYWDFLT
  5
E
102
{ACAD_REACTORS
330
C
102
}
330
C
100
AcDbDictionary
281
     1
  3
Normal
350
F
100
AcDbDictionaryWithDefault
340
F
  0
DICTIONARY
  5
47
102
{ACAD_REACTORS
330
C
102
}
330
C
100
AcDbDictionary
281
     1
  3
A0
350
48
  3
A1
350
49
  3
A2
350
4A
  3
A3
350
4B
  3
A4
350
4C
  3
A5
350
4D
  3
A6
350
4E
  3
A7
350
4F
  3
A8
350
50
  3
A9
350
51
  3
B0
350
52
  3
B1
350
53
  3
B2
350
54
  3
B3
350
55
  3
B4
350
56
  3
B5
350
57
  3
B6
350
58
  3
B7
350
59
  3
B8
350
5A
  3
B9
350
5B
  3
C0
350
5C
  3
C1
350
5D
  3
C2
350
5E
  3
C3
350
5F
  3
C4
350
60
  3
C5
350
61
  3
C6
350
62
  3
C7
350
63
  3
C8
350
64
  3
C9
350
65
  3
D0
350
66
  3
D1
350
67
  3
D2
350
68
  0
LAYOUT
  5
1E
102
{ACAD_REACTORS
330
1A
102
}
330
1A
100
AcDbPlotSettings
  1

  2
none_device
  4

  6

 40
0.0
 41
0.0
 42
0.0
 43
0.0
 44
0.0
 45
0.0
 46
0.0
 47
0.0
 48
0.0
 49
0.0
140
0.0
141
0.0
142
1.0
143
1.0
 70
   688
 72
     1
 73
     0
 74
     5
  7

 75
    16
147
1.0
148
0.0
149
0.0
100
AcDbLayout
  1
Layout1
 70
     1
 71
     1
 10
0.0
 20
0.0
 11
420.0
 21
297.0
 12
0.0
 22
0.0
 32
0.0
 14
1.0000000000E+20
 24
1.0000000000E+20
 34
1.0000000000E+20
 15
-1.0000000000E+20
 25
-1.0000000000E+20
 35
-1.0000000000E+20
146
0.0
 13
0.0
 23
0.0
 33
0.0
 16
1.0
 26
0.0
 36
0.0
 17
0.0
 27
1.0
 37
0.0
 76
     0
330
1B
  0
LAYOUT
  5
26
102
{ACAD_REACTORS
330
1A
102
}
330
1A
100
AcDbPlotSettings
  1

  2
none_device
  4

  6

 40
0.0
 41
0.0
 42
0.0
 43
0.0
 44
0.0
 45
0.0
 46
0.0
 47
0.0
 48
0.0
 49
0.0
140
0.0
141
0.0
142
1.0
143
1.0
 70
   688
 72
     1
 73
     0
 74
     5
  7

 75
    16
147
1.0
148
0.0
149
0.0
100
AcDbLayout
  1
Layout2
 70
     1
 71
     2
 10
0.0
 20
0.0
 11
0.0
 21
0.0
 12
0.0
 22
0.0
 32
0.0
 14
0.0
 24
0.0
 34
0.0
 15
0.0
 25
0.0
 35
0.0
146
0.0
 13
0.0
 23
0.0
 33
0.0
 16
1.0
 26
0.0
 36
0.0
 17
0.0
 27
1.0
 37
0.0
 76
     0
330
23
  0
LAYOUT
  5
22
102
{ACAD_REACTORS
330
1A
102
}
330
1A
100
AcDbPlotSettings
  1

  2
none_device
  4
Letter_(8.50_x_11.00_Inches)
  6

 40
6.35
 41
6.35
 42
6.35000508
 43
6.35000508
 44
215.9
 45
279.4
 46
0.0
 47
0.0
 48
0.0
 49
0.0
140
0.0
141
0.0
142
1.0
143
1.0
 70
  1712
 72
     1
 73
     0
 74
     0
  7

 75
     0
147
1.0
148
0.0
149
0.0
100
AcDbLayout
  1
Model
 70
     1
 71
     0
 10
0.0
 20
0.0
 11
215.9
 21
139.7
 12
0.0
 22
0.0
 32
0.0
 14
0.0
 24
0.0
 34
0.0
 15
215.9
 25
139.7
 35
0.0
146
0.0
 13
0.0
 23
0.0
 33
0.0
 16
1.0
 26
0.0
 36
0.0
 17
0.0
 27
1.0
 37
0.0
 76
     0
330
1F
331
29
  0
MLINESTYLE
  5
18
102
{ACAD_REACTORS
330
17
102
}
330
17
100
AcDbMlineStyle
  2
Standard
 70
     0
  3

 62
   256
 51
90.0
 52
90.0
 71
     2
 49
0.5
 62
   256
  6
BYLAYER
 49
-0.5
 62
   256
  6
BYLAYER
  0
ACDBPLACEHOLDER
  5
F
102
{ACAD_REACTORS
330
E
102
}
330
E
  0
SCALE
  5
48
102
{ACAD_REACTORS
330
47
102
}
330
47
100
AcDbScale
 70
     0
300
1:1
140
1.0
141
1.0
290
     1
  0
SCALE
  5
49
102
{ACAD_REACTORS
330
47
102
}
330
47
100
AcDbScale
 70
     0
300
1:2
140
1.0
141
2.0
290
     0
  0
SCALE
  5
4A
102
{ACAD_REACTORS
330
47
102
}
330
47
100
AcDbScale
 70
     0
300
1:4
140
1.0
141
4.0
290
     0
  0
SCALE
  5
4B
102
{ACAD_REACTORS
330
47
102
}
330
47
100
AcDbScale
 70
     0
300
1:5
140
1.0
141
5.0
290
     0
  0
SCALE
  5
4C
102
{ACAD_REACTORS
330
47
102
}
330
47
100
AcDbScale
 70
     0
300
1:8
140
1.0
141
8.0
290
     0
  0
SCALE
  5
4D
102
{ACAD_REACTORS
330
47
102
}
330
47
100
AcDbScale
 70
     0
300
1:10
140
1.0
141
10.0
290
     0
  0
SCALE
  5
4E
102
{ACAD_REACTORS
330
47
102
}
330
47
100
AcDbScale
 70
     0
300
1:16
140
1.0
141
16.0
290
     0
  0
SCALE
  5
4F
102
{ACAD_REACTORS
330
47
102
}
330
47
100
AcDbScale
 70
     0
300
1:20
140
1.0
141
20.0
290
     0
  0
SCALE
  5
50
102
{ACAD_REACTORS
330
47
102
}
330
47
100
AcDbScale
 70
     0
300
1:30
140
1.0
141
30.0
290
     0
  0
SCALE
  5
51
102
{ACAD_REACTORS
330
47
102
}
330
47
100
AcDbScale
 70
     0
300
1:40
140
1.0
141
40.0
290
     0
  0
SCALE
  5
52
102
{ACAD_REACTORS
330
47
102
}
330
47
100
AcDbScale
 70
     0
300
1:50
140
1.0
141
50.0
290
     0
  0
SCALE
  5
53
102
{ACAD_REACTORS
330
47
102
}
330
47
100
AcDbScale
 70
     0
300
1:100
140
1.0
141
100.0
290
     0
  0
SCALE
  5
54
102
{ACAD_REACTORS
330
47
102
}
330
47
100
AcDbScale
 70
     0
300
2:1
140
2.0
141
1.0
290
     0
  0
SCALE
  5
55
102
{ACAD_REACTORS
330
47
102
}
330
47
100
AcDbScale
 70
     0
300
4:1
140
4.0
141
1.0
290
     0
  0
SCALE
  5
56
102
{ACAD_REACTORS
330
47
102
}
330
47
100
AcDbScale
 70
     0
300
8:1
140
8.0
141
1.0
290
     0
  0
SCALE
  5
57
102
{ACAD_REACTORS
330
47
102
}
330
47
100
AcDbScale
 70
     0
300
10:1
140
10.0
141
1.0
290
     0
  0
SCALE
  5
58
102
{ACAD_REACTORS
330
47
102
}
330
47
100
AcDbScale
 70
     0
300
100:1
140
100.0
141
1.0
290
     0
  0
SCALE
  5
59
102
{ACAD_REACTORS
330
47
102
}
330
47
100
AcDbScale
 70
     0
300
1/128" = 1'-0"
140
0.0078125
141
12.0
290
     0
  0
SCALE
  5
5A
102
{ACAD_REACTORS
330
47
102
}
330
47
100
AcDbScale
 70
     0
300
1/64" = 1'-0"
140
0.015625
141
12.0
290
     0
  0
SCALE
  5
5B
102
{ACAD_REACTORS
330
47
102
}
330
47
100
AcDbScale
 70
     0
300
1/32" = 1'-0"
140
0.03125
141
12.0
290
     0
  0
SCALE
  5
5C
102
{ACAD_REACTORS
330
47
102
}
330
47
100
AcDbScale
 70
     0
300
1/16" = 1'-0"
140
0.0625
141
12.0
290
     0
  0
SCALE
  5
5D
102
{ACAD_REACTORS
330
47
102
}
330
47
100
AcDbScale
 70
     0
300
3/32" = 1'-0"
140
0.09375
141
12.0
290
     0
  0
SCALE
  5
5E
102
{ACAD_REACTORS
330
47
102
}
330
47
100
AcDbScale
 70
     0
300
1/8" = 1'-0"
140
0.125
141
12.0
290
     0
  0
SCALE
  5
5F
102
{ACAD_REACTORS
330
47
102
}
330
47
100
AcDbScale
 70
     0
300
3/16" = 1'-0"
140
0.1875
141
12.0
290
     0
  0
SCALE
  5
60
102
{ACAD_REACTORS
330
47
102
}
330
47
100
AcDbScale
 70
     0
300
1/4" = 1'-0"
140
0.25
141
12.0
290
     0
  0
SCALE
  5
61
102
{ACAD_REACTORS
330
47
102
}
330
47
100
AcDbScale
 70
     0
300
3/8" = 1'-0"
140
0.375
141
12.0
290
     0
  0
SCALE
  5
62
102
{ACAD_REACTORS
330
47
102
}
330
47
100
AcDbScale
 70
     0
300
1/2" = 1'-0"
140
0.5
141
12.0
290
     0
  0
SCALE
  5
63
102
{ACAD_REACTORS
330
47
102
}
330
47
100
AcDbScale
 70
     0
300
3/4" = 1'-0"
140
0.75
141
12.0
290
     0
  0
SCALE
  5
64
102
{ACAD_REACTORS
330
47
102
}
330
47
100
AcDbScale
 70
     0
300
1" = 1'-0"
140
1.0
141
12.0
290
     0
  0
SCALE
  5
65
102
{ACAD_REACTORS
330
47
102
}
330
47
100
AcDbScale
 70
     0
300
1-1/2" = 1'-0"
140
1.5
141
12.0
290
     0
  0
SCALE
  5
66
102
{ACAD_REACTORS
330
47
102
}
330
47
100
AcDbScale
 70
     0
300
3" = 1'-0"
140
3.0
141
12.0
290
     0
  0
SCALE
  5
67
102
{ACAD_REACTORS
330
47
102
}
330
47
100
AcDbScale
 70
     0
300
6" = 1'-0"
140
6.0
141
12.0
290
     0
  0
SCALE
  5
68
102
{ACAD_REACTORS
330
47
102
}
330
47
100
AcDbScale
 70
     0
300
1'-0" = 1'-0"
140
12.0
141
12.0
290
     0
  0
ENDSEC
  0
EOF
