  0
SECTION
  2
HEADER
  9
$ACADVER
  1
AC1015
  9
$ACADMAINTVER
 70
     6
  9
$DWGCODEPAGE
  3
DOS932
  9
$INSBASE
 10
0.0
 20
0.0
 30
0.0
  9
$EXTMIN
 10
0.0
 20
0.0
 30
0.0
  9
$EXTMAX
 10
215.9
 20
139.7
 30
0.0
  9
$LIMMIN
 10
0.0
 20
0.0
  9
$LIMMAX
 10
215.9
 20
139.7
  9
$ORTHOMODE
 70
     0
  9
$REGENMODE
 70
     1
  9
$FILLMODE
 70
     1
  9
$QTEXTMODE
 70
     0
  9
$MIRRTEXT
 70
     1
  9
$LTSCALE
 40
0.5
  9
$ATTMODE
 70
     1
  9
$TEXTSIZE
 40
1.75
  9
$TRACEWID
 40
1.0
  9
$TEXTSTYLE
  7
Standard
  9
$CLAYER
  8
0
  9
$CELTYPE
  6
ByLayer
  9
$CECOLOR
 62
   256
  9
$CELTSCALE
 40
1.0
  9
$DISPSILH
 70
     0
  9
$DIMSCALE
 40
1.0
  9
$DIMASZ
 40
1.651
  9
$DIMEXO
 40
0.5
  9
$DIMDLI
 40
3.75
  9
$DIMRND
 40
0.0
  9
$DIMDLE
 40
0.0
  9
$DIMEXE
 40
0.5
  9
$DIMTP
 40
0.0
  9
$DIMTM
 40
0.0
  9
$DIMTXT
 40
1.75
  9
$DIMCEN
 40
2.5
  9
$DIMTSZ
 40
0.0
  9
$DIMTOL
 70
     0
  9
$DIMLIM
 70
     0
  9
$DIMTIH
 70
     1
  9
$DIMTOH
 70
     1
  9
$DIMSE1
 70
     0
  9
$DIMSE2
 70
     0
  9
$DIMTAD
 70
     1
  9
$DIMZIN
 70
     1
  9
$DIMBLK
  1

  9
$DIMASO
 70
     1
  9
$DIMSHO
 70
     1
  9
$DIMPOST
  1

  9
$DIMAPOST
  1

  9
$DIMALT
 70
     0
  9
$DIMALTD
 70
     3
  9
$DIMALTF
 40
0.0393700787
  9
$DIMLFAC
 40
1.0
  9
$DIMTOFL
 70
     1
  9
$DIMTVP
 40
0.0
  9
$DIMTIX
 70
     0
  9
$DIMSOXD
 70
     0
  9
$DIMSAH
 70
     0
  9
$DIMBLK1
  1

  9
$DIMBLK2
  1

  9
$DIMSTYLE
  2
ISO-25
  9
$DIMCLRD
 70
     0
  9
$DIMCLRE
 70
     0
  9
$DIMCLRT
 70
     0
  9
$DIMTFAC
 40
1.0
  9
$DIMGAP
 40
0.762
  9
$DIMJUST
 70
     0
  9
$DIMSD1
 70
     0
  9
$DIMSD2
 70
     0
  9
$DIMTOLJ
 70
     0
  9
$DIMTZIN
 70
     1
  9
$DIMALTZ
 70
     0
  9
$DIMALTTZ
 70
     0
  9
$DIMUPT
 70
     0
  9
$DIMDEC
 70
     2
  9
$DIMTDEC
 70
     2
  9
$DIMALTU
 70
     2
  9
$DIMALTTD
 70
     3
  9
$DIMTXSTY
  7
Standard
  9
$DIMAUNIT
 70
     0
  9
$DIMADEC
 70
     2
  9
$DIMALTRND
 40
0.0
  9
$DIMAZIN
 70
     0
  9
$DIMDSEP
 70
    44
  9
$DIMATFIT
 70
     3
  9
$DIMFRAC
 70
     0
  9
$DIMLDRBLK
  1

  9
$DIMLUNIT
 70
     2
  9
$DIMLWD
 70
    -2
  9
$DIMLWE
 70
    -2
  9
$DIMTMOVE
 70
     0
  9
$LUNITS
 70
     2
  9
$LUPREC
 70
     2
  9
$SKETCHINC
 40
1.0
  9
$FILLETRAD
 40
10.0
  9
$AUNITS
 70
     0
  9
$AUPREC
 70
     2
  9
$MENU
  1
.
  9
$ELEVATION
 40
0.0
  9
$PELEVATION
 40
0.0
  9
$THICKNESS
 40
0.0
  9
$LIMCHECK
 70
     0
  9
$CHAMFERA
 40
0.0
  9
$CHAMFERB
 40
0.0
  9
$CHAMFERC
 40
0.0
  9
$CHAMFERD
 40
0.0
  9
$SKPOLY
 70
     0
  9
$TDCREATE
 40
2460087.721187419
  9
$TDUCREATE
 40
2460087.346187419
  9
$TDUPDATE
 40
2460087.721187963
  9
$TDUUPDATE
 40
2460087.346187963
  9
$TDINDWG
 40
0.0000000116
  9
$TDUSRTIMER
 40
0.0000000116
  9
$USRTIMER
 70
     1
  9
$ANGBASE
 50
0.0
  9
$ANGDIR
 70
     0
  9
$PDMODE
 70
     0
  9
$PDSIZE
 40
-1.0
  9
$PLINEWID
 40
0.0
  9
$SPLFRAME
 70
     0
  9
$SPLINETYPE
 70
     6
  9
$SPLINESEGS
 70
     8
  9
$HANDSEED
  5
119
  9
$SURFTAB1
 70
     6
  9
$SURFTAB2
 70
     6
  9
$SURFTYPE
 70
     6
  9
$SURFU
 70
     6
  9
$SURFV
 70
     6
  9
$UCSBASE
  2

  9
$UCSNAME
  2

  9
$UCSORG
 10
0.0
 20
0.0
 30
0.0
  9
$UCSXDIR
 10
1.0
 20
0.0
 30
0.0
  9
$UCSYDIR
 10
0.0
 20
1.0
 30
0.0
  9
$UCSORTHOREF
  2

  9
$UCSORTHOVIEW
 70
     0
  9
$UCSORGTOP
 10
0.0
 20
0.0
 30
0.0
  9
$UCSORGBOTTOM
 10
0.0
 20
0.0
 30
0.0
  9
$UCSORGLEFT
 10
0.0
 20
0.0
 30
0.0
  9
$UCSORGRIGHT
 10
0.0
 20
0.0
 30
0.0
  9
$UCSORGFRONT
 10
0.0
 20
0.0
 30
0.0
  9
$UCSORGBACK
 10
0.0
 20
0.0
 30
0.0
  9
$PUCSBASE
  2

  9
$PUCSNAME
  2

  9
$PUCSORG
 10
0.0
 20
0.0
 30
0.0
  9
$PUCSXDIR
 10
1.0
 20
0.0
 30
0.0
  9
$PUCSYDIR
 10
0.0
 20
1.0
 30
0.0
  9
$PUCSORTHOREF
  2

  9
$PUCSORTHOVIEW
 70
     0
  9
$PUCSORGTOP
 10
0.0
 20
0.0
 30
0.0
  9
$PUCSORGBOTTOM
 10
0.0
 20
0.0
 30
0.0
  9
$PUCSORGLEFT
 10
0.0
 20
0.0
 30
0.0
  9
$PUCSORGRIGHT
 10
0.0
 20
0.0
 30
0.0
  9
$PUCSORGFRONT
 10
0.0
 20
0.0
 30
0.0
  9
$PUCSORGBACK
 10
0.0
 20
0.0
 30
0.0
  9
$USERI1
 70
     0
  9
$USERI2
 70
     0
  9
$USERI3
 70
     0
  9
$USERI4
 70
     0
  9
$USERI5
 70
     0
  9
$USERR1
 40
0.0
  9
$USERR2
 40
0.0
  9
$USERR3
 40
0.0
  9
$USERR4
 40
0.0
  9
$USERR5
 40
0.0
  9
$WORLDVIEW
 70
     1
  9
$SHADEDGE
 70
     3
  9
$SHADEDIF
 70
    70
  9
$TILEMODE
 70
     1
  9
$MAXACTVP
 70
    64
  9
$PINSBASE
 10
0.0
 20
0.0
 30
0.0
  9
$PLIMCHECK
 70
     0
  9
$PEXTMIN
 10
1.0000000000E+20
 20
1.0000000000E+20
 30
1.0000000000E+20
  9
$PEXTMAX
 10
-1.0000000000E+20
 20
-1.0000000000E+20
 30
-1.0000000000E+20
  9
$PLIMMIN
 10
0.0
 20
0.0
  9
$PLIMMAX
 10
420.0
 20
297.0
  9
$UNITMODE
 70
     0
  9
$VISRETAIN
 70
     1
  9
$PLINEGEN
 70
     0
  9
$PSLTSCALE
 70
     1
  9
$TREEDEPTH
 70
  3020
  9
$CMLSTYLE
  2
Standard
  9
$CMLJUST
 70
     0
  9
$CMLSCALE
 40
20.0
  9
$PROXYGRAPHICS
 70
     1
  9
$MEASUREMENT
 70
     1
  9
$CELWEIGHT
370
    -1
  9
$ENDCAPS
280
     0
  9
$JOINSTYLE
280
     0
  9
$LWDISPLAY
290
     1
  9
$INSUNITS
 70
     4
  9
$HYPERLINKBASE
  1

  9
$STYLESHEET
  1

  9
$XEDIT
290
     1
  9
$CEPSNTYPE
380
     0
  9
$PSTYLEMODE
290
     1
  9
$FINGERPRINTGUID
  2
{1064D04B-9D66-415D-92DB-DC54E3AA9276}
  9
$VERSIONGUID
  2
{FAEB1C32-E019-11D5-929B-00C0DF256EC4}
  9
$EXTNAMES
290
     1
  9
$PSVPSCALE
 40
0.0
  9
$OLESTARTUP
290
     0
  0
ENDSEC
  0
SECTION
  2
CLASSES
  0
CLASS
  1
ACDBDICTIONARYWDFLT
  2
AcDbDictionaryWithDefault
  3
ObjectDBX Classes
 90
        0
280
     0
281
     0
  0
CLASS
  1
VISUALSTYLE
  2
AcDbVisualStyle
  3
ObjectDBX Classes
 90
     4095
280
     0
281
     0
  0
CLASS
  1
MATERIAL
  2
AcDbMaterial
  3
ObjectDBX Classes
 90
     1153
280
     0
281
     0
  0
CLASS
  1
SCALE
  2
AcDbScale
  3
ObjectDBX Classes
 90
     1153
280
     0
281
     0
  0
CLASS
  1
TABLESTYLE
  2
AcDbTableStyle
  3
ObjectDBX Classes
 90
     4095
280
     0
281
     0
  0
CLASS
  1
MLEADERSTYLE
  2
AcDbMLeaderStyle
  3
ACDB_MLEADERSTYLE_CLASS
 90
     4095
280
     0
281
     0
  0
CLASS
  1
SUN
  2
AcDbSun
  3
SCENEOE
 90
     1153
280
     0
281
     0
  0
CLASS
  1
ACDBPLACEHOLDER
  2
AcDbPlaceHolder
  3
ObjectDBX Classes
 90
        0
280
     0
281
     0
  0
CLASS
  1
LAYOUT
  2
AcDbLayout
  3
ObjectDBX Classes
 90
        0
280
     0
281
     0
  0
ENDSEC
  0
SECTION
  2
TABLES
  0
TABLE
  2
VPORT
  5
8
330
0
100
AcDbSymbolTable
 70
     1
  0
VPORT
  5
29
330
8
100
AcDbSymbolTableRecord
100
AcDbViewportTableRecord
  2
*Active
 70
     0
 10
0.0
 20
0.0
 11
1.0
 21
1.0
 12
107.95
 22
69.85
 13
0.0
 23
0.0
 14
10.0
 24
10.0
 15
10.0
 25
10.0
 16
0.0
 26
0.0
 36
1.0
 17
0.0
 27
0.0
 37
0.0
 40
139.7
 41
1.5454545455
 42
50.0
 43
0.0
 44
0.0
 50
0.0
 51
0.0
 71
     0
 72
  2000
 73
     1
 74
     3
 75
     0
 76
     0
 77
     0
 78
     0
281
     0
 65
     1
110
0.0
120
0.0
130
0.0
111
1.0
121
0.0
131
0.0
112
0.0
122
1.0
132
0.0
 79
     0
146
0.0
  0
ENDTAB
  0
TABLE
  2
LTYPE
  5
5
330
0
100
AcDbSymbolTable
 70
     6
  0
LTYPE
  5
14
330
5
100
AcDbSymbolTableRecord
100
AcDbLinetypeTableRecord
  2
ByBlock
 70
     0
  3

 72
    65
 73
     0
 40
0.0
  0
LTYPE
  5
15
330
5
100
AcDbSymbolTableRecord
100
AcDbLinetypeTableRecord
  2
ByLayer
 70
     0
  3

 72
    65
 73
     0
 40
0.0
  0
LTYPE
  5
16
330
5
100
AcDbSymbolTableRecord
100
AcDbLinetypeTableRecord
  2
Continuous
 70
     0
  3
Solid line
 72
    65
 73
     0
 40
0.0
  0
LTYPE
  5
6E
330
5
100
AcDbSymbolTableRecord
100
AcDbLinetypeTableRecord
  2
HIDDEN
 70
     0
  3
Hidden __ __ __ __ __ __ __ __ __ __ __ __ __ __
 72
    65
 73
     2
 40
1.905
 49
1.27
 74
     0
 49
-0.635
 74
     0
  0
LTYPE
  5
6F
330
5
100
AcDbSymbolTableRecord
100
AcDbLinetypeTableRecord
  2
PHANTOM
 70
     0
  3
Phantom ______  __  __  ______  __  __  ______
 72
    65
 73
     6
 40
12.7
 49
6.35
 74
     0
 49
-1.27
 74
     0
 49
1.27
 74
     0
 49
-1.27
 74
     0
 49
1.27
 74
     0
 49
-1.27
 74
     0
  0
LTYPE
  5
70
330
5
100
AcDbSymbolTableRecord
100
AcDbLinetypeTableRecord
  2
CENTER
 70
     0
  3
Center ____ _ ____ _ ____ _ ____ _ ____ _ ____
 72
    65
 73
     4
 40
10.16
 49
6.35
 74
     0
 49
-1.27
 74
     0
 49
1.27
 74
     0
 49
-1.27
 74
     0
  0
LTYPE
  5
71
330
5
100
AcDbSymbolTableRecord
100
AcDbLinetypeTableRecord
  2
CENTERX2
 70
     0
  3
Center (2x) ________  __  ________  __  _____
 72
    65
 73
     4
 40
20.32
 49
12.7
 74
     0
 49
-2.54
 74
     0
 49
2.54
 74
     0
 49
-2.54
 74
     0
  0
LTYPE
  5
72
330
5
100
AcDbSymbolTableRecord
100
AcDbLinetypeTableRecord
  2
DOT2
 70
     0
  3
Dot (.5x) ........................................
 72
    65
 73
     2
 40
0.635
 49
0.0
 74
     0
 49
-0.635
 74
     0
  0
ENDTAB
  0
TABLE
  2
LAYER
  5
2
330
0
100
AcDbSymbolTable
 70
     1
  0
LAYER
  5
10
330
2
100
AcDbSymbolTableRecord
100
AcDbLayerTableRecord
  2
0
 70
     0
 62
     7
  6
Continuous
370
    -3
390
F
  0
ENDTAB
  0
TABLE
  2
STYLE
  5
3
330
0
100
AcDbSymbolTable
 70
     2
  0
STYLE
  5
11
330
3
100
AcDbSymbolTableRecord
100
AcDbTextStyleTableRecord
  2
Standard
 70
     0
 40
0.0
 41
1.0
 50
0.0
 71
     0
 42
1.75
  3
txt
  4
bigfont
  0
STYLE
  5
73
330
3
100
AcDbSymbolTableRecord
100
AcDbTextStyleTableRecord
  2
SLDTEXTSTYLE0
 70
     0
 40
0.0
 41
0.7
 50
0.0
 71
     0
 42
1.75
  3
TXT
  4
bigfont
  0
ENDTAB
  0
TABLE
  2
VIEW
  5
6
330
0
100
AcDbSymbolTable
 70
     0
  0
ENDTAB
  0
TABLE
  2
UCS
  5
7
330
0
100
AcDbSymbolTable
 70
     0
  0
ENDTAB
  0
TABLE
  2
APPID
  5
9
330
0
100
AcDbSymbolTable
 70
     1
  0
APPID
  5
12
330
9
100
AcDbSymbolTableRecord
100
AcDbRegAppTableRecord
  2
ACAD
 70
     0
  0
ENDTAB
  0
TABLE
  2
DIMSTYLE
  5
A
330
0
100
AcDbSymbolTable
 70
     1
100
AcDbDimStyleTable
  0
DIMSTYLE
105
27
330
A
100
AcDbSymbolTableRecord
100
AcDbDimStyleTableRecord
  2
ISO-25
 70
     0
 41
2.5
 42
0.625
 43
3.75
 44
1.25
 73
     0
 74
     0
 77
     1
 78
     8
140
2.5
141
2.5
143
0.0393700787
147
0.625
171
     3
172
     1
178
     0
271
     2
272
     2
274
     3
278
    44
283
     0
284
     8
340
11
  0
ENDTAB
  0
TABLE
  2
BLOCK_RECORD
  5
1
330
0
100
AcDbSymbolTable
 70
     2
  0
BLOCK_RECORD
  5
1F
330
1
100
AcDbSymbolTableRecord
100
AcDbBlockTableRecord
  2
*Model_Space
340
22
  0
BLOCK_RECORD
  5
1B
330
1
100
AcDbSymbolTableRecord
100
AcDbBlockTableRecord
  2
*Paper_Space
340
1E
  0
BLOCK_RECORD
  5
23
330
1
100
AcDbSymbolTableRecord
100
AcDbBlockTableRecord
  2
*Paper_Space0
340
26
  0
BLOCK_RECORD
  5
E8
330
1
100
AcDbSymbolTableRecord
100
AcDbBlockTableRecord
  2
SW_CENTERMARKSYMBOL_0
340
0
102
{BLKREFS
331
F3
102
}
  0
ENDTAB
  0
ENDSEC
  0
SECTION
  2
BLOCKS
  0
BLOCK
  5
20
330
1F
100
AcDbEntity
  8
0
100
AcDbBlockBegin
  2
*Model_Space
 70
     0
 10
0.0
 20
0.0
 30
0.0
  3
*Model_Space
  1

  0
ENDBLK
  5
21
330
1F
100
AcDbEntity
  8
0
100
AcDbBlockEnd
  0
BLOCK
  5
1C
330
1B
100
AcDbEntity
 67
     1
  8
0
100
AcDbBlockBegin
  2
*Paper_Space
 70
     0
 10
0.0
 20
0.0
 30
0.0
  3
*Paper_Space
  1

  0
ENDBLK
  5
1D
330
1B
100
AcDbEntity
 67
     1
  8
0
100
AcDbBlockEnd
  0
BLOCK
  5
24
330
23
100
AcDbEntity
  8
0
100
AcDbBlockBegin
  2
*Paper_Space0
 70
     0
 10
0.0
 20
0.0
 30
0.0
  3
*Paper_Space0
  1

  0
ENDBLK
  5
25
330
23
100
AcDbEntity
  8
0
100
AcDbBlockEnd
  0
BLOCK
  5
E9
330
E8
100
AcDbEntity
  8
0
100
AcDbBlockBegin
  2
SW_CENTERMARKSYMBOL_0
 70
     0
 10
0.0
 20
0.0
 30
0.0
  3
SW_CENTERMARKSYMBOL_0
  1

  0
LINE
  5
EB
330
E8
100
AcDbEntity
  8
0
  6
Continuous
 62
     0
370
    18
100
AcDbLine
 10
0.0
 20
0.0
 30
0.0
 11
0.0
 21
2.5
 31
0.0
  0
LINE
  5
EC
330
E8
100
AcDbEntity
  8
0
  6
Continuous
 62
     0
370
    18
100
AcDbLine
 10
0.0
 20
0.0
 30
0.0
 11
-2.5
 21
0.0
 31
0.0
  0
LINE
  5
ED
330
E8
100
AcDbEntity
  8
0
  6
Continuous
 62
     0
370
    18
100
AcDbLine
 10
0.0
 20
0.0
 30
0.0
 11
0.0
 21
-2.5
 31
0.0
  0
LINE
  5
EE
330
E8
100
AcDbEntity
  8
0
  6
Continuous
 62
     0
370
    18
100
AcDbLine
 10
0.0
 20
0.0
 30
0.0
 11
2.5
 21
0.0
 31
0.0
  0
LINE
  5
EF
330
E8
100
AcDbEntity
  8
0
  6
Continuous
 62
     0
370
    18
100
AcDbLine
 10
0.0
 20
5.0
 30
0.0
 11
0.0
 21
11.75
 31
0.0
  0
LINE
  5
F0
330
E8
100
AcDbEntity
  8
0
  6
Continuous
 62
     0
370
    18
100
AcDbLine
 10
-5.0
 20
0.0
 30
0.0
 11
-11.75
 21
0.0
 31
0.0
  0
LINE
  5
F1
330
E8
100
AcDbEntity
  8
0
  6
Continuous
 62
     0
370
    18
100
AcDbLine
 10
0.0
 20
-5.0
 30
0.0
 11
0.0
 21
-11.75
 31
0.0
  0
LINE
  5
F2
330
E8
100
AcDbEntity
  8
0
  6
Continuous
 62
     0
370
    18
100
AcDbLine
 10
5.0
 20
0.0
 30
0.0
 11
11.75
 21
0.0
 31
0.0
  0
ENDBLK
  5
EA
330
E8
100
AcDbEntity
  8
0
100
AcDbBlockEnd
  0
ENDSEC
  0
SECTION
  2
ENTITIES
  0
MTEXT
  5
74
330
1F
100
AcDbEntity
  8
0
  6
Continuous
 62
     7
370
     0
100
AcDbMText
 10
49.9938385343
 20
46.077714357
 30
0.0
 40
1.8520833333
 41
0.0
 71
     1
 72
     1
  1
六角プラグ　HP-7002
  7
SLDTEXTSTYLE0
 73
     1
 44
1.0
  0
LINE
  5
75
330
1F
100
AcDbEntity
  8
0
  6
Continuous
 62
     7
370
    25
100
AcDbLine
 10
42.4857455167
 20
15.6417880957
 30
0.0
 11
43.47858886
 21
17.3614432103
 31
0.0
  0
LINE
  5
76
330
1F
100
AcDbEntity
  8
0
  6
Continuous
 62
     7
370
    25
100
AcDbLine
 10
43.47858886
 20
35.8614432103
 30
0.0
 11
42.4857455167
 21
37.5810983249
 31
0.0
  0
LINE
  5
77
330
1F
100
AcDbEntity
  8
0
  6
Continuous
 62
     7
370
    25
100
AcDbLine
 10
37.4714322034
 20
37.5810983249
 30
0.0
 11
36.47858886
 21
35.8614432103
 31
0.0
  0
LINE
  5
78
330
1F
100
AcDbEntity
  8
0
  6
Continuous
 62
     7
370
    25
100
AcDbLine
 10
36.47858886
 20
17.3614432103
 30
0.0
 11
37.4714322034
 21
15.6417880957
 31
0.0
  0
LINE
  5
79
330
1F
100
AcDbEntity
  8
0
  6
Continuous
 62
     7
370
    25
100
AcDbLine
 10
36.47858886
 20
35.8614432103
 30
0.0
 11
34.47858886
 21
35.8614432103
 31
0.0
  0
LINE
  5
7A
330
1F
100
AcDbEntity
  8
0
  6
Continuous
 62
     7
370
    25
100
AcDbLine
 10
34.47858886
 20
17.3614432103
 30
0.0
 11
36.47858886
 21
17.3614432103
 31
0.0
  0
LINE
  5
7B
330
1F
100
AcDbEntity
  8
0
  6
Continuous
 62
     7
370
    25
100
AcDbLine
 10
31.97858886
 20
20.0329432103
 30
0.0
 11
32.47858886
 21
20.5329432103
 31
0.0
  0
LINE
  5
7C
330
1F
100
AcDbEntity
  8
0
  6
Continuous
 62
     7
370
    25
100
AcDbLine
 10
32.47858886
 20
32.6899432103
 30
0.0
 11
31.97858886
 21
33.1899432103
 31
0.0
  0
LINE
  5
7D
330
1F
100
AcDbEntity
  8
0
  6
Continuous
 62
     7
370
    25
100
AcDbLine
 10
31.97858886
 20
33.1899432103
 30
0.0
 11
22.97858886
 21
33.1899432103
 31
0.0
  0
LINE
  5
7E
330
1F
100
AcDbEntity
  8
0
  6
Continuous
 62
     7
370
    25
100
AcDbLine
 10
22.97858886
 20
20.0329432103
 30
0.0
 11
31.97858886
 21
20.0329432103
 31
0.0
  0
LINE
  5
7F
330
1F
100
AcDbEntity
  8
0
  6
Continuous
 62
     7
370
    25
100
AcDbLine
 10
22.97858886
 20
33.1899432103
 30
0.0
 11
22.47858886
 21
32.6899432103
 31
0.0
  0
LINE
  5
80
330
1F
100
AcDbEntity
  8
0
  6
Continuous
 62
     7
370
    25
100
AcDbLine
 10
22.47858886
 20
20.5329432103
 30
0.0
 11
22.97858886
 21
20.0329432103
 31
0.0
  0
LINE
  5
81
330
1F
100
AcDbEntity
  8
0
  6
Continuous
 62
     7
370
    25
100
AcDbLine
 10
34.47858886
 20
32.1114432103
 30
0.0
 11
32.47858886
 21
32.1114432103
 31
0.0
  0
LINE
  5
82
330
1F
100
AcDbEntity
  8
0
  6
Continuous
 62
     7
370
    25
100
AcDbLine
 10
32.47858886
 20
21.1114432103
 30
0.0
 11
34.47858886
 21
21.1114432103
 31
0.0
  0
LINE
  5
83
330
1F
100
AcDbEntity
  8
0
  6
Continuous
 62
     7
370
    25
100
AcDbLine
 10
43.47983886
 20
27.6790448519
 30
0.0
 11
43.47858886
 21
27.6790448519
 31
0.0
  0
LINE
  5
84
330
1F
100
AcDbEntity
  8
0
  6
Continuous
 62
     7
370
    25
100
AcDbLine
 10
43.47983886
 20
28.9860242066
 30
0.0
 11
43.47858886
 21
28.9860242066
 31
0.0
  0
LINE
  5
85
330
1F
100
AcDbEntity
  8
0
  6
Continuous
 62
     7
370
    25
100
AcDbLine
 10
43.47858886
 20
27.3860523872
 30
0.0
 11
43.47983886
 21
27.3860523872
 31
0.0
  0
LINE
  5
86
330
1F
100
AcDbEntity
  8
0
  6
Continuous
 62
     7
370
    25
100
AcDbLine
 10
43.47983886
 20
26.5212087789
 30
0.0
 11
43.47858886
 21
26.5212087789
 31
0.0
  0
LINE
  5
87
330
1F
100
AcDbEntity
  8
0
  6
Continuous
 62
     7
370
    25
100
AcDbLine
 10
43.47983886
 20
26.7209978419
 30
0.0
 11
43.47858886
 21
26.7209978419
 31
0.0
  0
SPLINE
  5
88
330
1F
100
AcDbEntity
  8
0
  6
Continuous
 62
     7
370
    25
100
AcDbSpline
210
0.0
220
0.0
230
1.0
 70
     8
 71
     3
 72
    16
 73
    12
 74
     0
 42
0.000000001
 43
0.00000001
 40
0.0
 40
0.0
 40
0.0
 40
0.0
 40
0.2499999999999999
 40
0.2499999999999999
 40
0.4999999999999999
 40
0.4999999999999999
 40
0.6249999999999999
 40
0.6249999999999999
 40
0.7499999999999998
 40
0.7499999999999998
 40
1.0
 40
1.0
 40
1.0
 40
1.0
 10
42.48574551671546
 20
15.64178809566613
 30
0.0
 10
42.74427379219781
 20
16.08957220399472
 30
0.0
 10
42.95734793894046
 20
16.54062102593156
 30
0.0
 10
43.25252482572733
 20
17.45212560698779
 30
0.0
 10
43.33365390386994
 20
17.91265129874801
 30
0.0
 10
43.33454498011702
 20
18.61211640131969
 30
0.0
 10
43.31471206340037
 20
18.8463685334172
 30
0.0
 10
43.23737416276836
 20
19.30974395403099
 30
0.0
 10
43.17994766550399
 20
19.53987813890484
 30
0.0
 10
42.95819754753648
 20
20.22618346929117
 30
0.0
 10
42.74459606290581
 20
20.67827335539865
 30
0.0
 10
42.48574551671528
 20
21.12661565296762
 30
0.0
  0
LINE
  5
89
330
1F
100
AcDbEntity
  8
0
  6
Continuous
 62
     7
370
    25
100
AcDbLine
 10
42.4857455167
 20
15.6417880957
 30
0.0
 11
37.4714322034
 21
15.6417880957
 31
0.0
  0
SPLINE
  5
8A
330
1F
100
AcDbEntity
  8
0
  6
Continuous
 62
     7
370
    25
100
AcDbSpline
210
0.0
220
0.0
230
1.0
 70
     8
 71
     3
 72
    16
 73
    12
 74
     0
 42
0.000000001
 43
0.00000001
 40
0.0
 40
0.0
 40
0.0
 40
0.0
 40
0.25
 40
0.25
 40
0.5
 40
0.5
 40
0.625
 40
0.625
 40
0.7500000000000001
 40
0.7500000000000001
 40
1.0
 40
1.0
 40
1.0
 40
1.0
 10
37.47143220337331
 20
21.12661565296763
 30
0.0
 10
37.21290392789097
 20
20.67883154463905
 30
0.0
 10
36.99982978114831
 20
20.2277827227022
 30
0.0
 10
36.70465289436144
 20
19.31627814164597
 30
0.0
 10
36.62352381621884
 20
18.85575244988575
 30
0.0
 10
36.62263273997176
 20
18.15628734731408
 30
0.0
 10
36.64246565668839
 20
17.92203521521656
 30
0.0
 10
36.71980355732041
 20
17.45865979460277
 30
0.0
 10
36.77723005458478
 20
17.22852560972892
 30
0.0
 10
36.99898017255229
 20
16.54222027934259
 30
0.0
 10
37.21258165718296
 20
16.09013039323511
 30
0.0
 10
37.47143220337349
 20
15.64178809566615
 30
0.0
  0
LINE
  5
8B
330
1F
100
AcDbEntity
  8
0
  6
Continuous
 62
     7
370
    25
100
AcDbLine
 10
42.4857455167
 20
21.126615653
 30
0.0
 11
37.4714322034
 21
21.126615653
 31
0.0
  0
SPLINE
  5
8C
330
1F
100
AcDbEntity
  8
0
  6
Continuous
 62
     7
370
    25
100
AcDbSpline
210
0.0
220
0.0
230
1.0
 70
     8
 71
     3
 72
    16
 73
    12
 74
     0
 42
0.000000001
 43
0.00000001
 40
0.0
 40
0.0
 40
0.0
 40
0.0
 40
0.2500000000000001
 40
0.2500000000000001
 40
0.5000000000000001
 40
0.5000000000000001
 40
0.6250000000000001
 40
0.6250000000000001
 40
0.7500000000000002
 40
0.7500000000000002
 40
1.0
 40
1.0
 40
1.0
 40
1.0
 10
42.48574551671511
 20
21.12661565296759
 30
0.0
 10
42.74366414593396
 20
22.02007199301869
 30
0.0
 10
42.95947651498646
 20
22.93351357399422
 30
0.0
 10
43.25458672374301
 20
24.76399477923164
 30
0.0
 10
43.33436966003516
 20
25.68523344988229
 30
0.0
 10
43.33419190800576
 20
27.07769878049559
 30
0.0
 10
43.31430293513276
 20
27.54456046811433
 30
0.0
 10
43.23578086095388
 20
28.47763813622491
 30
0.0
 10
43.17768141240577
 20
28.93926464497794
 30
0.0
 10
42.95479163608247
 20
30.31147341527008
 30
0.0
 10
42.74174237878154
 20
31.20947162421594
 30
0.0
 10
42.48574551671509
 20
32.0962707675705
 30
0.0
  0
SPLINE
  5
8D
330
1F
100
AcDbEntity
  8
0
  6
Continuous
 62
     7
370
    25
100
AcDbSpline
210
0.0
220
0.0
230
1.0
 70
     8
 71
     3
 72
    16
 73
    12
 74
     0
 42
0.000000001
 43
0.00000001
 40
0.0
 40
0.0
 40
0.0
 40
0.0
 40
0.25
 40
0.25
 40
0.5
 40
0.5
 40
0.625
 40
0.625
 40
0.75
 40
0.75
 40
1.0
 40
1.0
 40
1.0
 40
1.0
 10
37.47143220337366
 20
21.12661565296759
 30
0.0
 10
37.21352347571093
 20
22.02003769302217
 30
0.0
 10
36.99770215685601
 20
22.93350445333865
 30
0.0
 10
36.70258664853609
 20
24.76402496465346
 30
0.0
 10
36.62280892956061
 20
25.68525702285807
 30
0.0
 10
36.62298537439926
 20
27.07766395496155
 30
0.0
 10
36.64286790185495
 20
27.54445153928913
 30
0.0
 10
36.72138974479532
 20
28.47758072865081
 30
0.0
 10
36.77949068116263
 20
28.93922624534038
 30
0.0
 10
37.00238522111782
 20
30.31147562318007
 30
0.0
 10
37.21543754560251
 20
31.20947926011877
 30
0.0
 10
37.47143220337368
 20
32.0962707675705
 30
0.0
  0
LINE
  5
8E
330
1F
100
AcDbEntity
  8
0
  6
Continuous
 62
     7
370
    25
100
AcDbLine
 10
42.4857455167
 20
32.0962707676
 30
0.0
 11
37.4714322034
 21
32.0962707676
 31
0.0
  0
SPLINE
  5
8F
330
1F
100
AcDbEntity
  8
0
  6
Continuous
 62
     7
370
    25
100
AcDbSpline
210
0.0
220
0.0
230
1.0
 70
     8
 71
     3
 72
    16
 73
    12
 74
     0
 42
0.000000001
 43
0.00000001
 40
0.0
 40
0.0
 40
0.0
 40
0.0
 40
0.25
 40
0.25
 40
0.5
 40
0.5
 40
0.625
 40
0.625
 40
0.75
 40
0.75
 40
1.0
 40
1.0
 40
1.0
 40
1.0
 10
42.48574551671546
 20
32.09627076757047
 30
0.0
 10
42.74427379219781
 20
32.54405487589906
 30
0.0
 10
42.95734793894046
 20
32.9951036978359
 30
0.0
 10
43.25252482572733
 20
33.90660827889212
 30
0.0
 10
43.33365390386993
 20
34.36713397065235
 30
0.0
 10
43.33454498011702
 20
35.06659907322403
 30
0.0
 10
43.31471206340037
 20
35.30085120532154
 30
0.0
 10
43.23737416276836
 20
35.76422662593533
 30
0.0
 10
43.17994766550399
 20
35.99436081080918
 30
0.0
 10
42.95819754753648
 20
36.68066614119551
 30
0.0
 10
42.74459606290581
 20
37.132756027303
 30
0.0
 10
42.48574551671528
 20
37.58109832487196
 30
0.0
  0
SPLINE
  5
90
330
1F
100
AcDbEntity
  8
0
  6
Continuous
 62
     7
370
    25
100
AcDbSpline
210
0.0
220
0.0
230
1.0
 70
     8
 71
     3
 72
    16
 73
    12
 74
     0
 42
0.000000001
 43
0.00000001
 40
0.0
 40
0.0
 40
0.0
 40
0.0
 40
0.2500000000000001
 40
0.2500000000000001
 40
0.5000000000000001
 40
0.5000000000000001
 40
0.6250000000000001
 40
0.6250000000000001
 40
0.7500000000000002
 40
0.7500000000000002
 40
1.0
 40
1.0
 40
1.0
 40
1.0
 10
37.47143220337331
 20
37.58109832487197
 30
0.0
 10
37.21290392789096
 20
37.13331421654339
 30
0.0
 10
36.99982978114831
 20
36.68226539460655
 30
0.0
 10
36.70465289436144
 20
35.77076081355032
 30
0.0
 10
36.62352381621884
 20
35.31023512179009
 30
0.0
 10
36.62263273997175
 20
34.61077001921842
 30
0.0
 10
36.64246565668839
 20
34.3765178871209
 30
0.0
 10
36.71980355732041
 20
33.91314246650711
 30
0.0
 10
36.77723005458478
 20
33.68300828163326
 30
0.0
 10
36.99898017255229
 20
32.99670295124693
 30
0.0
 10
37.21258165718296
 20
32.54461306513944
 30
0.0
 10
37.47143220337349
 20
32.09627076757048
 30
0.0
  0
LINE
  5
91
330
1F
100
AcDbEntity
  8
0
  6
Continuous
 62
     7
370
    25
100
AcDbLine
 10
42.4857455167
 20
37.5810983249
 30
0.0
 11
37.4714322034
 21
37.5810983249
 31
0.0
  0
LINE
  5
92
330
1F
100
AcDbEntity
  8
0
  6
Continuous
 62
     7
370
    25
100
AcDbLine
 10
43.47858886
 20
35.8614432103
 30
0.0
 11
43.47858886
 21
17.3614432103
 31
0.0
  0
LINE
  5
93
330
1F
100
AcDbEntity
  8
0
  6
Continuous
 62
     7
370
    25
100
AcDbLine
 10
36.47858886
 20
26.6114432103
 30
0.0
 11
36.47858886
 21
35.8614432103
 31
0.0
  0
LINE
  5
94
330
1F
100
AcDbEntity
  8
0
  6
Continuous
 62
     7
370
    25
100
AcDbLine
 10
36.47858886
 20
17.3614432103
 30
0.0
 11
36.47858886
 21
26.6114432103
 31
0.0
  0
LINE
  5
95
330
1F
100
AcDbEntity
  8
0
  6
Continuous
 62
     7
370
    25
100
AcDbLine
 10
34.47858886
 20
26.6114432103
 30
0.0
 11
34.47858886
 21
35.8614432103
 31
0.0
  0
LINE
  5
96
330
1F
100
AcDbEntity
  8
0
  6
Continuous
 62
     7
370
    25
100
AcDbLine
 10
34.47858886
 20
17.3614432103
 30
0.0
 11
34.47858886
 21
26.6114432103
 31
0.0
  0
LINE
  5
97
330
1F
100
AcDbEntity
  8
0
  6
Continuous
 62
     7
370
    25
100
AcDbLine
 10
31.97858886
 20
26.6114432103
 30
0.0
 11
31.97858886
 21
33.1899432103
 31
0.0
  0
LINE
  5
98
330
1F
100
AcDbEntity
  8
0
  6
Continuous
 62
     7
370
    25
100
AcDbLine
 10
31.97858886
 20
20.0329432103
 30
0.0
 11
31.97858886
 21
26.6114432103
 31
0.0
  0
LINE
  5
99
330
1F
100
AcDbEntity
  8
0
  6
Continuous
 62
     7
370
    25
100
AcDbLine
 10
32.47858886
 20
26.6114432103
 30
0.0
 11
32.47858886
 21
20.5329432103
 31
0.0
  0
LINE
  5
9A
330
1F
100
AcDbEntity
  8
0
  6
Continuous
 62
     7
370
    25
100
AcDbLine
 10
32.47858886
 20
32.6899432103
 30
0.0
 11
32.47858886
 21
26.6114432103
 31
0.0
  0
LINE
  5
9B
330
1F
100
AcDbEntity
  8
0
  6
Continuous
 62
     7
370
    25
100
AcDbLine
 10
22.97858886
 20
26.6114432103
 30
0.0
 11
22.97858886
 21
20.0329432103
 31
0.0
  0
LINE
  5
9C
330
1F
100
AcDbEntity
  8
0
  6
Continuous
 62
     7
370
    25
100
AcDbLine
 10
22.97858886
 20
33.1899432103
 30
0.0
 11
22.97858886
 21
26.6114432103
 31
0.0
  0
LINE
  5
9D
330
1F
100
AcDbEntity
  8
0
  6
Continuous
 62
     7
370
    25
100
AcDbLine
 10
22.47858886
 20
26.6114432103
 30
0.0
 11
22.47858886
 21
32.6899432103
 31
0.0
  0
LINE
  5
9E
330
1F
100
AcDbEntity
  8
0
  6
Continuous
 62
     7
370
    25
100
AcDbLine
 10
22.47858886
 20
20.5329432103
 30
0.0
 11
22.47858886
 21
26.6114432103
 31
0.0
  0
LINE
  5
9F
330
1F
100
AcDbEntity
  8
0
  6
Continuous
 62
     7
370
    18
100
AcDbLine
 10
22.47858886
 20
32.3339432103
 30
0.0
 11
32.47858886
 21
32.3339432103
 31
0.0
  0
LINE
  5
A0
330
1F
100
AcDbEntity
  8
0
  6
Continuous
 62
     7
370
    18
100
AcDbLine
 10
22.47858886
 20
20.8889432103
 30
0.0
 11
32.47858886
 21
20.8889432103
 31
0.0
  0
LINE
  5
A1
330
1F
100
AcDbEntity
  8
0
  6
CENTERX2
 62
     7
370
    18
100
AcDbLine
 10
44.8203760455
 20
26.6114432103
 30
0.0
 11
21.97858886
 21
26.6114432103
 31
0.0
  0
CIRCLE
  5
A2
330
1F
100
AcDbEntity
  8
0
  6
Continuous
 62
     7
370
    25
100
AcDbCircle
 10
62.1743603098
 20
26.6114432103
 30
0.0
 40
9.250000000000007
  0
SPLINE
  5
A3
330
1F
100
AcDbEntity
  8
0
  6
Continuous
 62
     7
370
    25
100
AcDbSpline
210
0.0
220
0.0
230
1.0
 70
    24
 71
     3
 72
    16
 73
    12
 74
     0
 42
0.000000001
 43
0.00000001
 40
0.0
 40
0.0
 40
0.0
 40
0.0
 40
0.2499999999999999
 40
0.2499999999999999
 40
0.5000000000000001
 40
0.5000000000000001
 40
0.6250000000000002
 40
0.6250000000000002
 40
0.7500000000000001
 40
0.7500000000000001
 40
1.0
 40
1.0
 40
1.0
 40
1.0
 10
71.674360309849
 20
21.12661565296763
 30
0.0
 10
70.89877548340198
 20
20.67883154463905
 30
0.0
 10
70.11753600711329
 20
20.2277827227022
 30
0.0
 10
68.53876376139212
 20
19.31627814164598
 30
0.0
 10
67.74110986507259
 20
18.85575244988575
 30
0.0
 10
66.52960076929709
 20
18.15628734731408
 30
0.0
 10
66.12386417472285
 20
17.92203521521657
 30
0.0
 10
65.32127440324118
 20
17.45865979460277
 30
0.0
 10
64.92267030248121
 20
17.22852560972892
 30
0.0
 10
63.73395460074676
 20
16.5422202793426
 30
0.0
 10
62.95091194842055
 20
16.09013039323511
 30
0.0
 10
62.17436030984894
 20
15.64178809566615
 30
0.0
  0
SPLINE
  5
A4
330
1F
100
AcDbEntity
  8
0
  6
Continuous
 62
     7
370
    25
100
AcDbSpline
210
0.0
220
0.0
230
1.0
 70
    24
 71
     3
 72
    16
 73
    12
 74
     0
 42
0.000000001
 43
0.00000001
 40
0.0
 40
0.0
 40
0.0
 40
0.0
 40
0.2499999999999999
 40
0.2499999999999999
 40
0.4999999999999999
 40
0.4999999999999999
 40
0.6249999999999999
 40
0.6249999999999999
 40
0.7499999999999998
 40
0.7499999999999998
 40
1.0
 40
1.0
 40
1.0
 40
1.0
 10
62.17436030984901
 20
15.64178809566613
 30
0.0
 10
61.39877548340199
 20
16.08957220399472
 30
0.0
 10
60.61753600711329
 20
16.54062102593156
 30
0.0
 10
59.03876376139212
 20
17.45212560698779
 30
0.0
 10
58.24110986507259
 20
17.91265129874801
 30
0.0
 10
57.02960076929709
 20
18.61211640131969
 30
0.0
 10
56.62386417472285
 20
18.8463685334172
 30
0.0
 10
55.82127440324117
 20
19.30974395403099
 30
0.0
 10
55.4226703024812
 20
19.53987813890484
 30
0.0
 10
54.23395460074674
 20
20.22618346929117
 30
0.0
 10
53.45091194842055
 20
20.67827335539865
 30
0.0
 10
52.67436030984894
 20
21.12661565296762
 30
0.0
  0
SPLINE
  5
A5
330
1F
100
AcDbEntity
  8
0
  6
Continuous
 62
     7
370
    25
100
AcDbSpline
210
0.0
220
0.0
230
1.0
 70
    24
 71
     3
 72
    16
 73
    12
 74
     0
 42
0.000000001
 43
0.00000001
 40
0.0
 40
0.0
 40
0.0
 40
0.0
 40
0.2500000000000001
 40
0.2500000000000001
 40
0.5000000000000001
 40
0.5000000000000001
 40
0.6250000000000001
 40
0.6250000000000001
 40
0.7500000000000002
 40
0.7500000000000002
 40
1.0
 40
1.0
 40
1.0
 40
1.0
 10
52.67436030984897
 20
21.12661565296759
 30
0.0
 10
52.67436030984897
 20
22.02007199301869
 30
0.0
 10
52.67436030984897
 20
22.93351357399422
 30
0.0
 10
52.67436030984897
 20
24.76399477923164
 30
0.0
 10
52.67436030984897
 20
25.68523344988229
 30
0.0
 10
52.67436030984897
 20
27.07769878049559
 30
0.0
 10
52.67436030984897
 20
27.54456046811433
 30
0.0
 10
52.67436030984897
 20
28.47763813622491
 30
0.0
 10
52.67436030984897
 20
28.93926464497794
 30
0.0
 10
52.67436030984897
 20
30.31147341527008
 30
0.0
 10
52.67436030984897
 20
31.20947162421594
 30
0.0
 10
52.67436030984897
 20
32.0962707675705
 30
0.0
  0
SPLINE
  5
A6
330
1F
100
AcDbEntity
  8
0
  6
Continuous
 62
     7
370
    25
100
AcDbSpline
210
0.0
220
0.0
230
1.0
 70
    24
 71
     3
 72
    16
 73
    12
 74
     0
 42
0.000000001
 43
0.00000001
 40
0.0
 40
0.0
 40
0.0
 40
0.0
 40
0.25
 40
0.25
 40
0.5
 40
0.5
 40
0.625
 40
0.625
 40
0.75
 40
0.75
 40
1.0
 40
1.0
 40
1.0
 40
1.0
 10
52.67436030984893
 20
32.09627076757047
 30
0.0
 10
53.44994513629596
 20
32.54405487589906
 30
0.0
 10
54.23118461258466
 20
32.9951036978359
 30
0.0
 10
55.80995685830582
 20
33.90660827889212
 30
0.0
 10
56.60761075462535
 20
34.36713397065235
 30
0.0
 10
57.81911985040085
 20
35.06659907322403
 30
0.0
 10
58.22485644497509
 20
35.30085120532154
 30
0.0
 10
59.02744621645677
 20
35.76422662593533
 30
0.0
 10
59.42605031721674
 20
35.99436081080918
 30
0.0
 10
60.61476601895119
 20
36.68066614119551
 30
0.0
 10
61.39780867127739
 20
37.132756027303
 30
0.0
 10
62.174360309849
 20
37.58109832487196
 30
0.0
  0
SPLINE
  5
A7
330
1F
100
AcDbEntity
  8
0
  6
Continuous
 62
     7
370
    25
100
AcDbSpline
210
0.0
220
0.0
230
1.0
 70
    24
 71
     3
 72
    16
 73
    12
 74
     0
 42
0.000000001
 43
0.00000001
 40
0.0
 40
0.0
 40
0.0
 40
0.0
 40
0.2500000000000001
 40
0.2500000000000001
 40
0.5
 40
0.5
 40
0.625
 40
0.625
 40
0.75
 40
0.75
 40
1.0
 40
1.0
 40
1.0
 40
1.0
 10
62.17436030984892
 20
37.58109832487197
 30
0.0
 10
62.94994513629595
 20
37.13331421654339
 30
0.0
 10
63.73118461258466
 20
36.68226539460655
 30
0.0
 10
65.30995685830582
 20
35.77076081355032
 30
0.0
 10
66.10761075462534
 20
35.31023512179009
 30
0.0
 10
67.31911985040085
 20
34.61077001921842
 30
0.0
 10
67.72485644497509
 20
34.3765178871209
 30
0.0
 10
68.52744621645678
 20
33.91314246650711
 30
0.0
 10
68.92605031721673
 20
33.68300828163326
 30
0.0
 10
70.1147660189512
 20
32.99670295124694
 30
0.0
 10
70.89780867127739
 20
32.54461306513945
 30
0.0
 10
71.674360309849
 20
32.09627076757049
 30
0.0
  0
SPLINE
  5
A8
330
1F
100
AcDbEntity
  8
0
  6
Continuous
 62
     7
370
    25
100
AcDbSpline
210
0.0
220
0.0
230
1.0
 70
    24
 71
     3
 72
    16
 73
    12
 74
     0
 42
0.000000001
 43
0.00000001
 40
0.0
 40
0.0
 40
0.0
 40
0.0
 40
0.25
 40
0.25
 40
0.5
 40
0.5
 40
0.625
 40
0.625
 40
0.75
 40
0.75
 40
1.0
 40
1.0
 40
1.0
 40
1.0
 10
71.67436030984898
 20
21.1266156529676
 30
0.0
 10
71.67436030984898
 20
22.0200719930187
 30
0.0
 10
71.67436030984898
 20
22.93351357399422
 30
0.0
 10
71.67436030984898
 20
24.76399477923165
 30
0.0
 10
71.67436030984898
 20
25.68523344988229
 30
0.0
 10
71.67436030984898
 20
27.0776987804956
 30
0.0
 10
71.67436030984898
 20
27.54456046811434
 30
0.0
 10
71.67436030984898
 20
28.47763813622492
 30
0.0
 10
71.67436030984898
 20
28.93926464497794
 30
0.0
 10
71.67436030984898
 20
30.31147341527008
 30
0.0
 10
71.67436030984898
 20
31.20947162421594
 30
0.0
 10
71.67436030984898
 20
32.0962707675705
 30
0.0
  0
LINE
  5
A9
330
1F
100
AcDbEntity
  8
0
  6
Continuous
 62
     7
370
    25
100
AcDbLine
 10
62.5251088501
 20
28.0636784482
 30
0.0
 11
62.6973844911
 21
29.9935662687
 31
0.0
  0
LINE
  5
AA
330
1F
100
AcDbEntity
  8
0
  6
Continuous
 62
     7
370
    25
100
AcDbLine
 10
63.352432568
 20
28.5416431917
 30
0.0
 11
62.5251088501
 21
28.0636784482
 31
0.0
  0
LINE
  5
AB
330
1F
100
AcDbEntity
  8
0
  6
Continuous
 62
     7
370
    25
100
AcDbLine
 10
63.5848043629
 20
28.138998961
 30
0.0
 11
63.352432568
 21
28.5416431917
 31
0.0
  0
LINE
  5
AC
330
1F
100
AcDbEntity
  8
0
  6
Continuous
 62
     7
370
    25
100
AcDbLine
 10
63.757881286
 20
28.2387585764
 30
0.0
 11
63.5848043629
 21
28.138998961
 31
0.0
  0
LINE
  5
AD
330
1F
100
AcDbEntity
  8
0
  6
Continuous
 62
     7
370
    25
100
AcDbLine
 10
63.5255094911
 20
28.6414028071
 30
0.0
 11
63.757881286
 21
28.2387585764
 31
0.0
  0
LINE
  5
AE
330
1F
100
AcDbEntity
  8
0
  6
Continuous
 62
     7
370
    25
100
AcDbLine
 10
63.7350447475
 20
28.7627970379
 30
0.0
 11
63.5255094911
 21
28.6414028071
 31
0.0
  0
LINE
  5
AF
330
1F
100
AcDbEntity
  8
0
  6
Continuous
 62
     7
370
    25
100
AcDbLine
 10
63.6388909014
 20
28.9286624225
 30
0.0
 11
63.7350447475
 21
28.7627970379
 31
0.0
  0
LINE
  5
B0
330
1F
100
AcDbEntity
  8
0
  6
Continuous
 62
     7
370
    25
100
AcDbLine
 10
63.429355645
 20
28.8072681917
 30
0.0
 11
63.6388909014
 21
28.9286624225
 31
0.0
  0
LINE
  5
B1
330
1F
100
AcDbEntity
  8
0
  6
Continuous
 62
     7
370
    25
100
AcDbLine
 10
62.7326409014
 20
30.0135983199
 30
0.0
 11
63.429355645
 21
28.8072681917
 31
0.0
  0
LINE
  5
B2
330
1F
100
AcDbEntity
  8
0
  6
Continuous
 62
     7
370
    25
100
AcDbLine
 10
62.6973844911
 20
29.9935662687
 30
0.0
 11
62.7326409014
 21
30.0135983199
 31
0.0
  0
LINE
  5
B3
330
1F
100
AcDbEntity
  8
0
  6
Continuous
 62
     7
370
    25
100
AcDbLine
 10
62.0726493992
 20
24.5632599147
 30
0.0
 11
61.0726493992
 21
26.2944297865
 31
0.0
  0
LINE
  5
B4
330
1F
100
AcDbEntity
  8
0
  6
Continuous
 62
     7
370
    25
100
AcDbLine
 10
62.2457263223
 20
24.6634201711
 30
0.0
 11
62.0726493992
 21
24.5632599147
 31
0.0
  0
LINE
  5
B5
330
1F
100
AcDbEntity
  8
0
  6
Continuous
 62
     7
370
    25
100
AcDbLine
 10
61.7809827325
 20
25.4683079916
 30
0.0
 11
62.2457263223
 21
24.6634201711
 31
0.0
  0
LINE
  5
B6
330
1F
100
AcDbEntity
  8
0
  6
Continuous
 62
     7
370
    25
100
AcDbLine
 10
61.9043801684
 20
25.5392214532
 30
0.0
 11
61.7809827325
 21
25.4683079916
 31
0.0
  0
SPLINE
  5
B7
330
1F
100
AcDbEntity
  8
0
  6
Continuous
 62
     7
370
    25
100
AcDbSpline
210
0.0
220
0.0
230
1.0
 70
     8
 71
     3
 72
    15
 73
    11
 74
     0
 42
0.000000001
 43
0.00000001
 40
0.0
 40
0.0
 40
0.0
 40
0.0
 40
0.0756123032498289
 40
0.1644872655319284
 40
0.2677853868718776
 40
0.3857854682946374
 40
0.5179322862644448
 40
0.6638659903914276
 40
0.8244577581462259
 40
1.0
 40
1.0
 40
1.0
 40
1.0
 10
62.3282583735698
 20
25.82207401725325
 30
0.0
 10
62.31875338857956
 20
25.81339615541964
 30
0.0
 10
62.298076211417
 20
25.79451830482754
 30
0.0
 10
62.2618620905171
 20
25.76680955658355
 30
0.0
 10
62.21948211760094
 20
25.73536487245934
 30
0.0
 10
62.16969679640827
 20
25.70160631688852
 30
0.0
 10
62.11332434130136
 20
25.66467293868384
 30
0.0
 10
62.04970789547298
 20
25.62562707309951
 30
0.0
 10
61.97967646787529
 20
25.58292720204679
 30
0.0
 10
61.93021228624676
 20
25.55421571000977
 30
0.0
 10
61.90438016844159
 20
25.53922145315069
 30
0.0
  0
SPLINE
  5
B8
330
1F
100
AcDbEntity
  8
0
  6
Continuous
 62
     7
370
    25
100
AcDbSpline
210
0.0
220
0.0
230
1.0
 70
     8
 71
     3
 72
    23
 73
    19
 74
     0
 42
0.000000001
 43
0.00000001
 40
0.0
 40
0.0
 40
0.0
 40
0.0
 40
0.0701767959831227
 40
0.1370783948533101
 40
0.2015402158160995
 40
0.2643019848993742
 40
0.325851106585645
 40
0.3855625253801132
 40
0.4451090710974652
 40
0.5050396151009584
 40
0.5646549133475235
 40
0.623873102773034
 40
0.6835103850890274
 40
0.7439310552880052
 40
0.8050983035609699
 40
0.8678522399879645
 40
0.9328002663636267
 40
0.9999999999999999
 40
0.9999999999999999
 40
0.9999999999999999
 40
0.9999999999999999
 10
62.42040580946723
 20
26.45789132494556
 30
0.0
 10
62.42841196516352
 20
26.44359890894758
 30
0.0
 10
62.44405062401675
 20
26.41568111338379
 30
0.0
 10
62.46266061307478
 20
26.37243590457943
 30
0.0
 10
62.47823408613233
 20
26.32987650114445
 30
0.0
 10
62.48948848714497
 20
26.28722925690978
 30
0.0
 10
62.49671175258366
 20
26.24485557884216
 30
0.0
 10
62.50000686987063
 20
26.20274325291366
 30
0.0
 10
62.49921017540395
 20
26.16087689494212
 30
0.0
 10
62.49430390251243
 20
26.11933298122755
 30
0.0
 10
62.48600232818782
 20
26.0783995734239
 30
0.0
 10
62.47369091492263
 20
26.03858138564479
 30
0.0
 10
62.45871482671615
 20
25.99947017333339
 30
0.0
 10
62.43920679021065
 20
25.96187638650228
 30
0.0
 10
62.4165890054962
 20
25.92527608210155
 30
0.0
 10
62.3910118074593
 20
25.88933409918607
 30
0.0
 10
62.36113799724648
 20
25.8549703820362
 30
0.0
 10
62.33934204416279
 20
25.83316333124743
 30
0.0
 10
62.3282583735698
 20
25.82207401725325
 30
0.0
  0
SPLINE
  5
B9
330
1F
100
AcDbEntity
  8
0
  6
Continuous
 62
     7
370
    25
100
AcDbSpline
210
0.0
220
0.0
230
1.0
 70
     8
 71
     3
 72
    23
 73
    19
 74
     0
 42
0.000000001
 43
0.00000001
 40
0.0
 40
0.0
 40
0.0
 40
0.0
 40
0.0629356290675136
 40
0.124917386466311
 40
0.1857052460120456
 40
0.2456350393096019
 40
0.305162443516211
 40
0.3646585631624177
 40
0.4250581585413427
 40
0.4863258165608511
 40
0.5475962370601505
 40
0.6090294239962809
 40
0.6706716427956784
 40
0.7327325403902578
 40
0.7965017194925578
 40
0.8620715477041121
 40
0.9294466560771697
 40
1.0
 40
1.0
 40
1.0
 40
1.0
 10
61.83266542485185
 20
26.69867658135582
 30
0.0
 10
61.84663852599701
 20
26.70236906546647
 30
0.0
 10
61.87437294768699
 20
26.70969806926775
 30
0.0
 10
61.91647043658496
 20
26.71672351413367
 30
0.0
 10
61.95823076537493
 20
26.72092680481449
 30
0.0
 10
61.9996645113655
 20
26.72133241160255
 30
0.0
 10
62.04065681648339
 20
26.71803603597156
 30
0.0
 10
62.08135978770945
 20
26.71154440453359
 30
0.0
 10
62.12189320529484
 20
26.70204052721046
 30
0.0
 10
62.1617779901255
 20
26.68875241400475
 30
0.0
 10
62.2007729917977
 20
26.67243025014207
 30
0.0
 10
62.23813251514066
 20
26.65239295806484
 30
0.0
 10
62.27337820827267
 20
26.62856213700482
 30
0.0
 10
62.30706315688986
 20
26.60167031698737
 30
0.0
 10
62.33812035254692
 20
26.57049738133707
 30
0.0
 10
62.36781838119453
 20
26.53646182280386
 30
0.0
 10
62.39586451091581
 20
26.49900473281532
 30
0.0
 10
62.41210066864239
 20
26.47180471430562
 30
0.0
 10
62.42040580946723
 20
26.45789132494556
 30
0.0
  0
SPLINE
  5
BA
330
1F
100
AcDbEntity
  8
0
  6
Continuous
 62
     7
370
    25
100
AcDbSpline
210
0.0
220
0.0
230
1.0
 70
     8
 71
     3
 72
    15
 73
    11
 74
     0
 42
0.000000001
 43
0.00000001
 40
0.0
 40
0.0
 40
0.0
 40
0.0
 40
0.1772047475236776
 40
0.3392086991137762
 40
0.486811660435993
 40
0.6185381308101384
 40
0.7363717983370404
 40
0.838457124749514
 40
0.9265189260755414
 40
1.0
 40
1.0
 40
1.0
 40
1.0
 10
61.41760132228774
 20
26.49354837622761
 30
0.0
 10
61.44133698152363
 20
26.5072325834244
 30
0.0
 10
61.48677223201508
 20
26.53342715318898
 30
0.0
 10
61.55254147160653
 20
26.57003538346949
 30
0.0
 10
61.6128614286074
 20
26.60194163883082
 30
0.0
 10
61.66758212768669
 20
26.62980902872273
 30
0.0
 10
61.71657900205554
 20
26.65338906635723
 30
0.0
 10
61.76002869846974
 20
26.67287201673308
 30
0.0
 10
61.7979209280015
 20
26.68799577481992
 30
0.0
 10
61.82180243429071
 20
26.69533718919008
 30
0.0
 10
61.83266542485185
 20
26.69867658135582
 30
0.0
  0
LINE
  5
BB
330
1F
100
AcDbEntity
  8
0
  6
Continuous
 62
     7
370
    25
100
AcDbLine
 10
61.0726493992
 20
26.2944297865
 30
0.0
 11
61.4176013223
 21
26.4935483762
 31
0.0
  0
LINE
  5
BC
330
1F
100
AcDbEntity
  8
0
  6
Continuous
 62
     7
370
    25
100
AcDbLine
 10
63.5763497321
 20
25.4268820657
 30
0.0
 11
62.5763497321
 21
27.1580519375
 31
0.0
  0
LINE
  5
BD
330
1F
100
AcDbEntity
  8
0
  6
Continuous
 62
     7
370
    25
100
AcDbLine
 10
63.7482247321
 20
25.5262410401
 30
0.0
 11
63.5763497321
 21
25.4268820657
 31
0.0
  0
LINE
  5
BE
330
1F
100
AcDbEntity
  8
0
  6
Continuous
 62
     7
370
    25
100
AcDbLine
 10
63.2582407577
 20
26.3747987324
 30
0.0
 11
63.7482247321
 21
25.5262410401
 31
0.0
  0
LINE
  5
BF
330
1F
100
AcDbEntity
  8
0
  6
Continuous
 62
     7
370
    25
100
AcDbLine
 10
63.9537535783
 20
26.7762410401
 30
0.0
 11
63.2582407577
 21
26.3747987324
 31
0.0
  0
LINE
  5
C0
330
1F
100
AcDbEntity
  8
0
  6
Continuous
 62
     7
370
    25
100
AcDbLine
 10
63.8551958859
 20
26.946914117
 30
0.0
 11
63.9537535783
 21
26.7762410401
 31
0.0
  0
LINE
  5
C1
330
1F
100
AcDbEntity
  8
0
  6
Continuous
 62
     7
370
    25
100
AcDbLine
 10
63.1596830654
 20
26.5454718093
 30
0.0
 11
63.8551958859
 21
26.946914117
 31
0.0
  0
LINE
  5
C2
330
1F
100
AcDbEntity
  8
0
  6
Continuous
 62
     7
370
    25
100
AcDbLine
 10
62.8467824244
 20
27.086737835
 30
0.0
 11
63.1596830654
 21
26.5454718093
 31
0.0
  0
LINE
  5
C3
330
1F
100
AcDbEntity
  8
0
  6
Continuous
 62
     7
370
    25
100
AcDbLine
 10
63.5422952449
 20
27.4881801427
 30
0.0
 11
62.8467824244
 21
27.086737835
 31
0.0
  0
LINE
  5
C4
330
1F
100
AcDbEntity
  8
0
  6
Continuous
 62
     7
370
    25
100
AcDbLine
 10
63.4437375526
 20
27.6588532196
 30
0.0
 11
63.5422952449
 21
27.4881801427
 31
0.0
  0
LINE
  5
C5
330
1F
100
AcDbEntity
  8
0
  6
Continuous
 62
     7
370
    25
100
AcDbLine
 10
62.5763497321
 20
27.1580519375
 30
0.0
 11
63.4437375526
 21
27.6588532196
 31
0.0
  0
SPLINE
  5
C6
330
1F
100
AcDbEntity
  8
0
  6
Continuous
 62
     7
370
    25
100
AcDbSpline
210
0.0
220
0.0
230
1.0
 70
     8
 71
     3
 72
    19
 73
    15
 74
     0
 42
0.000000001
 43
0.00000001
 40
0.0
 40
0.0
 40
0.0
 40
0.0
 40
0.116698536589739
 40
0.2282590101784684
 40
0.3372185427251284
 40
0.4465132849869349
 40
0.50276584803826
 40
0.5620350872685727
 40
0.6248184910357915
 40
0.6915349811923932
 40
0.7617985431967307
 40
0.8366234562169642
 40
0.9161906330044087
 40
1.0
 40
1.0
 40
1.0
 40
1.0
 10
59.62156333037413
 20
28.14717112768043
 30
0.0
 10
59.60395168247917
 20
28.13594756002535
 30
0.0
 10
59.56950380135238
 20
28.1139945817063
 30
0.0
 10
59.52512483079128
 20
28.07259979037861
 30
0.0
 10
59.49006653428194
 20
28.02491902255892
 30
0.0
 10
59.46720964060371
 20
27.98123143765386
 30
0.0
 10
59.45384600506305
 20
27.94327476790259
 30
0.0
 10
59.44631110106252
 20
27.912268592978
 30
0.0
 10
59.4411164743912
 20
27.87889477943056
 30
0.0
 10
59.43857787730655
 20
27.8432673374944
 30
0.0
 10
59.43750321851703
 20
27.80540053916401
 30
0.0
 10
59.43995086284842
 20
27.76529959675418
 30
0.0
 10
59.44368739736871
 20
27.72288204472231
 30
0.0
 10
59.4481832943336
 20
27.69402538276644
 30
0.0
 10
59.45048961242541
 20
27.67922240973171
 30
0.0
  0
SPLINE
  5
C7
330
1F
100
AcDbEntity
  8
0
  6
Continuous
 62
     7
370
    25
100
AcDbSpline
210
0.0
220
0.0
230
1.0
 70
     8
 71
     3
 72
    23
 73
    19
 74
     0
 42
0.000000001
 43
0.00000001
 40
0.0
 40
0.0
 40
0.0
 40
0.0
 40
0.0591791051521848
 40
0.1169459291115961
 40
0.1743720545453772
 40
0.2311010381228904
 40
0.2884654328876002
 40
0.3475708060626696
 40
0.409009463483299
 40
0.4724043085594233
 40
0.5368565178558284
 40
0.6005045056844478
 40
0.6640367736994025
 40
0.7279582235298679
 40
0.7931462364758861
 40
0.8592187722458992
 40
0.9283394182013749
 40
1.0
 40
1.0
 40
1.0
 40
1.0
 10
60.09992871498952
 20
28.05261984562915
 30
0.0
 10
60.09422619189738
 20
28.06168708435618
 30
0.0
 10
60.08295723371396
 20
28.07960517647135
 30
0.0
 10
60.06312315839678
 20
28.10423292209324
 30
0.0
 10
60.04110305051647
 20
28.12626450511837
 30
0.0
 10
60.01687880702298
 20
28.14577050101269
 30
0.0
 10
59.99012601420318
 20
28.16221112409021
 30
0.0
 10
59.96112280897505
 20
28.17625476146245
 30
0.0
 10
59.92989079403361
 20
28.18789330734203
 30
0.0
 10
59.89671160795969
 20
28.19652551028212
 30
0.0
 10
59.86257719817941
 20
28.20265146882037
 30
0.0
 10
59.82791447393424
 20
28.20512835096839
 30
0.0
 10
59.79334725133238
 20
28.20359639401402
 30
0.0
 10
59.75862727244157
 20
28.19999214593072
 30
0.0
 10
59.72423676914713
 20
28.19164459752693
 30
0.0
 10
59.68976857812888
 20
28.18034644207903
 30
0.0
 10
59.65534451628695
 20
28.16551492970975
 30
0.0
 10
59.63295835398769
 20
28.15335883399204
 30
0.0
 10
59.62156333037413
 20
28.14717112768043
 30
0.0
  0
SPLINE
  5
C8
330
1F
100
AcDbEntity
  8
0
  6
Continuous
 62
     7
370
    25
100
AcDbSpline
210
0.0
220
0.0
230
1.0
 70
     8
 71
     3
 72
    19
 73
    15
 74
     0
 42
0.000000001
 43
0.00000001
 40
0.0
 40
0.0
 40
0.0
 40
0.0
 40
0.1055150102305262
 40
0.2072590054948936
 40
0.3055242150184235
 40
0.4018902536748169
 40
0.4937941548483872
 40
0.5775887882812993
 40
0.655333711437728
 40
0.7280006663003296
 40
0.797795471673489
 40
0.8651986393292102
 40
0.9322283304823006
 40
0.9999999999999999
 40
0.9999999999999999
 40
0.9999999999999999
 40
0.9999999999999999
 10
59.8643517919126
 20
27.53058458921889
 30
0.0
 10
59.88338312375979
 20
27.54243130541306
 30
0.0
 10
59.92076562415738
 20
27.56570134643775
 30
0.0
 10
59.97243872861201
 20
27.60522641676925
 30
0.0
 10
60.01739439222887
 20
27.64946555730809
 30
0.0
 10
60.05689288551863
 20
27.69585838113832
 30
0.0
 10
60.08971650489987
 20
27.74360610286253
 30
0.0
 10
60.11405768963498
 20
27.79177375962561
 30
0.0
 10
60.13068783085455
 20
27.83888022633537
 30
0.0
 10
60.13825620107041
 20
27.88524517980921
 30
0.0
 10
60.13886401405954
 20
27.93001732025322
 30
0.0
 10
60.13208166043329
 20
27.97299313347512
 30
0.0
 10
60.12003817482765
 20
28.01446956794332
 30
0.0
 10
60.10665642037588
 20
28.03985650783968
 30
0.0
 10
60.09992871498952
 20
28.05261984562915
 30
0.0
  0
LINE
  5
C9
330
1F
100
AcDbEntity
  8
0
  6
Continuous
 62
     7
370
    25
100
AcDbLine
 10
59.9560985868
 20
27.371530102
 30
0.0
 11
59.8643517919
 21
27.5305845892
 31
0.0
  0
SPLINE
  5
CA
330
1F
100
AcDbEntity
  8
0
  6
Continuous
 62
     7
370
    25
100
AcDbSpline
210
0.0
220
0.0
230
1.0
 70
     8
 71
     3
 72
    23
 73
    19
 74
     0
 42
0.000000001
 43
0.00000001
 40
0.0
 40
0.0
 40
0.0
 40
0.0
 40
0.0703423198343876
 40
0.1398634517743602
 40
0.2103803753631115
 40
0.2827027172989062
 40
0.3555923664656343
 40
0.4269508105709605
 40
0.4987761996993966
 40
0.5720888555685788
 40
0.6110005129072674
 40
0.6539353186604211
 40
0.7011226343296134
 40
0.7519637186826998
 40
0.8073262203581311
 40
0.8673192372193631
 40
0.931379432164037
 40
0.9999999999999999
 40
0.9999999999999999
 40
0.9999999999999999
 40
0.9999999999999999
 10
60.68165948422029
 20
27.28699484562915
 30
0.0
 10
60.67130788952775
 20
27.3032318069153
 30
0.0
 10
60.65072554637391
 20
27.33551617651179
 30
0.0
 10
60.61145754607328
 20
27.37792534331199
 30
0.0
 10
60.56629833998831
 20
27.41466574080085
 30
0.0
 10
60.51541551815545
 20
27.44482156890578
 30
0.0
 10
60.46098819283418
 20
27.46850061085251
 30
0.0
 10
60.40376199878651
 20
27.48400184248025
 30
0.0
 10
60.34477366909618
 20
27.4906412372457
 30
0.0
 10
60.2943263500417
 20
27.48967296456028
 30
0.0
 10
60.25221154322031
 20
27.48440096915995
 30
0.0
 10
60.21768094039011
 20
27.47703528666866
 30
0.0
 10
60.18064810061088
 20
27.4663743671651
 30
0.0
 10
60.14069807325573
 20
27.45363449066775
 30
0.0
 10
60.09823477799506
 20
27.43745123870545
 30
0.0
 10
60.05313810896788
 20
27.41818285548307
 30
0.0
 10
60.00534141464318
 20
27.39606581537522
 30
0.0
 10
59.97288471929116
 20
27.37989395426138
 30
0.0
 10
59.95609858678439
 20
27.3715301020394
 30
0.0
  0
SPLINE
  5
CB
330
1F
100
AcDbEntity
  8
0
  6
Continuous
 62
     7
370
    25
100
AcDbSpline
210
0.0
220
0.0
230
1.0
 70
     8
 71
     3
 72
    23
 73
    19
 74
     0
 42
0.000000001
 43
0.00000001
 40
0.0
 40
0.0
 40
0.0
 40
0.0
 40
0.0732531278746229
 40
0.143076787078104
 40
0.2103746387958365
 40
0.2752906500029053
 40
0.3392596226892456
 40
0.4018859929105241
 40
0.4644270360797879
 40
0.5278378401523588
 40
0.5906903737125638
 40
0.6509224245648336
 40
0.7100706904963927
 40
0.7676159933197219
 40
0.8248315818707156
 40
0.8821963083100987
 40
0.9404609388752492
 40
0.9999999999999999
 40
0.9999999999999999
 40
0.9999999999999999
 40
0.9999999999999999
 10
60.48294153550233
 20
26.6684051020394
 30
0.0
 10
60.49807247945528
 20
26.67762889643175
 30
0.0
 10
60.52762598671234
 20
26.69564465773256
 30
0.0
 10
60.56815767095402
 20
26.72647668540111
 30
0.0
 10
60.60500202242518
 20
26.75865796805006
 30
0.0
 10
60.63676984520584
 20
26.79399527618586
 30
0.0
 10
60.66464085294675
 20
26.83107514246511
 30
0.0
 10
60.68745611513641
 20
26.87080542920821
 30
0.0
 10
60.70660159491476
 20
26.91226069179635
 30
0.0
 10
60.72081292681261
 20
26.95574764256089
 30
0.0
 10
60.73055241849483
 20
26.99981036116738
 30
0.0
 10
60.73693386662291
 20
27.04347361209288
 30
0.0
 10
60.73832545798842
 20
27.08628706947038
 30
0.0
 10
60.73627761151923
 20
27.1283669277884
 30
0.0
 10
60.72871305742159
 20
27.16938467412508
 30
0.0
 10
60.71757313299155
 20
27.20971023251585
 30
0.0
 10
60.70188111097538
 20
27.24916346726904
 30
0.0
 10
60.68844846573943
 20
27.27429376417604
 30
0.0
 10
60.68165948422029
 20
27.28699484562915
 30
0.0
  0
SPLINE
  5
CC
330
1F
100
AcDbEntity
  8
0
  6
Continuous
 62
     7
370
    25
100
AcDbSpline
210
0.0
220
0.0
230
1.0
 70
     8
 71
     3
 72
    15
 73
    11
 74
     0
 42
0.000000001
 43
0.00000001
 40
0.0
 40
0.0
 40
0.0
 40
0.0
 40
0.1200312614629397
 40
0.2399649155124079
 40
0.3586107548455215
 40
0.4807865662367299
 40
0.6037828490368189
 40
0.7314727643053685
 40
0.8629426087683327
 40
1.0
 40
1.0
 40
1.0
 40
1.0
 10
60.15521717652798
 20
26.60630574306504
 30
0.0
 10
60.16866936341981
 20
26.60388516281157
 30
0.0
 10
60.19556279811017
 20
26.59904597067998
 30
0.0
 10
60.23639931353996
 20
26.59689993368674
 30
0.0
 10
60.27748806977942
 20
26.59832772314995
 30
0.0
 10
60.31846525343105
 20
26.60462522510029
 30
0.0
 10
60.35988069749271
 20
26.61409725713713
 30
0.0
 10
60.40096127047106
 20
26.62849905902115
 30
0.0
 10
60.44263731976709
 20
26.64585560190249
 30
0.0
 10
60.46932171291149
 20
26.66078505074267
 30
0.0
 10
60.48294153550233
 20
26.6684051020394
 30
0.0
  0
SPLINE
  5
CD
330
1F
100
AcDbEntity
  8
0
  6
Continuous
 62
     7
370
    25
100
AcDbSpline
210
0.0
220
0.0
230
1.0
 70
     8
 71
     3
 72
    15
 73
    11
 74
     0
 42
0.000000001
 43
0.00000001
 40
0.0
 40
0.0
 40
0.0
 40
0.0
 40
0.1513316044327706
 40
0.2940975545230309
 40
0.4289487094265199
 40
0.5559279245516218
 40
0.6762753220694476
 40
0.7892273698219985
 40
0.8971134572546169
 40
1.0
 40
1.0
 40
1.0
 40
1.0
 10
59.88638704832285
 20
26.7757768969112
 30
0.0
 10
59.89807055834279
 20
26.76448968496752
 30
0.0
 10
59.92077626967114
 20
26.74255413857284
 30
0.0
 10
59.95502722488278
 20
26.71170521064887
 30
0.0
 10
59.98975501571881
 20
26.68557432940079
 30
0.0
 10
60.02323552419599
 20
26.66180538114408
 30
0.0
 10
60.05695873212203
 20
26.64272487806089
 30
0.0
 10
60.09005134010717
 20
26.62702346977225
 30
0.0
 10
60.12241007612494
 20
26.61407980349932
 30
0.0
 10
60.14445578508991
 20
26.60885579187669
 30
0.0
 10
60.15521717652798
 20
26.60630574306504
 30
0.0
  0
LINE
  5
CE
330
1F
100
AcDbEntity
  8
0
  6
Continuous
 62
     7
370
    25
100
AcDbLine
 10
59.7169158945
 20
26.6776198456
 30
0.0
 11
59.8863870483
 21
26.7757768969
 31
0.0
  0
SPLINE
  5
CF
330
1F
100
AcDbEntity
  8
0
  6
Continuous
 62
     7
370
    25
100
AcDbSpline
210
0.0
220
0.0
230
1.0
 70
     8
 71
     3
 72
    23
 73
    19
 74
     0
 42
0.000000001
 43
0.00000001
 40
0.0
 40
0.0
 40
0.0
 40
0.0
 40
0.0656217632387079
 40
0.1283604675836459
 40
0.1895583847206637
 40
0.2488580074221896
 40
0.3074628849680241
 40
0.3655512283883335
 40
0.4232063363918941
 40
0.4818112139377281
 40
0.5407083869503938
 40
0.6004738697899791
 40
0.6611093887128816
 40
0.7235118887421076
 40
0.7883544185590496
 40
0.8557385605895164
 40
0.9260741804459054
 40
1.0
 40
1.0
 40
1.0
 40
1.0
 10
60.57789345857926
 20
26.49853330716761
 30
0.0
 10
60.55935499951011
 20
26.48833677142775
 30
0.0
 10
60.52309255917093
 20
26.46839167957551
 30
0.0
 10
60.46686106172972
 20
26.4442610807611
 30
0.0
 10
60.4108353926647
 20
26.42544976154614
 30
0.0
 10
60.3547476845817
 20
26.41145612167202
 30
0.0
 10
60.29848691052768
 20
26.40356889409391
 30
0.0
 10
60.24230304283524
 20
26.40071306681306
 30
0.0
 10
60.1860763947457
 20
26.40307346763712
 30
0.0
 10
60.13010646316668
 20
26.41108948484978
 30
0.0
 10
60.07453907905669
 20
26.42477392243407
 30
0.0
 10
60.02003844176393
 20
26.44419496706212
 30
0.0
 10
59.96631401871102
 20
26.46859667095752
 30
0.0
 10
59.91413563598211
 20
26.49949633381825
 30
0.0
 10
59.86275362478536
 20
26.5355774262302
 30
0.0
 10
59.8126314855799
 20
26.57750346306885
 30
0.0
 10
59.76353063571063
 20
26.62494942780794
 30
0.0
 10
59.73270981830787
 20
26.65977414821232
 30
0.0
 10
59.7169158944767
 20
26.67761984562915
 30
0.0
  0
SPLINE
  5
D0
330
1F
100
AcDbEntity
  8
0
  6
Continuous
 62
     7
370
    25
100
AcDbSpline
210
0.0
220
0.0
230
1.0
 70
     8
 71
     3
 72
    23
 73
    19
 74
     0
 42
0.000000001
 43
0.00000001
 40
0.0
 40
0.0
 40
0.0
 40
0.0
 40
0.0805952943637352
 40
0.1604515434217349
 40
0.2418700207746968
 40
0.3254069365410276
 40
0.3675226928213641
 40
0.409059180026604
 40
0.4501972477231492
 40
0.4912141426448573
 40
0.5317517532195374
 40
0.572960932581426
 40
0.614036676581567
 40
0.6558471726783921
 40
0.7396019872338637
 40
0.823816986964127
 40
0.9104315104044917
 40
1.0
 40
1.0
 40
1.0
 40
1.0
 10
60.8439190996049
 20
27.39997561485992
 30
0.0
 10
60.85708664403101
 20
27.37506551829923
 30
0.0
 10
60.88330098871359
 20
27.32547374657732
 30
0.0
 10
60.90941630347846
 20
27.24479746577373
 30
0.0
 10
60.92577847459411
 20
27.16071913182764
 30
0.0
 10
60.92936308173466
 20
27.08829812545023
 30
0.0
 10
60.9273630966782
 20
27.02995283312354
 30
0.0
 10
60.92290189952263
 20
26.98659580867454
 30
0.0
 10
60.9158547222548
 20
26.94395661135744
 30
0.0
 10
60.90520371849377
 20
26.90244371338607
 30
0.0
 10
60.89249000706492
 20
26.86148943807126
 30
0.0
 10
60.87632707941557
 20
26.82174509631383
 30
0.0
 10
60.85795742186058
 20
26.78248296878568
 30
0.0
 10
60.8289895447857
 20
26.73199486995525
 30
0.0
 10
60.7868778197309
 20
26.67182070954226
 30
0.0
 10
60.72635565763461
 20
26.6064762374475
 30
0.0
 10
60.65694921929749
 20
26.54727174520648
 30
0.0
 10
60.60453829411638
 20
26.51496003754227
 30
0.0
 10
60.57789345857926
 20
26.49853330716761
 30
0.0
  0
SPLINE
  5
D1
330
1F
100
AcDbEntity
  8
0
  6
Continuous
 62
     7
370
    25
100
AcDbSpline
210
0.0
220
0.0
230
1.0
 70
     8
 71
     3
 72
    15
 73
    11
 74
     0
 42
0.000000001
 43
0.00000001
 40
0.0
 40
0.0
 40
0.0
 40
0.0
 40
0.1304473747403708
 40
0.2573926146276505
 40
0.3826871558302637
 40
0.5055470499668895
 40
0.627982586550622
 40
0.7497193271005594
 40
0.8738306203951082
 40
1.0
 40
1.0
 40
1.0
 40
1.0
 10
60.55305371498952
 20
27.64276407639838
 30
0.0
 10
60.56864262219908
 20
27.63644567449061
 30
0.0
 10
60.59940191953136
 20
27.62397850149808
 30
0.0
 10
60.6434419889873
 20
27.60152827215881
 30
0.0
 10
60.68406073457106
 20
27.57520978538295
 30
0.0
 10
60.72266191379429
 20
27.54695906188251
 30
0.0
 10
60.75742184421478
 20
27.51470228192038
 30
0.0
 10
60.78925274156701
 20
27.47944074111361
 30
0.0
 10
60.81883366765264
 20
27.44156569210483
 30
0.0
 10
60.83551157418292
 20
27.41391476617309
 30
0.0
 10
60.8439190996049
 20
27.39997561485992
 30
0.0
  0
SPLINE
  5
D2
330
1F
100
AcDbEntity
  8
0
  6
Continuous
 62
     7
370
    25
100
AcDbSpline
210
0.0
220
0.0
230
1.0
 70
     8
 71
     3
 72
    11
 73
     7
 74
     0
 42
0.000000001
 43
0.00000001
 40
0.0
 40
0.0
 40
0.0
 40
0.0
 40
0.2575448221658422
 40
0.5076711529890837
 40
0.754215998679076
 40
1.0
 40
1.0
 40
1.0
 40
1.0
 10
60.26258897139977
 20
27.67281215332146
 30
0.0
 10
60.28780262532081
 20
27.67544490723218
 30
0.0
 10
60.33750366240444
 20
27.68063457946924
 30
0.0
 10
60.41180437304413
 20
27.67744213034997
 30
0.0
 10
60.48418539991087
 20
27.66599055902583
 30
0.0
 10
60.53012127304312
 20
27.65049825667947
 30
0.0
 10
60.55305371498952
 20
27.64276407639838
 30
0.0
  0
SPLINE
  5
D3
330
1F
100
AcDbEntity
  8
0
  6
Continuous
 62
     7
370
    25
100
AcDbSpline
210
0.0
220
0.0
230
1.0
 70
     8
 71
     3
 72
    15
 73
    11
 74
     0
 42
0.000000001
 43
0.00000001
 40
0.0
 40
0.0
 40
0.0
 40
0.0
 40
0.1242105454247704
 40
0.2439784061594682
 40
0.361131592904448
 40
0.4795822493707376
 40
0.600264115014172
 40
0.7254208927559062
 40
0.8584975931303527
 40
1.0
 40
1.0
 40
1.0
 40
1.0
 10
60.28021717652798
 20
28.15558458921889
 30
0.0
 10
60.29013841565579
 20
28.13701113347989
 30
0.0
 10
60.30962603726837
 20
28.10052854568851
 30
0.0
 10
60.32865514507508
 20
28.04213035778789
 30
0.0
 10
60.33974971087106
 20
27.98286959281934
 30
0.0
 10
60.34231594345002
 20
27.9223699032724
 30
0.0
 10
60.33509322477256
 20
27.86090464078926
 30
0.0
 10
60.3194008397935
 20
27.79860281436529
 30
0.0
 10
60.29592603697212
 20
27.73492695908455
 30
0.0
 10
60.27392635327435
 20
27.69393636629313
 30
0.0
 10
60.26258897139977
 20
27.67281215332146
 30
0.0
  0
SPLINE
  5
D4
330
1F
100
AcDbEntity
  8
0
  6
Continuous
 62
     7
370
    25
100
AcDbSpline
210
0.0
220
0.0
230
1.0
 70
     8
 71
     3
 72
    19
 73
    15
 74
     0
 42
0.000000001
 43
0.00000001
 40
0.0
 40
0.0
 40
0.0
 40
0.0
 40
0.0895167400715858
 40
0.1773824364258328
 40
0.2650886758186742
 40
0.3534136836995491
 40
0.4408889443037026
 40
0.5246250034953633
 40
0.6070486876610646
 40
0.6892970473032739
 40
0.7700032014525421
 40
0.8477273803995541
 40
0.923859381085146
 40
1.0
 40
1.0
 40
1.0
 40
1.0
 10
59.52420756114336
 20
28.31544035844966
 30
0.0
 10
59.54676099270557
 20
28.32754582707017
 30
0.0
 10
59.59145188110331
 20
28.35153349145858
 30
0.0
 10
59.6632239019448
 20
28.37645973102295
 30
0.0
 10
59.73685514598609
 20
28.39323895085874
 30
0.0
 10
59.81197809961127
 20
28.40011942983398
 30
0.0
 10
59.88625054156301
 20
28.39889582001488
 30
0.0
 10
59.95808352849172
 20
28.38801232879376
 30
0.0
 10
60.02635573454003
 20
28.36792160107603
 30
0.0
 10
60.09026346626479
 20
28.33864488074691
 30
0.0
 10
60.14858488420662
 20
28.30189393952722
 30
0.0
 10
60.20028251268579
 20
28.25910156548483
 30
0.0
 10
60.24543782307903
 20
28.21091514020579
 30
0.0
 10
60.26862362129329
 20
28.17402880210439
 30
0.0
 10
60.28021717652798
 20
28.15558458921889
 30
0.0
  0
SPLINE
  5
D5
330
1F
100
AcDbEntity
  8
0
  6
Continuous
 62
     7
370
    25
100
AcDbSpline
210
0.0
220
0.0
230
1.0
 70
     8
 71
     3
 72
    23
 73
    19
 74
     0
 42
0.000000001
 43
0.00000001
 40
0.0
 40
0.0
 40
0.0
 40
0.0
 40
0.0729609930162067
 40
0.1433311180329259
 40
0.2109700859339602
 40
0.2762068597424321
 40
0.3394872283090505
 40
0.4013263635807447
 40
0.4625296365590468
 40
0.5233089730042774
 40
0.5834523609452176
 40
0.6423638086719395
 40
0.7005174356288075
 40
0.7590683331798082
 40
0.8175373240070818
 40
0.8770548221953101
 40
0.9373924692431809
 40
1.0
 40
1.0
 40
1.0
 40
1.0
 10
59.27380692011772
 20
27.57705894819325
 30
0.0
 10
59.26804791497188
 20
27.59688591006022
 30
0.0
 10
59.25673440877924
 20
27.63583577209071
 30
0.0
 10
59.24491449583174
 20
27.6943855205767
 30
0.0
 10
59.23692557047061
 20
27.75138387583135
 30
0.0
 10
59.23444570884951
 20
27.80685845122268
 30
0.0
 10
59.23504995690806
 20
27.86078360449554
 30
0.0
 10
59.24199951162006
 20
27.91310941333636
 30
0.0
 10
59.25201235166546
 20
27.96419333823685
 30
0.0
 10
59.26749685639521
 20
28.01342428911344
 30
0.0
 10
59.28659529155903
 20
28.06062782716653
 30
0.0
 10
59.3095127472628
 20
28.10528435664003
 30
0.0
 10
59.33610131309462
 20
28.14733888526128
 30
0.0
 10
59.36665130875677
 20
28.18642653300678
 30
0.0
 10
59.40039603578446
 20
28.22333879729639
 30
0.0
 10
59.43826427984591
 20
28.25676010920289
 30
0.0
 10
59.47935899174469
 20
28.28811156154719
 30
0.0
 10
59.50907515909009
 20
28.30621932090252
 30
0.0
 10
59.52420756114336
 20
28.31544035844966
 30
0.0
  0
LINE
  5
D6
330
1F
100
AcDbEntity
  8
0
  6
Continuous
 62
     7
370
    25
100
AcDbLine
 10
59.4504896124
 20
27.6792224097
 30
0.0
 11
59.2738069201
 21
27.5770589482
 31
0.0
  0
SPLINE
  5
D7
330
1F
100
AcDbEntity
  8
0
  6
Continuous
 62
     7
370
    25
100
AcDbSpline
210
0.0
220
0.0
230
1.0
 70
     8
 71
     3
 72
    31
 73
    27
 74
     0
 42
0.000000001
 43
0.00000001
 40
0.0
 40
0.0
 40
0.0
 40
0.0
 40
0.0336454959535058
 40
0.0668061893677439
 40
0.0994548521133313
 40
0.1319880772579627
 40
0.1641940984622829
 40
0.1966631542066579
 40
0.2295563983366922
 40
0.2630764713646239
 40
0.2968880710266261
 40
0.3311645351872032
 40
0.3659854800217485
 40
0.4016729202028079
 40
0.4385106255368216
 40
0.476678637821926
 40
0.5160999820396
 40
0.5571674626939
 40
0.6005637374573588
 40
0.6468765278579348
 40
0.6968748465194767
 40
0.7501172287949801
 40
0.8069138714359886
 40
0.8675972931201279
 40
0.9317765500416318
 40
1.0
 40
1.0
 40
1.0
 40
1.0
 10
62.04041554762046
 20
27.2776094211899
 30
0.0
 10
62.02662321400256
 20
27.27007840052072
 30
0.0
 10
61.99923728238264
 20
27.25512487468615
 30
0.0
 10
61.95676750469367
 20
27.23613740101383
 30
0.0
 10
61.91319584390489
 20
27.22150795270132
 30
0.0
 10
61.86925512964398
 20
27.20957853718346
 30
0.0
 10
61.82440659818365
 20
27.20220945352023
 30
0.0
 10
61.77903960532731
 20
27.19761255356592
 30
0.0
 10
61.73282101682291
 20
27.19693841726631
 30
0.0
 10
61.68603568082622
 20
27.19956814471572
 30
0.0
 10
61.63907419445714
 20
27.2066498737104
 30
0.0
 10
61.59203142173119
 20
27.21675885694926
 30
0.0
 10
61.54547806294724
 20
27.23203089649623
 30
0.0
 10
61.49879491789822
 20
27.25037526673582
 30
0.0
 10
61.45226364600058
 20
27.27299662687129
 30
0.0
 10
61.40576258464783
 20
27.29940175132536
 30
0.0
 10
61.35962514323747
 20
27.33014592472633
 30
0.0
 10
61.31313919597718
 20
27.36464440376653
 30
0.0
 10
61.26695544486695
 20
27.40468132523708
 30
0.0
 10
61.22024570053449
 20
27.45027110558635
 30
0.0
 10
61.17311828158695
 20
27.50186743111593
 30
0.0
 10
61.12592405027824
 20
27.55984933539325
 30
0.0
 10
61.07811346730917
 20
27.62367604034202
 30
0.0
 10
61.03039184377655
 20
27.69383055028707
 30
0.0
 10
60.98157523980332
 20
27.76966165545642
 30
0.0
 10
60.95034021798536
 20
27.82302792588105
 30
0.0
 10
60.93424567582559
 20
27.85052608785657
 30
0.0
  0
SPLINE
  5
D8
330
1F
100
AcDbEntity
  8
0
  6
Continuous
 62
     7
370
    25
100
AcDbSpline
210
0.0
220
0.0
230
1.0
 70
     8
 71
     3
 72
    31
 73
    27
 74
     0
 42
0.000000001
 43
0.00000001
 40
0.0
 40
0.0
 40
0.0
 40
0.0
 40
0.0649405108784214
 40
0.126653132129892
 40
0.185208432931656
 40
0.2403085388748918
 40
0.2925800096996111
 40
0.3416115108261806
 40
0.3880909933565703
 40
0.4319205461414108
 40
0.4736192819603647
 40
0.5139981514266289
 40
0.5526138189906175
 40
0.5901970665880706
 40
0.6269782262858692
 40
0.6627922992646668
 40
0.6979017493416805
 40
0.7325396930703039
 40
0.7668209269351601
 40
0.8003196689017155
 40
0.833556315766656
 40
0.8664173676831504
 40
0.8993409082799471
 40
0.9325387301079189
 40
0.9658129455270054
 40
1.0
 40
1.0
 40
1.0
 40
1.0
 10
62.11573606044098
 20
28.53281775452324
 30
0.0
 10
62.13069972021899
 20
28.50618607848509
 30
0.0
 10
62.15988326610394
 20
28.45424646269712
 30
0.0
 10
62.20022403876751
 20
28.37699673022151
 30
0.0
 10
62.23487476711909
 20
28.30211250595496
 30
0.0
 10
62.26529283221797
 20
28.23020848178707
 30
0.0
 10
62.29044582683106
 20
28.16104053611432
 30
0.0
 10
62.31119156744746
 20
28.0946583647392
 30
0.0
 10
62.32686841937142
 20
28.03097500625405
 30
0.0
 10
62.3378943278879
 20
27.96980820075563
 30
0.0
 10
62.34402843201559
 20
27.91087575503801
 30
0.0
 10
62.34767560819012
 20
27.85417650359421
 30
0.0
 10
62.34655025155773
 20
27.79931114981357
 30
0.0
 10
62.342944575512
 20
27.74624370521211
 30
0.0
 10
62.33466753607785
 20
27.69502480224608
 30
0.0
 10
62.32363187248609
 20
27.64554251022542
 30
0.0
 10
62.30877542276052
 20
27.59809023675292
 30
0.0
 10
62.29021856477112
 20
27.55276298599553
 30
0.0
 10
62.26876818058552
 20
27.50956272178547
 30
0.0
 10
62.24397200785588
 20
27.46898051178936
 30
0.0
 10
62.21734995566199
 20
27.43039399898817
 30
0.0
 10
62.1876113489994
 20
27.39443471666272
 30
0.0
 10
62.15438727017864
 20
27.36174473819451
 30
0.0
 10
62.11931631558873
 20
27.33079396398678
 30
0.0
 10
62.08135843048389
 20
27.30234913431146
 30
0.0
 10
62.05418573591896
 20
27.28593004944833
 30
0.0
 10
62.04041554762046
 20
27.2776094211899
 30
0.0
  0
SPLINE
  5
D9
330
1F
100
AcDbEntity
  8
0
  6
Continuous
 62
     7
370
    25
100
AcDbSpline
210
0.0
220
0.0
230
1.0
 70
     8
 71
     3
 72
    31
 73
    27
 74
     0
 42
0.000000001
 43
0.00000001
 40
0.0
 40
0.0
 40
0.0
 40
0.0
 40
0.0339950448126718
 40
0.0673947171980934
 40
0.1004896505027091
 40
0.1330221893437305
 40
0.1658426432595987
 40
0.1986017894409937
 40
0.2320676034283163
 40
0.2658705105943631
 40
0.3001997943085081
 40
0.3353553484150752
 40
0.3709642920596512
 40
0.4074069001705485
 40
0.4452012950221236
 40
0.4839267413422292
 40
0.524357791481951
 40
0.5663267935249849
 40
0.6102221464991016
 40
0.6571575539644638
 40
0.7065097690990741
 40
0.7590464082298738
 40
0.814286854932211
 40
0.8728983502737807
 40
0.9348824198378298
 40
1.0
 40
1.0
 40
1.0
 40
1.0
 10
60.9899347783897
 20
29.09611903657452
 30
0.0
 10
61.00397228893007
 20
29.1038369308414
 30
0.0
 10
61.03180146398329
 20
29.11913755198625
 30
0.0
 10
61.0753793003459
 20
29.13774531524449
 30
0.0
 10
61.11927034408404
 20
29.1536226855171
 30
0.0
 10
61.16421929345854
 20
29.16526149347161
 30
0.0
 10
61.20977698355338
 20
29.17323286062045
 30
0.0
 10
61.25625796776672
 20
29.17768397515541
 30
0.0
 10
61.30341039553668
 20
29.17845280089623
 30
0.0
 10
61.35120880534576
 20
29.17556983166337
 30
0.0
 10
61.39950150646874
 20
29.16931657499623
 30
0.0
 10
61.44785841849377
 20
29.15842110113748
 30
0.0
 10
61.49606460285786
 20
29.14331445231212
 30
0.0
 10
61.54454612221734
 20
29.12510275601402
 30
0.0
 10
61.59232680263207
 20
29.10156071052153
 30
0.0
 10
61.6403197898659
 20
29.07450992075827
 30
0.0
 10
61.68845325044519
 20
29.04380828951
 30
0.0
 10
61.73615011404144
 20
29.00821170772653
 30
0.0
 10
61.78439031032735
 20
28.96834774069715
 30
0.0
 10
61.83212314404847
 20
28.92266516575932
 30
0.0
 10
61.88006681133785
 20
28.8714954155895
 30
0.0
 10
61.92750208007695
 20
28.8146463508771
 30
0.0
 10
61.97478950243123
 20
28.752141410319
 30
0.0
 10
62.0226431188593
 20
28.68452971640271
 30
0.0
 10
62.06966106398539
 20
28.61074353331709
 30
0.0
 10
62.10012736053665
 20
28.55921645641303
 30
0.0
 10
62.11573606044098
 20
28.53281775452324
 30
0.0
  0
SPLINE
  5
DA
330
1F
100
AcDbEntity
  8
0
  6
Continuous
 62
     7
370
    25
100
AcDbSpline
210
0.0
220
0.0
230
1.0
 70
     8
 71
     3
 72
    31
 73
    27
 74
     0
 42
0.000000001
 43
0.00000001
 40
0.0
 40
0.0
 40
0.0
 40
0.0
 40
0.0684257301809696
 40
0.133078045707295
 40
0.1938999893094366
 40
0.2508424588443159
 40
0.3040062327028832
 40
0.3535151699365257
 40
0.3995944435228867
 40
0.4426248176767026
 40
0.4831971491225833
 40
0.5224017257989386
 40
0.5601112408004739
 40
0.5967683221327201
 40
0.6325636909717396
 40
0.6674234486983375
 40
0.7018485540728233
 40
0.73595929008855
 40
0.7696886735238033
 40
0.8027595434531145
 40
0.8355715158028184
 40
0.8680158003674369
 40
0.900339117782649
 40
0.9331535773010017
 40
0.9662355504268413
 40
0.9999999999999999
 40
0.9999999999999999
 40
0.9999999999999999
 40
0.9999999999999999
 10
60.93424567582559
 20
27.85052608785657
 30
0.0
 10
60.91841406424476
 20
27.87832480596462
 30
0.0
 10
60.88762389329587
 20
27.93238925027824
 30
0.0
 10
60.84617741987599
 20
28.01302507948563
 30
0.0
 10
60.80907653265058
 20
28.08982137132702
 30
0.0
 10
60.77734596722957
 20
28.16318155515171
 30
0.0
 10
60.75069602267661
 20
28.23291114028704
 30
0.0
 10
60.7294602193282
 20
28.2991542704679
 30
0.0
 10
60.71263078080683
 20
28.36177675157321
 30
0.0
 10
60.70141012686039
 20
28.42140955445013
 30
0.0
 10
60.69453506905894
 20
28.47844454889616
 30
0.0
 10
60.6913997234147
 20
28.53330496400787
 30
0.0
 10
60.69119931927546
 20
28.58643145110997
 30
0.0
 10
60.69480954167799
 20
28.63785102175925
 30
0.0
 10
60.70194756560766
 20
28.68755337817274
 30
0.0
 10
60.71279253364023
 20
28.73552154219463
 30
0.0
 10
60.72732539192228
 20
28.78167228019968
 30
0.0
 10
60.74492833451663
 20
28.82615475218808
 30
0.0
 10
60.76553283179807
 20
28.86867350047785
 30
0.0
 10
60.79002366341443
 20
28.90832867447701
 30
0.0
 10
60.81614270873864
 20
28.94620857778614
 30
0.0
 10
60.84571522743114
 20
28.98101137006503
 30
0.0
 10
60.87740653751241
 20
29.0138931630449
 30
0.0
 10
60.91241727732281
 20
29.04367505574339
 30
0.0
 10
60.94970516294076
 20
29.071701224985
 30
0.0
 10
60.9764339430277
 20
29.08792455471105
 30
0.0
 10
60.9899347783897
 20
29.09611903657452
 30
0.0
  0
LINE
  5
DB
330
1F
100
AcDbEntity
  8
0
  6
Continuous
 62
     7
370
    25
100
AcDbLine
 10
63.2562787219
 20
28.7075085764
 30
0.0
 11
62.8396120552
 21
29.4290630635
 31
0.0
  0
LINE
  5
DC
330
1F
100
AcDbEntity
  8
0
  6
Continuous
 62
     7
370
    25
100
AcDbLine
 10
62.8396120552
 20
29.4290630635
 30
0.0
 11
62.7466633373
 21
28.4130374225
 31
0.0
  0
LINE
  5
DD
330
1F
100
AcDbEntity
  8
0
  6
Continuous
 62
     7
370
    25
100
AcDbLine
 10
62.7466633373
 20
28.4130374225
 30
0.0
 11
63.2562787219
 21
28.7075085764
 31
0.0
  0
SPLINE
  5
DE
330
1F
100
AcDbEntity
  8
0
  6
Continuous
 62
     7
370
    25
100
AcDbSpline
210
0.0
220
0.0
230
1.0
 70
     8
 71
     3
 72
    27
 73
    23
 74
     0
 42
0.000000001
 43
0.00000001
 40
0.0
 40
0.0
 40
0.0
 40
0.0
 40
0.0593292303258796
 40
0.1182404270477361
 40
0.1792014033712483
 40
0.2433956689168404
 40
0.2764899414798794
 40
0.3100835429170464
 40
0.3442473001829791
 40
0.3794554532768048
 40
0.4158980793336967
 40
0.4534222192089831
 40
0.4922161219929367
 40
0.5327160579953073
 40
0.5759425118312825
 40
0.6233043329318492
 40
0.6749793574095712
 40
0.7309686931381825
 40
0.791501417047956
 40
0.8561811647926614
 40
0.9258742620821351
 40
1.0
 40
1.0
 40
1.0
 40
1.0
 10
61.09129695787688
 20
28.93506134426683
 30
0.0
 10
61.07276473820914
 20
28.92315371387246
 30
0.0
 10
61.03583087684571
 20
28.89942235421681
 30
0.0
 10
60.98894547021261
 20
28.8517936393695
 30
0.0
 10
60.94876158374216
 20
28.79644386398172
 30
0.0
 10
60.92276850610391
 20
28.74365266926041
 30
0.0
 10
60.9054763402825
 20
28.69832174348967
 30
0.0
 10
60.89619547131763
 20
28.66208886183038
 30
0.0
 10
60.8888064003434
 20
28.62467061048905
 30
0.0
 10
60.88431052529413
 20
28.58568267766254
 30
0.0
 10
60.88348243598884
 20
28.54523879078943
 30
0.0
 10
60.88434960847846
 20
28.50345920995578
 30
0.0
 10
60.88921782656286
 20
28.46044177877601
 30
0.0
 10
60.89579002076655
 20
28.41553751626283
 30
0.0
 10
60.9064419471226
 20
28.36812915132647
 30
0.0
 10
60.92141963723253
 20
28.31759067196001
 30
0.0
 10
60.94088695799222
 20
28.26356659052099
 30
0.0
 10
60.96411551522728
 20
28.20576300772781
 30
0.0
 10
60.99186823937566
 20
28.14465419594292
 30
0.0
 10
61.02374625895445
 20
28.07989909511686
 30
0.0
 10
61.05960002320587
 20
28.01150676788198
 30
0.0
 10
61.0860683604525
 20
27.96529145714252
 30
0.0
 10
61.09971041941534
 20
27.94147160067708
 30
0.0
  0
SPLINE
  5
DF
330
1F
100
AcDbEntity
  8
0
  6
Continuous
 62
     7
370
    25
100
AcDbSpline
210
0.0
220
0.0
230
1.0
 70
     8
 71
     3
 72
    27
 73
    23
 74
     0
 42
0.000000001
 43
0.00000001
 40
0.0
 40
0.0
 40
0.0
 40
0.0
 40
0.0663761225369528
 40
0.1298706752245191
 40
0.1901543770972346
 40
0.2477046404488027
 40
0.3026252319514871
 40
0.3545558245485417
 40
0.4040852554866611
 40
0.4511035046020919
 40
0.4959900448391388
 40
0.5385941188655637
 40
0.5788559835951628
 40
0.6176403260715041
 40
0.6549602536194784
 40
0.690371487907321
 40
0.7247915445284058
 40
0.7585056600941754
 40
0.8225113834632437
 40
0.8830809066995243
 40
0.9418515002100257
 40
1.0
 40
1.0
 40
1.0
 40
1.0
 10
61.95547965018456
 20
28.43586262631811
 30
0.0
 10
61.94309108360132
 20
28.45706408367291
 30
0.0
 10
61.91885177214812
 20
28.49854658486721
 30
0.0
 10
61.88058888987064
 20
28.55758564932907
 30
0.0
 10
61.84307587881519
 20
28.61319539394006
 30
0.0
 10
61.80502800940264
 20
28.6645711913695
 30
0.0
 10
61.76652252177166
 20
28.7116543467667
 30
0.0
 10
61.72853058011759
 20
28.75530074864202
 30
0.0
 10
61.69004346460117
 20
28.79452524102369
 30
0.0
 10
61.65149429462598
 20
28.82993144869771
 30
0.0
 10
61.61303519857446
 20
28.86152549804128
 30
0.0
 10
61.57510827054592
 20
28.88977081148512
 30
0.0
 10
61.53708509281904
 20
28.91389146575272
 30
0.0
 10
61.499498424494
 20
28.93493830281627
 30
0.0
 10
61.46191833696555
 20
28.95204724641005
 30
0.0
 10
61.42476547014178
 20
28.96595849888068
 30
0.0
 10
61.38775488247893
 20
28.97607375915992
 30
0.0
 10
61.33952147036357
 20
28.98429637916031
 30
0.0
 10
61.28083474375632
 20
28.98768091576255
 30
0.0
 10
61.21306718308249
 20
28.98150087712051
 30
0.0
 10
61.14913265532618
 20
28.96450367624085
 30
0.0
 10
61.11050701829763
 20
28.94484058098555
 30
0.0
 10
61.09129695787688
 20
28.93506134426683
 30
0.0
  0
SPLINE
  5
E0
330
1F
100
AcDbEntity
  8
0
  6
Continuous
 62
     7
370
    25
100
AcDbSpline
210
0.0
220
0.0
230
1.0
 70
     8
 71
     3
 72
    19
 73
    15
 74
     0
 42
0.000000001
 43
0.00000001
 40
0.0
 40
0.0
 40
0.0
 40
0.0
 40
0.11190719343979
 40
0.2225480018728375
 40
0.3365832845264887
 40
0.4555385087741075
 40
0.5170876437384416
 40
0.5799756067239379
 40
0.6442897159047881
 40
0.7106263615116052
 40
0.7786677120021299
 40
0.8494688778532022
 40
0.9233909709940035
 40
1.0
 40
1.0
 40
1.0
 40
1.0
 10
61.95588029121021
 20
27.43786583144632
 30
0.0
 10
61.97438523742203
 20
27.44979828892257
 30
0.0
 10
62.01118572072985
 20
27.47352817157932
 30
0.0
 10
62.05829986726422
 20
27.52056001319473
 30
0.0
 10
62.09767474841005
 20
27.57559930383571
 30
0.0
 10
62.12399951306763
 20
27.62739349581655
 30
0.0
 10
62.14024017006562
 20
27.67236098365658
 30
0.0
 10
62.15050166747644
 20
27.70802200563531
 30
0.0
 10
62.15707947127574
 20
27.74549213492086
 30
0.0
 10
62.161263760171
 20
27.78431732203997
 30
0.0
 10
62.16170003037645
 20
27.82463228677154
 30
0.0
 10
62.16033373918668
 20
27.86639787593382
 30
0.0
 10
62.15541576353986
 20
27.90962297078808
 30
0.0
 10
62.15009471520236
 20
27.9386952341354
 30
0.0
 10
62.14738670146662
 20
27.95349083144632
 30
0.0
  0
SPLINE
  5
E1
330
1F
100
AcDbEntity
  8
0
  6
Continuous
 62
     7
370
    25
100
AcDbSpline
210
0.0
220
0.0
230
1.0
 70
     8
 71
     3
 72
    27
 73
    23
 74
     0
 42
0.000000001
 43
0.00000001
 40
0.0
 40
0.0
 40
0.0
 40
0.0
 40
0.0737614008206083
 40
0.1428343052085164
 40
0.2075809484773593
 40
0.2678540571918489
 40
0.3236449465211944
 40
0.3750693914371048
 40
0.4222863347144217
 40
0.4656860447939371
 40
0.5062033097640232
 40
0.5452529151892669
 40
0.583002336656432
 40
0.619317441385985
 40
0.65437765649421
 40
0.689182586684851
 40
0.7230491035711442
 40
0.7563867717042346
 40
0.821073065761615
 40
0.8819992578406555
 40
0.9410812706387877
 40
1.0
 40
1.0
 40
1.0
 40
1.0
 10
61.09971041941534
 20
27.94147160067708
 30
0.0
 10
61.11345895023006
 20
27.91788309554701
 30
0.0
 10
61.14008211389984
 20
27.87220544160229
 30
0.0
 10
61.18106820086588
 20
27.80719923097097
 30
0.0
 10
61.22113349244459
 20
27.747563073189
 30
0.0
 10
61.25980316822275
 20
27.6929292596691
 30
0.0
 10
61.29780139631494
 20
27.64391190679505
 30
0.0
 10
61.33516555086204
 20
27.60063069210781
 30
0.0
 10
61.37115155669256
 20
27.5622702946015
 30
0.0
 10
61.40665711895273
 20
27.52911822441381
 30
0.0
 10
61.44195537343222
 20
27.5003419664896
 30
0.0
 10
61.47723778340364
 20
27.47497658186704
 30
0.0
 10
61.51288993656809
 20
27.45296933282516
 30
0.0
 10
61.54859248457399
 20
27.43400644865803
 30
0.0
 10
61.58463388181679
 20
27.41826582528267
 30
0.0
 10
61.6208238262684
 20
27.40528826229868
 30
0.0
 10
61.6575335867365
 20
27.39624848934048
 30
0.0
 10
61.70561079256024
 20
27.38763786919356
 30
0.0
 10
61.76464855773266
 20
27.384341009073
 30
0.0
 10
61.83286745257057
 20
27.39115627546797
 30
0.0
 10
61.89742609087816
 20
27.40799590874241
 30
0.0
 10
61.93641354071752
 20
27.42791837977972
 30
0.0
 10
61.95588029121021
 20
27.43786583144632
 30
0.0
  0
SPLINE
  5
E2
330
1F
100
AcDbEntity
  8
0
  6
Continuous
 62
     7
370
    25
100
AcDbSpline
210
0.0
220
0.0
230
1.0
 70
     8
 71
     3
 72
    15
 73
    11
 74
     0
 42
0.000000001
 43
0.00000001
 40
0.0
 40
0.0
 40
0.0
 40
0.0
 40
0.1099846140738844
 40
0.2238443135472953
 40
0.3416645312227515
 40
0.4646574579827515
 40
0.5906390018519554
 40
0.7219234699877928
 40
0.8583134771985054
 40
1.0
 40
1.0
 40
1.0
 40
1.0
 10
62.14738670146662
 20
27.95349083144632
 30
0.0
 10
62.1436045929656
 20
27.97223999772299
 30
0.0
 10
62.135907121021
 20
28.01039891922422
 30
0.0
 10
62.11990371539945
 20
28.06764535668302
 30
0.0
 10
62.1010931612258
 20
28.12637715722303
 30
0.0
 10
62.07874351218834
 20
28.18613155848067
 30
0.0
 10
62.05276229763889
 20
28.24693598756422
 30
0.0
 10
62.02402035018515
 20
28.30905787269252
 30
0.0
 10
61.99156422995001
 20
28.37242450494201
 30
0.0
 10
61.96765961361739
 20
28.41444976787192
 30
0.0
 10
61.95547965018456
 20
28.43586262631811
 30
0.0
  0
LINE
  5
E3
330
1F
100
AcDbEntity
  8
0
  6
Continuous
 62
     7
370
    25
100
AcDbLine
 10
61.3430820915
 20
26.2263208121
 30
0.0
 11
61.6828256813
 21
25.6377791455
 31
0.0
  0
LINE
  5
E4
330
1F
100
AcDbEntity
  8
0
  6
Continuous
 62
     7
370
    25
100
AcDbLine
 10
61.6487711941
 20
26.4026028634
 30
0.0
 11
61.3430820915
 21
26.2263208121
 31
0.0
  0
LINE
  5
E5
330
1F
100
AcDbEntity
  8
0
  6
Continuous
 62
     7
370
    25
100
AcDbLine
 10
61.6828256813
 20
25.6377791455
 30
0.0
 11
61.9780981172
 21
25.803243889
 31
0.0
  0
SPLINE
  5
E6
330
1F
100
AcDbEntity
  8
0
  6
Continuous
 62
     7
370
    25
100
AcDbSpline
210
0.0
220
0.0
230
1.0
 70
     8
 71
     3
 72
    23
 73
    19
 74
     0
 42
0.000000001
 43
0.00000001
 40
0.0
 40
0.0
 40
0.0
 40
0.0
 40
0.0726650988704533
 40
0.1432791835201251
 40
0.2141492063059417
 40
0.2864034591881084
 40
0.3580746850496254
 40
0.4274852584225196
 40
0.4955995541135628
 40
0.5653878306507093
 40
0.6026512098767123
 40
0.644881537290699
 40
0.691163612621144
 40
0.7425540665786063
 40
0.7995929580214058
 40
0.8613450079470679
 40
0.9281274466669558
 40
1.0
 40
1.0
 40
1.0
 40
1.0
 10
62.24171991203134
 20
26.35452594033018
 30
0.0
 10
62.23288367091223
 20
26.36842199092198
 30
0.0
 10
62.21546059666321
 20
26.39582186808306
 30
0.0
 10
62.18282117933254
 20
26.43199344949806
 30
0.0
 10
62.14517559434746
 20
26.46262625060153
 30
0.0
 10
62.10333700706841
 20
26.48771343732302
 30
0.0
 10
62.058689314006
 20
26.50648974931654
 30
0.0
 10
62.01266430065763
 20
26.51846025665467
 30
0.0
 10
61.96571316055426
 20
26.52234449850264
 30
0.0
 10
61.92597283478182
 20
26.51979240471151
 30
0.0
 10
61.89279199946034
 20
26.51324995026561
 30
0.0
 10
61.86532192096306
 20
26.50566503439284
 30
0.0
 10
61.83554706253653
 20
26.49485509788212
 30
0.0
 10
61.80288568272488
 20
26.48220346592016
 30
0.0
 10
61.7679490250623
 20
26.46594650023171
 30
0.0
 10
61.73017038011221
 20
26.44759615773837
 30
0.0
 10
61.69010680703566
 20
26.42630445618814
 30
0.0
 10
61.66288286788318
 20
26.41069441260609
 30
0.0
 10
61.64877119408261
 20
26.4026028634071
 30
0.0
  0
SPLINE
  5
E7
330
1F
100
AcDbEntity
  8
0
  6
Continuous
 62
     7
370
    25
100
AcDbSpline
210
0.0
220
0.0
230
1.0
 70
     8
 71
     3
 72
    23
 73
    19
 74
     0
 42
0.000000001
 43
0.00000001
 40
0.0
 40
0.0
 40
0.0
 40
0.0
 40
0.0713918962798021
 40
0.1375818375840157
 40
0.1989757648444549
 40
0.2557889034621066
 40
0.3073301432539901
 40
0.354982200535668
 40
0.3976724697156571
 40
0.4363999540212032
 40
0.5080022246883871
 40
0.5776882661332912
 40
0.6464766970873452
 40
0.7166520016022215
 40
0.7873809845268787
 40
0.8567603778518491
 40
0.9274893607765059
 40
1.0
 40
1.0
 40
1.0
 40
1.0
 10
61.97809811715954
 20
25.80324388904813
 30
0.0
 10
61.99247062673777
 20
25.81152205793857
 30
0.0
 10
62.02016839611366
 20
25.82747520874597
 30
0.0
 10
62.05888882204992
 20
25.85272723703596
 30
0.0
 10
62.09480857454022
 20
25.87606526769111
 30
0.0
 10
62.12673050722116
 20
25.89923582433804
 30
0.0
 10
62.15510096880861
 20
25.92180628469898
 30
0.0
 10
62.17970504178722
 20
25.94374251373133
 30
0.0
 10
62.20134950705798
 20
25.96452198229716
 30
0.0
 10
62.22456135156085
 20
25.99150575488355
 30
0.0
 10
62.24802119873257
 20
26.02626434504851
 30
0.0
 10
62.26994482582212
 20
26.07011495347179
 30
0.0
 10
62.2829399006587
 20
26.11705771213855
 30
0.0
 10
62.28941367699673
 20
26.1654675176524
 30
0.0
 10
62.28867169779545
 20
26.21451724080565
 30
0.0
 10
62.28040516177057
 20
26.26292954843742
 30
0.0
 10
62.26539783116971
 20
26.3102585194381
 30
0.0
 10
62.24967772882049
 20
26.33964828055237
 30
0.0
 10
62.24171991203134
 20
26.35452594033018
 30
0.0
  0
INSERT
  5
F3
330
1F
100
AcDbEntity
  8
0
  6
Continuous
 62
     7
370
    18
100
AcDbBlockReference
  2
SW_CENTERMARKSYMBOL_0
 10
62.1743603098
 20
26.6114432103
 30
0.0
  0
LINE
  5
F4
330
1F
100
AcDbEntity
  8
0
  6
Continuous
 62
     7
370
    25
100
AcDbLine
 10
43.3342512927
 20
43.78347336
 30
0.0
 11
43.47858886
 21
44.03347336
 31
0.0
  0
LINE
  5
F5
330
1F
100
AcDbEntity
  8
0
  6
Continuous
 62
     7
370
    25
100
AcDbLine
 10
43.47858886
 20
62.53347336
 30
0.0
 11
43.3342512927
 21
62.78347336
 31
0.0
  0
LINE
  5
F6
330
1F
100
AcDbEntity
  8
0
  6
Continuous
 62
     7
370
    25
100
AcDbLine
 10
36.6229264273
 20
62.78347336
 30
0.0
 11
36.47858886
 21
62.53347336
 31
0.0
  0
LINE
  5
F7
330
1F
100
AcDbEntity
  8
0
  6
Continuous
 62
     7
370
    25
100
AcDbLine
 10
36.47858886
 20
44.03347336
 30
0.0
 11
36.6229264273
 21
43.78347336
 31
0.0
  0
LINE
  5
F8
330
1F
100
AcDbEntity
  8
0
  6
Continuous
 62
     7
370
    25
100
AcDbLine
 10
36.47858886
 20
62.53347336
 30
0.0
 11
34.47858886
 21
62.53347336
 31
0.0
  0
LINE
  5
F9
330
1F
100
AcDbEntity
  8
0
  6
Continuous
 62
     7
370
    25
100
AcDbLine
 10
34.47858886
 20
44.03347336
 30
0.0
 11
36.47858886
 21
44.03347336
 31
0.0
  0
LINE
  5
FA
330
1F
100
AcDbEntity
  8
0
  6
Continuous
 62
     7
370
    25
100
AcDbLine
 10
22.97858886
 20
59.86197336
 30
0.0
 11
22.47858886
 21
59.36197336
 31
0.0
  0
LINE
  5
FB
330
1F
100
AcDbEntity
  8
0
  6
Continuous
 62
     7
370
    25
100
AcDbLine
 10
22.47858886
 20
47.20497336
 30
0.0
 11
22.97858886
 21
46.70497336
 31
0.0
  0
LINE
  5
FC
330
1F
100
AcDbEntity
  8
0
  6
Continuous
 62
     7
370
    25
100
AcDbLine
 10
31.97858886
 20
59.86197336
 30
0.0
 11
22.97858886
 21
59.86197336
 31
0.0
  0
LINE
  5
FD
330
1F
100
AcDbEntity
  8
0
  6
Continuous
 62
     7
370
    25
100
AcDbLine
 10
22.97858886
 20
46.70497336
 30
0.0
 11
31.97858886
 21
46.70497336
 31
0.0
  0
LINE
  5
FE
330
1F
100
AcDbEntity
  8
0
  6
Continuous
 62
     7
370
    25
100
AcDbLine
 10
31.97858886
 20
46.70497336
 30
0.0
 11
32.47858886
 21
47.20497336
 31
0.0
  0
LINE
  5
FF
330
1F
100
AcDbEntity
  8
0
  6
Continuous
 62
     7
370
    25
100
AcDbLine
 10
32.47858886
 20
59.36197336
 30
0.0
 11
31.97858886
 21
59.86197336
 31
0.0
  0
LINE
  5
100
330
1F
100
AcDbEntity
  8
0
  6
Continuous
 62
     7
370
    25
100
AcDbLine
 10
34.47858886
 20
58.78347336
 30
0.0
 11
32.47858886
 21
58.78347336
 31
0.0
  0
LINE
  5
101
330
1F
100
AcDbEntity
  8
0
  6
Continuous
 62
     7
370
    25
100
AcDbLine
 10
32.47858886
 20
47.78347336
 30
0.0
 11
34.47858886
 21
47.78347336
 31
0.0
  0
LINE
  5
102
330
1F
100
AcDbEntity
  8
0
  6
Continuous
 62
     7
370
    25
100
AcDbLine
 10
43.47983886
 20
51.4500828817
 30
0.0
 11
43.47858886
 21
51.4500828817
 31
0.0
  0
LINE
  5
103
330
1F
100
AcDbEntity
  8
0
  6
Continuous
 62
     7
370
    25
100
AcDbLine
 10
43.47983886
 20
53.6086313441
 30
0.0
 11
43.47858886
 21
53.6086313441
 31
0.0
  0
LINE
  5
104
330
1F
100
AcDbEntity
  8
0
  6
Continuous
 62
     7
370
    25
100
AcDbLine
 10
43.47858886
 20
62.53347336
 30
0.0
 11
43.47858886
 21
44.03347336
 31
0.0
  0
SPLINE
  5
105
330
1F
100
AcDbEntity
  8
0
  6
Continuous
 62
     7
370
    25
100
AcDbSpline
210
0.0
220
0.0
230
1.0
 70
    24
 71
     3
 72
    13
 73
     9
 74
     0
 42
0.000000001
 43
0.00000001
 40
0.0
 40
0.0
 40
0.0
 40
0.0
 40
0.1012181722458069
 40
0.2308893485880811
 40
0.4217657324397598
 40
0.6132928082971857
 40
0.8064438714299885
 40
1.0
 40
1.0
 40
1.0
 40
1.0
 10
43.33153227638944
 20
43.78347336002226
 30
0.0
 10
43.33073694739707
 20
43.78347336002226
 30
0.0
 10
43.32892271790757
 20
43.78347336002226
 30
0.0
 10
43.28215021387979
 20
43.78347336002226
 30
0.0
 10
43.18054748799577
 20
43.78347336002226
 30
0.0
 10
43.00280108825748
 20
43.78347336002227
 30
0.0
 10
42.77325052309209
 20
43.78347336002226
 30
0.0
 10
42.58164741854936
 20
43.78347336002226
 30
0.0
 10
42.48574551671509
 20
43.78347336002226
 30
0.0
  0
SPLINE
  5
106
330
1F
100
AcDbEntity
  8
0
  6
Continuous
 62
     7
370
    25
100
AcDbSpline
210
0.0
220
0.0
230
1.0
 70
     8
 71
     3
 72
    16
 73
    12
 74
     0
 42
0.000000001
 43
0.00000001
 40
0.0
 40
0.0
 40
0.0
 40
0.0
 40
0.25
 40
0.25
 40
0.5
 40
0.5
 40
0.625
 40
0.625
 40
0.75
 40
0.75
 40
1.0
 40
1.0
 40
1.0
 40
1.0
 10
42.48574551671546
 20
43.78347336002222
 30
0.0
 10
42.74427379219781
 20
44.55905818646925
 30
0.0
 10
42.95734793894046
 20
45.34029766275795
 30
0.0
 10
43.25252482572733
 20
46.91906990847912
 30
0.0
 10
43.33365390386993
 20
47.71672380479864
 30
0.0
 10
43.33454498011702
 20
48.92823290057415
 30
0.0
 10
43.31471206340037
 20
49.33396949514839
 30
0.0
 10
43.23737416276836
 20
50.13655926663007
 30
0.0
 10
43.17994766550399
 20
50.53516336739003
 30
0.0
 10
42.95819754753648
 20
51.72387906912449
 30
0.0
 10
42.74459606290581
 20
52.50692172145068
 30
0.0
 10
42.48574551671528
 20
53.28347336002228
 30
0.0
  0
SPLINE
  5
107
330
1F
100
AcDbEntity
  8
0
  6
Continuous
 62
     7
370
    25
100
AcDbSpline
210
0.0
220
0.0
230
1.0
 70
     8
 71
     3
 72
    16
 73
    12
 74
     0
 42
0.000000001
 43
0.00000001
 40
0.0
 40
0.0
 40
0.0
 40
0.0
 40
0.2500000000000001
 40
0.2500000000000001
 40
0.5
 40
0.5
 40
0.625
 40
0.625
 40
0.75
 40
0.75
 40
1.0
 40
1.0
 40
1.0
 40
1.0
 10
42.48574551671546
 20
53.28347336002222
 30
0.0
 10
42.74427379219781
 20
54.05905818646925
 30
0.0
 10
42.95734793894046
 20
54.84029766275795
 30
0.0
 10
43.25252482572733
 20
56.41906990847912
 30
0.0
 10
43.33365390386994
 20
57.21672380479864
 30
0.0
 10
43.33454498011702
 20
58.42823290057414
 30
0.0
 10
43.31471206340037
 20
58.83396949514838
 30
0.0
 10
43.23737416276836
 20
59.63655926663007
 30
0.0
 10
43.17994766550399
 20
60.03516336739003
 30
0.0
 10
42.95819754753648
 20
61.22387906912449
 30
0.0
 10
42.74459606290581
 20
62.00692172145068
 30
0.0
 10
42.48574551671528
 20
62.7834733600223
 30
0.0
  0
SPLINE
  5
108
330
1F
100
AcDbEntity
  8
0
  6
Continuous
 62
     7
370
    25
100
AcDbSpline
210
0.0
220
0.0
230
1.0
 70
    24
 71
     3
 72
    13
 73
     9
 74
     0
 42
0.000000001
 43
0.00000001
 40
0.0
 40
0.0
 40
0.0
 40
0.0
 40
0.1911671665198618
 40
0.3826865482043603
 40
0.5755845318927103
 40
0.7691088341066368
 40
0.8946245205239722
 40
1.0
 40
1.0
 40
1.0
 40
1.0
 10
42.48574551671509
 20
62.78347336002227
 30
0.0
 10
42.58050710893365
 20
62.78347336002227
 30
0.0
 10
42.77020488647901
 20
62.78347336002227
 30
0.0
 10
42.9995574518792
 20
62.78347336002227
 30
0.0
 10
43.17901508069678
 20
62.78347336002227
 30
0.0
 10
43.28115337265496
 20
62.78347336002227
 30
0.0
 10
43.32831894226824
 20
62.78347336002227
 30
0.0
 10
43.33101725546397
 20
62.78347336002227
 30
0.0
 10
43.33224872764126
 20
62.78347336002227
 30
0.0
  0
LINE
  5
109
330
1F
100
AcDbEntity
  8
0
  6
Continuous
 62
     7
370
    25
100
AcDbLine
 10
42.4857455167
 20
53.28347336
 30
0.0
 11
37.4714322034
 21
53.28347336
 31
0.0
  0
SPLINE
  5
10A
330
1F
100
AcDbEntity
  8
0
  6
Continuous
 62
     7
370
    25
100
AcDbSpline
210
0.0
220
0.0
230
1.0
 70
     8
 71
     3
 72
    16
 73
    12
 74
     0
 42
0.000000001
 43
0.00000001
 40
0.0
 40
0.0
 40
0.0
 40
0.0
 40
0.25
 40
0.25
 40
0.5
 40
0.5
 40
0.625
 40
0.625
 40
0.75
 40
0.75
 40
1.0
 40
1.0
 40
1.0
 40
1.0
 10
37.47143220337331
 20
62.78347336002231
 30
0.0
 10
37.21290392789097
 20
62.00788853357528
 30
0.0
 10
36.99982978114831
 20
61.22664905728658
 30
0.0
 10
36.70465289436144
 20
59.64787681156541
 30
0.0
 10
36.62352381621884
 20
58.85022291524589
 30
0.0
 10
36.62263273997176
 20
57.63871381947038
 30
0.0
 10
36.64246565668839
 20
57.23297722489615
 30
0.0
 10
36.71980355732041
 20
56.43038745341446
 30
0.0
 10
36.77723005458478
 20
56.0317833526545
 30
0.0
 10
36.99898017255229
 20
54.84306765092004
 30
0.0
 10
37.21258165718296
 20
54.06002499859385
 30
0.0
 10
37.47143220337349
 20
53.28347336002224
 30
0.0
  0
LINE
  5
10B
330
1F
100
AcDbEntity
  8
0
  6
Continuous
 62
     7
370
    25
100
AcDbLine
 10
42.4857455167
 20
62.78347336
 30
0.0
 11
37.4714322034
 21
62.78347336
 31
0.0
  0
LINE
  5
10C
330
1F
100
AcDbEntity
  8
0
  6
Continuous
 62
     7
370
    25
100
AcDbLine
 10
36.47858886
 20
44.03347336
 30
0.0
 11
36.47858886
 21
62.53347336
 31
0.0
  0
SPLINE
  5
10D
330
1F
100
AcDbEntity
  8
0
  6
Continuous
 62
     7
370
    25
100
AcDbSpline
210
0.0
220
0.0
230
1.0
 70
    24
 71
     3
 72
    13
 73
     9
 74
     0
 42
0.000000001
 43
0.00000001
 40
0.0
 40
0.0
 40
0.0
 40
0.0
 40
0.1023967459807529
 40
0.2320290330381795
 40
0.4226278046921794
 40
0.6138738596504755
 40
0.8067354182919292
 40
1.0
 40
1.0
 40
1.0
 40
1.0
 10
36.62555921376665
 20
62.78347336002227
 30
0.0
 10
36.62643156605147
 20
62.78347336002227
 30
0.0
 10
36.62840829934681
 20
62.78347336002227
 30
0.0
 10
36.67552319100928
 20
62.78347336002227
 30
0.0
 10
36.7773282475628
 20
62.78347336002227
 30
0.0
 10
36.95501881467243
 20
62.78347336002227
 30
0.0
 10
37.18434297185091
 20
62.78347336002227
 30
0.0
 10
37.37566922662787
 20
62.78347336002227
 30
0.0
 10
37.47143220337368
 20
62.78347336002227
 30
0.0
  0
SPLINE
  5
10E
330
1F
100
AcDbEntity
  8
0
  6
Continuous
 62
     7
370
    25
100
AcDbSpline
210
0.0
220
0.0
230
1.0
 70
     8
 71
     3
 72
    16
 73
    12
 74
     0
 42
0.000000001
 43
0.00000001
 40
0.0
 40
0.0
 40
0.0
 40
0.0
 40
0.2500000000000001
 40
0.2500000000000001
 40
0.5000000000000001
 40
0.5000000000000001
 40
0.6250000000000001
 40
0.6250000000000001
 40
0.7500000000000002
 40
0.7500000000000002
 40
1.0
 40
1.0
 40
1.0
 40
1.0
 10
37.47143220337331
 20
53.28347336002231
 30
0.0
 10
37.21290392789096
 20
52.50788853357528
 30
0.0
 10
36.99982978114831
 20
51.72664905728658
 30
0.0
 10
36.70465289436144
 20
50.14787681156541
 30
0.0
 10
36.62352381621884
 20
49.35022291524589
 30
0.0
 10
36.62263273997175
 20
48.13871381947038
 30
0.0
 10
36.64246565668839
 20
47.73297722489615
 30
0.0
 10
36.71980355732041
 20
46.93038745341446
 30
0.0
 10
36.77723005458478
 20
46.53178335265449
 30
0.0
 10
36.99898017255229
 20
45.34306765092004
 30
0.0
 10
37.21258165718296
 20
44.56002499859385
 30
0.0
 10
37.47143220337349
 20
43.78347336002223
 30
0.0
  0
SPLINE
  5
10F
330
1F
100
AcDbEntity
  8
0
  6
Continuous
 62
     7
370
    25
100
AcDbSpline
210
0.0
220
0.0
230
1.0
 70
    24
 71
     3
 72
    13
 73
     9
 74
     0
 42
0.000000001
 43
0.00000001
 40
0.0
 40
0.0
 40
0.0
 40
0.0
 40
0.1908878589994186
 40
0.3821262508974472
 40
0.5747362285154337
 40
0.7679691673681481
 40
0.8934469155008011
 40
1.0
 40
1.0
 40
1.0
 40
1.0
 10
37.47143220337368
 20
43.78347336002226
 30
0.0
 10
37.37680382087894
 20
43.78347336002226
 30
0.0
 10
37.18737328705272
 20
43.78347336002226
 30
0.0
 10
36.95824816179992
 20
43.78347336002226
 30
0.0
 10
36.77885614056811
 20
43.78347336002226
 30
0.0
 10
36.67652374091594
 20
43.78347336002226
 30
0.0
 10
36.62901176972439
 20
43.78347336002226
 30
0.0
 10
36.62614533778187
 20
43.78347336002226
 30
0.0
 10
36.62482901631926
 20
43.78347336002226
 30
0.0
  0
LINE
  5
110
330
1F
100
AcDbEntity
  8
0
  6
Continuous
 62
     7
370
    25
100
AcDbLine
 10
42.4857455167
 20
43.78347336
 30
0.0
 11
37.4714322034
 21
43.78347336
 31
0.0
  0
LINE
  5
111
330
1F
100
AcDbEntity
  8
0
  6
Continuous
 62
     7
370
    25
100
AcDbLine
 10
34.47858886
 20
44.03347336
 30
0.0
 11
34.47858886
 21
62.53347336
 31
0.0
  0
LINE
  5
112
330
1F
100
AcDbEntity
  8
0
  6
Continuous
 62
     7
370
    25
100
AcDbLine
 10
22.47858886
 20
47.20497336
 30
0.0
 11
22.47858886
 21
59.36197336
 31
0.0
  0
LINE
  5
113
330
1F
100
AcDbEntity
  8
0
  6
Continuous
 62
     7
370
    25
100
AcDbLine
 10
22.97858886
 20
59.86197336
 30
0.0
 11
22.97858886
 21
46.70497336
 31
0.0
  0
LINE
  5
114
330
1F
100
AcDbEntity
  8
0
  6
Continuous
 62
     7
370
    25
100
AcDbLine
 10
31.97858886
 20
46.70497336
 30
0.0
 11
31.97858886
 21
59.86197336
 31
0.0
  0
LINE
  5
115
330
1F
100
AcDbEntity
  8
0
  6
Continuous
 62
     7
370
    25
100
AcDbLine
 10
32.47858886
 20
59.36197336
 30
0.0
 11
32.47858886
 21
47.20497336
 31
0.0
  0
LINE
  5
116
330
1F
100
AcDbEntity
  8
0
  6
Continuous
 62
     7
370
    18
100
AcDbLine
 10
22.47858886
 20
59.00597336
 30
0.0
 11
32.47858886
 21
59.00597336
 31
0.0
  0
LINE
  5
117
330
1F
100
AcDbEntity
  8
0
  6
Continuous
 62
     7
370
    18
100
AcDbLine
 10
22.47858886
 20
47.56097336
 30
0.0
 11
32.47858886
 21
47.56097336
 31
0.0
  0
LINE
  5
118
330
1F
100
AcDbEntity
  8
0
  6
CENTERX2
 62
     7
370
    18
100
AcDbLine
 10
45.1652824684
 20
53.28347336
 30
0.0
 11
21.97858886
 21
53.28347336
 31
0.0
  0
ENDSEC
  0
SECTION
  2
OBJECTS
  0
DICTIONARY
  5
C
330
0
100
AcDbDictionary
281
     1
  3
ACAD_GROUP
350
D
  3
ACAD_LAYOUT
350
1A
  3
ACAD_MLINESTYLE
350
17
  3
ACAD_PLOTSETTINGS
350
19
  3
ACAD_PLOTSTYLENAME
350
E
  3
ACAD_SCALELIST
350
47
  0
DICTIONARY
  5
D
102
{ACAD_REACTORS
330
C
102
}
330
C
100
AcDbDictionary
281
     1
  0
DICTIONARY
  5
1A
102
{ACAD_REACTORS
330
C
102
}
330
C
100
AcDbDictionary
281
     1
  3
Layout1
350
1E
  3
Layout2
350
26
  3
Model
350
22
  0
DICTIONARY
  5
17
102
{ACAD_REACTORS
330
C
102
}
330
C
100
AcDbDictionary
281
     1
  3
Standard
350
18
  0
DICTIONARY
  5
19
102
{ACAD_REACTORS
330
C
102
}
330
C
100
AcDbDictionary
281
     1
  0
ACDBDICTIONARYWDFLT
  5
E
102
{ACAD_REACTORS
330
C
102
}
330
C
100
AcDbDictionary
281
     1
  3
Normal
350
F
100
AcDbDictionaryWithDefault
340
F
  0
DICTIONARY
  5
47
102
{ACAD_REACTORS
330
C
102
}
330
C
100
AcDbDictionary
281
     1
  3
A0
350
48
  3
A1
350
49
  3
A2
350
4A
  3
A3
350
4B
  3
A4
350
4C
  3
A5
350
4D
  3
A6
350
4E
  3
A7
350
4F
  3
A8
350
50
  3
A9
350
51
  3
B0
350
52
  3
B1
350
53
  3
B2
350
54
  3
B3
350
55
  3
B4
350
56
  3
B5
350
57
  3
B6
350
58
  3
B7
350
59
  3
B8
350
5A
  3
B9
350
5B
  3
C0
350
5C
  3
C1
350
5D
  3
C2
350
5E
  3
C3
350
5F
  3
C4
350
60
  3
C5
350
61
  3
C6
350
62
  3
C7
350
63
  3
C8
350
64
  3
C9
350
65
  3
D0
350
66
  3
D1
350
67
  3
D2
350
68
  0
LAYOUT
  5
1E
102
{ACAD_REACTORS
330
1A
102
}
330
1A
100
AcDbPlotSettings
  1

  2
none_device
  4

  6

 40
0.0
 41
0.0
 42
0.0
 43
0.0
 44
0.0
 45
0.0
 46
0.0
 47
0.0
 48
0.0
 49
0.0
140
0.0
141
0.0
142
1.0
143
1.0
 70
   688
 72
     1
 73
     0
 74
     5
  7

 75
    16
147
1.0
148
0.0
149
0.0
100
AcDbLayout
  1
Layout1
 70
     1
 71
     1
 10
0.0
 20
0.0
 11
420.0
 21
297.0
 12
0.0
 22
0.0
 32
0.0
 14
1.0000000000E+20
 24
1.0000000000E+20
 34
1.0000000000E+20
 15
-1.0000000000E+20
 25
-1.0000000000E+20
 35
-1.0000000000E+20
146
0.0
 13
0.0
 23
0.0
 33
0.0
 16
1.0
 26
0.0
 36
0.0
 17
0.0
 27
1.0
 37
0.0
 76
     0
330
1B
  0
LAYOUT
  5
26
102
{ACAD_REACTORS
330
1A
102
}
330
1A
100
AcDbPlotSettings
  1

  2
none_device
  4

  6

 40
0.0
 41
0.0
 42
0.0
 43
0.0
 44
0.0
 45
0.0
 46
0.0
 47
0.0
 48
0.0
 49
0.0
140
0.0
141
0.0
142
1.0
143
1.0
 70
   688
 72
     1
 73
     0
 74
     5
  7

 75
    16
147
1.0
148
0.0
149
0.0
100
AcDbLayout
  1
Layout2
 70
     1
 71
     2
 10
0.0
 20
0.0
 11
0.0
 21
0.0
 12
0.0
 22
0.0
 32
0.0
 14
0.0
 24
0.0
 34
0.0
 15
0.0
 25
0.0
 35
0.0
146
0.0
 13
0.0
 23
0.0
 33
0.0
 16
1.0
 26
0.0
 36
0.0
 17
0.0
 27
1.0
 37
0.0
 76
     0
330
23
  0
LAYOUT
  5
22
102
{ACAD_REACTORS
330
1A
102
}
330
1A
100
AcDbPlotSettings
  1

  2
none_device
  4
Letter_(8.50_x_11.00_Inches)
  6

 40
6.35
 41
6.35
 42
6.35000508
 43
6.35000508
 44
215.9
 45
279.4
 46
0.0
 47
0.0
 48
0.0
 49
0.0
140
0.0
141
0.0
142
1.0
143
1.0
 70
  1712
 72
     1
 73
     0
 74
     0
  7

 75
     0
147
1.0
148
0.0
149
0.0
100
AcDbLayout
  1
Model
 70
     1
 71
     0
 10
0.0
 20
0.0
 11
215.9
 21
139.7
 12
0.0
 22
0.0
 32
0.0
 14
0.0
 24
0.0
 34
0.0
 15
215.9
 25
139.7
 35
0.0
146
0.0
 13
0.0
 23
0.0
 33
0.0
 16
1.0
 26
0.0
 36
0.0
 17
0.0
 27
1.0
 37
0.0
 76
     0
330
1F
331
29
  0
MLINESTYLE
  5
18
102
{ACAD_REACTORS
330
17
102
}
330
17
100
AcDbMlineStyle
  2
Standard
 70
     0
  3

 62
   256
 51
90.0
 52
90.0
 71
     2
 49
0.5
 62
   256
  6
BYLAYER
 49
-0.5
 62
   256
  6
BYLAYER
  0
ACDBPLACEHOLDER
  5
F
102
{ACAD_REACTORS
330
E
102
}
330
E
  0
SCALE
  5
48
102
{ACAD_REACTORS
330
47
102
}
330
47
100
AcDbScale
 70
     0
300
1:1
140
1.0
141
1.0
290
     1
  0
SCALE
  5
49
102
{ACAD_REACTORS
330
47
102
}
330
47
100
AcDbScale
 70
     0
300
1:2
140
1.0
141
2.0
290
     0
  0
SCALE
  5
4A
102
{ACAD_REACTORS
330
47
102
}
330
47
100
AcDbScale
 70
     0
300
1:4
140
1.0
141
4.0
290
     0
  0
SCALE
  5
4B
102
{ACAD_REACTORS
330
47
102
}
330
47
100
AcDbScale
 70
     0
300
1:5
140
1.0
141
5.0
290
     0
  0
SCALE
  5
4C
102
{ACAD_REACTORS
330
47
102
}
330
47
100
AcDbScale
 70
     0
300
1:8
140
1.0
141
8.0
290
     0
  0
SCALE
  5
4D
102
{ACAD_REACTORS
330
47
102
}
330
47
100
AcDbScale
 70
     0
300
1:10
140
1.0
141
10.0
290
     0
  0
SCALE
  5
4E
102
{ACAD_REACTORS
330
47
102
}
330
47
100
AcDbScale
 70
     0
300
1:16
140
1.0
141
16.0
290
     0
  0
SCALE
  5
4F
102
{ACAD_REACTORS
330
47
102
}
330
47
100
AcDbScale
 70
     0
300
1:20
140
1.0
141
20.0
290
     0
  0
SCALE
  5
50
102
{ACAD_REACTORS
330
47
102
}
330
47
100
AcDbScale
 70
     0
300
1:30
140
1.0
141
30.0
290
     0
  0
SCALE
  5
51
102
{ACAD_REACTORS
330
47
102
}
330
47
100
AcDbScale
 70
     0
300
1:40
140
1.0
141
40.0
290
     0
  0
SCALE
  5
52
102
{ACAD_REACTORS
330
47
102
}
330
47
100
AcDbScale
 70
     0
300
1:50
140
1.0
141
50.0
290
     0
  0
SCALE
  5
53
102
{ACAD_REACTORS
330
47
102
}
330
47
100
AcDbScale
 70
     0
300
1:100
140
1.0
141
100.0
290
     0
  0
SCALE
  5
54
102
{ACAD_REACTORS
330
47
102
}
330
47
100
AcDbScale
 70
     0
300
2:1
140
2.0
141
1.0
290
     0
  0
SCALE
  5
55
102
{ACAD_REACTORS
330
47
102
}
330
47
100
AcDbScale
 70
     0
300
4:1
140
4.0
141
1.0
290
     0
  0
SCALE
  5
56
102
{ACAD_REACTORS
330
47
102
}
330
47
100
AcDbScale
 70
     0
300
8:1
140
8.0
141
1.0
290
     0
  0
SCALE
  5
57
102
{ACAD_REACTORS
330
47
102
}
330
47
100
AcDbScale
 70
     0
300
10:1
140
10.0
141
1.0
290
     0
  0
SCALE
  5
58
102
{ACAD_REACTORS
330
47
102
}
330
47
100
AcDbScale
 70
     0
300
100:1
140
100.0
141
1.0
290
     0
  0
SCALE
  5
59
102
{ACAD_REACTORS
330
47
102
}
330
47
100
AcDbScale
 70
     0
300
1/128" = 1'-0"
140
0.0078125
141
12.0
290
     0
  0
SCALE
  5
5A
102
{ACAD_REACTORS
330
47
102
}
330
47
100
AcDbScale
 70
     0
300
1/64" = 1'-0"
140
0.015625
141
12.0
290
     0
  0
SCALE
  5
5B
102
{ACAD_REACTORS
330
47
102
}
330
47
100
AcDbScale
 70
     0
300
1/32" = 1'-0"
140
0.03125
141
12.0
290
     0
  0
SCALE
  5
5C
102
{ACAD_REACTORS
330
47
102
}
330
47
100
AcDbScale
 70
     0
300
1/16" = 1'-0"
140
0.0625
141
12.0
290
     0
  0
SCALE
  5
5D
102
{ACAD_REACTORS
330
47
102
}
330
47
100
AcDbScale
 70
     0
300
3/32" = 1'-0"
140
0.09375
141
12.0
290
     0
  0
SCALE
  5
5E
102
{ACAD_REACTORS
330
47
102
}
330
47
100
AcDbScale
 70
     0
300
1/8" = 1'-0"
140
0.125
141
12.0
290
     0
  0
SCALE
  5
5F
102
{ACAD_REACTORS
330
47
102
}
330
47
100
AcDbScale
 70
     0
300
3/16" = 1'-0"
140
0.1875
141
12.0
290
     0
  0
SCALE
  5
60
102
{ACAD_REACTORS
330
47
102
}
330
47
100
AcDbScale
 70
     0
300
1/4" = 1'-0"
140
0.25
141
12.0
290
     0
  0
SCALE
  5
61
102
{ACAD_REACTORS
330
47
102
}
330
47
100
AcDbScale
 70
     0
300
3/8" = 1'-0"
140
0.375
141
12.0
290
     0
  0
SCALE
  5
62
102
{ACAD_REACTORS
330
47
102
}
330
47
100
AcDbScale
 70
     0
300
1/2" = 1'-0"
140
0.5
141
12.0
290
     0
  0
SCALE
  5
63
102
{ACAD_REACTORS
330
47
102
}
330
47
100
AcDbScale
 70
     0
300
3/4" = 1'-0"
140
0.75
141
12.0
290
     0
  0
SCALE
  5
64
102
{ACAD_REACTORS
330
47
102
}
330
47
100
AcDbScale
 70
     0
300
1" = 1'-0"
140
1.0
141
12.0
290
     0
  0
SCALE
  5
65
102
{ACAD_REACTORS
330
47
102
}
330
47
100
AcDbScale
 70
     0
300
1-1/2" = 1'-0"
140
1.5
141
12.0
290
     0
  0
SCALE
  5
66
102
{ACAD_REACTORS
330
47
102
}
330
47
100
AcDbScale
 70
     0
300
3" = 1'-0"
140
3.0
141
12.0
290
     0
  0
SCALE
  5
67
102
{ACAD_REACTORS
330
47
102
}
330
47
100
AcDbScale
 70
     0
300
6" = 1'-0"
140
6.0
141
12.0
290
     0
  0
SCALE
  5
68
102
{ACAD_REACTORS
330
47
102
}
330
47
100
AcDbScale
 70
     0
300
1'-0" = 1'-0"
140
12.0
141
12.0
290
     0
  0
ENDSEC
  0
EOF
