  0
SECTION
  2
HEADER
  9
$ACADVER
  1
AC1015
  9
$ACADMAINTVER
 70
     6
  9
$DWGCODEPAGE
  3
DOS932
  9
$INSBASE
 10
0.0
 20
0.0
 30
0.0
  9
$EXTMIN
 10
0.0
 20
0.0
 30
0.0
  9
$EXTMAX
 10
215.9
 20
139.7
 30
0.0
  9
$LIMMIN
 10
0.0
 20
0.0
  9
$LIMMAX
 10
215.9
 20
139.7
  9
$ORTHOMODE
 70
     0
  9
$REGENMODE
 70
     1
  9
$FILLMODE
 70
     1
  9
$QTEXTMODE
 70
     0
  9
$MIRRTEXT
 70
     1
  9
$LTSCALE
 40
0.5
  9
$ATTMODE
 70
     1
  9
$TEXTSIZE
 40
1.75
  9
$TRACEWID
 40
1.0
  9
$TEXTSTYLE
  7
Standard
  9
$CLAYER
  8
0
  9
$CELTYPE
  6
ByLayer
  9
$CECOLOR
 62
   256
  9
$CELTSCALE
 40
1.0
  9
$DISPSILH
 70
     0
  9
$DIMSCALE
 40
1.0
  9
$DIMASZ
 40
1.651
  9
$DIMEXO
 40
0.5
  9
$DIMDLI
 40
3.75
  9
$DIMRND
 40
0.0
  9
$DIMDLE
 40
0.0
  9
$DIMEXE
 40
0.5
  9
$DIMTP
 40
0.0
  9
$DIMTM
 40
0.0
  9
$DIMTXT
 40
1.75
  9
$DIMCEN
 40
2.5
  9
$DIMTSZ
 40
0.0
  9
$DIMTOL
 70
     0
  9
$DIMLIM
 70
     0
  9
$DIMTIH
 70
     1
  9
$DIMTOH
 70
     1
  9
$DIMSE1
 70
     0
  9
$DIMSE2
 70
     0
  9
$DIMTAD
 70
     1
  9
$DIMZIN
 70
     1
  9
$DIMBLK
  1

  9
$DIMASO
 70
     1
  9
$DIMSHO
 70
     1
  9
$DIMPOST
  1

  9
$DIMAPOST
  1

  9
$DIMALT
 70
     0
  9
$DIMALTD
 70
     3
  9
$DIMALTF
 40
0.0393700787
  9
$DIMLFAC
 40
1.0
  9
$DIMTOFL
 70
     1
  9
$DIMTVP
 40
0.0
  9
$DIMTIX
 70
     0
  9
$DIMSOXD
 70
     0
  9
$DIMSAH
 70
     0
  9
$DIMBLK1
  1

  9
$DIMBLK2
  1

  9
$DIMSTYLE
  2
ISO-25
  9
$DIMCLRD
 70
     0
  9
$DIMCLRE
 70
     0
  9
$DIMCLRT
 70
     0
  9
$DIMTFAC
 40
1.0
  9
$DIMGAP
 40
0.762
  9
$DIMJUST
 70
     0
  9
$DIMSD1
 70
     0
  9
$DIMSD2
 70
     0
  9
$DIMTOLJ
 70
     0
  9
$DIMTZIN
 70
     1
  9
$DIMALTZ
 70
     0
  9
$DIMALTTZ
 70
     0
  9
$DIMUPT
 70
     0
  9
$DIMDEC
 70
     2
  9
$DIMTDEC
 70
     2
  9
$DIMALTU
 70
     2
  9
$DIMALTTD
 70
     3
  9
$DIMTXSTY
  7
Standard
  9
$DIMAUNIT
 70
     0
  9
$DIMADEC
 70
     2
  9
$DIMALTRND
 40
0.0
  9
$DIMAZIN
 70
     0
  9
$DIMDSEP
 70
    44
  9
$DIMATFIT
 70
     3
  9
$DIMFRAC
 70
     0
  9
$DIMLDRBLK
  1

  9
$DIMLUNIT
 70
     2
  9
$DIMLWD
 70
    -2
  9
$DIMLWE
 70
    -2
  9
$DIMTMOVE
 70
     0
  9
$LUNITS
 70
     2
  9
$LUPREC
 70
     2
  9
$SKETCHINC
 40
1.0
  9
$FILLETRAD
 40
10.0
  9
$AUNITS
 70
     0
  9
$AUPREC
 70
     2
  9
$MENU
  1
.
  9
$ELEVATION
 40
0.0
  9
$PELEVATION
 40
0.0
  9
$THICKNESS
 40
0.0
  9
$LIMCHECK
 70
     0
  9
$CHAMFERA
 40
0.0
  9
$CHAMFERB
 40
0.0
  9
$CHAMFERC
 40
0.0
  9
$CHAMFERD
 40
0.0
  9
$SKPOLY
 70
     0
  9
$TDCREATE
 40
2460087.719142523
  9
$TDUCREATE
 40
2460087.344142523
  9
$TDUPDATE
 40
2460087.719143252
  9
$TDUUPDATE
 40
2460087.344143252
  9
$TDINDWG
 40
0.0000000116
  9
$TDUSRTIMER
 40
0.0000000116
  9
$USRTIMER
 70
     1
  9
$ANGBASE
 50
0.0
  9
$ANGDIR
 70
     0
  9
$PDMODE
 70
     0
  9
$PDSIZE
 40
-1.0
  9
$PLINEWID
 40
0.0
  9
$SPLFRAME
 70
     0
  9
$SPLINETYPE
 70
     6
  9
$SPLINESEGS
 70
     8
  9
$HANDSEED
  5
11E
  9
$SURFTAB1
 70
     6
  9
$SURFTAB2
 70
     6
  9
$SURFTYPE
 70
     6
  9
$SURFU
 70
     6
  9
$SURFV
 70
     6
  9
$UCSBASE
  2

  9
$UCSNAME
  2

  9
$UCSORG
 10
0.0
 20
0.0
 30
0.0
  9
$UCSXDIR
 10
1.0
 20
0.0
 30
0.0
  9
$UCSYDIR
 10
0.0
 20
1.0
 30
0.0
  9
$UCSORTHOREF
  2

  9
$UCSORTHOVIEW
 70
     0
  9
$UCSORGTOP
 10
0.0
 20
0.0
 30
0.0
  9
$UCSORGBOTTOM
 10
0.0
 20
0.0
 30
0.0
  9
$UCSORGLEFT
 10
0.0
 20
0.0
 30
0.0
  9
$UCSORGRIGHT
 10
0.0
 20
0.0
 30
0.0
  9
$UCSORGFRONT
 10
0.0
 20
0.0
 30
0.0
  9
$UCSORGBACK
 10
0.0
 20
0.0
 30
0.0
  9
$PUCSBASE
  2

  9
$PUCSNAME
  2

  9
$PUCSORG
 10
0.0
 20
0.0
 30
0.0
  9
$PUCSXDIR
 10
1.0
 20
0.0
 30
0.0
  9
$PUCSYDIR
 10
0.0
 20
1.0
 30
0.0
  9
$PUCSORTHOREF
  2

  9
$PUCSORTHOVIEW
 70
     0
  9
$PUCSORGTOP
 10
0.0
 20
0.0
 30
0.0
  9
$PUCSORGBOTTOM
 10
0.0
 20
0.0
 30
0.0
  9
$PUCSORGLEFT
 10
0.0
 20
0.0
 30
0.0
  9
$PUCSORGRIGHT
 10
0.0
 20
0.0
 30
0.0
  9
$PUCSORGFRONT
 10
0.0
 20
0.0
 30
0.0
  9
$PUCSORGBACK
 10
0.0
 20
0.0
 30
0.0
  9
$USERI1
 70
     0
  9
$USERI2
 70
     0
  9
$USERI3
 70
     0
  9
$USERI4
 70
     0
  9
$USERI5
 70
     0
  9
$USERR1
 40
0.0
  9
$USERR2
 40
0.0
  9
$USERR3
 40
0.0
  9
$USERR4
 40
0.0
  9
$USERR5
 40
0.0
  9
$WORLDVIEW
 70
     1
  9
$SHADEDGE
 70
     3
  9
$SHADEDIF
 70
    70
  9
$TILEMODE
 70
     1
  9
$MAXACTVP
 70
    64
  9
$PINSBASE
 10
0.0
 20
0.0
 30
0.0
  9
$PLIMCHECK
 70
     0
  9
$PEXTMIN
 10
1.0000000000E+20
 20
1.0000000000E+20
 30
1.0000000000E+20
  9
$PEXTMAX
 10
-1.0000000000E+20
 20
-1.0000000000E+20
 30
-1.0000000000E+20
  9
$PLIMMIN
 10
0.0
 20
0.0
  9
$PLIMMAX
 10
420.0
 20
297.0
  9
$UNITMODE
 70
     0
  9
$VISRETAIN
 70
     1
  9
$PLINEGEN
 70
     0
  9
$PSLTSCALE
 70
     1
  9
$TREEDEPTH
 70
  3020
  9
$CMLSTYLE
  2
Standard
  9
$CMLJUST
 70
     0
  9
$CMLSCALE
 40
20.0
  9
$PROXYGRAPHICS
 70
     1
  9
$MEASUREMENT
 70
     1
  9
$CELWEIGHT
370
    -1
  9
$ENDCAPS
280
     0
  9
$JOINSTYLE
280
     0
  9
$LWDISPLAY
290
     1
  9
$INSUNITS
 70
     4
  9
$HYPERLINKBASE
  1

  9
$STYLESHEET
  1

  9
$XEDIT
290
     1
  9
$CEPSNTYPE
380
     0
  9
$PSTYLEMODE
290
     1
  9
$FINGERPRINTGUID
  2
{F84F99B4-1755-4B30-8AB7-3286A47E1619}
  9
$VERSIONGUID
  2
{FAEB1C32-E019-11D5-929B-00C0DF256EC4}
  9
$EXTNAMES
290
     1
  9
$PSVPSCALE
 40
0.0
  9
$OLESTARTUP
290
     0
  0
ENDSEC
  0
SECTION
  2
CLASSES
  0
CLASS
  1
ACDBDICTIONARYWDFLT
  2
AcDbDictionaryWithDefault
  3
ObjectDBX Classes
 90
        0
280
     0
281
     0
  0
CLASS
  1
VISUALSTYLE
  2
AcDbVisualStyle
  3
ObjectDBX Classes
 90
     4095
280
     0
281
     0
  0
CLASS
  1
MATERIAL
  2
AcDbMaterial
  3
ObjectDBX Classes
 90
     1153
280
     0
281
     0
  0
CLASS
  1
SCALE
  2
AcDbScale
  3
ObjectDBX Classes
 90
     1153
280
     0
281
     0
  0
CLASS
  1
TABLESTYLE
  2
AcDbTableStyle
  3
ObjectDBX Classes
 90
     4095
280
     0
281
     0
  0
CLASS
  1
MLEADERSTYLE
  2
AcDbMLeaderStyle
  3
ACDB_MLEADERSTYLE_CLASS
 90
     4095
280
     0
281
     0
  0
CLASS
  1
SUN
  2
AcDbSun
  3
SCENEOE
 90
     1153
280
     0
281
     0
  0
CLASS
  1
ACDBPLACEHOLDER
  2
AcDbPlaceHolder
  3
ObjectDBX Classes
 90
        0
280
     0
281
     0
  0
CLASS
  1
LAYOUT
  2
AcDbLayout
  3
ObjectDBX Classes
 90
        0
280
     0
281
     0
  0
ENDSEC
  0
SECTION
  2
TABLES
  0
TABLE
  2
VPORT
  5
8
330
0
100
AcDbSymbolTable
 70
     1
  0
VPORT
  5
29
330
8
100
AcDbSymbolTableRecord
100
AcDbViewportTableRecord
  2
*Active
 70
     0
 10
0.0
 20
0.0
 11
1.0
 21
1.0
 12
107.95
 22
69.85
 13
0.0
 23
0.0
 14
10.0
 24
10.0
 15
10.0
 25
10.0
 16
0.0
 26
0.0
 36
1.0
 17
0.0
 27
0.0
 37
0.0
 40
139.7
 41
1.5454545455
 42
50.0
 43
0.0
 44
0.0
 50
0.0
 51
0.0
 71
     0
 72
  2000
 73
     1
 74
     3
 75
     0
 76
     0
 77
     0
 78
     0
281
     0
 65
     1
110
0.0
120
0.0
130
0.0
111
1.0
121
0.0
131
0.0
112
0.0
122
1.0
132
0.0
 79
     0
146
0.0
  0
ENDTAB
  0
TABLE
  2
LTYPE
  5
5
330
0
100
AcDbSymbolTable
 70
     6
  0
LTYPE
  5
14
330
5
100
AcDbSymbolTableRecord
100
AcDbLinetypeTableRecord
  2
ByBlock
 70
     0
  3

 72
    65
 73
     0
 40
0.0
  0
LTYPE
  5
15
330
5
100
AcDbSymbolTableRecord
100
AcDbLinetypeTableRecord
  2
ByLayer
 70
     0
  3

 72
    65
 73
     0
 40
0.0
  0
LTYPE
  5
16
330
5
100
AcDbSymbolTableRecord
100
AcDbLinetypeTableRecord
  2
Continuous
 70
     0
  3
Solid line
 72
    65
 73
     0
 40
0.0
  0
LTYPE
  5
6E
330
5
100
AcDbSymbolTableRecord
100
AcDbLinetypeTableRecord
  2
HIDDEN
 70
     0
  3
Hidden __ __ __ __ __ __ __ __ __ __ __ __ __ __
 72
    65
 73
     2
 40
1.905
 49
1.27
 74
     0
 49
-0.635
 74
     0
  0
LTYPE
  5
6F
330
5
100
AcDbSymbolTableRecord
100
AcDbLinetypeTableRecord
  2
PHANTOM
 70
     0
  3
Phantom ______  __  __  ______  __  __  ______
 72
    65
 73
     6
 40
12.7
 49
6.35
 74
     0
 49
-1.27
 74
     0
 49
1.27
 74
     0
 49
-1.27
 74
     0
 49
1.27
 74
     0
 49
-1.27
 74
     0
  0
LTYPE
  5
70
330
5
100
AcDbSymbolTableRecord
100
AcDbLinetypeTableRecord
  2
CENTER
 70
     0
  3
Center ____ _ ____ _ ____ _ ____ _ ____ _ ____
 72
    65
 73
     4
 40
10.16
 49
6.35
 74
     0
 49
-1.27
 74
     0
 49
1.27
 74
     0
 49
-1.27
 74
     0
  0
LTYPE
  5
71
330
5
100
AcDbSymbolTableRecord
100
AcDbLinetypeTableRecord
  2
CENTERX2
 70
     0
  3
Center (2x) ________  __  ________  __  _____
 72
    65
 73
     4
 40
20.32
 49
12.7
 74
     0
 49
-2.54
 74
     0
 49
2.54
 74
     0
 49
-2.54
 74
     0
  0
LTYPE
  5
72
330
5
100
AcDbSymbolTableRecord
100
AcDbLinetypeTableRecord
  2
DOT2
 70
     0
  3
Dot (.5x) ........................................
 72
    65
 73
     2
 40
0.635
 49
0.0
 74
     0
 49
-0.635
 74
     0
  0
ENDTAB
  0
TABLE
  2
LAYER
  5
2
330
0
100
AcDbSymbolTable
 70
     1
  0
LAYER
  5
10
330
2
100
AcDbSymbolTableRecord
100
AcDbLayerTableRecord
  2
0
 70
     0
 62
     7
  6
Continuous
370
    -3
390
F
  0
ENDTAB
  0
TABLE
  2
STYLE
  5
3
330
0
100
AcDbSymbolTable
 70
     2
  0
STYLE
  5
11
330
3
100
AcDbSymbolTableRecord
100
AcDbTextStyleTableRecord
  2
Standard
 70
     0
 40
0.0
 41
1.0
 50
0.0
 71
     0
 42
1.75
  3
txt
  4
bigfont
  0
STYLE
  5
73
330
3
100
AcDbSymbolTableRecord
100
AcDbTextStyleTableRecord
  2
SLDTEXTSTYLE0
 70
     0
 40
0.0
 41
0.7
 50
0.0
 71
     0
 42
1.75
  3
TXT
  4
bigfont
  0
ENDTAB
  0
TABLE
  2
VIEW
  5
6
330
0
100
AcDbSymbolTable
 70
     0
  0
ENDTAB
  0
TABLE
  2
UCS
  5
7
330
0
100
AcDbSymbolTable
 70
     0
  0
ENDTAB
  0
TABLE
  2
APPID
  5
9
330
0
100
AcDbSymbolTable
 70
     1
  0
APPID
  5
12
330
9
100
AcDbSymbolTableRecord
100
AcDbRegAppTableRecord
  2
ACAD
 70
     0
  0
ENDTAB
  0
TABLE
  2
DIMSTYLE
  5
A
330
0
100
AcDbSymbolTable
 70
     1
100
AcDbDimStyleTable
  0
DIMSTYLE
105
27
330
A
100
AcDbSymbolTableRecord
100
AcDbDimStyleTableRecord
  2
ISO-25
 70
     0
 41
2.5
 42
0.625
 43
3.75
 44
1.25
 73
     0
 74
     0
 77
     1
 78
     8
140
2.5
141
2.5
143
0.0393700787
147
0.625
171
     3
172
     1
178
     0
271
     2
272
     2
274
     3
278
    44
283
     0
284
     8
340
11
  0
ENDTAB
  0
TABLE
  2
BLOCK_RECORD
  5
1
330
0
100
AcDbSymbolTable
 70
     2
  0
BLOCK_RECORD
  5
1F
330
1
100
AcDbSymbolTableRecord
100
AcDbBlockTableRecord
  2
*Model_Space
340
22
  0
BLOCK_RECORD
  5
1B
330
1
100
AcDbSymbolTableRecord
100
AcDbBlockTableRecord
  2
*Paper_Space
340
1E
  0
BLOCK_RECORD
  5
23
330
1
100
AcDbSymbolTableRecord
100
AcDbBlockTableRecord
  2
*Paper_Space0
340
26
  0
BLOCK_RECORD
  5
E9
330
1
100
AcDbSymbolTableRecord
100
AcDbBlockTableRecord
  2
SW_CENTERMARKSYMBOL_0
340
0
102
{BLKREFS
331
F4
102
}
  0
ENDTAB
  0
ENDSEC
  0
SECTION
  2
BLOCKS
  0
BLOCK
  5
20
330
1F
100
AcDbEntity
  8
0
100
AcDbBlockBegin
  2
*Model_Space
 70
     0
 10
0.0
 20
0.0
 30
0.0
  3
*Model_Space
  1

  0
ENDBLK
  5
21
330
1F
100
AcDbEntity
  8
0
100
AcDbBlockEnd
  0
BLOCK
  5
1C
330
1B
100
AcDbEntity
 67
     1
  8
0
100
AcDbBlockBegin
  2
*Paper_Space
 70
     0
 10
0.0
 20
0.0
 30
0.0
  3
*Paper_Space
  1

  0
ENDBLK
  5
1D
330
1B
100
AcDbEntity
 67
     1
  8
0
100
AcDbBlockEnd
  0
BLOCK
  5
24
330
23
100
AcDbEntity
  8
0
100
AcDbBlockBegin
  2
*Paper_Space0
 70
     0
 10
0.0
 20
0.0
 30
0.0
  3
*Paper_Space0
  1

  0
ENDBLK
  5
25
330
23
100
AcDbEntity
  8
0
100
AcDbBlockEnd
  0
BLOCK
  5
EA
330
E9
100
AcDbEntity
  8
0
100
AcDbBlockBegin
  2
SW_CENTERMARKSYMBOL_0
 70
     0
 10
0.0
 20
0.0
 30
0.0
  3
SW_CENTERMARKSYMBOL_0
  1

  0
LINE
  5
EC
330
E9
100
AcDbEntity
  8
0
  6
Continuous
 62
     0
370
    18
100
AcDbLine
 10
0.0
 20
0.0
 30
0.0
 11
0.0
 21
2.5
 31
0.0
  0
LINE
  5
ED
330
E9
100
AcDbEntity
  8
0
  6
Continuous
 62
     0
370
    18
100
AcDbLine
 10
0.0
 20
0.0
 30
0.0
 11
-2.5
 21
0.0
 31
0.0
  0
LINE
  5
EE
330
E9
100
AcDbEntity
  8
0
  6
Continuous
 62
     0
370
    18
100
AcDbLine
 10
0.0
 20
0.0
 30
0.0
 11
0.0
 21
-2.5
 31
0.0
  0
LINE
  5
EF
330
E9
100
AcDbEntity
  8
0
  6
Continuous
 62
     0
370
    18
100
AcDbLine
 10
0.0
 20
0.0
 30
0.0
 11
2.5
 21
0.0
 31
0.0
  0
LINE
  5
F0
330
E9
100
AcDbEntity
  8
0
  6
Continuous
 62
     0
370
    18
100
AcDbLine
 10
0.0
 20
5.0
 30
0.0
 11
0.0
 21
9.25
 31
0.0
  0
LINE
  5
F1
330
E9
100
AcDbEntity
  8
0
  6
Continuous
 62
     0
370
    18
100
AcDbLine
 10
-5.0
 20
0.0
 30
0.0
 11
-9.25
 21
0.0
 31
0.0
  0
LINE
  5
F2
330
E9
100
AcDbEntity
  8
0
  6
Continuous
 62
     0
370
    18
100
AcDbLine
 10
0.0
 20
-5.0
 30
0.0
 11
0.0
 21
-9.25
 31
0.0
  0
LINE
  5
F3
330
E9
100
AcDbEntity
  8
0
  6
Continuous
 62
     0
370
    18
100
AcDbLine
 10
5.0
 20
0.0
 30
0.0
 11
9.25
 21
0.0
 31
0.0
  0
ENDBLK
  5
EB
330
E9
100
AcDbEntity
  8
0
100
AcDbBlockEnd
  0
ENDSEC
  0
SECTION
  2
ENTITIES
  0
MTEXT
  5
74
330
1F
100
AcDbEntity
  8
0
  6
Continuous
 62
     7
370
     0
100
AcDbMText
 10
64.1999651144
 20
56.5260913255
 30
0.0
 40
1.8520833333
 41
0.0
 71
     1
 72
     1
  1
六角プラグ　HP-7001
  7
SLDTEXTSTYLE0
 73
     1
 44
1.0
  0
LINE
  5
75
330
1F
100
AcDbEntity
  8
0
  6
Continuous
 62
     7
370
    25
100
AcDbLine
 10
56.8722458305
 20
51.319093199
 30
0.0
 11
56.1026934809
 21
49.9861894304
 31
0.0
  0
LINE
  5
76
330
1F
100
AcDbEntity
  8
0
  6
Continuous
 62
     7
370
    25
100
AcDbLine
 10
56.1026934809
 20
36.4861894304
 30
0.0
 11
56.8722458305
 21
35.1532856617
 31
0.0
  0
LINE
  5
77
330
1F
100
AcDbEntity
  8
0
  6
Continuous
 62
     7
370
    25
100
AcDbLine
 10
60.3331411312
 20
35.1532856617
 30
0.0
 11
61.1026934809
 21
36.4861894304
 31
0.0
  0
LINE
  5
78
330
1F
100
AcDbEntity
  8
0
  6
Continuous
 62
     7
370
    25
100
AcDbLine
 10
61.1026934809
 20
49.9861894304
 30
0.0
 11
60.3331411312
 21
51.319093199
 31
0.0
  0
LINE
  5
79
330
1F
100
AcDbEntity
  8
0
  6
Continuous
 62
     7
370
    25
100
AcDbLine
 10
56.1026934809
 20
49.9861894304
 30
0.0
 11
54.1026934809
 21
49.9861894304
 31
0.0
  0
LINE
  5
7A
330
1F
100
AcDbEntity
  8
0
  6
Continuous
 62
     7
370
    25
100
AcDbLine
 10
54.1026934809
 20
36.4861894304
 30
0.0
 11
56.1026934809
 21
36.4861894304
 31
0.0
  0
LINE
  5
7B
330
1F
100
AcDbEntity
  8
0
  6
Continuous
 62
     7
370
    25
100
AcDbLine
 10
51.6026934809
 20
38.3721894304
 30
0.0
 11
52.1026934809
 21
38.8721894304
 31
0.0
  0
LINE
  5
7C
330
1F
100
AcDbEntity
  8
0
  6
Continuous
 62
     7
370
    25
100
AcDbLine
 10
52.1026934809
 20
47.6001894304
 30
0.0
 11
51.6026934809
 21
48.1001894304
 31
0.0
  0
LINE
  5
7D
330
1F
100
AcDbEntity
  8
0
  6
Continuous
 62
     7
370
    25
100
AcDbLine
 10
51.6026934809
 20
48.1001894304
 30
0.0
 11
46.6026934809
 21
48.1001894304
 31
0.0
  0
LINE
  5
7E
330
1F
100
AcDbEntity
  8
0
  6
Continuous
 62
     7
370
    25
100
AcDbLine
 10
46.6026934809
 20
38.3721894304
 30
0.0
 11
51.6026934809
 21
38.3721894304
 31
0.0
  0
LINE
  5
7F
330
1F
100
AcDbEntity
  8
0
  6
Continuous
 62
     7
370
    25
100
AcDbLine
 10
46.6026934809
 20
48.1001894304
 30
0.0
 11
46.1026934809
 21
47.6001894304
 31
0.0
  0
LINE
  5
80
330
1F
100
AcDbEntity
  8
0
  6
Continuous
 62
     7
370
    25
100
AcDbLine
 10
46.1026934809
 20
38.8721894304
 30
0.0
 11
46.6026934809
 21
38.3721894304
 31
0.0
  0
LINE
  5
81
330
1F
100
AcDbEntity
  8
0
  6
Continuous
 62
     7
370
    25
100
AcDbLine
 10
54.1026934809
 20
47.2361894304
 30
0.0
 11
52.1026934809
 21
47.2361894304
 31
0.0
  0
LINE
  5
82
330
1F
100
AcDbEntity
  8
0
  6
Continuous
 62
     7
370
    25
100
AcDbLine
 10
52.1026934809
 20
39.2361894304
 30
0.0
 11
54.1026934809
 21
39.2361894304
 31
0.0
  0
LINE
  5
83
330
1F
100
AcDbEntity
  8
0
  6
Continuous
 62
     7
370
    25
100
AcDbLine
 10
61.1039434809
 20
44.8292367834
 30
0.0
 11
61.1026934809
 21
44.8292367834
 31
0.0
  0
LINE
  5
84
330
1F
100
AcDbEntity
  8
0
  6
Continuous
 62
     7
370
    25
100
AcDbLine
 10
61.1039434809
 20
44.1145659838
 30
0.0
 11
61.1026934809
 21
44.1145659838
 31
0.0
  0
LINE
  5
85
330
1F
100
AcDbEntity
  8
0
  6
Continuous
 62
     7
370
    25
100
AcDbLine
 10
61.1026934809
 20
43.2222205358
 30
0.0
 11
61.1039434809
 21
43.2222205358
 31
0.0
  0
LINE
  5
86
330
1F
100
AcDbEntity
  8
0
  6
Continuous
 62
     7
370
    25
100
AcDbLine
 10
61.1039434809
 20
45.6107704267
 30
0.0
 11
61.1026934809
 21
45.6107704267
 31
0.0
  0
LINE
  5
87
330
1F
100
AcDbEntity
  8
0
  6
Continuous
 62
     7
370
    25
100
AcDbLine
 10
61.1026934809
 20
44.0107986072
 30
0.0
 11
61.1039434809
 21
44.0107986072
 31
0.0
  0
LINE
  5
88
330
1F
100
AcDbEntity
  8
0
  6
Continuous
 62
     7
370
    25
100
AcDbLine
 10
61.1039434809
 20
43.1459549989
 30
0.0
 11
61.1026934809
 21
43.1459549989
 31
0.0
  0
SPLINE
  5
89
330
1F
100
AcDbEntity
  8
0
  6
Continuous
 62
     7
370
    25
100
AcDbSpline
210
0.0
220
0.0
230
1.0
 70
     8
 71
     3
 72
    16
 73
    12
 74
     0
 42
0.000000001
 43
0.00000001
 40
0.0
 40
0.0
 40
0.0
 40
0.0
 40
0.2500000000000002
 40
0.2500000000000002
 40
0.5000000000000003
 40
0.5000000000000003
 40
0.6250000000000003
 40
0.6250000000000003
 40
0.7500000000000004
 40
0.7500000000000004
 40
1.0
 40
1.0
 40
1.0
 40
1.0
 10
60.33314113124251
 20
35.15328566170469
 30
0.0
 10
60.5236356022273
 20
35.48323176401129
 30
0.0
 10
60.6806376154404
 20
35.815583505321
 30
0.0
 10
60.89813642627841
 20
36.48721859959473
 30
0.0
 10
60.95791578734848
 20
36.8265534833652
 30
0.0
 10
60.95857228820245
 20
37.3419492496354
 30
0.0
 10
60.94395852171896
 20
37.51455601013588
 30
0.0
 10
60.88697266384212
 20
37.85599042265441
 30
0.0
 10
60.84465839458289
 20
38.0255629253984
 30
0.0
 10
60.68126357469269
 20
38.53126142494989
 30
0.0
 10
60.52387304737928
 20
38.8643801766579
 30
0.0
 10
60.33314113124227
 20
39.19473754603214
 30
0.0
  0
LINE
  5
8A
330
1F
100
AcDbEntity
  8
0
  6
Continuous
 62
     7
370
    25
100
AcDbLine
 10
60.3331411312
 20
35.1532856617
 30
0.0
 11
56.8722458305
 21
35.1532856617
 31
0.0
  0
SPLINE
  5
8B
330
1F
100
AcDbEntity
  8
0
  6
Continuous
 62
     7
370
    25
100
AcDbSpline
210
0.0
220
0.0
230
1.0
 70
     8
 71
     3
 72
    16
 73
    12
 74
     0
 42
0.000000001
 43
0.00000001
 40
0.0
 40
0.0
 40
0.0
 40
0.0
 40
0.25
 40
0.25
 40
0.5
 40
0.5
 40
0.625
 40
0.625
 40
0.75
 40
0.75
 40
1.0
 40
1.0
 40
1.0
 40
1.0
 10
56.87224583051491
 20
39.19473754603216
 30
0.0
 10
56.68175135953013
 20
38.86479144372556
 30
0.0
 10
56.52474934631703
 20
38.53243970241586
 30
0.0
 10
56.30725053547901
 20
37.86080460814212
 30
0.0
 10
56.24747117440894
 20
37.52146972437165
 30
0.0
 10
56.24681467355499
 20
37.00607395810145
 30
0.0
 10
56.26142844003846
 20
36.83346719760097
 30
0.0
 10
56.3184142979153
 20
36.49203278508244
 30
0.0
 10
56.36072856717453
 20
36.32246028233845
 30
0.0
 10
56.52412338706473
 20
35.81676178278696
 30
0.0
 10
56.68151391437815
 20
35.48364303107896
 30
0.0
 10
56.87224583051515
 20
35.15328566170471
 30
0.0
  0
LINE
  5
8C
330
1F
100
AcDbEntity
  8
0
  6
Continuous
 62
     7
370
    25
100
AcDbLine
 10
60.3331411312
 20
39.194737546
 30
0.0
 11
56.8722458305
 21
39.194737546
 31
0.0
  0
SPLINE
  5
8D
330
1F
100
AcDbEntity
  8
0
  6
Continuous
 62
     7
370
    25
100
AcDbSpline
210
0.0
220
0.0
230
1.0
 70
     8
 71
     3
 72
    14
 73
    10
 74
     0
 42
0.000000001
 43
0.00000001
 40
0.0
 40
0.0
 40
0.0
 40
0.0
 40
0.2499999999999999
 40
0.2499999999999999
 40
0.4999999999999999
 40
0.4999999999999999
 40
0.7499999999999999
 40
0.7499999999999999
 40
1.0
 40
1.0
 40
1.0
 40
1.0
 10
60.33314113124204
 20
39.19473754603212
 30
0.0
 10
60.52316517576985
 20
39.85300014559592
 30
0.0
 10
60.68220377925557
 20
40.52611512770267
 30
0.0
 10
60.89966500349791
 20
41.87497594823108
 30
0.0
 10
60.9584412791676
 20
42.55376957100468
 30
0.0
 10
60.95827035869204
 20
43.92163925770436
 30
0.0
 10
60.89774908320991
 20
44.6142802136645
 30
0.0
 10
60.67875601234812
 20
45.96253179899379
 30
0.0
 10
60.52176572678579
 20
46.62422654860904
 30
0.0
 10
60.33314113124202
 20
47.27764131468691
 30
0.0
  0
SPLINE
  5
8E
330
1F
100
AcDbEntity
  8
0
  6
Continuous
 62
     7
370
    25
100
AcDbSpline
210
0.0
220
0.0
230
1.0
 70
     8
 71
     3
 72
    14
 73
    10
 74
     0
 42
0.000000001
 43
0.00000001
 40
0.0
 40
0.0
 40
0.0
 40
0.0
 40
0.25
 40
0.25
 40
0.5
 40
0.5
 40
0.75
 40
0.75
 40
1.0
 40
1.0
 40
1.0
 40
1.0
 10
56.87224583051539
 20
39.19473754603212
 30
0.0
 10
56.682231697936
 20
39.8529658095994
 30
0.0
 10
56.52318451987698
 20
40.52610402938408
 30
0.0
 10
56.30571766245038
 20
41.87500539705798
 30
0.0
 10
56.24694653116372
 20
42.55379297340041
 30
0.0
 10
56.24711575076346
 20
43.92158587168823
 30
0.0
 10
56.30763050378901
 20
44.61422700062956
 30
0.0
 10
56.52662993761481
 20
45.96253337912161
 30
0.0
 10
56.68362334823214
 20
46.62423386915815
 30
0.0
 10
56.87224583051541
 20
47.27764131468691
 30
0.0
  0
LINE
  5
8F
330
1F
100
AcDbEntity
  8
0
  6
Continuous
 62
     7
370
    25
100
AcDbLine
 10
60.3331411312
 20
47.2776413147
 30
0.0
 11
56.8722458305
 21
47.2776413147
 31
0.0
  0
LINE
  5
90
330
1F
100
AcDbEntity
  8
0
  6
Continuous
 62
     7
370
    25
100
AcDbLine
 10
56.1026934809
 20
43.2361894304
 30
0.0
 11
56.1026934809
 21
49.9861894304
 31
0.0
  0
LINE
  5
91
330
1F
100
AcDbEntity
  8
0
  6
Continuous
 62
     7
370
    25
100
AcDbLine
 10
56.1026934809
 20
36.4861894304
 30
0.0
 11
56.1026934809
 21
43.2361894304
 31
0.0
  0
SPLINE
  5
92
330
1F
100
AcDbEntity
  8
0
  6
Continuous
 62
     7
370
    25
100
AcDbSpline
210
0.0
220
0.0
230
1.0
 70
     8
 71
     3
 72
    16
 73
    12
 74
     0
 42
0.000000001
 43
0.00000001
 40
0.0
 40
0.0
 40
0.0
 40
0.0
 40
0.25
 40
0.25
 40
0.5
 40
0.5
 40
0.625
 40
0.625
 40
0.75
 40
0.75
 40
1.0
 40
1.0
 40
1.0
 40
1.0
 10
56.87224583051491
 20
51.3190931990143
 30
0.0
 10
56.68175135953013
 20
50.9891470967077
 30
0.0
 10
56.52474934631703
 20
50.656795355398
 30
0.0
 10
56.30725053547901
 20
49.98516026112427
 30
0.0
 10
56.24747117440894
 20
49.64582537735381
 30
0.0
 10
56.24681467355498
 20
49.13042961108362
 30
0.0
 10
56.26142844003846
 20
48.95782285058313
 30
0.0
 10
56.3184142979153
 20
48.6163884380646
 30
0.0
 10
56.36072856717453
 20
48.44681593532061
 30
0.0
 10
56.52412338706473
 20
47.94111743576914
 30
0.0
 10
56.68151391437815
 20
47.60799868406113
 30
0.0
 10
56.87224583051515
 20
47.27764131468688
 30
0.0
  0
LINE
  5
93
330
1F
100
AcDbEntity
  8
0
  6
Continuous
 62
     7
370
    25
100
AcDbLine
 10
61.1026934809
 20
49.9861894304
 30
0.0
 11
61.1026934809
 21
36.4861894304
 31
0.0
  0
SPLINE
  5
94
330
1F
100
AcDbEntity
  8
0
  6
Continuous
 62
     7
370
    25
100
AcDbSpline
210
0.0
220
0.0
230
1.0
 70
     8
 71
     3
 72
    16
 73
    12
 74
     0
 42
0.000000001
 43
0.00000001
 40
0.0
 40
0.0
 40
0.0
 40
0.0
 40
0.2499999999999999
 40
0.2499999999999999
 40
0.4999999999999999
 40
0.4999999999999999
 40
0.625
 40
0.625
 40
0.75
 40
0.75
 40
1.0
 40
1.0
 40
1.0
 40
1.0
 10
60.33314113124251
 20
47.27764131468687
 30
0.0
 10
60.5236356022273
 20
47.60758741699347
 30
0.0
 10
60.6806376154404
 20
47.93993915830317
 30
0.0
 10
60.89813642627841
 20
48.6115742525769
 30
0.0
 10
60.95791578734848
 20
48.95090913634736
 30
0.0
 10
60.95857228820244
 20
49.46630490261755
 30
0.0
 10
60.94395852171896
 20
49.63891166311803
 30
0.0
 10
60.88697266384212
 20
49.98034607563656
 30
0.0
 10
60.84465839458289
 20
50.14991857838055
 30
0.0
 10
60.68126357469269
 20
50.65561707793204
 30
0.0
 10
60.52387304737928
 20
50.98873582964004
 30
0.0
 10
60.33314113124227
 20
51.31909319901428
 30
0.0
  0
LINE
  5
95
330
1F
100
AcDbEntity
  8
0
  6
Continuous
 62
     7
370
    25
100
AcDbLine
 10
60.3331411312
 20
51.319093199
 30
0.0
 11
56.8722458305
 21
51.319093199
 31
0.0
  0
LINE
  5
96
330
1F
100
AcDbEntity
  8
0
  6
Continuous
 62
     7
370
    25
100
AcDbLine
 10
54.1026934809
 20
43.2361894304
 30
0.0
 11
54.1026934809
 21
49.9861894304
 31
0.0
  0
LINE
  5
97
330
1F
100
AcDbEntity
  8
0
  6
Continuous
 62
     7
370
    25
100
AcDbLine
 10
54.1026934809
 20
36.4861894304
 30
0.0
 11
54.1026934809
 21
43.2361894304
 31
0.0
  0
LINE
  5
98
330
1F
100
AcDbEntity
  8
0
  6
Continuous
 62
     7
370
    25
100
AcDbLine
 10
51.6026934809
 20
43.2361894304
 30
0.0
 11
51.6026934809
 21
48.1001894304
 31
0.0
  0
LINE
  5
99
330
1F
100
AcDbEntity
  8
0
  6
Continuous
 62
     7
370
    25
100
AcDbLine
 10
51.6026934809
 20
38.3721894304
 30
0.0
 11
51.6026934809
 21
43.2361894304
 31
0.0
  0
LINE
  5
9A
330
1F
100
AcDbEntity
  8
0
  6
Continuous
 62
     7
370
    25
100
AcDbLine
 10
52.1026934809
 20
43.2361894304
 30
0.0
 11
52.1026934809
 21
38.8721894304
 31
0.0
  0
LINE
  5
9B
330
1F
100
AcDbEntity
  8
0
  6
Continuous
 62
     7
370
    25
100
AcDbLine
 10
52.1026934809
 20
47.6001894304
 30
0.0
 11
52.1026934809
 21
43.2361894304
 31
0.0
  0
LINE
  5
9C
330
1F
100
AcDbEntity
  8
0
  6
Continuous
 62
     7
370
    25
100
AcDbLine
 10
46.6026934809
 20
43.2361894304
 30
0.0
 11
46.6026934809
 21
38.3721894304
 31
0.0
  0
LINE
  5
9D
330
1F
100
AcDbEntity
  8
0
  6
Continuous
 62
     7
370
    25
100
AcDbLine
 10
46.6026934809
 20
48.1001894304
 30
0.0
 11
46.6026934809
 21
43.2361894304
 31
0.0
  0
LINE
  5
9E
330
1F
100
AcDbEntity
  8
0
  6
Continuous
 62
     7
370
    25
100
AcDbLine
 10
46.1026934809
 20
43.2361894304
 30
0.0
 11
46.1026934809
 21
47.6001894304
 31
0.0
  0
LINE
  5
9F
330
1F
100
AcDbEntity
  8
0
  6
Continuous
 62
     7
370
    25
100
AcDbLine
 10
46.1026934809
 20
38.8721894304
 30
0.0
 11
46.1026934809
 21
43.2361894304
 31
0.0
  0
LINE
  5
A0
330
1F
100
AcDbEntity
  8
0
  6
Continuous
 62
     7
370
    18
100
AcDbLine
 10
46.1026934809
 20
47.5191894304
 30
0.0
 11
52.1026934809
 21
47.5191894304
 31
0.0
  0
LINE
  5
A1
330
1F
100
AcDbEntity
  8
0
  6
Continuous
 62
     7
370
    18
100
AcDbLine
 10
46.1026934809
 20
38.9531894304
 30
0.0
 11
52.1026934809
 21
38.9531894304
 31
0.0
  0
LINE
  5
A2
330
1F
100
AcDbEntity
  8
0
  6
CENTERX2
 62
     7
370
    18
100
AcDbLine
 10
45.6026934809
 20
43.2361894304
 30
0.0
 11
61.8465825055
 21
43.2361894304
 31
0.0
  0
CIRCLE
  5
A3
330
1F
100
AcDbEntity
  8
0
  6
Continuous
 62
     7
370
    25
100
AcDbCircle
 10
76.3145660852
 20
43.2361894304
 30
0.0
 40
6.75
  0
SPLINE
  5
A4
330
1F
100
AcDbEntity
  8
0
  6
Continuous
 62
     7
370
    25
100
AcDbSpline
210
0.0
220
0.0
230
1.0
 70
    24
 71
     3
 72
    16
 73
    12
 74
     0
 42
0.000000001
 43
0.00000001
 40
0.0
 40
0.0
 40
0.0
 40
0.0
 40
0.2500000000000001
 40
0.2500000000000001
 40
0.5000000000000001
 40
0.5000000000000001
 40
0.6250000000000001
 40
0.6250000000000001
 40
0.7500000000000002
 40
0.7500000000000002
 40
1.0
 40
1.0
 40
1.0
 40
1.0
 10
83.31456608515944
 20
39.19473754603206
 30
0.0
 10
82.7430826722051
 20
38.86479144372547
 30
0.0
 10
82.16743257027272
 20
38.53243970241577
 30
0.0
 10
81.0041264628443
 20
37.86080460814205
 30
0.0
 10
80.41638120337336
 20
37.52146972437159
 30
0.0
 10
79.52368955018751
 20
37.00607395810141
 30
0.0
 10
79.2247258712708
 20
36.83346719760093
 30
0.0
 10
78.63334412133628
 20
36.4920327850824
 30
0.0
 10
78.33963593101709
 20
36.32246028233843
 30
0.0
 10
77.46374043648258
 20
35.81676178278694
 30
0.0
 10
76.88676183357039
 20
35.48364303107895
 30
0.0
 10
76.3145660851594
 20
35.15328566170471
 30
0.0
  0
SPLINE
  5
A5
330
1F
100
AcDbEntity
  8
0
  6
Continuous
 62
     7
370
    25
100
AcDbSpline
210
0.0
220
0.0
230
1.0
 70
    24
 71
     3
 72
    16
 73
    12
 74
     0
 42
0.000000001
 43
0.00000001
 40
0.0
 40
0.0
 40
0.0
 40
0.0
 40
0.2500000000000002
 40
0.2500000000000002
 40
0.5000000000000003
 40
0.5000000000000003
 40
0.6250000000000003
 40
0.6250000000000003
 40
0.7500000000000004
 40
0.7500000000000004
 40
1.0
 40
1.0
 40
1.0
 40
1.0
 10
76.31456608515948
 20
35.15328566170469
 30
0.0
 10
75.74308267220515
 20
35.48323176401129
 30
0.0
 10
75.16743257027274
 20
35.815583505321
 30
0.0
 10
74.00412646284433
 20
36.48721859959473
 30
0.0
 10
73.41638120337339
 20
36.8265534833652
 30
0.0
 10
72.52368955018753
 20
37.3419492496354
 30
0.0
 10
72.2247258712708
 20
37.51455601013588
 30
0.0
 10
71.63334412133628
 20
37.85599042265441
 30
0.0
 10
71.33963593101709
 20
38.0255629253984
 30
0.0
 10
70.46374043648255
 20
38.53126142494989
 30
0.0
 10
69.88676183357038
 20
38.8643801766579
 30
0.0
 10
69.31456608515937
 20
39.19473754603214
 30
0.0
  0
SPLINE
  5
A6
330
1F
100
AcDbEntity
  8
0
  6
Continuous
 62
     7
370
    25
100
AcDbSpline
210
0.0
220
0.0
230
1.0
 70
    24
 71
     3
 72
    14
 73
    10
 74
     0
 42
0.000000001
 43
0.00000001
 40
0.0
 40
0.0
 40
0.0
 40
0.0
 40
0.2499999999999999
 40
0.2499999999999999
 40
0.4999999999999999
 40
0.4999999999999999
 40
0.7499999999999999
 40
0.7499999999999999
 40
1.0
 40
1.0
 40
1.0
 40
1.0
 10
69.31456608515941
 20
39.19473754603212
 30
0.0
 10
69.31456608515941
 20
39.85300014559592
 30
0.0
 10
69.31456608515941
 20
40.52611512770267
 30
0.0
 10
69.31456608515941
 20
41.87497594823108
 30
0.0
 10
69.31456608515943
 20
42.55376957100468
 30
0.0
 10
69.31456608515943
 20
43.92163925770436
 30
0.0
 10
69.31456608515943
 20
44.6142802136645
 30
0.0
 10
69.31456608515943
 20
45.96253179899379
 30
0.0
 10
69.31456608515943
 20
46.62422654860904
 30
0.0
 10
69.31456608515944
 20
47.27764131468691
 30
0.0
  0
SPLINE
  5
A7
330
1F
100
AcDbEntity
  8
0
  6
Continuous
 62
     7
370
    25
100
AcDbSpline
210
0.0
220
0.0
230
1.0
 70
    24
 71
     3
 72
    16
 73
    12
 74
     0
 42
0.000000001
 43
0.00000001
 40
0.0
 40
0.0
 40
0.0
 40
0.0
 40
0.2499999999999999
 40
0.2499999999999999
 40
0.4999999999999999
 40
0.4999999999999999
 40
0.625
 40
0.625
 40
0.75
 40
0.75
 40
1.0
 40
1.0
 40
1.0
 40
1.0
 10
69.31456608515937
 20
47.27764131468687
 30
0.0
 10
69.88604949811372
 20
47.60758741699347
 30
0.0
 10
70.46169960004613
 20
47.93993915830317
 30
0.0
 10
71.62500570747456
 20
48.6115742525769
 30
0.0
 10
72.21275096694549
 20
48.95090913634736
 30
0.0
 10
73.10544262013136
 20
49.46630490261755
 30
0.0
 10
73.40440629904806
 20
49.63891166311803
 30
0.0
 10
73.9957880489826
 20
49.98034607563656
 30
0.0
 10
74.2894962393018
 20
50.14991857838055
 30
0.0
 10
75.16539173383633
 20
50.65561707793204
 30
0.0
 10
75.74237033674852
 20
50.98873582964004
 30
0.0
 10
76.31456608515951
 20
51.31909319901428
 30
0.0
  0
SPLINE
  5
A8
330
1F
100
AcDbEntity
  8
0
  6
Continuous
 62
     7
370
    25
100
AcDbSpline
210
0.0
220
0.0
230
1.0
 70
    24
 71
     3
 72
    16
 73
    12
 74
     0
 42
0.000000001
 43
0.00000001
 40
0.0
 40
0.0
 40
0.0
 40
0.0
 40
0.25
 40
0.25
 40
0.5
 40
0.5
 40
0.6250000000000001
 40
0.6250000000000001
 40
0.7500000000000002
 40
0.7500000000000002
 40
1.0
 40
1.0
 40
1.0
 40
1.0
 10
76.31456608515943
 20
51.3190931990143
 30
0.0
 10
76.88604949811376
 20
50.98914709670769
 30
0.0
 10
77.46169960004616
 20
50.65679535539799
 30
0.0
 10
78.62500570747457
 20
49.98516026112424
 30
0.0
 10
79.2127509669455
 20
49.64582537735377
 30
0.0
 10
80.10544262013137
 20
49.13042961108356
 30
0.0
 10
80.40440629904808
 20
48.95782285058307
 30
0.0
 10
80.9957880489826
 20
48.61638843806453
 30
0.0
 10
81.2894962393018
 20
48.44681593532055
 30
0.0
 10
82.16539173383633
 20
47.94111743576906
 30
0.0
 10
82.74237033674851
 20
47.60799868406104
 30
0.0
 10
83.31456608515951
 20
47.27764131468678
 30
0.0
  0
SPLINE
  5
A9
330
1F
100
AcDbEntity
  8
0
  6
Continuous
 62
     7
370
    25
100
AcDbSpline
210
0.0
220
0.0
230
1.0
 70
    24
 71
     3
 72
    14
 73
    10
 74
     0
 42
0.000000001
 43
0.00000001
 40
0.0
 40
0.0
 40
0.0
 40
0.0
 40
0.2499999999999999
 40
0.2499999999999999
 40
0.4999999999999999
 40
0.4999999999999999
 40
0.7499999999999999
 40
0.7499999999999999
 40
1.0
 40
1.0
 40
1.0
 40
1.0
 10
83.31456608515938
 20
39.19473754603202
 30
0.0
 10
83.3145660851594
 20
39.85300014559519
 30
0.0
 10
83.3145660851594
 20
40.52611512770199
 30
0.0
 10
83.31456608515941
 20
41.87497594823641
 30
0.0
 10
83.31456608515943
 20
42.55376957101468
 30
0.0
 10
83.31456608515944
 20
43.92163925772775
 30
0.0
 10
83.31456608515944
 20
44.61428021368412
 30
0.0
 10
83.31456608515946
 20
45.96253179899887
 30
0.0
 10
83.31456608515947
 20
46.62422654861045
 30
0.0
 10
83.31456608515947
 20
47.27764131468681
 30
0.0
  0
LINE
  5
AA
330
1F
100
AcDbEntity
  8
0
  6
Continuous
 62
     7
370
    25
100
AcDbLine
 10
76.6653146254
 20
44.6884246682
 30
0.0
 11
76.8375902664
 21
46.6183124888
 31
0.0
  0
LINE
  5
AB
330
1F
100
AcDbEntity
  8
0
  6
Continuous
 62
     7
370
    25
100
AcDbLine
 10
77.4926383434
 20
45.1663894118
 30
0.0
 11
76.6653146254
 21
44.6884246682
 31
0.0
  0
LINE
  5
AC
330
1F
100
AcDbEntity
  8
0
  6
Continuous
 62
     7
370
    25
100
AcDbLine
 10
77.7250101382
 20
44.7637451811
 30
0.0
 11
77.4926383434
 21
45.1663894118
 31
0.0
  0
LINE
  5
AD
330
1F
100
AcDbEntity
  8
0
  6
Continuous
 62
     7
370
    25
100
AcDbLine
 10
77.8980870613
 20
44.8635047964
 30
0.0
 11
77.7250101382
 21
44.7637451811
 31
0.0
  0
LINE
  5
AE
330
1F
100
AcDbEntity
  8
0
  6
Continuous
 62
     7
370
    25
100
AcDbLine
 10
77.6657152664
 20
45.2661490272
 30
0.0
 11
77.8980870613
 21
44.8635047964
 31
0.0
  0
LINE
  5
AF
330
1F
100
AcDbEntity
  8
0
  6
Continuous
 62
     7
370
    25
100
AcDbLine
 10
77.8752505228
 20
45.387543258
 30
0.0
 11
77.6657152664
 21
45.2661490272
 31
0.0
  0
LINE
  5
B0
330
1F
100
AcDbEntity
  8
0
  6
Continuous
 62
     7
370
    25
100
AcDbLine
 10
77.7790966767
 20
45.5534086426
 30
0.0
 11
77.8752505228
 21
45.387543258
 31
0.0
  0
LINE
  5
B1
330
1F
100
AcDbEntity
  8
0
  6
Continuous
 62
     7
370
    25
100
AcDbLine
 10
77.5695614203
 20
45.4320144118
 30
0.0
 11
77.7790966767
 21
45.5534086426
 31
0.0
  0
LINE
  5
B2
330
1F
100
AcDbEntity
  8
0
  6
Continuous
 62
     7
370
    25
100
AcDbLine
 10
76.8728466767
 20
46.63834454
 30
0.0
 11
77.5695614203
 21
45.4320144118
 31
0.0
  0
LINE
  5
B3
330
1F
100
AcDbEntity
  8
0
  6
Continuous
 62
     7
370
    25
100
AcDbLine
 10
76.8375902664
 20
46.6183124888
 30
0.0
 11
76.8728466767
 21
46.63834454
 31
0.0
  0
LINE
  5
B4
330
1F
100
AcDbEntity
  8
0
  6
Continuous
 62
     7
370
    25
100
AcDbLine
 10
76.2128551745
 20
41.1880061348
 30
0.0
 11
75.2128551745
 21
42.9191760066
 31
0.0
  0
LINE
  5
B5
330
1F
100
AcDbEntity
  8
0
  6
Continuous
 62
     7
370
    25
100
AcDbLine
 10
76.3859320976
 20
41.2881663912
 30
0.0
 11
76.2128551745
 21
41.1880061348
 31
0.0
  0
LINE
  5
B6
330
1F
100
AcDbEntity
  8
0
  6
Continuous
 62
     7
370
    25
100
AcDbLine
 10
75.9211885079
 20
42.0930542117
 30
0.0
 11
76.3859320976
 21
41.2881663912
 31
0.0
  0
LINE
  5
B7
330
1F
100
AcDbEntity
  8
0
  6
Continuous
 62
     7
370
    25
100
AcDbLine
 10
76.0445859438
 20
42.1639676732
 30
0.0
 11
75.9211885079
 21
42.0930542117
 31
0.0
  0
SPLINE
  5
B8
330
1F
100
AcDbEntity
  8
0
  6
Continuous
 62
     7
370
    25
100
AcDbSpline
210
0.0
220
0.0
230
1.0
 70
     8
 71
     3
 72
    15
 73
    11
 74
     0
 42
0.000000001
 43
0.00000001
 40
0.0
 40
0.0
 40
0.0
 40
0.0
 40
0.0756123032498289
 40
0.1644872655319284
 40
0.2677853868718776
 40
0.3857854682946374
 40
0.5179322862644448
 40
0.6638659903914276
 40
0.8244577581462259
 40
1.0
 40
1.0
 40
1.0
 40
1.0
 10
76.46846414888026
 20
42.44682023734369
 30
0.0
 10
76.45895916389001
 20
42.43814237551008
 30
0.0
 10
76.43828198672745
 20
42.41926452491798
 30
0.0
 10
76.40206786582755
 20
42.391555776674
 30
0.0
 10
76.3596878929114
 20
42.36011109254978
 30
0.0
 10
76.30990257171872
 20
42.32635253697897
 30
0.0
 10
76.25353011661181
 20
42.28941915877428
 30
0.0
 10
76.18991367078344
 20
42.25037329318995
 30
0.0
 10
76.11988224318574
 20
42.20767342213723
 30
0.0
 10
76.07041806155722
 20
42.17896193010021
 30
0.0
 10
76.04458594375204
 20
42.16396767324113
 30
0.0
  0
SPLINE
  5
B9
330
1F
100
AcDbEntity
  8
0
  6
Continuous
 62
     7
370
    25
100
AcDbSpline
210
0.0
220
0.0
230
1.0
 70
     8
 71
     3
 72
    23
 73
    19
 74
     0
 42
0.000000001
 43
0.00000001
 40
0.0
 40
0.0
 40
0.0
 40
0.0
 40
0.0701767959831227
 40
0.1370783948533101
 40
0.2015402158160995
 40
0.2643019848993742
 40
0.325851106585645
 40
0.3855625253801132
 40
0.4451090710974652
 40
0.5050396151009584
 40
0.5646549133475235
 40
0.623873102773034
 40
0.6835103850890274
 40
0.7439310552880052
 40
0.8050983035609699
 40
0.8678522399879645
 40
0.9328002663636267
 40
0.9999999999999999
 40
0.9999999999999999
 40
0.9999999999999999
 40
0.9999999999999999
 10
76.56061158477769
 20
43.082637545036
 30
0.0
 10
76.56861774047398
 20
43.06834512903802
 30
0.0
 10
76.58425639932722
 20
43.04042733347424
 30
0.0
 10
76.60286638838524
 20
42.99718212466987
 30
0.0
 10
76.6184398614428
 20
42.95462272123489
 30
0.0
 10
76.62969426245543
 20
42.91197547700023
 30
0.0
 10
76.63691752789411
 20
42.8696017989326
 30
0.0
 10
76.64021264518108
 20
42.8274894730041
 30
0.0
 10
76.63941595071441
 20
42.78562311503256
 30
0.0
 10
76.63450967782289
 20
42.74407920131799
 30
0.0
 10
76.62620810349829
 20
42.70314579351434
 30
0.0
 10
76.61389669023309
 20
42.66332760573523
 30
0.0
 10
76.59892060202661
 20
42.62421639342383
 30
0.0
 10
76.57941256552111
 20
42.58662260659273
 30
0.0
 10
76.55679478080665
 20
42.550022302192
 30
0.0
 10
76.53121758276974
 20
42.51408031927651
 30
0.0
 10
76.50134377255694
 20
42.47971660212664
 30
0.0
 10
76.47954781947325
 20
42.45790955133786
 30
0.0
 10
76.46846414888026
 20
42.44682023734369
 30
0.0
  0
SPLINE
  5
BA
330
1F
100
AcDbEntity
  8
0
  6
Continuous
 62
     7
370
    25
100
AcDbSpline
210
0.0
220
0.0
230
1.0
 70
     8
 71
     3
 72
    23
 73
    19
 74
     0
 42
0.000000001
 43
0.00000001
 40
0.0
 40
0.0
 40
0.0
 40
0.0
 40
0.0629356290675136
 40
0.124917386466311
 40
0.1857052460120456
 40
0.2456350393096019
 40
0.305162443516211
 40
0.3646585631624177
 40
0.4250581585413427
 40
0.4863258165608511
 40
0.5475962370601505
 40
0.6090294239962809
 40
0.6706716427956784
 40
0.7327325403902578
 40
0.7965017194925578
 40
0.8620715477041121
 40
0.9294466560771697
 40
1.0
 40
1.0
 40
1.0
 40
1.0
 10
75.9728712001623
 20
43.32342280144626
 30
0.0
 10
75.98684430130746
 20
43.32711528555692
 30
0.0
 10
76.01457872299744
 20
43.33444428935819
 30
0.0
 10
76.05667621189541
 20
43.34146973422411
 30
0.0
 10
76.09843654068538
 20
43.34567302490493
 30
0.0
 10
76.13987028667596
 20
43.34607863169298
 30
0.0
 10
76.18086259179385
 20
43.34278225606201
 30
0.0
 10
76.2215655630199
 20
43.33629062462403
 30
0.0
 10
76.2620989806053
 20
43.32678674730091
 30
0.0
 10
76.30198376543595
 20
43.31349863409519
 30
0.0
 10
76.34097876710815
 20
43.29717647023251
 30
0.0
 10
76.37833829045111
 20
43.27713917815528
 30
0.0
 10
76.41358398358312
 20
43.25330835709526
 30
0.0
 10
76.44726893220032
 20
43.22641653707781
 30
0.0
 10
76.47832612785737
 20
43.19524360142751
 30
0.0
 10
76.50802415650499
 20
43.16120804289431
 30
0.0
 10
76.53607028622626
 20
43.12375095290577
 30
0.0
 10
76.55230644395284
 20
43.09655093439606
 30
0.0
 10
76.56061158477769
 20
43.082637545036
 30
0.0
  0
SPLINE
  5
BB
330
1F
100
AcDbEntity
  8
0
  6
Continuous
 62
     7
370
    25
100
AcDbSpline
210
0.0
220
0.0
230
1.0
 70
     8
 71
     3
 72
    15
 73
    11
 74
     0
 42
0.000000001
 43
0.00000001
 40
0.0
 40
0.0
 40
0.0
 40
0.0
 40
0.1772047475236776
 40
0.3392086991137762
 40
0.486811660435993
 40
0.6185381308101384
 40
0.7363717983370404
 40
0.838457124749514
 40
0.9265189260755414
 40
1.0
 40
1.0
 40
1.0
 40
1.0
 10
75.5578070975982
 20
43.11829459631805
 30
0.0
 10
75.58154275683408
 20
43.13197880351484
 30
0.0
 10
75.62697800732553
 20
43.15817337327942
 30
0.0
 10
75.692747246917
 20
43.19478160355993
 30
0.0
 10
75.75306720391785
 20
43.22668785892126
 30
0.0
 10
75.80778790299715
 20
43.25455524881317
 30
0.0
 10
75.856784777366
 20
43.27813528644767
 30
0.0
 10
75.9002344737802
 20
43.29761823682352
 30
0.0
 10
75.93812670331197
 20
43.31274199491036
 30
0.0
 10
75.96200820960117
 20
43.32008340928051
 30
0.0
 10
75.9728712001623
 20
43.32342280144626
 30
0.0
  0
LINE
  5
BC
330
1F
100
AcDbEntity
  8
0
  6
Continuous
 62
     7
370
    25
100
AcDbLine
 10
75.2128551745
 20
42.9191760066
 30
0.0
 11
75.5578070976
 21
43.1182945963
 31
0.0
  0
LINE
  5
BD
330
1F
100
AcDbEntity
  8
0
  6
Continuous
 62
     7
370
    25
100
AcDbLine
 10
77.7165555074
 20
42.0516282858
 30
0.0
 11
76.7165555074
 21
43.7827981576
 31
0.0
  0
LINE
  5
BE
330
1F
100
AcDbEntity
  8
0
  6
Continuous
 62
     7
370
    25
100
AcDbLine
 10
77.8884305074
 20
42.1509872602
 30
0.0
 11
77.7165555074
 21
42.0516282858
 31
0.0
  0
LINE
  5
BF
330
1F
100
AcDbEntity
  8
0
  6
Continuous
 62
     7
370
    25
100
AcDbLine
 10
77.3984465331
 20
42.9995449525
 30
0.0
 11
77.8884305074
 21
42.1509872602
 31
0.0
  0
LINE
  5
C0
330
1F
100
AcDbEntity
  8
0
  6
Continuous
 62
     7
370
    25
100
AcDbLine
 10
78.0939593536
 20
43.4009872602
 30
0.0
 11
77.3984465331
 21
42.9995449525
 31
0.0
  0
LINE
  5
C1
330
1F
100
AcDbEntity
  8
0
  6
Continuous
 62
     7
370
    25
100
AcDbLine
 10
77.9954016613
 20
43.5716603371
 30
0.0
 11
78.0939593536
 21
43.4009872602
 31
0.0
  0
LINE
  5
C2
330
1F
100
AcDbEntity
  8
0
  6
Continuous
 62
     7
370
    25
100
AcDbLine
 10
77.2998888407
 20
43.1702180294
 30
0.0
 11
77.9954016613
 21
43.5716603371
 31
0.0
  0
LINE
  5
C3
330
1F
100
AcDbEntity
  8
0
  6
Continuous
 62
     7
370
    25
100
AcDbLine
 10
76.9869881997
 20
43.7114840551
 30
0.0
 11
77.2998888407
 21
43.1702180294
 31
0.0
  0
LINE
  5
C4
330
1F
100
AcDbEntity
  8
0
  6
Continuous
 62
     7
370
    25
100
AcDbLine
 10
77.6825010202
 20
44.1129263628
 30
0.0
 11
76.9869881997
 21
43.7114840551
 31
0.0
  0
LINE
  5
C5
330
1F
100
AcDbEntity
  8
0
  6
Continuous
 62
     7
370
    25
100
AcDbLine
 10
77.5839433279
 20
44.2835994397
 30
0.0
 11
77.6825010202
 21
44.1129263628
 31
0.0
  0
LINE
  5
C6
330
1F
100
AcDbEntity
  8
0
  6
Continuous
 62
     7
370
    25
100
AcDbLine
 10
76.7165555074
 20
43.7827981576
 30
0.0
 11
77.5839433279
 21
44.2835994397
 31
0.0
  0
SPLINE
  5
C7
330
1F
100
AcDbEntity
  8
0
  6
Continuous
 62
     7
370
    25
100
AcDbSpline
210
0.0
220
0.0
230
1.0
 70
     8
 71
     3
 72
    19
 73
    15
 74
     0
 42
0.000000001
 43
0.00000001
 40
0.0
 40
0.0
 40
0.0
 40
0.0
 40
0.116698536589739
 40
0.2282590101784684
 40
0.3372185427251284
 40
0.4465132849869349
 40
0.50276584803826
 40
0.5620350872685727
 40
0.6248184910357915
 40
0.6915349811923932
 40
0.7617985431967307
 40
0.8366234562169642
 40
0.9161906330044087
 40
1.0
 40
1.0
 40
1.0
 40
1.0
 10
73.76176910568459
 20
44.77191734777087
 30
0.0
 10
73.74415745778963
 20
44.76069378011579
 30
0.0
 10
73.70970957666285
 20
44.73874080179674
 30
0.0
 10
73.66533060610173
 20
44.69734601046905
 30
0.0
 10
73.6302723095924
 20
44.64966524264936
 30
0.0
 10
73.60741541591418
 20
44.6059776577443
 30
0.0
 10
73.5940517803735
 20
44.56802098799304
 30
0.0
 10
73.58651687637298
 20
44.53701481306844
 30
0.0
 10
73.58132224970166
 20
44.503640999521
 30
0.0
 10
73.578783652617
 20
44.46801355758484
 30
0.0
 10
73.57770899382749
 20
44.43014675925445
 30
0.0
 10
73.58015663815888
 20
44.39004581684462
 30
0.0
 10
73.58389317267915
 20
44.34762826481276
 30
0.0
 10
73.58838906964405
 20
44.31877160285688
 30
0.0
 10
73.59069538773586
 20
44.30396862982215
 30
0.0
  0
SPLINE
  5
C8
330
1F
100
AcDbEntity
  8
0
  6
Continuous
 62
     7
370
    25
100
AcDbSpline
210
0.0
220
0.0
230
1.0
 70
     8
 71
     3
 72
    23
 73
    19
 74
     0
 42
0.000000001
 43
0.00000001
 40
0.0
 40
0.0
 40
0.0
 40
0.0
 40
0.0591791051521848
 40
0.1169459291115961
 40
0.1743720545453772
 40
0.2311010381228904
 40
0.2884654328876002
 40
0.3475708060626696
 40
0.409009463483299
 40
0.4724043085594233
 40
0.5368565178558284
 40
0.6005045056844478
 40
0.6640367736994025
 40
0.7279582235298679
 40
0.7931462364758861
 40
0.8592187722458992
 40
0.9283394182013749
 40
1.0
 40
1.0
 40
1.0
 40
1.0
 10
74.24013449029997
 20
44.67736606571959
 30
0.0
 10
74.23443196720783
 20
44.68643330444662
 30
0.0
 10
74.22316300902442
 20
44.7043513965618
 30
0.0
 10
74.20332893370724
 20
44.72897914218368
 30
0.0
 10
74.18130882582693
 20
44.75101072520881
 30
0.0
 10
74.15708458233344
 20
44.77051672110314
 30
0.0
 10
74.13033178951365
 20
44.78695734418066
 30
0.0
 10
74.1013285842855
 20
44.80100098155289
 30
0.0
 10
74.07009656934406
 20
44.81263952743247
 30
0.0
 10
74.03691738327015
 20
44.82127173037257
 30
0.0
 10
74.00278297348986
 20
44.82739768891081
 30
0.0
 10
73.9681202492447
 20
44.82987457105883
 30
0.0
 10
73.93355302664284
 20
44.82834261410446
 30
0.0
 10
73.89883304775202
 20
44.82473836602116
 30
0.0
 10
73.86444254445757
 20
44.81639081761737
 30
0.0
 10
73.82997435343934
 20
44.80509266216948
 30
0.0
 10
73.7955502915974
 20
44.79026114980019
 30
0.0
 10
73.77316412929814
 20
44.77810505408248
 30
0.0
 10
73.76176910568459
 20
44.77191734777087
 30
0.0
  0
SPLINE
  5
C9
330
1F
100
AcDbEntity
  8
0
  6
Continuous
 62
     7
370
    25
100
AcDbSpline
210
0.0
220
0.0
230
1.0
 70
     8
 71
     3
 72
    19
 73
    15
 74
     0
 42
0.000000001
 43
0.00000001
 40
0.0
 40
0.0
 40
0.0
 40
0.0
 40
0.1055150102305262
 40
0.2072590054948936
 40
0.3055242150184235
 40
0.4018902536748169
 40
0.4937941548483872
 40
0.5775887882812993
 40
0.655333711437728
 40
0.7280006663003296
 40
0.797795471673489
 40
0.8651986393292102
 40
0.9322283304823006
 40
0.9999999999999999
 40
0.9999999999999999
 40
0.9999999999999999
 40
0.9999999999999999
 10
74.00455756722305
 20
44.15533080930933
 30
0.0
 10
74.02358889907025
 20
44.1671775255035
 30
0.0
 10
74.06097139946783
 20
44.19044756652819
 30
0.0
 10
74.11264450392247
 20
44.22997263685969
 30
0.0
 10
74.15760016753931
 20
44.27421177739853
 30
0.0
 10
74.19709866082908
 20
44.32060460122876
 30
0.0
 10
74.22992228021032
 20
44.36835232295297
 30
0.0
 10
74.25426346494542
 20
44.41651997971604
 30
0.0
 10
74.27089360616502
 20
44.46362644642581
 30
0.0
 10
74.27846197638087
 20
44.50999139989965
 30
0.0
 10
74.27906978937
 20
44.55476354034366
 30
0.0
 10
74.27228743574375
 20
44.59773935356556
 30
0.0
 10
74.26024395013809
 20
44.63921578803376
 30
0.0
 10
74.24686219568632
 20
44.66460272793012
 30
0.0
 10
74.24013449029997
 20
44.67736606571959
 30
0.0
  0
LINE
  5
CA
330
1F
100
AcDbEntity
  8
0
  6
Continuous
 62
     7
370
    25
100
AcDbLine
 10
74.0963043621
 20
43.9962763221
 30
0.0
 11
74.0045575672
 21
44.1553308093
 31
0.0
  0
SPLINE
  5
CB
330
1F
100
AcDbEntity
  8
0
  6
Continuous
 62
     7
370
    25
100
AcDbSpline
210
0.0
220
0.0
230
1.0
 70
     8
 71
     3
 72
    23
 73
    19
 74
     0
 42
0.000000001
 43
0.00000001
 40
0.0
 40
0.0
 40
0.0
 40
0.0
 40
0.0703423198343876
 40
0.1398634517743602
 40
0.2103803753631115
 40
0.2827027172989062
 40
0.3555923664656343
 40
0.4269508105709605
 40
0.4987761996993966
 40
0.5720888555685788
 40
0.6110005129072674
 40
0.6539353186604211
 40
0.7011226343296134
 40
0.7519637186826998
 40
0.8073262203581311
 40
0.8673192372193631
 40
0.931379432164037
 40
0.9999999999999999
 40
0.9999999999999999
 40
0.9999999999999999
 40
0.9999999999999999
 10
74.82186525953074
 20
43.91174106571959
 30
0.0
 10
74.81151366483819
 20
43.92797802700574
 30
0.0
 10
74.79093132168437
 20
43.96026239660223
 30
0.0
 10
74.75166332138373
 20
44.00267156340244
 30
0.0
 10
74.70650411529877
 20
44.0394119608913
 30
0.0
 10
74.65562129346591
 20
44.06956778899622
 30
0.0
 10
74.60119396814463
 20
44.09324683094295
 30
0.0
 10
74.54396777409697
 20
44.1087480625707
 30
0.0
 10
74.48497944440663
 20
44.11538745733614
 30
0.0
 10
74.43453212535216
 20
44.11441918465072
 30
0.0
 10
74.39241731853076
 20
44.10914718925039
 30
0.0
 10
74.35788671570057
 20
44.1017815067591
 30
0.0
 10
74.32085387592134
 20
44.09112058725554
 30
0.0
 10
74.28090384856618
 20
44.07838071075819
 30
0.0
 10
74.23844055330551
 20
44.06219745879589
 30
0.0
 10
74.19334388427832
 20
44.04292907557351
 30
0.0
 10
74.14554718995363
 20
44.02081203546566
 30
0.0
 10
74.11309049460162
 20
44.00464017435181
 30
0.0
 10
74.09630436209484
 20
43.99627632212984
 30
0.0
  0
SPLINE
  5
CC
330
1F
100
AcDbEntity
  8
0
  6
Continuous
 62
     7
370
    25
100
AcDbSpline
210
0.0
220
0.0
230
1.0
 70
     8
 71
     3
 72
    23
 73
    19
 74
     0
 42
0.000000001
 43
0.00000001
 40
0.0
 40
0.0
 40
0.0
 40
0.0
 40
0.0732531278746229
 40
0.143076787078104
 40
0.2103746387958365
 40
0.2752906500029053
 40
0.3392596226892456
 40
0.4018859929105241
 40
0.4644270360797879
 40
0.5278378401523588
 40
0.5906903737125638
 40
0.6509224245648336
 40
0.7100706904963927
 40
0.7676159933197219
 40
0.8248315818707156
 40
0.8821963083100987
 40
0.9404609388752492
 40
0.9999999999999999
 40
0.9999999999999999
 40
0.9999999999999999
 40
0.9999999999999999
 10
74.6231473108128
 20
43.29315132212984
 30
0.0
 10
74.63827825476574
 20
43.30237511652219
 30
0.0
 10
74.6678317620228
 20
43.320390877823
 30
0.0
 10
74.70836344626447
 20
43.35122290549155
 30
0.0
 10
74.74520779773563
 20
43.3834041881405
 30
0.0
 10
74.7769756205163
 20
43.4187414962763
 30
0.0
 10
74.80484662825721
 20
43.45582136255555
 30
0.0
 10
74.82766189044688
 20
43.49555164929865
 30
0.0
 10
74.8468073702252
 20
43.5370069118868
 30
0.0
 10
74.86101870212306
 20
43.58049386265133
 30
0.0
 10
74.87075819380529
 20
43.62455658125781
 30
0.0
 10
74.87713964193337
 20
43.66821983218333
 30
0.0
 10
74.87853123329887
 20
43.71103328956082
 30
0.0
 10
74.87648338682969
 20
43.75311314787884
 30
0.0
 10
74.86891883273205
 20
43.79413089421552
 30
0.0
 10
74.85777890830202
 20
43.83445645260629
 30
0.0
 10
74.84208688628584
 20
43.87390968735948
 30
0.0
 10
74.82865424104989
 20
43.89903998426649
 30
0.0
 10
74.82186525953074
 20
43.91174106571959
 30
0.0
  0
SPLINE
  5
CD
330
1F
100
AcDbEntity
  8
0
  6
Continuous
 62
     7
370
    25
100
AcDbSpline
210
0.0
220
0.0
230
1.0
 70
     8
 71
     3
 72
    15
 73
    11
 74
     0
 42
0.000000001
 43
0.00000001
 40
0.0
 40
0.0
 40
0.0
 40
0.0
 40
0.1200312614629397
 40
0.2399649155124079
 40
0.3586107548455215
 40
0.4807865662367299
 40
0.6037828490368189
 40
0.7314727643053685
 40
0.8629426087683327
 40
1.0
 40
1.0
 40
1.0
 40
1.0
 10
74.29542295183843
 20
43.23105196315549
 30
0.0
 10
74.30887513873026
 20
43.22863138290201
 30
0.0
 10
74.33576857342062
 20
43.22379219077042
 30
0.0
 10
74.37660508885041
 20
43.22164615377718
 30
0.0
 10
74.41769384508987
 20
43.22307394324039
 30
0.0
 10
74.4586710287415
 20
43.22937144519074
 30
0.0
 10
74.50008647280318
 20
43.23884347722757
 30
0.0
 10
74.54116704578152
 20
43.2532452791116
 30
0.0
 10
74.58284309507755
 20
43.27060182199293
 30
0.0
 10
74.60952748822194
 20
43.28553127083312
 30
0.0
 10
74.6231473108128
 20
43.29315132212984
 30
0.0
  0
SPLINE
  5
CE
330
1F
100
AcDbEntity
  8
0
  6
Continuous
 62
     7
370
    25
100
AcDbSpline
210
0.0
220
0.0
230
1.0
 70
     8
 71
     3
 72
    15
 73
    11
 74
     0
 42
0.000000001
 43
0.00000001
 40
0.0
 40
0.0
 40
0.0
 40
0.0
 40
0.1513316044327706
 40
0.2940975545230309
 40
0.4289487094265199
 40
0.5559279245516218
 40
0.6762753220694476
 40
0.7892273698219985
 40
0.8971134572546169
 40
1.0
 40
1.0
 40
1.0
 40
1.0
 10
74.02659282363331
 20
43.40052311700164
 30
0.0
 10
74.03827633365324
 20
43.38923590505797
 30
0.0
 10
74.0609820449816
 20
43.36730035866328
 30
0.0
 10
74.09523300019323
 20
43.33645143073931
 30
0.0
 10
74.12996079102926
 20
43.31032054949123
 30
0.0
 10
74.16344129950645
 20
43.28655160123452
 30
0.0
 10
74.19716450743248
 20
43.26747109815133
 30
0.0
 10
74.23025711541761
 20
43.2517696898627
 30
0.0
 10
74.2626158514354
 20
43.23882602358977
 30
0.0
 10
74.28466156040037
 20
43.23360201196713
 30
0.0
 10
74.29542295183845
 20
43.23105196315549
 30
0.0
  0
LINE
  5
CF
330
1F
100
AcDbEntity
  8
0
  6
Continuous
 62
     7
370
    25
100
AcDbLine
 10
73.8571216698
 20
43.3023660657
 30
0.0
 11
74.0265928236
 21
43.400523117
 31
0.0
  0
SPLINE
  5
D0
330
1F
100
AcDbEntity
  8
0
  6
Continuous
 62
     7
370
    25
100
AcDbSpline
210
0.0
220
0.0
230
1.0
 70
     8
 71
     3
 72
    23
 73
    19
 74
     0
 42
0.000000001
 43
0.00000001
 40
0.0
 40
0.0
 40
0.0
 40
0.0
 40
0.0656217632387079
 40
0.1283604675836459
 40
0.1895583847206637
 40
0.2488580074221896
 40
0.3074628849680241
 40
0.3655512283883335
 40
0.4232063363918941
 40
0.4818112139377281
 40
0.5407083869503938
 40
0.6004738697899791
 40
0.6611093887128816
 40
0.7235118887421076
 40
0.7883544185590496
 40
0.8557385605895164
 40
0.9260741804459054
 40
1.0
 40
1.0
 40
1.0
 40
1.0
 10
74.71809923388972
 20
43.12327952725805
 30
0.0
 10
74.69956077482057
 20
43.11308299151819
 30
0.0
 10
74.6632983344814
 20
43.09313789966595
 30
0.0
 10
74.60706683704018
 20
43.06900730085155
 30
0.0
 10
74.55104116797516
 20
43.05019598163658
 30
0.0
 10
74.49495345989216
 20
43.03620234176246
 30
0.0
 10
74.43869268583813
 20
43.02831511418435
 30
0.0
 10
74.3825088181457
 20
43.02545928690351
 30
0.0
 10
74.32628217005616
 20
43.02781968772756
 30
0.0
 10
74.27031223847713
 20
43.03583570494021
 30
0.0
 10
74.21474485436715
 20
43.04952014252452
 30
0.0
 10
74.16024421707439
 20
43.06894118715256
 30
0.0
 10
74.10651979402147
 20
43.09334289104796
 30
0.0
 10
74.05434141129257
 20
43.12424255390869
 30
0.0
 10
74.0029594000958
 20
43.16032364632064
 30
0.0
 10
73.95283726089036
 20
43.20224968315929
 30
0.0
 10
73.90373641102109
 20
43.24969564789838
 30
0.0
 10
73.87291559361833
 20
43.28452036830276
 30
0.0
 10
73.85712166978715
 20
43.30236606571958
 30
0.0
  0
SPLINE
  5
D1
330
1F
100
AcDbEntity
  8
0
  6
Continuous
 62
     7
370
    25
100
AcDbSpline
210
0.0
220
0.0
230
1.0
 70
     8
 71
     3
 72
    23
 73
    19
 74
     0
 42
0.000000001
 43
0.00000001
 40
0.0
 40
0.0
 40
0.0
 40
0.0
 40
0.0805952943637352
 40
0.1604515434217349
 40
0.2418700207746968
 40
0.3254069365410276
 40
0.3675226928213641
 40
0.409059180026604
 40
0.4501972477231492
 40
0.4912141426448573
 40
0.5317517532195374
 40
0.572960932581426
 40
0.614036676581567
 40
0.6558471726783921
 40
0.7396019872338637
 40
0.823816986964127
 40
0.9104315104044917
 40
1.0
 40
1.0
 40
1.0
 40
1.0
 10
74.98412487491537
 20
44.02472183495036
 30
0.0
 10
74.99729241934148
 20
43.99981173838967
 30
0.0
 10
75.02350676402405
 20
43.95021996666777
 30
0.0
 10
75.04962207878891
 20
43.86954368586417
 30
0.0
 10
75.06598424990457
 20
43.78546535191808
 30
0.0
 10
75.0695688570451
 20
43.71304434554067
 30
0.0
 10
75.06756887198866
 20
43.65469905321398
 30
0.0
 10
75.06310767483308
 20
43.61134202876498
 30
0.0
 10
75.05606049756524
 20
43.56870283144788
 30
0.0
 10
75.04540949380421
 20
43.52718993347651
 30
0.0
 10
75.03269578237537
 20
43.4862356581617
 30
0.0
 10
75.01653285472604
 20
43.44649131640427
 30
0.0
 10
74.99816319717105
 20
43.40722918887613
 30
0.0
 10
74.96919532009615
 20
43.35674109004569
 30
0.0
 10
74.92708359504135
 20
43.2965669296327
 30
0.0
 10
74.86656143294506
 20
43.23122245753794
 30
0.0
 10
74.79715499460794
 20
43.17201796529692
 30
0.0
 10
74.74474406942684
 20
43.13970625763271
 30
0.0
 10
74.71809923388972
 20
43.12327952725805
 30
0.0
  0
SPLINE
  5
D2
330
1F
100
AcDbEntity
  8
0
  6
Continuous
 62
     7
370
    25
100
AcDbSpline
210
0.0
220
0.0
230
1.0
 70
     8
 71
     3
 72
    15
 73
    11
 74
     0
 42
0.000000001
 43
0.00000001
 40
0.0
 40
0.0
 40
0.0
 40
0.0
 40
0.1304473747403708
 40
0.2573926146276505
 40
0.3826871558302637
 40
0.5055470499668895
 40
0.627982586550622
 40
0.7497193271005594
 40
0.8738306203951082
 40
1.0
 40
1.0
 40
1.0
 40
1.0
 10
74.69325949029998
 20
44.26751029648882
 30
0.0
 10
74.70884839750953
 20
44.26119189458105
 30
0.0
 10
74.73960769484182
 20
44.24872472158852
 30
0.0
 10
74.78364776429775
 20
44.22627449224925
 30
0.0
 10
74.82426650988151
 20
44.1999560054734
 30
0.0
 10
74.86286768910475
 20
44.17170528197295
 30
0.0
 10
74.89762761952524
 20
44.13944850201082
 30
0.0
 10
74.92945851687747
 20
44.10418696120405
 30
0.0
 10
74.95903944296309
 20
44.06631191219527
 30
0.0
 10
74.97571734949338
 20
44.03866098626354
 30
0.0
 10
74.98412487491537
 20
44.02472183495036
 30
0.0
  0
SPLINE
  5
D3
330
1F
100
AcDbEntity
  8
0
  6
Continuous
 62
     7
370
    25
100
AcDbSpline
210
0.0
220
0.0
230
1.0
 70
     8
 71
     3
 72
    11
 73
     7
 74
     0
 42
0.000000001
 43
0.00000001
 40
0.0
 40
0.0
 40
0.0
 40
0.0
 40
0.2575448221658422
 40
0.5076711529890837
 40
0.754215998679076
 40
1.0
 40
1.0
 40
1.0
 40
1.0
 10
74.40279474671023
 20
44.2975583734119
 30
0.0
 10
74.42800840063127
 20
44.30019112732262
 30
0.0
 10
74.47770943771489
 20
44.30538079955968
 30
0.0
 10
74.55201014835458
 20
44.30218835044041
 30
0.0
 10
74.62439117522133
 20
44.29073677911627
 30
0.0
 10
74.67032704835358
 20
44.27524447676991
 30
0.0
 10
74.69325949029998
 20
44.26751029648882
 30
0.0
  0
SPLINE
  5
D4
330
1F
100
AcDbEntity
  8
0
  6
Continuous
 62
     7
370
    25
100
AcDbSpline
210
0.0
220
0.0
230
1.0
 70
     8
 71
     3
 72
    15
 73
    11
 74
     0
 42
0.000000001
 43
0.00000001
 40
0.0
 40
0.0
 40
0.0
 40
0.0
 40
0.1242105454247704
 40
0.2439784061594682
 40
0.361131592904448
 40
0.4795822493707376
 40
0.600264115014172
 40
0.7254208927559062
 40
0.8584975931303527
 40
1.0
 40
1.0
 40
1.0
 40
1.0
 10
74.42042295183843
 20
44.78033080930933
 30
0.0
 10
74.43034419096624
 20
44.76175735357033
 30
0.0
 10
74.44983181257882
 20
44.72527476577895
 30
0.0
 10
74.46886092038554
 20
44.66687657787833
 30
0.0
 10
74.47995548618152
 20
44.60761581290978
 30
0.0
 10
74.48252171876048
 20
44.54711612336284
 30
0.0
 10
74.47529900008301
 20
44.4856508608797
 30
0.0
 10
74.45960661510395
 20
44.42334903445573
 30
0.0
 10
74.43613181228258
 20
44.35967317917499
 30
0.0
 10
74.4141321285848
 20
44.31868258638358
 30
0.0
 10
74.40279474671023
 20
44.2975583734119
 30
0.0
  0
SPLINE
  5
D5
330
1F
100
AcDbEntity
  8
0
  6
Continuous
 62
     7
370
    25
100
AcDbSpline
210
0.0
220
0.0
230
1.0
 70
     8
 71
     3
 72
    19
 73
    15
 74
     0
 42
0.000000001
 43
0.00000001
 40
0.0
 40
0.0
 40
0.0
 40
0.0
 40
0.0895167400715858
 40
0.1773824364258328
 40
0.2650886758186742
 40
0.3534136836995491
 40
0.4408889443037026
 40
0.5246250034953633
 40
0.6070486876610646
 40
0.6892970473032739
 40
0.7700032014525421
 40
0.8477273803995541
 40
0.923859381085146
 40
1.0
 40
1.0
 40
1.0
 40
1.0
 10
73.66441333645382
 20
44.9401865785401
 30
0.0
 10
73.68696676801603
 20
44.95229204716061
 30
0.0
 10
73.73165765641376
 20
44.97627971154903
 30
0.0
 10
73.80342967725525
 20
45.00120595111339
 30
0.0
 10
73.87706092129655
 20
45.01798517094918
 30
0.0
 10
73.95218387492173
 20
45.02486564992442
 30
0.0
 10
74.02645631687346
 20
45.02364204010532
 30
0.0
 10
74.09828930380218
 20
45.0127585488842
 30
0.0
 10
74.16656150985048
 20
44.99266782116648
 30
0.0
 10
74.23046924157525
 20
44.96339110083735
 30
0.0
 10
74.28879065951708
 20
44.92664015961766
 30
0.0
 10
74.34048828799625
 20
44.88384778557527
 30
0.0
 10
74.38564359838948
 20
44.83566136029623
 30
0.0
 10
74.40882939660375
 20
44.79877502219483
 30
0.0
 10
74.42042295183843
 20
44.78033080930933
 30
0.0
  0
SPLINE
  5
D6
330
1F
100
AcDbEntity
  8
0
  6
Continuous
 62
     7
370
    25
100
AcDbSpline
210
0.0
220
0.0
230
1.0
 70
     8
 71
     3
 72
    23
 73
    19
 74
     0
 42
0.000000001
 43
0.00000001
 40
0.0
 40
0.0
 40
0.0
 40
0.0
 40
0.0729609930162067
 40
0.1433311180329259
 40
0.2109700859339602
 40
0.2762068597424321
 40
0.3394872283090505
 40
0.4013263635807447
 40
0.4625296365590468
 40
0.5233089730042774
 40
0.5834523609452176
 40
0.6423638086719395
 40
0.7005174356288075
 40
0.7590683331798082
 40
0.8175373240070818
 40
0.8770548221953101
 40
0.9373924692431809
 40
1.0
 40
1.0
 40
1.0
 40
1.0
 10
73.41401269542817
 20
44.20180516828369
 30
0.0
 10
73.40825369028234
 20
44.22163213015066
 30
0.0
 10
73.3969401840897
 20
44.26058199218116
 30
0.0
 10
73.3851202711422
 20
44.31913174066715
 30
0.0
 10
73.37713134578107
 20
44.37613009592179
 30
0.0
 10
73.37465148415995
 20
44.43160467131312
 30
0.0
 10
73.37525573221852
 20
44.48552982458598
 30
0.0
 10
73.38220528693051
 20
44.5378556334268
 30
0.0
 10
73.3922181269759
 20
44.5889395583273
 30
0.0
 10
73.40770263170566
 20
44.63817050920388
 30
0.0
 10
73.42680106686949
 20
44.68537404725697
 30
0.0
 10
73.44971852257326
 20
44.73003057673046
 30
0.0
 10
73.47630708840508
 20
44.77208510535172
 30
0.0
 10
73.50685708406722
 20
44.81117275309722
 30
0.0
 10
73.54060181109492
 20
44.84808501738683
 30
0.0
 10
73.57847005515636
 20
44.88150632929333
 30
0.0
 10
73.61956476705514
 20
44.91285778163763
 30
0.0
 10
73.64928093440054
 20
44.93096554099297
 30
0.0
 10
73.66441333645382
 20
44.9401865785401
 30
0.0
  0
LINE
  5
D7
330
1F
100
AcDbEntity
  8
0
  6
Continuous
 62
     7
370
    25
100
AcDbLine
 10
73.5906953877
 20
44.3039686298
 30
0.0
 11
73.4140126954
 21
44.2018051683
 31
0.0
  0
SPLINE
  5
D8
330
1F
100
AcDbEntity
  8
0
  6
Continuous
 62
     7
370
    25
100
AcDbSpline
210
0.0
220
0.0
230
1.0
 70
     8
 71
     3
 72
    31
 73
    27
 74
     0
 42
0.000000001
 43
0.00000001
 40
0.0
 40
0.0
 40
0.0
 40
0.0
 40
0.0336454959535058
 40
0.0668061893677439
 40
0.0994548521133313
 40
0.1319880772579627
 40
0.1641940984622829
 40
0.1966631542066579
 40
0.2295563983366922
 40
0.2630764713646239
 40
0.2968880710266261
 40
0.3311645351872032
 40
0.3659854800217485
 40
0.4016729202028079
 40
0.4385106255368216
 40
0.476678637821926
 40
0.5160999820396
 40
0.5571674626939
 40
0.6005637374573588
 40
0.6468765278579348
 40
0.6968748465194767
 40
0.7501172287949801
 40
0.8069138714359886
 40
0.8675972931201279
 40
0.9317765500416318
 40
1.0
 40
1.0
 40
1.0
 40
1.0
 10
76.18062132293092
 20
43.90235564128034
 30
0.0
 10
76.16682898931302
 20
43.89482462061117
 30
0.0
 10
76.13944305769309
 20
43.87987109477658
 30
0.0
 10
76.09697328000412
 20
43.86088362110427
 30
0.0
 10
76.05340161921535
 20
43.84625417279176
 30
0.0
 10
76.00946090495444
 20
43.8343247572739
 30
0.0
 10
75.96461237349409
 20
43.82695567361068
 30
0.0
 10
75.91924538063775
 20
43.82235877365637
 30
0.0
 10
75.87302679213337
 20
43.82168463735675
 30
0.0
 10
75.82624145613667
 20
43.82431436480616
 30
0.0
 10
75.77927996976759
 20
43.83139609380084
 30
0.0
 10
75.73223719704166
 20
43.84150507703971
 30
0.0
 10
75.68568383825769
 20
43.85677711658666
 30
0.0
 10
75.63900069320867
 20
43.87512148682626
 30
0.0
 10
75.59246942131104
 20
43.89774284696173
 30
0.0
 10
75.5459683599583
 20
43.92414797141581
 30
0.0
 10
75.49983091854793
 20
43.95489214481677
 30
0.0
 10
75.45334497128763
 20
43.98939062385698
 30
0.0
 10
75.4071612201774
 20
44.02942754532752
 30
0.0
 10
75.36045147584494
 20
44.07501732567679
 30
0.0
 10
75.3133240568974
 20
44.12661365120637
 30
0.0
 10
75.26612982558869
 20
44.18459555548369
 30
0.0
 10
75.21831924261963
 20
44.24842226043246
 30
0.0
 10
75.170597619087
 20
44.31857677037752
 30
0.0
 10
75.12178101511377
 20
44.39440787554686
 30
0.0
 10
75.09054599329582
 20
44.44777414597149
 30
0.0
 10
75.07445145113604
 20
44.47527230794701
 30
0.0
  0
SPLINE
  5
D9
330
1F
100
AcDbEntity
  8
0
  6
Continuous
 62
     7
370
    25
100
AcDbSpline
210
0.0
220
0.0
230
1.0
 70
     8
 71
     3
 72
    31
 73
    27
 74
     0
 42
0.000000001
 43
0.00000001
 40
0.0
 40
0.0
 40
0.0
 40
0.0
 40
0.0649405108784214
 40
0.126653132129892
 40
0.185208432931656
 40
0.2403085388748918
 40
0.2925800096996111
 40
0.3416115108261806
 40
0.3880909933565703
 40
0.4319205461414108
 40
0.4736192819603647
 40
0.5139981514266289
 40
0.5526138189906175
 40
0.5901970665880706
 40
0.6269782262858692
 40
0.6627922992646668
 40
0.6979017493416805
 40
0.7325396930703039
 40
0.7668209269351601
 40
0.8003196689017155
 40
0.833556315766656
 40
0.8664173676831504
 40
0.8993409082799471
 40
0.9325387301079189
 40
0.9658129455270054
 40
1.0
 40
1.0
 40
1.0
 40
1.0
 10
76.25594183575143
 20
45.15756397461368
 30
0.0
 10
76.27090549552945
 20
45.13093229857554
 30
0.0
 10
76.30008904141438
 20
45.07899268278756
 30
0.0
 10
76.34042981407796
 20
45.00174295031195
 30
0.0
 10
76.37508054242956
 20
44.9268587260454
 30
0.0
 10
76.40549860752841
 20
44.8549547018775
 30
0.0
 10
76.43065160214152
 20
44.78578675620476
 30
0.0
 10
76.45139734275791
 20
44.71940458482964
 30
0.0
 10
76.46707419468187
 20
44.65572122634449
 30
0.0
 10
76.47810010319836
 20
44.59455442084607
 30
0.0
 10
76.48423420732605
 20
44.53562197512845
 30
0.0
 10
76.48788138350058
 20
44.47892272368465
 30
0.0
 10
76.48675602686818
 20
44.42405736990401
 30
0.0
 10
76.48315035082246
 20
44.37098992530255
 30
0.0
 10
76.47487331138831
 20
44.31977102233652
 30
0.0
 10
76.46383764779655
 20
44.27028873031587
 30
0.0
 10
76.44898119807098
 20
44.22283645684336
 30
0.0
 10
76.43042434008159
 20
44.17750920608598
 30
0.0
 10
76.40897395589599
 20
44.13430894187591
 30
0.0
 10
76.38417778316634
 20
44.0937267318798
 30
0.0
 10
76.35755573097244
 20
44.05514021907861
 30
0.0
 10
76.32781712430985
 20
44.01918093675317
 30
0.0
 10
76.2945930454891
 20
43.98649095828495
 30
0.0
 10
76.25952209089918
 20
43.95554018407722
 30
0.0
 10
76.22156420579435
 20
43.92709535440191
 30
0.0
 10
76.19439151122943
 20
43.91067626953876
 30
0.0
 10
76.18062132293092
 20
43.90235564128034
 30
0.0
  0
SPLINE
  5
DA
330
1F
100
AcDbEntity
  8
0
  6
Continuous
 62
     7
370
    25
100
AcDbSpline
210
0.0
220
0.0
230
1.0
 70
     8
 71
     3
 72
    31
 73
    27
 74
     0
 42
0.000000001
 43
0.00000001
 40
0.0
 40
0.0
 40
0.0
 40
0.0
 40
0.0339950448126718
 40
0.0673947171980934
 40
0.1004896505027091
 40
0.1330221893437305
 40
0.1658426432595987
 40
0.1986017894409937
 40
0.2320676034283163
 40
0.2658705105943631
 40
0.3001997943085081
 40
0.3353553484150752
 40
0.3709642920596512
 40
0.4074069001705485
 40
0.4452012950221236
 40
0.4839267413422292
 40
0.524357791481951
 40
0.5663267935249849
 40
0.6102221464991016
 40
0.6571575539644638
 40
0.7065097690990741
 40
0.7590464082298738
 40
0.814286854932211
 40
0.8728983502737807
 40
0.9348824198378298
 40
1.0
 40
1.0
 40
1.0
 40
1.0
 10
75.13014055370016
 20
45.72086525666496
 30
0.0
 10
75.14417806424052
 20
45.72858315093184
 30
0.0
 10
75.17200723929373
 20
45.74388377207669
 30
0.0
 10
75.21558507565636
 20
45.76249153533494
 30
0.0
 10
75.25947611939449
 20
45.77836890560754
 30
0.0
 10
75.30442506876898
 20
45.79000771356205
 30
0.0
 10
75.34998275886383
 20
45.79797908071089
 30
0.0
 10
75.39646374307718
 20
45.80243019524585
 30
0.0
 10
75.44361617084714
 20
45.80319902098667
 30
0.0
 10
75.49141458065621
 20
45.80031605175382
 30
0.0
 10
75.5397072817792
 20
45.79406279508667
 30
0.0
 10
75.58806419380421
 20
45.78316732122793
 30
0.0
 10
75.6362703781683
 20
45.76806067240256
 30
0.0
 10
75.6847518975278
 20
45.74984897610447
 30
0.0
 10
75.73253257794252
 20
45.72630693061197
 30
0.0
 10
75.78052556517635
 20
45.69925614084871
 30
0.0
 10
75.82865902575564
 20
45.66855450960044
 30
0.0
 10
75.8763558893519
 20
45.63295792781696
 30
0.0
 10
75.9245960856378
 20
45.59309396078759
 30
0.0
 10
75.97232891935893
 20
45.54741138584976
 30
0.0
 10
76.0202725866483
 20
45.49624163567994
 30
0.0
 10
76.0677078553874
 20
45.43939257096754
 30
0.0
 10
76.1149952777417
 20
45.37688763040944
 30
0.0
 10
76.16284889416976
 20
45.30927593649316
 30
0.0
 10
76.20986683929584
 20
45.23548975340753
 30
0.0
 10
76.24033313584711
 20
45.18396267650346
 30
0.0
 10
76.25594183575143
 20
45.15756397461368
 30
0.0
  0
SPLINE
  5
DB
330
1F
100
AcDbEntity
  8
0
  6
Continuous
 62
     7
370
    25
100
AcDbSpline
210
0.0
220
0.0
230
1.0
 70
     8
 71
     3
 72
    31
 73
    27
 74
     0
 42
0.000000001
 43
0.00000001
 40
0.0
 40
0.0
 40
0.0
 40
0.0
 40
0.0684257301809696
 40
0.133078045707295
 40
0.1938999893094366
 40
0.2508424588443159
 40
0.3040062327028832
 40
0.3535151699365257
 40
0.3995944435228867
 40
0.4426248176767026
 40
0.4831971491225833
 40
0.5224017257989386
 40
0.5601112408004739
 40
0.5967683221327201
 40
0.6325636909717396
 40
0.6674234486983375
 40
0.7018485540728233
 40
0.73595929008855
 40
0.7696886735238033
 40
0.8027595434531145
 40
0.8355715158028184
 40
0.8680158003674369
 40
0.900339117782649
 40
0.9331535773010017
 40
0.9662355504268413
 40
0.9999999999999999
 40
0.9999999999999999
 40
0.9999999999999999
 40
0.9999999999999999
 10
75.07445145113604
 20
44.47527230794701
 30
0.0
 10
75.05861983955522
 20
44.50307102605507
 30
0.0
 10
75.02782966860633
 20
44.55713547036868
 30
0.0
 10
74.98638319518643
 20
44.63777129957607
 30
0.0
 10
74.94928230796104
 20
44.71456759141747
 30
0.0
 10
74.91755174254003
 20
44.78792777524215
 30
0.0
 10
74.89090179798706
 20
44.85765736037748
 30
0.0
 10
74.86966599463865
 20
44.92390049055834
 30
0.0
 10
74.85283655611728
 20
44.98652297166365
 30
0.0
 10
74.84161590217086
 20
45.04615577454057
 30
0.0
 10
74.83474084436939
 20
45.1031907689866
 30
0.0
 10
74.83160549872515
 20
45.15805118409831
 30
0.0
 10
74.83140509458592
 20
45.21117767120041
 30
0.0
 10
74.83501531698845
 20
45.2625972418497
 30
0.0
 10
74.84215334091812
 20
45.31229959826318
 30
0.0
 10
74.85299830895069
 20
45.36026776228508
 30
0.0
 10
74.86753116723273
 20
45.40641850029012
 30
0.0
 10
74.88513410982708
 20
45.45090097227853
 30
0.0
 10
74.90573860710853
 20
45.49341972056829
 30
0.0
 10
74.9302294387249
 20
45.53307489456746
 30
0.0
 10
74.9563484840491
 20
45.57095479787658
 30
0.0
 10
74.98592100274159
 20
45.60575759015547
 30
0.0
 10
75.01761231282286
 20
45.63863938313534
 30
0.0
 10
75.05262305263325
 20
45.66842127583384
 30
0.0
 10
75.08991093825122
 20
45.69644744507544
 30
0.0
 10
75.11663971833815
 20
45.7126707748015
 30
0.0
 10
75.13014055370016
 20
45.72086525666496
 30
0.0
  0
LINE
  5
DC
330
1F
100
AcDbEntity
  8
0
  6
Continuous
 62
     7
370
    25
100
AcDbLine
 10
77.3964844972
 20
45.3322547964
 30
0.0
 11
76.9798178305
 21
46.0538092836
 31
0.0
  0
LINE
  5
DD
330
1F
100
AcDbEntity
  8
0
  6
Continuous
 62
     7
370
    25
100
AcDbLine
 10
76.9798178305
 20
46.0538092836
 30
0.0
 11
76.8868691126
 21
45.0377836426
 31
0.0
  0
LINE
  5
DE
330
1F
100
AcDbEntity
  8
0
  6
Continuous
 62
     7
370
    25
100
AcDbLine
 10
76.8868691126
 20
45.0377836426
 30
0.0
 11
77.3964844972
 21
45.3322547964
 31
0.0
  0
SPLINE
  5
DF
330
1F
100
AcDbEntity
  8
0
  6
Continuous
 62
     7
370
    25
100
AcDbSpline
210
0.0
220
0.0
230
1.0
 70
     8
 71
     3
 72
    27
 73
    23
 74
     0
 42
0.000000001
 43
0.00000001
 40
0.0
 40
0.0
 40
0.0
 40
0.0
 40
0.0593292303258796
 40
0.1182404270477361
 40
0.1792014033712483
 40
0.2433956689168404
 40
0.2764899414798794
 40
0.3100835429170464
 40
0.3442473001829791
 40
0.3794554532768048
 40
0.4158980793336967
 40
0.4534222192089831
 40
0.4922161219929367
 40
0.5327160579953073
 40
0.5759425118312825
 40
0.6233043329318492
 40
0.6749793574095712
 40
0.7309686931381825
 40
0.791501417047956
 40
0.8561811647926614
 40
0.9258742620821351
 40
1.0
 40
1.0
 40
1.0
 40
1.0
 10
75.23150273318734
 20
45.55980756435727
 30
0.0
 10
75.2129705135196
 20
45.5478999339629
 30
0.0
 10
75.17603665215617
 20
45.52416857430725
 30
0.0
 10
75.12915124552306
 20
45.47653985945995
 30
0.0
 10
75.08896735905263
 20
45.42119008407216
 30
0.0
 10
75.06297428141437
 20
45.36839888935086
 30
0.0
 10
75.04568211559295
 20
45.32306796358011
 30
0.0
 10
75.03640124662809
 20
45.28683508192082
 30
0.0
 10
75.02901217565386
 20
45.24941683057948
 30
0.0
 10
75.02451630060459
 20
45.21042889775298
 30
0.0
 10
75.0236882112993
 20
45.16998501087987
 30
0.0
 10
75.02455538378891
 20
45.12820543004622
 30
0.0
 10
75.02942360187332
 20
45.08518799886645
 30
0.0
 10
75.035995796077
 20
45.04028373635327
 30
0.0
 10
75.04664772243305
 20
44.99287537141691
 30
0.0
 10
75.061625412543
 20
44.94233689205045
 30
0.0
 10
75.08109273330267
 20
44.88831281061143
 30
0.0
 10
75.10432129053774
 20
44.83050922781825
 30
0.0
 10
75.13207401468613
 20
44.76940041603336
 30
0.0
 10
75.16395203426491
 20
44.7046453152073
 30
0.0
 10
75.19980579851632
 20
44.63625298797242
 30
0.0
 10
75.22627413576295
 20
44.59003767723296
 30
0.0
 10
75.2399161947258
 20
44.56621782076753
 30
0.0
  0
SPLINE
  5
E0
330
1F
100
AcDbEntity
  8
0
  6
Continuous
 62
     7
370
    25
100
AcDbSpline
210
0.0
220
0.0
230
1.0
 70
     8
 71
     3
 72
    27
 73
    23
 74
     0
 42
0.000000001
 43
0.00000001
 40
0.0
 40
0.0
 40
0.0
 40
0.0
 40
0.0663761225369528
 40
0.1298706752245191
 40
0.1901543770972346
 40
0.2477046404488027
 40
0.3026252319514871
 40
0.3545558245485417
 40
0.4040852554866611
 40
0.4511035046020919
 40
0.4959900448391388
 40
0.5385941188655637
 40
0.5788559835951628
 40
0.6176403260715041
 40
0.6549602536194784
 40
0.690371487907321
 40
0.7247915445284058
 40
0.7585056600941754
 40
0.8225113834632437
 40
0.8830809066995243
 40
0.9418515002100257
 40
1.0
 40
1.0
 40
1.0
 40
1.0
 10
76.09568542549502
 20
45.06060884640855
 30
0.0
 10
76.08329685891178
 20
45.08181030376335
 30
0.0
 10
76.05905754745856
 20
45.12329280495765
 30
0.0
 10
76.0207946651811
 20
45.18233186941951
 30
0.0
 10
75.98328165412565
 20
45.2379416140305
 30
0.0
 10
75.9452337847131
 20
45.28931741145995
 30
0.0
 10
75.90672829708211
 20
45.33640056685714
 30
0.0
 10
75.86873635542804
 20
45.38004696873247
 30
0.0
 10
75.83024923991164
 20
45.41927146111413
 30
0.0
 10
75.79170006993644
 20
45.45467766878816
 30
0.0
 10
75.75324097388491
 20
45.48627171813173
 30
0.0
 10
75.71531404585637
 20
45.51451703157556
 30
0.0
 10
75.67729086812949
 20
45.53863768584316
 30
0.0
 10
75.63970419980446
 20
45.55968452290671
 30
0.0
 10
75.602124112276
 20
45.5767934665005
 30
0.0
 10
75.56497124545224
 20
45.59070471897112
 30
0.0
 10
75.5279606577894
 20
45.60081997925037
 30
0.0
 10
75.47972724567401
 20
45.60904259925076
 30
0.0
 10
75.42104051906676
 20
45.61242713585299
 30
0.0
 10
75.35327295839295
 20
45.60624709721095
 30
0.0
 10
75.28933843063663
 20
45.58924989633128
 30
0.0
 10
75.25071279360809
 20
45.56958680107599
 30
0.0
 10
75.23150273318734
 20
45.55980756435727
 30
0.0
  0
SPLINE
  5
E1
330
1F
100
AcDbEntity
  8
0
  6
Continuous
 62
     7
370
    25
100
AcDbSpline
210
0.0
220
0.0
230
1.0
 70
     8
 71
     3
 72
    19
 73
    15
 74
     0
 42
0.000000001
 43
0.00000001
 40
0.0
 40
0.0
 40
0.0
 40
0.0
 40
0.11190719343979
 40
0.2225480018728375
 40
0.3365832845264887
 40
0.4555385087741075
 40
0.5170876437384416
 40
0.5799756067239379
 40
0.6442897159047881
 40
0.7106263615116052
 40
0.7786677120021299
 40
0.8494688778532022
 40
0.9233909709940035
 40
1.0
 40
1.0
 40
1.0
 40
1.0
 10
76.09608606652067
 20
44.06261205153675
 30
0.0
 10
76.11459101273249
 20
44.07454450901301
 30
0.0
 10
76.1513914960403
 20
44.09827439166976
 30
0.0
 10
76.19850564257467
 20
44.14530623328517
 30
0.0
 10
76.2378805237205
 20
44.20034552392615
 30
0.0
 10
76.2642052883781
 20
44.25213971590699
 30
0.0
 10
76.28044594537609
 20
44.29710720374702
 30
0.0
 10
76.2907074427869
 20
44.33276822572575
 30
0.0
 10
76.2972852465862
 20
44.3702383550113
 30
0.0
 10
76.30146953548146
 20
44.40906354213041
 30
0.0
 10
76.30190580568691
 20
44.44937850686199
 30
0.0
 10
76.30053951449715
 20
44.49114409602426
 30
0.0
 10
76.29562153885031
 20
44.53436919087852
 30
0.0
 10
76.29030049051282
 20
44.56344145422584
 30
0.0
 10
76.28759247677708
 20
44.57823705153675
 30
0.0
  0
SPLINE
  5
E2
330
1F
100
AcDbEntity
  8
0
  6
Continuous
 62
     7
370
    25
100
AcDbSpline
210
0.0
220
0.0
230
1.0
 70
     8
 71
     3
 72
    27
 73
    23
 74
     0
 42
0.000000001
 43
0.00000001
 40
0.0
 40
0.0
 40
0.0
 40
0.0
 40
0.0737614008206083
 40
0.1428343052085164
 40
0.2075809484773593
 40
0.2678540571918489
 40
0.3236449465211944
 40
0.3750693914371048
 40
0.4222863347144217
 40
0.4656860447939371
 40
0.5062033097640232
 40
0.5452529151892669
 40
0.583002336656432
 40
0.619317441385985
 40
0.65437765649421
 40
0.689182586684851
 40
0.7230491035711442
 40
0.7563867717042346
 40
0.821073065761615
 40
0.8819992578406555
 40
0.9410812706387877
 40
1.0
 40
1.0
 40
1.0
 40
1.0
 10
75.2399161947258
 20
44.56621782076753
 30
0.0
 10
75.25366472554052
 20
44.54262931563746
 30
0.0
 10
75.2802878892103
 20
44.49695166169273
 30
0.0
 10
75.32127397617633
 20
44.43194545106141
 30
0.0
 10
75.36133926775506
 20
44.37230929327945
 30
0.0
 10
75.4000089435332
 20
44.31767547975954
 30
0.0
 10
75.4380071716254
 20
44.2686581268855
 30
0.0
 10
75.47537132617249
 20
44.22537691219826
 30
0.0
 10
75.51135733200303
 20
44.18701651469194
 30
0.0
 10
75.54686289426319
 20
44.15386444450424
 30
0.0
 10
75.58216114874267
 20
44.12508818658004
 30
0.0
 10
75.6174435587141
 20
44.09972280195748
 30
0.0
 10
75.65309571187855
 20
44.0777155529156
 30
0.0
 10
75.68879825988444
 20
44.05875266874848
 30
0.0
 10
75.72483965712725
 20
44.04301204537312
 30
0.0
 10
75.76102960157885
 20
44.03003448238913
 30
0.0
 10
75.79773936204695
 20
44.02099470943092
 30
0.0
 10
75.84581656787068
 20
44.012384089284
 30
0.0
 10
75.90485433304312
 20
44.00908722916345
 30
0.0
 10
75.97307322788103
 20
44.01590249555841
 30
0.0
 10
76.03763186618862
 20
44.03274212883286
 30
0.0
 10
76.07661931602797
 20
44.05266459987016
 30
0.0
 10
76.09608606652067
 20
44.06261205153675
 30
0.0
  0
SPLINE
  5
E3
330
1F
100
AcDbEntity
  8
0
  6
Continuous
 62
     7
370
    25
100
AcDbSpline
210
0.0
220
0.0
230
1.0
 70
     8
 71
     3
 72
    15
 73
    11
 74
     0
 42
0.000000001
 43
0.00000001
 40
0.0
 40
0.0
 40
0.0
 40
0.0
 40
0.1099846140738844
 40
0.2238443135472953
 40
0.3416645312227515
 40
0.4646574579827515
 40
0.5906390018519554
 40
0.7219234699877928
 40
0.8583134771985054
 40
1.0
 40
1.0
 40
1.0
 40
1.0
 10
76.28759247677708
 20
44.57823705153675
 30
0.0
 10
76.28381036827605
 20
44.59698621781344
 30
0.0
 10
76.27611289633144
 20
44.63514513931466
 30
0.0
 10
76.26010949070991
 20
44.69239157677346
 30
0.0
 10
76.24129893653627
 20
44.75112337731347
 30
0.0
 10
76.2189492874988
 20
44.81087777857112
 30
0.0
 10
76.19296807294934
 20
44.87168220765466
 30
0.0
 10
76.1642261254956
 20
44.93380409278296
 30
0.0
 10
76.13177000526048
 20
44.99717072503245
 30
0.0
 10
76.10786538892785
 20
45.03919598796237
 30
0.0
 10
76.09568542549502
 20
45.06060884640855
 30
0.0
  0
LINE
  5
E4
330
1F
100
AcDbEntity
  8
0
  6
Continuous
 62
     7
370
    25
100
AcDbLine
 10
75.4832878668
 20
42.8510670322
 30
0.0
 11
75.8230314566
 21
42.2625253655
 31
0.0
  0
LINE
  5
E5
330
1F
100
AcDbEntity
  8
0
  6
Continuous
 62
     7
370
    25
100
AcDbLine
 10
75.7889769694
 20
43.0273490835
 30
0.0
 11
75.4832878668
 21
42.8510670322
 31
0.0
  0
LINE
  5
E6
330
1F
100
AcDbEntity
  8
0
  6
Continuous
 62
     7
370
    25
100
AcDbLine
 10
75.8230314566
 20
42.2625253655
 30
0.0
 11
76.1183038925
 21
42.4279901091
 31
0.0
  0
SPLINE
  5
E7
330
1F
100
AcDbEntity
  8
0
  6
Continuous
 62
     7
370
    25
100
AcDbSpline
210
0.0
220
0.0
230
1.0
 70
     8
 71
     3
 72
    23
 73
    19
 74
     0
 42
0.000000001
 43
0.00000001
 40
0.0
 40
0.0
 40
0.0
 40
0.0
 40
0.0726650988704533
 40
0.1432791835201251
 40
0.2141492063059417
 40
0.2864034591881084
 40
0.3580746850496254
 40
0.4274852584225196
 40
0.4955995541135628
 40
0.5653878306507093
 40
0.6026512098767123
 40
0.644881537290699
 40
0.691163612621144
 40
0.7425540665786063
 40
0.7995929580214058
 40
0.8613450079470679
 40
0.9281274466669558
 40
1.0
 40
1.0
 40
1.0
 40
1.0
 10
76.38192568734178
 20
42.97927216042062
 30
0.0
 10
76.37308944622269
 20
42.99316821101242
 30
0.0
 10
76.35566637197367
 20
43.0205680881735
 30
0.0
 10
76.323026954643
 20
43.0567396695885
 30
0.0
 10
76.28538136965791
 20
43.08737247069197
 30
0.0
 10
76.24354278237887
 20
43.11245965741345
 30
0.0
 10
76.19889508931645
 20
43.13123596940697
 30
0.0
 10
76.15287007596808
 20
43.14320647674511
 30
0.0
 10
76.10591893586471
 20
43.14709071859308
 30
0.0
 10
76.06617861009228
 20
43.14453862480195
 30
0.0
 10
76.0329977747708
 20
43.13799617035605
 30
0.0
 10
76.00552769627352
 20
43.13041125448329
 30
0.0
 10
75.975752837847
 20
43.11960131797257
 30
0.0
 10
75.94309145803534
 20
43.10694968601061
 30
0.0
 10
75.90815480037276
 20
43.09069272032215
 30
0.0
 10
75.87037615542266
 20
43.07234237782881
 30
0.0
 10
75.83031258234611
 20
43.05105067627859
 30
0.0
 10
75.80308864319365
 20
43.03544063269653
 30
0.0
 10
75.78897696939308
 20
43.02734908349754
 30
0.0
  0
SPLINE
  5
E8
330
1F
100
AcDbEntity
  8
0
  6
Continuous
 62
     7
370
    25
100
AcDbSpline
210
0.0
220
0.0
230
1.0
 70
     8
 71
     3
 72
    23
 73
    19
 74
     0
 42
0.000000001
 43
0.00000001
 40
0.0
 40
0.0
 40
0.0
 40
0.0
 40
0.0713918962798021
 40
0.1375818375840157
 40
0.1989757648444549
 40
0.2557889034621066
 40
0.3073301432539901
 40
0.354982200535668
 40
0.3976724697156571
 40
0.4363999540212032
 40
0.5080022246883871
 40
0.5776882661332912
 40
0.6464766970873452
 40
0.7166520016022215
 40
0.7873809845268787
 40
0.8567603778518491
 40
0.9274893607765059
 40
1.0
 40
1.0
 40
1.0
 40
1.0
 10
76.11830389247
 20
42.42799010913856
 30
0.0
 10
76.13267640204822
 20
42.43626827802901
 30
0.0
 10
76.16037417142411
 20
42.45222142883641
 30
0.0
 10
76.19909459736037
 20
42.4774734571264
 30
0.0
 10
76.23501434985069
 20
42.50081148778155
 30
0.0
 10
76.26693628253162
 20
42.52398204442849
 30
0.0
 10
76.29530674411906
 20
42.54655250478942
 30
0.0
 10
76.31991081709768
 20
42.56848873382177
 30
0.0
 10
76.34155528236843
 20
42.58926820238761
 30
0.0
 10
76.3647671268713
 20
42.61625197497398
 30
0.0
 10
76.38822697404304
 20
42.65101056513895
 30
0.0
 10
76.41015060113257
 20
42.69486117356223
 30
0.0
 10
76.42314567596915
 20
42.741803932229
 30
0.0
 10
76.42961945230718
 20
42.79021373774284
 30
0.0
 10
76.42887747310591
 20
42.83926346089608
 30
0.0
 10
76.42061093708102
 20
42.88767576852786
 30
0.0
 10
76.40560360648017
 20
42.93500473952854
 30
0.0
 10
76.38988350413094
 20
42.96439450064282
 30
0.0
 10
76.38192568734178
 20
42.97927216042062
 30
0.0
  0
INSERT
  5
F4
330
1F
100
AcDbEntity
  8
0
  6
Continuous
 62
     7
370
    18
100
AcDbBlockReference
  2
SW_CENTERMARKSYMBOL_0
 10
76.3145660852
 20
43.2361894304
 30
0.0
  0
LINE
  5
F5
330
1F
100
AcDbEntity
  8
0
  6
Continuous
 62
     7
370
    25
100
AcDbLine
 10
60.9583559136
 20
57.5680453945
 30
0.0
 11
61.1026934809
 21
57.8180453945
 31
0.0
  0
LINE
  5
F6
330
1F
100
AcDbEntity
  8
0
  6
Continuous
 62
     7
370
    25
100
AcDbLine
 10
61.1026934809
 20
71.3180453945
 30
0.0
 11
60.9583559136
 21
71.5680453945
 31
0.0
  0
LINE
  5
F7
330
1F
100
AcDbEntity
  8
0
  6
Continuous
 62
     7
370
    25
100
AcDbLine
 10
56.2470310482
 20
71.5680453945
 30
0.0
 11
56.1026934809
 21
71.3180453945
 31
0.0
  0
LINE
  5
F8
330
1F
100
AcDbEntity
  8
0
  6
Continuous
 62
     7
370
    25
100
AcDbLine
 10
56.1026934809
 20
57.8180453945
 30
0.0
 11
56.2470310482
 21
57.5680453945
 31
0.0
  0
LINE
  5
F9
330
1F
100
AcDbEntity
  8
0
  6
Continuous
 62
     7
370
    25
100
AcDbLine
 10
56.1026934809
 20
71.3180453945
 30
0.0
 11
54.1026934809
 21
71.3180453945
 31
0.0
  0
LINE
  5
FA
330
1F
100
AcDbEntity
  8
0
  6
Continuous
 62
     7
370
    25
100
AcDbLine
 10
54.1026934809
 20
57.8180453945
 30
0.0
 11
56.1026934809
 21
57.8180453945
 31
0.0
  0
LINE
  5
FB
330
1F
100
AcDbEntity
  8
0
  6
Continuous
 62
     7
370
    25
100
AcDbLine
 10
46.6026934809
 20
69.4320453945
 30
0.0
 11
46.1026934809
 21
68.9320453945
 31
0.0
  0
LINE
  5
FC
330
1F
100
AcDbEntity
  8
0
  6
Continuous
 62
     7
370
    25
100
AcDbLine
 10
46.1026934809
 20
60.2040453945
 30
0.0
 11
46.6026934809
 21
59.7040453945
 31
0.0
  0
LINE
  5
FD
330
1F
100
AcDbEntity
  8
0
  6
Continuous
 62
     7
370
    25
100
AcDbLine
 10
51.6026934809
 20
69.4320453945
 30
0.0
 11
46.6026934809
 21
69.4320453945
 31
0.0
  0
LINE
  5
FE
330
1F
100
AcDbEntity
  8
0
  6
Continuous
 62
     7
370
    25
100
AcDbLine
 10
46.6026934809
 20
59.7040453945
 30
0.0
 11
51.6026934809
 21
59.7040453945
 31
0.0
  0
LINE
  5
FF
330
1F
100
AcDbEntity
  8
0
  6
Continuous
 62
     7
370
    25
100
AcDbLine
 10
51.6026934809
 20
59.7040453945
 30
0.0
 11
52.1026934809
 21
60.2040453945
 31
0.0
  0
LINE
  5
100
330
1F
100
AcDbEntity
  8
0
  6
Continuous
 62
     7
370
    25
100
AcDbLine
 10
52.1026934809
 20
68.9320453945
 30
0.0
 11
51.6026934809
 21
69.4320453945
 31
0.0
  0
LINE
  5
101
330
1F
100
AcDbEntity
  8
0
  6
Continuous
 62
     7
370
    25
100
AcDbLine
 10
54.1026934809
 20
68.5680453945
 30
0.0
 11
52.1026934809
 21
68.5680453945
 31
0.0
  0
LINE
  5
102
330
1F
100
AcDbEntity
  8
0
  6
Continuous
 62
     7
370
    25
100
AcDbLine
 10
52.1026934809
 20
60.5680453945
 30
0.0
 11
54.1026934809
 21
60.5680453945
 31
0.0
  0
LINE
  5
103
330
1F
100
AcDbEntity
  8
0
  6
Continuous
 62
     7
370
    25
100
AcDbLine
 10
61.1026934809
 20
63.2774499786
 30
0.0
 11
61.1039434809
 21
63.2774499786
 31
0.0
  0
LINE
  5
104
330
1F
100
AcDbEntity
  8
0
  6
Continuous
 62
     7
370
    25
100
AcDbLine
 10
61.1026934809
 20
61.8317051651
 30
0.0
 11
61.1039434809
 21
61.8317051651
 31
0.0
  0
LINE
  5
105
330
1F
100
AcDbEntity
  8
0
  6
Continuous
 62
     7
370
    25
100
AcDbLine
 10
61.1039434809
 20
62.5319724367
 30
0.0
 11
61.1026934809
 21
62.5319724367
 31
0.0
  0
LINE
  5
106
330
1F
100
AcDbEntity
  8
0
  6
Continuous
 62
     7
370
    25
100
AcDbLine
 10
61.1039434809
 20
64.5551415729
 30
0.0
 11
61.1026934809
 21
64.5551415729
 31
0.0
  0
LINE
  5
107
330
1F
100
AcDbEntity
  8
0
  6
Continuous
 62
     7
370
    25
100
AcDbLine
 10
61.1039434809
 20
63.1314535419
 30
0.0
 11
61.1026934809
 21
63.1314535419
 31
0.0
  0
LINE
  5
108
330
1F
100
AcDbEntity
  8
0
  6
Continuous
 62
     7
370
    25
100
AcDbLine
 10
61.1039434809
 20
64.6824560045
 30
0.0
 11
61.1026934809
 21
64.6824560045
 31
0.0
  0
LINE
  5
109
330
1F
100
AcDbEntity
  8
0
  6
Continuous
 62
     7
370
    25
100
AcDbLine
 10
61.1026934809
 20
71.3180453945
 30
0.0
 11
61.1026934809
 21
57.8180453945
 31
0.0
  0
SPLINE
  5
10A
330
1F
100
AcDbEntity
  8
0
  6
Continuous
 62
     7
370
    25
100
AcDbSpline
210
0.0
220
0.0
230
1.0
 70
    24
 71
     3
 72
    13
 73
     9
 74
     0
 42
0.000000001
 43
0.00000001
 40
0.0
 40
0.0
 40
0.0
 40
0.0
 40
0.1045304622647433
 40
0.2342106492977451
 40
0.424277931511914
 40
0.6149860065417653
 40
0.8072934357834274
 40
1.0
 40
1.0
 40
1.0
 40
1.0
 10
60.95655034814295
 20
57.56804539449438
 30
0.0
 10
60.95580876425761
 20
57.56804539449438
 30
0.0
 10
60.95414717356403
 20
57.56804539449438
 30
0.0
 10
60.91889663436397
 20
57.56804539449438
 30
0.0
 10
60.843605083468
 20
57.56804539449438
 30
0.0
 10
60.71274814667833
 20
57.56804539449438
 30
0.0
 10
60.54409450156377
 20
57.56804539449438
 30
0.0
 10
60.40350750243059
 20
57.56804539449438
 30
0.0
 10
60.33314113124202
 20
57.56804539449438
 30
0.0
  0
SPLINE
  5
10B
330
1F
100
AcDbEntity
  8
0
  6
Continuous
 62
     7
370
    25
100
AcDbSpline
210
0.0
220
0.0
230
1.0
 70
     8
 71
     3
 72
    16
 73
    12
 74
     0
 42
0.000000001
 43
0.00000001
 40
0.0
 40
0.0
 40
0.0
 40
0.0
 40
0.2499999999999999
 40
0.2499999999999999
 40
0.4999999999999999
 40
0.4999999999999999
 40
0.625
 40
0.625
 40
0.75
 40
0.75
 40
1.0
 40
1.0
 40
1.0
 40
1.0
 10
60.33314113124251
 20
57.56804539449433
 30
0.0
 10
60.5236356022273
 20
58.13952880744867
 30
0.0
 10
60.6806376154404
 20
58.71517890938107
 30
0.0
 10
60.89813642627841
 20
59.8784850168095
 30
0.0
 10
60.95791578734848
 20
60.46623027628043
 30
0.0
 10
60.95857228820244
 20
61.35892192946631
 30
0.0
 10
60.94395852171896
 20
61.65788560838302
 30
0.0
 10
60.88697266384212
 20
62.24926735831755
 30
0.0
 10
60.84465839458289
 20
62.54297554863675
 30
0.0
 10
60.68126357469269
 20
63.41887104317127
 30
0.0
 10
60.52387304737928
 20
63.99584964608346
 30
0.0
 10
60.33314113124227
 20
64.56804539449448
 30
0.0
  0
SPLINE
  5
10C
330
1F
100
AcDbEntity
  8
0
  6
Continuous
 62
     7
370
    25
100
AcDbSpline
210
0.0
220
0.0
230
1.0
 70
     8
 71
     3
 72
    16
 73
    12
 74
     0
 42
0.000000001
 43
0.00000001
 40
0.0
 40
0.0
 40
0.0
 40
0.0
 40
0.25
 40
0.25
 40
0.5
 40
0.5
 40
0.6250000000000001
 40
0.6250000000000001
 40
0.7500000000000002
 40
0.7500000000000002
 40
1.0
 40
1.0
 40
1.0
 40
1.0
 10
60.33314113124251
 20
64.56804539449438
 30
0.0
 10
60.5236356022273
 20
65.13952880744871
 30
0.0
 10
60.6806376154404
 20
65.71517890938111
 30
0.0
 10
60.89813642627841
 20
66.87848501680952
 30
0.0
 10
60.95791578734848
 20
67.46623027628046
 30
0.0
 10
60.95857228820244
 20
68.35892192946632
 30
0.0
 10
60.94395852171896
 20
68.65788560838303
 30
0.0
 10
60.88697266384212
 20
69.24926735831755
 30
0.0
 10
60.84465839458289
 20
69.54297554863675
 30
0.0
 10
60.6812635746927
 20
70.41887104317127
 30
0.0
 10
60.52387304737928
 20
70.99584964608347
 30
0.0
 10
60.33314113124227
 20
71.56804539449445
 30
0.0
  0
SPLINE
  5
10D
330
1F
100
AcDbEntity
  8
0
  6
Continuous
 62
     7
370
    25
100
AcDbSpline
210
0.0
220
0.0
230
1.0
 70
    24
 71
     3
 72
    13
 73
     9
 74
     0
 42
0.000000001
 43
0.00000001
 40
0.0
 40
0.0
 40
0.0
 40
0.0
 40
0.1903531465212727
 40
0.3810536215735957
 40
0.5731123243538264
 40
0.7657875985063434
 40
0.8910824497222047
 40
1.0
 40
1.0
 40
1.0
 40
1.0
 10
60.33314113124202
 20
71.56804539449442
 30
0.0
 10
60.40267949120619
 20
71.5680453944944
 30
0.0
 10
60.54188309454497
 20
71.5680453944944
 30
0.0
 10
60.71038885290831
 20
71.5680453944944
 30
0.0
 10
60.84248521541633
 20
71.56804539449439
 30
0.0
 10
60.91812134730567
 20
71.56804539449438
 30
0.0
 10
60.95368423421403
 20
71.56804539449438
 30
0.0
 10
60.9560173489406
 20
71.56804539449438
 30
0.0
 10
60.95710233478641
 20
71.56804539449438
 30
0.0
  0
LINE
  5
10E
330
1F
100
AcDbEntity
  8
0
  6
Continuous
 62
     7
370
    25
100
AcDbLine
 10
60.3331411312
 20
64.5680453945
 30
0.0
 11
56.8722458305
 21
64.5680453945
 31
0.0
  0
SPLINE
  5
10F
330
1F
100
AcDbEntity
  8
0
  6
Continuous
 62
     7
370
    25
100
AcDbSpline
210
0.0
220
0.0
230
1.0
 70
     8
 71
     3
 72
    16
 73
    12
 74
     0
 42
0.000000001
 43
0.00000001
 40
0.0
 40
0.0
 40
0.0
 40
0.0
 40
0.2499999999999998
 40
0.2499999999999998
 40
0.4999999999999997
 40
0.4999999999999997
 40
0.6249999999999997
 40
0.6249999999999997
 40
0.7499999999999997
 40
0.7499999999999997
 40
1.0
 40
1.0
 40
1.0
 40
1.0
 10
56.87224583051491
 20
71.56804539449448
 30
0.0
 10
56.68175135953013
 20
70.99656198154013
 30
0.0
 10
56.52474934631703
 20
70.42091187960774
 30
0.0
 10
56.30725053547901
 20
69.25760577217932
 30
0.0
 10
56.24747117440894
 20
68.66986051270838
 30
0.0
 10
56.24681467355498
 20
67.77716885952252
 30
0.0
 10
56.26142844003846
 20
67.47820518060583
 30
0.0
 10
56.3184142979153
 20
66.88682343067128
 30
0.0
 10
56.36072856717453
 20
66.59311524035209
 30
0.0
 10
56.52412338706473
 20
65.71721974581757
 30
0.0
 10
56.68151391437815
 20
65.14024114290538
 30
0.0
 10
56.87224583051515
 20
64.56804539449439
 30
0.0
  0
LINE
  5
110
330
1F
100
AcDbEntity
  8
0
  6
Continuous
 62
     7
370
    25
100
AcDbLine
 10
60.3331411312
 20
71.5680453945
 30
0.0
 11
56.8722458305
 21
71.5680453945
 31
0.0
  0
LINE
  5
111
330
1F
100
AcDbEntity
  8
0
  6
Continuous
 62
     7
370
    25
100
AcDbLine
 10
56.1026934809
 20
57.8180453945
 30
0.0
 11
56.1026934809
 21
71.3180453945
 31
0.0
  0
SPLINE
  5
112
330
1F
100
AcDbEntity
  8
0
  6
Continuous
 62
     7
370
    25
100
AcDbSpline
210
0.0
220
0.0
230
1.0
 70
    24
 71
     3
 72
    13
 73
     9
 74
     0
 42
0.000000001
 43
0.00000001
 40
0.0
 40
0.0
 40
0.0
 40
0.0
 40
0.1061315773799225
 40
0.2357589840303605
 40
0.4254489981650128
 40
0.6157752258043299
 40
0.8076894167229427
 40
1.0
 40
1.0
 40
1.0
 40
1.0
 10
56.24874247250156
 20
71.56804539449438
 30
0.0
 10
56.2495660368203
 20
71.56804539449438
 30
0.0
 10
56.25139548939098
 20
71.56804539449438
 30
0.0
 10
56.28699325298991
 20
71.56804539449438
 30
0.0
 10
56.36248397944515
 20
71.56804539449439
 30
0.0
 10
56.49328294985354
 20
71.5680453944944
 30
0.0
 10
56.66170872038657
 20
71.5680453944944
 30
0.0
 10
56.8020185427601
 20
71.5680453944944
 30
0.0
 10
56.8722458305154
 20
71.56804539449442
 30
0.0
  0
SPLINE
  5
113
330
1F
100
AcDbEntity
  8
0
  6
Continuous
 62
     7
370
    25
100
AcDbSpline
210
0.0
220
0.0
230
1.0
 70
     8
 71
     3
 72
    16
 73
    12
 74
     0
 42
0.000000001
 43
0.00000001
 40
0.0
 40
0.0
 40
0.0
 40
0.0
 40
0.25
 40
0.25
 40
0.5
 40
0.5
 40
0.625
 40
0.625
 40
0.75
 40
0.75
 40
1.0
 40
1.0
 40
1.0
 40
1.0
 10
56.87224583051491
 20
64.56804539449449
 30
0.0
 10
56.68175135953013
 20
63.99656198154015
 30
0.0
 10
56.52474934631703
 20
63.42091187960774
 30
0.0
 10
56.30725053547901
 20
62.25760577217932
 30
0.0
 10
56.24747117440894
 20
61.66986051270838
 30
0.0
 10
56.24681467355498
 20
60.77716885952251
 30
0.0
 10
56.26142844003846
 20
60.4782051806058
 30
0.0
 10
56.3184142979153
 20
59.88682343067126
 30
0.0
 10
56.36072856717453
 20
59.59311524035207
 30
0.0
 10
56.52412338706473
 20
58.71721974581754
 30
0.0
 10
56.68151391437815
 20
58.14024114290535
 30
0.0
 10
56.87224583051515
 20
57.56804539449435
 30
0.0
  0
SPLINE
  5
114
330
1F
100
AcDbEntity
  8
0
  6
Continuous
 62
     7
370
    25
100
AcDbSpline
210
0.0
220
0.0
230
1.0
 70
    24
 71
     3
 72
    13
 73
     9
 74
     0
 42
0.000000001
 43
0.00000001
 40
0.0
 40
0.0
 40
0.0
 40
0.0
 40
0.1899736041180775
 40
0.3802922750016118
 40
0.5719597502365531
 40
0.7642392906646704
 40
0.8894830850930981
 40
1.0
 40
1.0
 40
1.0
 40
1.0
 10
56.87224583051541
 20
57.56804539449438
 30
0.0
 10
56.80284089555828
 20
57.56804539449438
 30
0.0
 10
56.66390495899109
 20
57.56804539449438
 30
0.0
 10
56.49562805186202
 20
57.56804539449438
 30
0.0
 10
56.36359930082221
 20
57.56804539449438
 30
0.0
 10
56.28777227477971
 20
57.56804539449438
 30
0.0
 10
56.25185814408312
 20
57.56804539449438
 30
0.0
 10
56.24935149181346
 20
57.56804539449438
 30
0.0
 10
56.24817645515715
 20
57.56804539449438
 30
0.0
  0
LINE
  5
115
330
1F
100
AcDbEntity
  8
0
  6
Continuous
 62
     7
370
    25
100
AcDbLine
 10
60.3331411312
 20
57.5680453945
 30
0.0
 11
56.8722458305
 21
57.5680453945
 31
0.0
  0
LINE
  5
116
330
1F
100
AcDbEntity
  8
0
  6
Continuous
 62
     7
370
    25
100
AcDbLine
 10
54.1026934809
 20
57.8180453945
 30
0.0
 11
54.1026934809
 21
71.3180453945
 31
0.0
  0
LINE
  5
117
330
1F
100
AcDbEntity
  8
0
  6
Continuous
 62
     7
370
    25
100
AcDbLine
 10
46.1026934809
 20
60.2040453945
 30
0.0
 11
46.1026934809
 21
68.9320453945
 31
0.0
  0
LINE
  5
118
330
1F
100
AcDbEntity
  8
0
  6
Continuous
 62
     7
370
    25
100
AcDbLine
 10
46.6026934809
 20
69.4320453945
 30
0.0
 11
46.6026934809
 21
59.7040453945
 31
0.0
  0
LINE
  5
119
330
1F
100
AcDbEntity
  8
0
  6
Continuous
 62
     7
370
    25
100
AcDbLine
 10
51.6026934809
 20
59.7040453945
 30
0.0
 11
51.6026934809
 21
69.4320453945
 31
0.0
  0
LINE
  5
11A
330
1F
100
AcDbEntity
  8
0
  6
Continuous
 62
     7
370
    25
100
AcDbLine
 10
52.1026934809
 20
68.9320453945
 30
0.0
 11
52.1026934809
 21
60.2040453945
 31
0.0
  0
LINE
  5
11B
330
1F
100
AcDbEntity
  8
0
  6
Continuous
 62
     7
370
    18
100
AcDbLine
 10
46.1026934809
 20
68.8510453945
 30
0.0
 11
52.1026934809
 21
68.8510453945
 31
0.0
  0
LINE
  5
11C
330
1F
100
AcDbEntity
  8
0
  6
Continuous
 62
     7
370
    18
100
AcDbLine
 10
46.1026934809
 20
60.2850453945
 30
0.0
 11
52.1026934809
 21
60.2850453945
 31
0.0
  0
LINE
  5
11D
330
1F
100
AcDbEntity
  8
0
  6
CENTERX2
 62
     7
370
    18
100
AcDbLine
 10
45.6026934809
 20
64.5680453945
 30
0.0
 11
61.915799641
 21
64.5680453945
 31
0.0
  0
ENDSEC
  0
SECTION
  2
OBJECTS
  0
DICTIONARY
  5
C
330
0
100
AcDbDictionary
281
     1
  3
ACAD_GROUP
350
D
  3
ACAD_LAYOUT
350
1A
  3
ACAD_MLINESTYLE
350
17
  3
ACAD_PLOTSETTINGS
350
19
  3
ACAD_PLOTSTYLENAME
350
E
  3
ACAD_SCALELIST
350
47
  0
DICTIONARY
  5
D
102
{ACAD_REACTORS
330
C
102
}
330
C
100
AcDbDictionary
281
     1
  0
DICTIONARY
  5
1A
102
{ACAD_REACTORS
330
C
102
}
330
C
100
AcDbDictionary
281
     1
  3
Layout1
350
1E
  3
Layout2
350
26
  3
Model
350
22
  0
DICTIONARY
  5
17
102
{ACAD_REACTORS
330
C
102
}
330
C
100
AcDbDictionary
281
     1
  3
Standard
350
18
  0
DICTIONARY
  5
19
102
{ACAD_REACTORS
330
C
102
}
330
C
100
AcDbDictionary
281
     1
  0
ACDBDICTIONARYWDFLT
  5
E
102
{ACAD_REACTORS
330
C
102
}
330
C
100
AcDbDictionary
281
     1
  3
Normal
350
F
100
AcDbDictionaryWithDefault
340
F
  0
DICTIONARY
  5
47
102
{ACAD_REACTORS
330
C
102
}
330
C
100
AcDbDictionary
281
     1
  3
A0
350
48
  3
A1
350
49
  3
A2
350
4A
  3
A3
350
4B
  3
A4
350
4C
  3
A5
350
4D
  3
A6
350
4E
  3
A7
350
4F
  3
A8
350
50
  3
A9
350
51
  3
B0
350
52
  3
B1
350
53
  3
B2
350
54
  3
B3
350
55
  3
B4
350
56
  3
B5
350
57
  3
B6
350
58
  3
B7
350
59
  3
B8
350
5A
  3
B9
350
5B
  3
C0
350
5C
  3
C1
350
5D
  3
C2
350
5E
  3
C3
350
5F
  3
C4
350
60
  3
C5
350
61
  3
C6
350
62
  3
C7
350
63
  3
C8
350
64
  3
C9
350
65
  3
D0
350
66
  3
D1
350
67
  3
D2
350
68
  0
LAYOUT
  5
1E
102
{ACAD_REACTORS
330
1A
102
}
330
1A
100
AcDbPlotSettings
  1

  2
none_device
  4

  6

 40
0.0
 41
0.0
 42
0.0
 43
0.0
 44
0.0
 45
0.0
 46
0.0
 47
0.0
 48
0.0
 49
0.0
140
0.0
141
0.0
142
1.0
143
1.0
 70
   688
 72
     1
 73
     0
 74
     5
  7

 75
    16
147
1.0
148
0.0
149
0.0
100
AcDbLayout
  1
Layout1
 70
     1
 71
     1
 10
0.0
 20
0.0
 11
420.0
 21
297.0
 12
0.0
 22
0.0
 32
0.0
 14
1.0000000000E+20
 24
1.0000000000E+20
 34
1.0000000000E+20
 15
-1.0000000000E+20
 25
-1.0000000000E+20
 35
-1.0000000000E+20
146
0.0
 13
0.0
 23
0.0
 33
0.0
 16
1.0
 26
0.0
 36
0.0
 17
0.0
 27
1.0
 37
0.0
 76
     0
330
1B
  0
LAYOUT
  5
26
102
{ACAD_REACTORS
330
1A
102
}
330
1A
100
AcDbPlotSettings
  1

  2
none_device
  4

  6

 40
0.0
 41
0.0
 42
0.0
 43
0.0
 44
0.0
 45
0.0
 46
0.0
 47
0.0
 48
0.0
 49
0.0
140
0.0
141
0.0
142
1.0
143
1.0
 70
   688
 72
     1
 73
     0
 74
     5
  7

 75
    16
147
1.0
148
0.0
149
0.0
100
AcDbLayout
  1
Layout2
 70
     1
 71
     2
 10
0.0
 20
0.0
 11
0.0
 21
0.0
 12
0.0
 22
0.0
 32
0.0
 14
0.0
 24
0.0
 34
0.0
 15
0.0
 25
0.0
 35
0.0
146
0.0
 13
0.0
 23
0.0
 33
0.0
 16
1.0
 26
0.0
 36
0.0
 17
0.0
 27
1.0
 37
0.0
 76
     0
330
23
  0
LAYOUT
  5
22
102
{ACAD_REACTORS
330
1A
102
}
330
1A
100
AcDbPlotSettings
  1

  2
none_device
  4
Letter_(8.50_x_11.00_Inches)
  6

 40
6.35
 41
6.35
 42
6.35000508
 43
6.35000508
 44
215.9
 45
279.4
 46
0.0
 47
0.0
 48
0.0
 49
0.0
140
0.0
141
0.0
142
1.0
143
1.0
 70
  1712
 72
     1
 73
     0
 74
     0
  7

 75
     0
147
1.0
148
0.0
149
0.0
100
AcDbLayout
  1
Model
 70
     1
 71
     0
 10
0.0
 20
0.0
 11
215.9
 21
139.7
 12
0.0
 22
0.0
 32
0.0
 14
0.0
 24
0.0
 34
0.0
 15
215.9
 25
139.7
 35
0.0
146
0.0
 13
0.0
 23
0.0
 33
0.0
 16
1.0
 26
0.0
 36
0.0
 17
0.0
 27
1.0
 37
0.0
 76
     0
330
1F
331
29
  0
MLINESTYLE
  5
18
102
{ACAD_REACTORS
330
17
102
}
330
17
100
AcDbMlineStyle
  2
Standard
 70
     0
  3

 62
   256
 51
90.0
 52
90.0
 71
     2
 49
0.5
 62
   256
  6
BYLAYER
 49
-0.5
 62
   256
  6
BYLAYER
  0
ACDBPLACEHOLDER
  5
F
102
{ACAD_REACTORS
330
E
102
}
330
E
  0
SCALE
  5
48
102
{ACAD_REACTORS
330
47
102
}
330
47
100
AcDbScale
 70
     0
300
1:1
140
1.0
141
1.0
290
     1
  0
SCALE
  5
49
102
{ACAD_REACTORS
330
47
102
}
330
47
100
AcDbScale
 70
     0
300
1:2
140
1.0
141
2.0
290
     0
  0
SCALE
  5
4A
102
{ACAD_REACTORS
330
47
102
}
330
47
100
AcDbScale
 70
     0
300
1:4
140
1.0
141
4.0
290
     0
  0
SCALE
  5
4B
102
{ACAD_REACTORS
330
47
102
}
330
47
100
AcDbScale
 70
     0
300
1:5
140
1.0
141
5.0
290
     0
  0
SCALE
  5
4C
102
{ACAD_REACTORS
330
47
102
}
330
47
100
AcDbScale
 70
     0
300
1:8
140
1.0
141
8.0
290
     0
  0
SCALE
  5
4D
102
{ACAD_REACTORS
330
47
102
}
330
47
100
AcDbScale
 70
     0
300
1:10
140
1.0
141
10.0
290
     0
  0
SCALE
  5
4E
102
{ACAD_REACTORS
330
47
102
}
330
47
100
AcDbScale
 70
     0
300
1:16
140
1.0
141
16.0
290
     0
  0
SCALE
  5
4F
102
{ACAD_REACTORS
330
47
102
}
330
47
100
AcDbScale
 70
     0
300
1:20
140
1.0
141
20.0
290
     0
  0
SCALE
  5
50
102
{ACAD_REACTORS
330
47
102
}
330
47
100
AcDbScale
 70
     0
300
1:30
140
1.0
141
30.0
290
     0
  0
SCALE
  5
51
102
{ACAD_REACTORS
330
47
102
}
330
47
100
AcDbScale
 70
     0
300
1:40
140
1.0
141
40.0
290
     0
  0
SCALE
  5
52
102
{ACAD_REACTORS
330
47
102
}
330
47
100
AcDbScale
 70
     0
300
1:50
140
1.0
141
50.0
290
     0
  0
SCALE
  5
53
102
{ACAD_REACTORS
330
47
102
}
330
47
100
AcDbScale
 70
     0
300
1:100
140
1.0
141
100.0
290
     0
  0
SCALE
  5
54
102
{ACAD_REACTORS
330
47
102
}
330
47
100
AcDbScale
 70
     0
300
2:1
140
2.0
141
1.0
290
     0
  0
SCALE
  5
55
102
{ACAD_REACTORS
330
47
102
}
330
47
100
AcDbScale
 70
     0
300
4:1
140
4.0
141
1.0
290
     0
  0
SCALE
  5
56
102
{ACAD_REACTORS
330
47
102
}
330
47
100
AcDbScale
 70
     0
300
8:1
140
8.0
141
1.0
290
     0
  0
SCALE
  5
57
102
{ACAD_REACTORS
330
47
102
}
330
47
100
AcDbScale
 70
     0
300
10:1
140
10.0
141
1.0
290
     0
  0
SCALE
  5
58
102
{ACAD_REACTORS
330
47
102
}
330
47
100
AcDbScale
 70
     0
300
100:1
140
100.0
141
1.0
290
     0
  0
SCALE
  5
59
102
{ACAD_REACTORS
330
47
102
}
330
47
100
AcDbScale
 70
     0
300
1/128" = 1'-0"
140
0.0078125
141
12.0
290
     0
  0
SCALE
  5
5A
102
{ACAD_REACTORS
330
47
102
}
330
47
100
AcDbScale
 70
     0
300
1/64" = 1'-0"
140
0.015625
141
12.0
290
     0
  0
SCALE
  5
5B
102
{ACAD_REACTORS
330
47
102
}
330
47
100
AcDbScale
 70
     0
300
1/32" = 1'-0"
140
0.03125
141
12.0
290
     0
  0
SCALE
  5
5C
102
{ACAD_REACTORS
330
47
102
}
330
47
100
AcDbScale
 70
     0
300
1/16" = 1'-0"
140
0.0625
141
12.0
290
     0
  0
SCALE
  5
5D
102
{ACAD_REACTORS
330
47
102
}
330
47
100
AcDbScale
 70
     0
300
3/32" = 1'-0"
140
0.09375
141
12.0
290
     0
  0
SCALE
  5
5E
102
{ACAD_REACTORS
330
47
102
}
330
47
100
AcDbScale
 70
     0
300
1/8" = 1'-0"
140
0.125
141
12.0
290
     0
  0
SCALE
  5
5F
102
{ACAD_REACTORS
330
47
102
}
330
47
100
AcDbScale
 70
     0
300
3/16" = 1'-0"
140
0.1875
141
12.0
290
     0
  0
SCALE
  5
60
102
{ACAD_REACTORS
330
47
102
}
330
47
100
AcDbScale
 70
     0
300
1/4" = 1'-0"
140
0.25
141
12.0
290
     0
  0
SCALE
  5
61
102
{ACAD_REACTORS
330
47
102
}
330
47
100
AcDbScale
 70
     0
300
3/8" = 1'-0"
140
0.375
141
12.0
290
     0
  0
SCALE
  5
62
102
{ACAD_REACTORS
330
47
102
}
330
47
100
AcDbScale
 70
     0
300
1/2" = 1'-0"
140
0.5
141
12.0
290
     0
  0
SCALE
  5
63
102
{ACAD_REACTORS
330
47
102
}
330
47
100
AcDbScale
 70
     0
300
3/4" = 1'-0"
140
0.75
141
12.0
290
     0
  0
SCALE
  5
64
102
{ACAD_REACTORS
330
47
102
}
330
47
100
AcDbScale
 70
     0
300
1" = 1'-0"
140
1.0
141
12.0
290
     0
  0
SCALE
  5
65
102
{ACAD_REACTORS
330
47
102
}
330
47
100
AcDbScale
 70
     0
300
1-1/2" = 1'-0"
140
1.5
141
12.0
290
     0
  0
SCALE
  5
66
102
{ACAD_REACTORS
330
47
102
}
330
47
100
AcDbScale
 70
     0
300
3" = 1'-0"
140
3.0
141
12.0
290
     0
  0
SCALE
  5
67
102
{ACAD_REACTORS
330
47
102
}
330
47
100
AcDbScale
 70
     0
300
6" = 1'-0"
140
6.0
141
12.0
290
     0
  0
SCALE
  5
68
102
{ACAD_REACTORS
330
47
102
}
330
47
100
AcDbScale
 70
     0
300
1'-0" = 1'-0"
140
12.0
141
12.0
290
     0
  0
ENDSEC
  0
EOF
