  0
SECTION
  2
HEADER
  9
$ACADVER
  1
AC1015
  9
$ACADMAINTVER
 70
     6
  9
$DWGCODEPAGE
  3
DOS932
  9
$INSBASE
 10
0.0
 20
0.0
 30
0.0
  9
$EXTMIN
 10
0.0
 20
0.0
 30
0.0
  9
$EXTMAX
 10
431.8
 20
279.4
 30
0.0
  9
$LIMMIN
 10
0.0
 20
0.0
  9
$LIMMAX
 10
431.8
 20
279.4
  9
$ORTHOMODE
 70
     0
  9
$REGENMODE
 70
     1
  9
$FILLMODE
 70
     1
  9
$QTEXTMODE
 70
     0
  9
$MIRRTEXT
 70
     1
  9
$LTSCALE
 40
1.0
  9
$ATTMODE
 70
     1
  9
$TEXTSIZE
 40
3.5
  9
$TRACEWID
 40
1.0
  9
$TEXTSTYLE
  7
Standard
  9
$CLAYER
  8
0
  9
$CELTYPE
  6
ByLayer
  9
$CECOLOR
 62
   256
  9
$CELTSCALE
 40
1.0
  9
$DISPSILH
 70
     0
  9
$DIMSCALE
 40
1.0
  9
$DIMASZ
 40
3.302
  9
$DIMEXO
 40
1.0
  9
$DIMDLI
 40
3.75
  9
$DIMRND
 40
0.0
  9
$DIMDLE
 40
0.0
  9
$DIMEXE
 40
1.0
  9
$DIMTP
 40
0.0
  9
$DIMTM
 40
0.0
  9
$DIMTXT
 40
3.5
  9
$DIMCEN
 40
2.5
  9
$DIMTSZ
 40
0.0
  9
$DIMTOL
 70
     0
  9
$DIMLIM
 70
     0
  9
$DIMTIH
 70
     1
  9
$DIMTOH
 70
     1
  9
$DIMSE1
 70
     0
  9
$DIMSE2
 70
     0
  9
$DIMTAD
 70
     1
  9
$DIMZIN
 70
     1
  9
$DIMBLK
  1

  9
$DIMASO
 70
     1
  9
$DIMSHO
 70
     1
  9
$DIMPOST
  1

  9
$DIMAPOST
  1

  9
$DIMALT
 70
     0
  9
$DIMALTD
 70
     3
  9
$DIMALTF
 40
0.0393700787
  9
$DIMLFAC
 40
1.0
  9
$DIMTOFL
 70
     1
  9
$DIMTVP
 40
0.0
  9
$DIMTIX
 70
     0
  9
$DIMSOXD
 70
     0
  9
$DIMSAH
 70
     0
  9
$DIMBLK1
  1

  9
$DIMBLK2
  1

  9
$DIMSTYLE
  2
ISO-25
  9
$DIMCLRD
 70
     0
  9
$DIMCLRE
 70
     0
  9
$DIMCLRT
 70
     0
  9
$DIMTFAC
 40
1.0
  9
$DIMGAP
 40
1.524
  9
$DIMJUST
 70
     0
  9
$DIMSD1
 70
     0
  9
$DIMSD2
 70
     0
  9
$DIMTOLJ
 70
     0
  9
$DIMTZIN
 70
     1
  9
$DIMALTZ
 70
     0
  9
$DIMALTTZ
 70
     0
  9
$DIMUPT
 70
     0
  9
$DIMDEC
 70
     2
  9
$DIMTDEC
 70
     2
  9
$DIMALTU
 70
     2
  9
$DIMALTTD
 70
     3
  9
$DIMTXSTY
  7
Standard
  9
$DIMAUNIT
 70
     0
  9
$DIMADEC
 70
     2
  9
$DIMALTRND
 40
0.0
  9
$DIMAZIN
 70
     0
  9
$DIMDSEP
 70
    44
  9
$DIMATFIT
 70
     3
  9
$DIMFRAC
 70
     0
  9
$DIMLDRBLK
  1

  9
$DIMLUNIT
 70
     2
  9
$DIMLWD
 70
    -2
  9
$DIMLWE
 70
    -2
  9
$DIMTMOVE
 70
     0
  9
$LUNITS
 70
     2
  9
$LUPREC
 70
     2
  9
$SKETCHINC
 40
1.0
  9
$FILLETRAD
 40
10.0
  9
$AUNITS
 70
     0
  9
$AUPREC
 70
     2
  9
$MENU
  1
.
  9
$ELEVATION
 40
0.0
  9
$PELEVATION
 40
0.0
  9
$THICKNESS
 40
0.0
  9
$LIMCHECK
 70
     0
  9
$CHAMFERA
 40
0.0
  9
$CHAMFERB
 40
0.0
  9
$CHAMFERC
 40
0.0
  9
$CHAMFERD
 40
0.0
  9
$SKPOLY
 70
     0
  9
$TDCREATE
 40
2460082.708487905
  9
$TDUCREATE
 40
2460082.333487905
  9
$TDUPDATE
 40
2460082.708488611
  9
$TDUUPDATE
 40
2460082.333488611
  9
$TDINDWG
 40
0.0000000116
  9
$TDUSRTIMER
 40
0.0000000116
  9
$USRTIMER
 70
     1
  9
$ANGBASE
 50
0.0
  9
$ANGDIR
 70
     0
  9
$PDMODE
 70
     0
  9
$PDSIZE
 40
-1.0
  9
$PLINEWID
 40
0.0
  9
$SPLFRAME
 70
     0
  9
$SPLINETYPE
 70
     6
  9
$SPLINESEGS
 70
     8
  9
$HANDSEED
  5
13E
  9
$SURFTAB1
 70
     6
  9
$SURFTAB2
 70
     6
  9
$SURFTYPE
 70
     6
  9
$SURFU
 70
     6
  9
$SURFV
 70
     6
  9
$UCSBASE
  2

  9
$UCSNAME
  2

  9
$UCSORG
 10
0.0
 20
0.0
 30
0.0
  9
$UCSXDIR
 10
1.0
 20
0.0
 30
0.0
  9
$UCSYDIR
 10
0.0
 20
1.0
 30
0.0
  9
$UCSORTHOREF
  2

  9
$UCSORTHOVIEW
 70
     0
  9
$UCSORGTOP
 10
0.0
 20
0.0
 30
0.0
  9
$UCSORGBOTTOM
 10
0.0
 20
0.0
 30
0.0
  9
$UCSORGLEFT
 10
0.0
 20
0.0
 30
0.0
  9
$UCSORGRIGHT
 10
0.0
 20
0.0
 30
0.0
  9
$UCSORGFRONT
 10
0.0
 20
0.0
 30
0.0
  9
$UCSORGBACK
 10
0.0
 20
0.0
 30
0.0
  9
$PUCSBASE
  2

  9
$PUCSNAME
  2

  9
$PUCSORG
 10
0.0
 20
0.0
 30
0.0
  9
$PUCSXDIR
 10
1.0
 20
0.0
 30
0.0
  9
$PUCSYDIR
 10
0.0
 20
1.0
 30
0.0
  9
$PUCSORTHOREF
  2

  9
$PUCSORTHOVIEW
 70
     0
  9
$PUCSORGTOP
 10
0.0
 20
0.0
 30
0.0
  9
$PUCSORGBOTTOM
 10
0.0
 20
0.0
 30
0.0
  9
$PUCSORGLEFT
 10
0.0
 20
0.0
 30
0.0
  9
$PUCSORGRIGHT
 10
0.0
 20
0.0
 30
0.0
  9
$PUCSORGFRONT
 10
0.0
 20
0.0
 30
0.0
  9
$PUCSORGBACK
 10
0.0
 20
0.0
 30
0.0
  9
$USERI1
 70
     0
  9
$USERI2
 70
     0
  9
$USERI3
 70
     0
  9
$USERI4
 70
     0
  9
$USERI5
 70
     0
  9
$USERR1
 40
0.0
  9
$USERR2
 40
0.0
  9
$USERR3
 40
0.0
  9
$USERR4
 40
0.0
  9
$USERR5
 40
0.0
  9
$WORLDVIEW
 70
     1
  9
$SHADEDGE
 70
     3
  9
$SHADEDIF
 70
    70
  9
$TILEMODE
 70
     1
  9
$MAXACTVP
 70
    64
  9
$PINSBASE
 10
0.0
 20
0.0
 30
0.0
  9
$PLIMCHECK
 70
     0
  9
$PEXTMIN
 10
1.0000000000E+20
 20
1.0000000000E+20
 30
1.0000000000E+20
  9
$PEXTMAX
 10
-1.0000000000E+20
 20
-1.0000000000E+20
 30
-1.0000000000E+20
  9
$PLIMMIN
 10
0.0
 20
0.0
  9
$PLIMMAX
 10
420.0
 20
297.0
  9
$UNITMODE
 70
     0
  9
$VISRETAIN
 70
     1
  9
$PLINEGEN
 70
     0
  9
$PSLTSCALE
 70
     1
  9
$TREEDEPTH
 70
  3020
  9
$CMLSTYLE
  2
Standard
  9
$CMLJUST
 70
     0
  9
$CMLSCALE
 40
20.0
  9
$PROXYGRAPHICS
 70
     1
  9
$MEASUREMENT
 70
     1
  9
$CELWEIGHT
370
    -1
  9
$ENDCAPS
280
     0
  9
$JOINSTYLE
280
     0
  9
$LWDISPLAY
290
     1
  9
$INSUNITS
 70
     4
  9
$HYPERLINKBASE
  1

  9
$STYLESHEET
  1

  9
$XEDIT
290
     1
  9
$CEPSNTYPE
380
     0
  9
$PSTYLEMODE
290
     1
  9
$FINGERPRINTGUID
  2
{E3F86235-3674-414D-8677-1EAF8E6B4961}
  9
$VERSIONGUID
  2
{FAEB1C32-E019-11D5-929B-00C0DF256EC4}
  9
$EXTNAMES
290
     1
  9
$PSVPSCALE
 40
0.0
  9
$OLESTARTUP
290
     0
  0
ENDSEC
  0
SECTION
  2
CLASSES
  0
CLASS
  1
ACDBDICTIONARYWDFLT
  2
AcDbDictionaryWithDefault
  3
ObjectDBX Classes
 90
        0
280
     0
281
     0
  0
CLASS
  1
VISUALSTYLE
  2
AcDbVisualStyle
  3
ObjectDBX Classes
 90
     4095
280
     0
281
     0
  0
CLASS
  1
MATERIAL
  2
AcDbMaterial
  3
ObjectDBX Classes
 90
     1153
280
     0
281
     0
  0
CLASS
  1
SCALE
  2
AcDbScale
  3
ObjectDBX Classes
 90
     1153
280
     0
281
     0
  0
CLASS
  1
TABLESTYLE
  2
AcDbTableStyle
  3
ObjectDBX Classes
 90
     4095
280
     0
281
     0
  0
CLASS
  1
MLEADERSTYLE
  2
AcDbMLeaderStyle
  3
ACDB_MLEADERSTYLE_CLASS
 90
     4095
280
     0
281
     0
  0
CLASS
  1
SUN
  2
AcDbSun
  3
SCENEOE
 90
     1153
280
     0
281
     0
  0
CLASS
  1
ACDBPLACEHOLDER
  2
AcDbPlaceHolder
  3
ObjectDBX Classes
 90
        0
280
     0
281
     0
  0
CLASS
  1
LAYOUT
  2
AcDbLayout
  3
ObjectDBX Classes
 90
        0
280
     0
281
     0
  0
ENDSEC
  0
SECTION
  2
TABLES
  0
TABLE
  2
VPORT
  5
8
330
0
100
AcDbSymbolTable
 70
     1
  0
VPORT
  5
29
330
8
100
AcDbSymbolTableRecord
100
AcDbViewportTableRecord
  2
*Active
 70
     0
 10
0.0
 20
0.0
 11
1.0
 21
1.0
 12
215.9
 22
139.7
 13
0.0
 23
0.0
 14
10.0
 24
10.0
 15
10.0
 25
10.0
 16
0.0
 26
0.0
 36
1.0
 17
0.0
 27
0.0
 37
0.0
 40
279.4
 41
1.5454545455
 42
50.0
 43
0.0
 44
0.0
 50
0.0
 51
0.0
 71
     0
 72
  2000
 73
     1
 74
     3
 75
     0
 76
     0
 77
     0
 78
     0
281
     0
 65
     1
110
0.0
120
0.0
130
0.0
111
1.0
121
0.0
131
0.0
112
0.0
122
1.0
132
0.0
 79
     0
146
0.0
  0
ENDTAB
  0
TABLE
  2
LTYPE
  5
5
330
0
100
AcDbSymbolTable
 70
     6
  0
LTYPE
  5
14
330
5
100
AcDbSymbolTableRecord
100
AcDbLinetypeTableRecord
  2
ByBlock
 70
     0
  3

 72
    65
 73
     0
 40
0.0
  0
LTYPE
  5
15
330
5
100
AcDbSymbolTableRecord
100
AcDbLinetypeTableRecord
  2
ByLayer
 70
     0
  3

 72
    65
 73
     0
 40
0.0
  0
LTYPE
  5
16
330
5
100
AcDbSymbolTableRecord
100
AcDbLinetypeTableRecord
  2
Continuous
 70
     0
  3
Solid line
 72
    65
 73
     0
 40
0.0
  0
LTYPE
  5
6E
330
5
100
AcDbSymbolTableRecord
100
AcDbLinetypeTableRecord
  2
HIDDEN
 70
     0
  3
Hidden __ __ __ __ __ __ __ __ __ __ __ __ __ __
 72
    65
 73
     2
 40
1.905
 49
1.27
 74
     0
 49
-0.635
 74
     0
  0
LTYPE
  5
6F
330
5
100
AcDbSymbolTableRecord
100
AcDbLinetypeTableRecord
  2
PHANTOM
 70
     0
  3
Phantom ______  __  __  ______  __  __  ______
 72
    65
 73
     6
 40
12.7
 49
6.35
 74
     0
 49
-1.27
 74
     0
 49
1.27
 74
     0
 49
-1.27
 74
     0
 49
1.27
 74
     0
 49
-1.27
 74
     0
  0
LTYPE
  5
70
330
5
100
AcDbSymbolTableRecord
100
AcDbLinetypeTableRecord
  2
CENTER
 70
     0
  3
Center ____ _ ____ _ ____ _ ____ _ ____ _ ____
 72
    65
 73
     4
 40
10.16
 49
6.35
 74
     0
 49
-1.27
 74
     0
 49
1.27
 74
     0
 49
-1.27
 74
     0
  0
LTYPE
  5
71
330
5
100
AcDbSymbolTableRecord
100
AcDbLinetypeTableRecord
  2
CENTERX2
 70
     0
  3
Center (2x) ________  __  ________  __  _____
 72
    65
 73
     4
 40
20.32
 49
12.7
 74
     0
 49
-2.54
 74
     0
 49
2.54
 74
     0
 49
-2.54
 74
     0
  0
LTYPE
  5
72
330
5
100
AcDbSymbolTableRecord
100
AcDbLinetypeTableRecord
  2
DOT2
 70
     0
  3
Dot (.5x) ........................................
 72
    65
 73
     2
 40
0.635
 49
0.0
 74
     0
 49
-0.635
 74
     0
  0
ENDTAB
  0
TABLE
  2
LAYER
  5
2
330
0
100
AcDbSymbolTable
 70
     1
  0
LAYER
  5
10
330
2
100
AcDbSymbolTableRecord
100
AcDbLayerTableRecord
  2
0
 70
     0
 62
     7
  6
Continuous
370
    -3
390
F
  0
ENDTAB
  0
TABLE
  2
STYLE
  5
3
330
0
100
AcDbSymbolTable
 70
     2
  0
STYLE
  5
11
330
3
100
AcDbSymbolTableRecord
100
AcDbTextStyleTableRecord
  2
Standard
 70
     0
 40
0.0
 41
1.0
 50
0.0
 71
     0
 42
3.5
  3
txt
  4
bigfont
  0
STYLE
  5
73
330
3
100
AcDbSymbolTableRecord
100
AcDbTextStyleTableRecord
  2
SLDTEXTSTYLE0
 70
     0
 40
0.0
 41
0.7
 50
0.0
 71
     0
 42
3.5
  3
TXT
  4
bigfont
  0
ENDTAB
  0
TABLE
  2
VIEW
  5
6
330
0
100
AcDbSymbolTable
 70
     0
  0
ENDTAB
  0
TABLE
  2
UCS
  5
7
330
0
100
AcDbSymbolTable
 70
     0
  0
ENDTAB
  0
TABLE
  2
APPID
  5
9
330
0
100
AcDbSymbolTable
 70
     1
  0
APPID
  5
12
330
9
100
AcDbSymbolTableRecord
100
AcDbRegAppTableRecord
  2
ACAD
 70
     0
  0
ENDTAB
  0
TABLE
  2
DIMSTYLE
  5
A
330
0
100
AcDbSymbolTable
 70
     1
100
AcDbDimStyleTable
  0
DIMSTYLE
105
27
330
A
100
AcDbSymbolTableRecord
100
AcDbDimStyleTableRecord
  2
ISO-25
 70
     0
 41
2.5
 42
0.625
 43
3.75
 44
1.25
 73
     0
 74
     0
 77
     1
 78
     8
140
2.5
141
2.5
143
0.0393700787
147
0.625
171
     3
172
     1
178
     0
271
     2
272
     2
274
     3
278
    44
283
     0
284
     8
340
11
  0
ENDTAB
  0
TABLE
  2
BLOCK_RECORD
  5
1
330
0
100
AcDbSymbolTable
 70
     3
  0
BLOCK_RECORD
  5
1F
330
1
100
AcDbSymbolTableRecord
100
AcDbBlockTableRecord
  2
*Model_Space
340
22
  0
BLOCK_RECORD
  5
1B
330
1
100
AcDbSymbolTableRecord
100
AcDbBlockTableRecord
  2
*Paper_Space
340
1E
  0
BLOCK_RECORD
  5
23
330
1
100
AcDbSymbolTableRecord
100
AcDbBlockTableRecord
  2
*Paper_Space0
340
26
  0
BLOCK_RECORD
  5
E6
330
1
100
AcDbSymbolTableRecord
100
AcDbBlockTableRecord
  2
SW_CENTERMARKSYMBOL_0
340
0
102
{BLKREFS
331
F1
102
}
  0
BLOCK_RECORD
  5
F2
330
1
100
AcDbSymbolTableRecord
100
AcDbBlockTableRecord
  2
SW_CENTERMARKSYMBOL_1
340
0
102
{BLKREFS
331
FD
102
}
  0
ENDTAB
  0
ENDSEC
  0
SECTION
  2
BLOCKS
  0
BLOCK
  5
20
330
1F
100
AcDbEntity
  8
0
100
AcDbBlockBegin
  2
*Model_Space
 70
     0
 10
0.0
 20
0.0
 30
0.0
  3
*Model_Space
  1

  0
ENDBLK
  5
21
330
1F
100
AcDbEntity
  8
0
100
AcDbBlockEnd
  0
BLOCK
  5
1C
330
1B
100
AcDbEntity
 67
     1
  8
0
100
AcDbBlockBegin
  2
*Paper_Space
 70
     0
 10
0.0
 20
0.0
 30
0.0
  3
*Paper_Space
  1

  0
ENDBLK
  5
1D
330
1B
100
AcDbEntity
 67
     1
  8
0
100
AcDbBlockEnd
  0
BLOCK
  5
24
330
23
100
AcDbEntity
  8
0
100
AcDbBlockBegin
  2
*Paper_Space0
 70
     0
 10
0.0
 20
0.0
 30
0.0
  3
*Paper_Space0
  1

  0
ENDBLK
  5
25
330
23
100
AcDbEntity
  8
0
100
AcDbBlockEnd
  0
BLOCK
  5
E7
330
E6
100
AcDbEntity
  8
0
100
AcDbBlockBegin
  2
SW_CENTERMARKSYMBOL_0
 70
     0
 10
0.0
 20
0.0
 30
0.0
  3
SW_CENTERMARKSYMBOL_0
  1

  0
LINE
  5
E9
330
E6
100
AcDbEntity
  8
0
  6
Continuous
 62
     0
370
    18
100
AcDbLine
 10
0.0
 20
0.0
 30
0.0
 11
0.0
 21
2.5
 31
0.0
  0
LINE
  5
EA
330
E6
100
AcDbEntity
  8
0
  6
Continuous
 62
     0
370
    18
100
AcDbLine
 10
0.0
 20
0.0
 30
0.0
 11
-2.5
 21
0.0
 31
0.0
  0
LINE
  5
EB
330
E6
100
AcDbEntity
  8
0
  6
Continuous
 62
     0
370
    18
100
AcDbLine
 10
0.0
 20
0.0
 30
0.0
 11
0.0
 21
-2.5
 31
0.0
  0
LINE
  5
EC
330
E6
100
AcDbEntity
  8
0
  6
Continuous
 62
     0
370
    18
100
AcDbLine
 10
0.0
 20
0.0
 30
0.0
 11
2.5
 21
0.0
 31
0.0
  0
LINE
  5
ED
330
E6
100
AcDbEntity
  8
0
  6
Continuous
 62
     0
370
    18
100
AcDbLine
 10
0.0
 20
5.0
 30
0.0
 11
0.0
 21
12.25
 31
0.0
  0
LINE
  5
EE
330
E6
100
AcDbEntity
  8
0
  6
Continuous
 62
     0
370
    18
100
AcDbLine
 10
-5.0
 20
0.0
 30
0.0
 11
-12.25
 21
0.0
 31
0.0
  0
LINE
  5
EF
330
E6
100
AcDbEntity
  8
0
  6
Continuous
 62
     0
370
    18
100
AcDbLine
 10
0.0
 20
-5.0
 30
0.0
 11
0.0
 21
-12.25
 31
0.0
  0
LINE
  5
F0
330
E6
100
AcDbEntity
  8
0
  6
Continuous
 62
     0
370
    18
100
AcDbLine
 10
5.0
 20
0.0
 30
0.0
 11
12.25
 21
0.0
 31
0.0
  0
ENDBLK
  5
E8
330
E6
100
AcDbEntity
  8
0
100
AcDbBlockEnd
  0
BLOCK
  5
F3
330
F2
100
AcDbEntity
  8
0
100
AcDbBlockBegin
  2
SW_CENTERMARKSYMBOL_1
 70
     0
 10
0.0
 20
0.0
 30
0.0
  3
SW_CENTERMARKSYMBOL_1
  1

  0
LINE
  5
F5
330
F2
100
AcDbEntity
  8
0
  6
Continuous
 62
     0
370
    18
100
AcDbLine
 10
0.0
 20
0.0
 30
0.0
 11
0.0
 21
2.5
 31
0.0
  0
LINE
  5
F6
330
F2
100
AcDbEntity
  8
0
  6
Continuous
 62
     0
370
    18
100
AcDbLine
 10
0.0
 20
0.0
 30
0.0
 11
-2.5
 21
0.0
 31
0.0
  0
LINE
  5
F7
330
F2
100
AcDbEntity
  8
0
  6
Continuous
 62
     0
370
    18
100
AcDbLine
 10
0.0
 20
0.0
 30
0.0
 11
0.0
 21
-2.5
 31
0.0
  0
LINE
  5
F8
330
F2
100
AcDbEntity
  8
0
  6
Continuous
 62
     0
370
    18
100
AcDbLine
 10
0.0
 20
0.0
 30
0.0
 11
2.5
 21
0.0
 31
0.0
  0
LINE
  5
F9
330
F2
100
AcDbEntity
  8
0
  6
Continuous
 62
     0
370
    18
100
AcDbLine
 10
0.0
 20
5.0
 30
0.0
 11
0.0
 21
22.4272612611
 31
0.0
  0
LINE
  5
FA
330
F2
100
AcDbEntity
  8
0
  6
Continuous
 62
     0
370
    18
100
AcDbLine
 10
-5.0
 20
0.0
 30
0.0
 11
-20.25
 21
0.0
 31
0.0
  0
LINE
  5
FB
330
F2
100
AcDbEntity
  8
0
  6
Continuous
 62
     0
370
    18
100
AcDbLine
 10
0.0
 20
-5.0
 30
0.0
 11
0.0
 21
-21.9071401416
 31
0.0
  0
LINE
  5
FC
330
F2
100
AcDbEntity
  8
0
  6
Continuous
 62
     0
370
    18
100
AcDbLine
 10
5.0
 20
0.0
 30
0.0
 11
20.25
 21
0.0
 31
0.0
  0
ENDBLK
  5
F4
330
F2
100
AcDbEntity
  8
0
100
AcDbBlockEnd
  0
ENDSEC
  0
SECTION
  2
ENTITIES
  0
MTEXT
  5
74
330
1F
100
AcDbEntity
  8
0
  6
Continuous
 62
     7
370
     0
100
AcDbMText
 10
281.6465113215
 20
143.5241759625
 30
0.0
 40
4.2333333333
 41
0.0
 71
     1
 72
     1
  1
エースニップル　HN-8827
  7
SLDTEXTSTYLE0
 73
     1
 44
1.0
  0
LINE
  5
75
330
1F
100
AcDbEntity
  8
0
  6
Continuous
 62
     7
370
    25
100
AcDbLine
 10
245.7633399277
 20
90.4939405784
 30
0.0
 11
247.4707144509
 21
93.4512
 31
0.0
  0
LINE
  5
76
330
1F
100
AcDbEntity
  8
0
  6
Continuous
 62
     7
370
    25
100
AcDbLine
 10
247.4707144509
 20
128.9512
 30
0.0
 11
245.7633399277
 21
131.9084594216
 31
0.0
  0
LINE
  5
77
330
1F
100
AcDbEntity
  8
0
  6
Continuous
 62
     7
370
    25
100
AcDbLine
 10
239.178088974
 20
131.9084594216
 30
0.0
 11
237.4707144509
 21
128.9512
 31
0.0
  0
LINE
  5
78
330
1F
100
AcDbEntity
  8
0
  6
Continuous
 62
     7
370
    25
100
AcDbLine
 10
237.4707144509
 20
93.4512
 30
0.0
 11
239.178088974
 21
90.4939405784
 31
0.0
  0
LINE
  5
79
330
1F
100
AcDbEntity
  8
0
  6
Continuous
 62
     7
370
    25
100
AcDbLine
 10
237.4707144509
 20
128.1382
 30
0.0
 11
220.7887864282
 21
127.6168897493
 31
0.0
  0
LINE
  5
7A
330
1F
100
AcDbEntity
  8
0
  6
Continuous
 62
     7
370
    25
100
AcDbLine
 10
220.7887864282
 20
94.7855102507
 30
0.0
 11
237.4707144509
 21
94.2642
 31
0.0
  0
LINE
  5
7B
330
1F
100
AcDbEntity
  8
0
  6
Continuous
 62
     7
370
    25
100
AcDbLine
 10
220.7887864282
 20
127.6168897493
 30
0.0
 11
217.4707144509
 21
125.7012
 31
0.0
  0
LINE
  5
7C
330
1F
100
AcDbEntity
  8
0
  6
Continuous
 62
     7
370
    25
100
AcDbLine
 10
217.4707144509
 20
96.7012
 30
0.0
 11
220.7887864282
 21
94.7855102507
 31
0.0
  0
LINE
  5
7D
330
1F
100
AcDbEntity
  8
0
  6
Continuous
 62
     7
370
    25
100
AcDbLine
 10
255.4707144509
 20
124.7012
 30
0.0
 11
247.4707144509
 21
124.7012
 31
0.0
  0
LINE
  5
7E
330
1F
100
AcDbEntity
  8
0
  6
Continuous
 62
     7
370
    25
100
AcDbLine
 10
247.4707144509
 20
97.7012
 30
0.0
 11
255.4707144509
 21
97.7012
 31
0.0
  0
LINE
  5
7F
330
1F
100
AcDbEntity
  8
0
  6
Continuous
 62
     7
370
    25
100
AcDbLine
 10
255.4707144509
 20
97.7012
 30
0.0
 11
261.4707144509
 21
98.7012
 31
0.0
  0
LINE
  5
80
330
1F
100
AcDbEntity
  8
0
  6
Continuous
 62
     7
370
    25
100
AcDbLine
 10
261.4707144509
 20
123.7012
 30
0.0
 11
255.4707144509
 21
124.7012
 31
0.0
  0
LINE
  5
81
330
1F
100
AcDbEntity
  8
0
  6
Continuous
 62
     7
370
    25
100
AcDbLine
 10
261.4707144509
 20
97.7012
 30
0.0
 11
267.4707144509
 21
98.7012
 31
0.0
  0
LINE
  5
82
330
1F
100
AcDbEntity
  8
0
  6
Continuous
 62
     7
370
    25
100
AcDbLine
 10
267.4707144509
 20
123.7012
 30
0.0
 11
261.4707144509
 21
124.7012
 31
0.0
  0
LINE
  5
83
330
1F
100
AcDbEntity
  8
0
  6
Continuous
 62
     7
370
    25
100
AcDbLine
 10
267.4707144509
 20
97.7012
 30
0.0
 11
273.4707144509
 21
98.7012
 31
0.0
  0
LINE
  5
84
330
1F
100
AcDbEntity
  8
0
  6
Continuous
 62
     7
370
    25
100
AcDbLine
 10
273.4707144509
 20
123.7012
 30
0.0
 11
267.4707144509
 21
124.7012
 31
0.0
  0
LINE
  5
85
330
1F
100
AcDbEntity
  8
0
  6
Continuous
 62
     7
370
    25
100
AcDbLine
 10
273.4707144509
 20
97.7012
 30
0.0
 11
279.4707144509
 21
98.7012
 31
0.0
  0
LINE
  5
86
330
1F
100
AcDbEntity
  8
0
  6
Continuous
 62
     7
370
    25
100
AcDbLine
 10
279.4707144509
 20
123.7012
 30
0.0
 11
273.4707144509
 21
124.7012
 31
0.0
  0
LINE
  5
87
330
1F
100
AcDbEntity
  8
0
  6
Continuous
 62
     7
370
    25
100
AcDbLine
 10
279.4707144509
 20
97.7012
 30
0.0
 11
286.5947491855
 21
98.5917043418
 31
0.0
  0
LINE
  5
88
330
1F
100
AcDbEntity
  8
0
  6
Continuous
 62
     7
370
    25
100
AcDbLine
 10
286.5947491855
 20
123.8106956582
 30
0.0
 11
279.4707144509
 21
124.7012
 31
0.0
  0
ARC
  5
89
330
1F
100
AcDbEntity
  8
0
  6
Continuous
 62
     7
370
    25
100
AcDbCircle
 10
286.4707144509
 20
122.8184177815
 30
0.0
 40
1.0
100
AcDbArc
 50
0.0
 51
82.8749836511
  0
ARC
  5
8A
330
1F
100
AcDbEntity
  8
0
  6
Continuous
 62
     7
370
    25
100
AcDbCircle
 10
286.4707144509
 20
99.5839822185
 30
0.0
 40
1.000000000000003
100
AcDbArc
 50
277.1250163489
 51
0.0
  0
LINE
  5
8B
330
1F
100
AcDbEntity
  8
0
  6
Continuous
 62
     7
370
    25
100
AcDbLine
 10
245.7659133882
 20
131.9084594216
 30
0.0
 11
239.1755155135
 21
131.9084594216
 31
0.0
  0
LINE
  5
8C
330
1F
100
AcDbEntity
  8
0
  6
Continuous
 62
     7
370
    25
100
AcDbLine
 10
239.1755155135
 20
90.4939405784
 30
0.0
 11
245.7659133882
 21
90.4939405784
 31
0.0
  0
LINE
  5
8D
330
1F
100
AcDbEntity
  8
0
  6
Continuous
 62
     7
370
    25
100
AcDbLine
 10
245.8011409685
 20
121.3048297108
 30
0.0
 11
239.1402879332
 21
121.3048297108
 31
0.0
  0
SPLINE
  5
8E
330
1F
100
AcDbEntity
  8
0
  6
Continuous
 62
     7
370
    25
100
AcDbSpline
210
0.0
220
0.0
230
1.0
 70
     8
 71
     3
 72
    10
 73
     6
 74
     0
 42
0.000000001
 43
0.00000001
 40
0.0
 40
0.0
 40
0.0
 40
0.0
 40
0.5
 40
0.5
 40
1.0
 40
1.0
 40
1.0
 40
1.0
 10
239.1402879332344
 20
121.3048297108184
 30
0.0
 10
239.1645310385426
 20
121.3906161669556
 30
0.0
 10
239.1780436256846
 20
121.4780521226323
 30
0.0
 10
239.178134088699
 20
121.6308183972322
 30
0.0
 10
239.1645403616716
 20
121.6949326892676
 30
0.0
 10
239.1402879332344
 20
121.7378424127106
 30
0.0
  0
LINE
  5
8F
330
1F
100
AcDbEntity
  8
0
  6
Continuous
 62
     7
370
    25
100
AcDbLine
 10
239.1402879332
 20
121.7378424127
 30
0.0
 11
245.8011409685
 21
121.7378424127
 31
0.0
  0
SPLINE
  5
90
330
1F
100
AcDbEntity
  8
0
  6
Continuous
 62
     7
370
    25
100
AcDbSpline
210
0.0
220
0.0
230
1.0
 70
     8
 71
     3
 72
    10
 73
     6
 74
     0
 42
0.000000001
 43
0.00000001
 40
0.0
 40
0.0
 40
0.0
 40
0.0
 40
0.5
 40
0.5
 40
1.0
 40
1.0
 40
1.0
 40
1.0
 10
245.8011409684997
 20
121.7378424127106
 30
0.0
 10
245.7768978631915
 20
121.694949184642
 30
0.0
 10
245.7633852760495
 20
121.6315268098973
 30
0.0
 10
245.7632948130351
 20
121.4789210988192
 30
0.0
 10
245.7768885400625
 20
121.3906491577045
 30
0.0
 10
245.8011409684997
 20
121.3048297108184
 30
0.0
  0
SPLINE
  5
91
330
1F
100
AcDbEntity
  8
0
  6
Continuous
 62
     7
370
    25
100
AcDbSpline
210
0.0
220
0.0
230
1.0
 70
     8
 71
     3
 72
    18
 73
    14
 74
     0
 42
0.000000001
 43
0.00000001
 40
0.0
 40
0.0
 40
0.0
 40
0.0
 40
0.1250000000000002
 40
0.1250000000000002
 40
0.2500000000000002
 40
0.2500000000000002
 40
0.5000000000000002
 40
0.5000000000000002
 40
0.6250000000000001
 40
0.6250000000000001
 40
0.7500000000000001
 40
0.7500000000000001
 40
1.0
 40
1.0
 40
1.0
 40
1.0
 10
245.8011409684998
 20
101.0975702891814
 30
0.0
 10
246.0341368796587
 20
101.9220477337447
 30
0.0
 10
246.2481965449982
 20
102.7566228204555
 30
0.0
 10
246.6245624531412
 20
104.4311748750061
 30
0.0
 10
246.7868985205998
 20
105.2708608702324
 30
0.0
 10
247.1838107935371
 20
107.7983194151624
 30
0.0
 10
247.32654757329
 20
109.4946550879976
 30
0.0
 10
247.3262913052125
 20
112.0591456928925
 30
0.0
 10
247.2906763882914
 20
112.9194852492391
 30
0.0
 10
247.1501462526889
 20
114.6369596514208
 30
0.0
 10
247.0461048116644
 20
115.4870249879485
 30
0.0
 10
246.6462342944724
 20
118.0146927318028
 30
0.0
 10
246.2631698572108
 20
119.6698980264636
 30
0.0
 10
245.8011409684997
 20
121.3048297108184
 30
0.0
  0
LINE
  5
92
330
1F
100
AcDbEntity
  8
0
  6
Continuous
 62
     7
370
    25
100
AcDbLine
 10
239.1402879332
 20
101.0975702892
 30
0.0
 11
245.8011409685
 21
101.0975702892
 31
0.0
  0
SPLINE
  5
93
330
1F
100
AcDbEntity
  8
0
  6
Continuous
 62
     7
370
    25
100
AcDbSpline
210
0.0
220
0.0
230
1.0
 70
     8
 71
     3
 72
    18
 73
    14
 74
     0
 42
0.000000001
 43
0.00000001
 40
0.0
 40
0.0
 40
0.0
 40
0.0
 40
0.1249999999999999
 40
0.1249999999999999
 40
0.2499999999999999
 40
0.2499999999999999
 40
0.5
 40
0.5
 40
0.625
 40
0.625
 40
0.75
 40
0.75
 40
1.0
 40
1.0
 40
1.0
 40
1.0
 10
239.1402879332344
 20
101.0975702891814
 30
0.0
 10
238.9072920220754
 20
101.9220477337446
 30
0.0
 10
238.693232356736
 20
102.7566228204554
 30
0.0
 10
238.3168664485929
 20
104.4311748750061
 30
0.0
 10
238.1545303811343
 20
105.2708608702323
 30
0.0
 10
237.757618108197
 20
107.7983194151624
 30
0.0
 10
237.6148813284441
 20
109.4946550879975
 30
0.0
 10
237.6151375965216
 20
112.0591456928925
 30
0.0
 10
237.6507525134427
 20
112.9194852492391
 30
0.0
 10
237.7912826490452
 20
114.6369596514208
 30
0.0
 10
237.8953240900697
 20
115.4870249879485
 30
0.0
 10
238.2951946072616
 20
118.0146927318028
 30
0.0
 10
238.6782590445233
 20
119.6698980264635
 30
0.0
 10
239.1402879332344
 20
121.3048297108184
 30
0.0
  0
LINE
  5
94
330
1F
100
AcDbEntity
  8
0
  6
Continuous
 62
     7
370
    25
100
AcDbLine
 10
242.9633025919
 20
109.9968183807
 30
0.0
 11
244.5604580406
 21
108.9521469063
 31
0.0
  0
SPLINE
  5
95
330
1F
100
AcDbEntity
  8
0
  6
Continuous
 62
     7
370
    25
100
AcDbSpline
210
0.0
220
0.0
230
1.0
 70
     8
 71
     3
 72
    19
 73
    15
 74
     0
 42
0.000000001
 43
0.00000001
 40
0.0
 40
0.0
 40
0.0
 40
0.0
 40
0.0978059775289525
 40
0.1996122522918968
 40
0.3052960258330042
 40
0.4158173591641852
 40
0.474240566618493
 40
0.5372869128296532
 40
0.6033858352934854
 40
0.6743111580696055
 40
0.749530467357482
 40
0.8286083142695115
 40
0.9120427387714448
 40
1.0
 40
1.0
 40
1.0
 40
1.0
 10
241.9466759893286
 20
110.388044342212
 30
0.0
 10
241.9827074485763
 20
110.3867758939108
 30
0.0
 10
242.0562440658213
 20
110.3841871173482
 30
0.0
 10
242.1679395053002
 20
110.3687375970779
 30
0.0
 10
242.2817800693922
 20
110.3404012893134
 30
0.0
 10
242.3782857225663
 20
110.3097352110512
 30
0.0
 10
242.4582098881117
 20
110.2793052043461
 30
0.0
 10
242.5213238903615
 20
110.2510898019404
 30
0.0
 10
242.5879743032752
 20
110.2195415440816
 30
0.0
 10
242.6569000354549
 20
110.1825625924701
 30
0.0
 10
242.7300704443584
 20
110.1433619195375
 30
0.0
 10
242.804775806364
 20
110.097571085058
 30
0.0
 10
242.8837445919698
 20
110.0497876456705
 30
0.0
 10
242.9363207827738
 20
110.0147827161106
 30
0.0
 10
242.9633025918927
 20
109.9968183806735
 30
0.0
  0
SPLINE
  5
96
330
1F
100
AcDbEntity
  8
0
  6
Continuous
 62
     7
370
    25
100
AcDbSpline
210
0.0
220
0.0
230
1.0
 70
     8
 71
     3
 72
    19
 73
    15
 74
     0
 42
0.000000001
 43
0.00000001
 40
0.0
 40
0.0
 40
0.0
 40
0.0
 40
0.0843261511037433
 40
0.1670353409858406
 40
0.2495407139852792
 40
0.3327066655796642
 40
0.4158726171740491
 40
0.4977774155681173
 40
0.5803136056784765
 40
0.6645325781316562
 40
0.7495711764063213
 40
0.8324741628544073
 40
0.9156738488962567
 40
1.0
 40
1.0
 40
1.0
 40
1.0
 10
240.8809708611235
 20
109.3279481883658
 30
0.0
 10
240.8824990630088
 20
109.3750448980999
 30
0.0
 10
240.8855261633765
 20
109.4683352340961
 30
0.0
 10
240.9124921576832
 20
109.6055678955089
 30
0.0
 10
240.9561990468162
 20
109.7374314156851
 30
0.0
 10
241.0164141295938
 20
109.8629989036644
 30
0.0
 10
241.092469020934
 20
109.9793265579554
 30
0.0
 10
241.1840423288396
 20
110.0833662359436
 30
0.0
 10
241.2891101780882
 20
110.1747559617406
 30
0.0
 10
241.4079948783843
 20
110.2504104855337
 30
0.0
 10
241.5349215412726
 20
110.3120691277628
 30
0.0
 10
241.6684759616767
 20
110.3555578597557
 30
0.0
 10
241.8059703038891
 20
110.3836821362516
 30
0.0
 10
241.8995643148328
 20
110.3865837699071
 30
0.0
 10
241.9466759893286
 20
110.388044342212
 30
0.0
  0
SPLINE
  5
97
330
1F
100
AcDbEntity
  8
0
  6
Continuous
 62
     7
370
    25
100
AcDbSpline
210
0.0
220
0.0
230
1.0
 70
     8
 71
     3
 72
    19
 73
    15
 74
     0
 42
0.000000001
 43
0.00000001
 40
0.0
 40
0.0
 40
0.0
 40
0.0
 40
0.0859901205637197
 40
0.1691084375726415
 40
0.2505285789581879
 40
0.332255696176845
 40
0.4135763652356402
 40
0.4941261456201217
 40
0.5763059341204169
 40
0.6607126719045471
 40
0.7461272722239104
 40
0.8300149859609743
 40
0.9144197259288511
 40
1.0
 40
1.0
 40
1.0
 40
1.0
 10
241.9529860854824
 20
108.2341981883658
 30
0.0
 10
241.9040354978148
 20
108.2360247170398
 30
0.0
 10
241.8077691204163
 20
108.2396167739902
 30
0.0
 10
241.6669717057522
 20
108.2657654229345
 30
0.0
 10
241.5339136169036
 20
108.3108921486256
 30
0.0
 10
241.40807195755
 20
108.3712662962131
 30
0.0
 10
241.2931080981299
 20
108.449597005436
 30
0.0
 10
241.1892115967259
 20
108.5424232024321
 30
0.0
 10
241.0986505331227
 20
108.6506223542726
 30
0.0
 10
241.0209619691212
 20
108.7716322811569
 30
0.0
 10
240.9592385028466
 20
108.9026026026833
 30
0.0
 10
240.9136050843841
 20
109.0399292689103
 30
0.0
 10
240.8863379571311
 20
109.182438485601
 30
0.0
 10
240.8827681222096
 20
109.2792218518014
 30
0.0
 10
240.8809708611235
 20
109.3279481883658
 30
0.0
  0
SPLINE
  5
98
330
1F
100
AcDbEntity
  8
0
  6
Continuous
 62
     7
370
    25
100
AcDbSpline
210
0.0
220
0.0
230
1.0
 70
     8
 71
     3
 72
    23
 73
    19
 74
     0
 42
0.000000001
 43
0.00000001
 40
0.0
 40
0.0
 40
0.0
 40
0.0
 40
0.0652308037420294
 40
0.1284048960032228
 40
0.1900670715964781
 40
0.25094336576828
 40
0.3115458328521432
 40
0.372862802156829
 40
0.4350236738562384
 40
0.4990717247070431
 40
0.5630910750496623
 40
0.625510106330375
 40
0.6866800359296494
 40
0.7472825030135125
 40
0.8085634952159588
 40
0.8707421035159857
 40
0.9343409515059123
 40
1.0
 40
1.0
 40
1.0
 40
1.0
 10
242.9899452200978
 20
109.2725595665709
 30
0.0
 10
242.9889891084021
 20
109.2369870702358
 30
0.0
 10
242.9871070309813
 20
109.1669636697798
 30
0.0
 10
242.9726231802894
 20
109.0641568676058
 30
0.0
 10
242.9497980683658
 20
108.9653679316327
 30
0.0
 10
242.9165258124176
 20
108.8710063193773
 30
0.0
 10
242.8740234580553
 20
108.7807333375177
 30
0.0
 10
242.8230845877748
 20
108.6940309414092
 30
0.0
 10
242.761078907418
 20
108.6125289313029
 30
0.0
 10
242.6918139516342
 20
108.535177752091
 30
0.0
 10
242.615096967139
 20
108.4649506546981
 30
0.0
 10
242.533695630433
 20
108.4027745991406
 30
0.0
 10
242.4476947494348
 20
108.3505478074065
 30
0.0
 10
242.3571378835015
 20
108.3081738857919
 30
0.0
 10
242.2621646239409
 20
108.275269007194
 30
0.0
 10
242.1628964844525
 20
108.2512813621504
 30
0.0
 10
242.0592650129924
 20
108.2371017693305
 30
0.0
 10
241.9887868377262
 20
108.2351762786154
 30
0.0
 10
241.9529860854824
 20
108.2341981883658
 30
0.0
  0
SPLINE
  5
99
330
1F
100
AcDbEntity
  8
0
  6
Continuous
 62
     7
370
    25
100
AcDbSpline
210
0.0
220
0.0
230
1.0
 70
     8
 71
     3
 72
     9
 73
     5
 74
     0
 42
0.000000001
 43
0.00000001
 40
0.0
 40
0.0
 40
0.0
 40
0.0
 40
0.5126593363417812
 40
1.0
 40
1.0
 40
1.0
 40
1.0
 10
242.956291373944
 20
109.6350395345197
 30
0.0
 10
242.9661052345976
 20
109.5734692575363
 30
0.0
 10
242.9852482794188
 20
109.4533694707604
 30
0.0
 10
242.9884062248672
 20
109.331803572236
 30
0.0
 10
242.9899452200978
 20
109.2725595665709
 30
0.0
  0
LINE
  5
9A
330
1F
100
AcDbEntity
  8
0
  6
Continuous
 62
     7
370
    25
100
AcDbLine
 10
244.3704540342
 20
108.7102598871
 30
0.0
 11
242.9562913739
 21
109.6350395345
 31
0.0
  0
LINE
  5
9B
330
1F
100
AcDbEntity
  8
0
  6
Continuous
 62
     7
370
    25
100
AcDbLine
 10
244.5604580406
 20
108.9521469063
 30
0.0
 11
244.3704540342
 21
108.7102598871
 31
0.0
  0
LINE
  5
9C
330
1F
100
AcDbEntity
  8
0
  6
Continuous
 62
     7
370
    25
100
AcDbLine
 10
244.1117400919
 20
111.8678534939
 30
0.0
 11
244.4707144509
 21
111.662424808
 31
0.0
  0
LINE
  5
9D
330
1F
100
AcDbEntity
  8
0
  6
Continuous
 62
     7
370
    25
100
AcDbLine
 10
244.1117400919
 20
111.3293919554
 30
0.0
 11
244.1117400919
 21
111.8678534939
 31
0.0
  0
LINE
  5
9E
330
1F
100
AcDbEntity
  8
0
  6
Continuous
 62
     7
370
    25
100
AcDbLine
 10
240.9707144509
 20
111.3293919554
 30
0.0
 11
244.1117400919
 21
111.3293919554
 31
0.0
  0
LINE
  5
9F
330
1F
100
AcDbEntity
  8
0
  6
Continuous
 62
     7
370
    25
100
AcDbLine
 10
240.9707144509
 20
111.0152893913
 30
0.0
 11
240.9707144509
 21
111.3293919554
 31
0.0
  0
LINE
  5
A0
330
1F
100
AcDbEntity
  8
0
  6
Continuous
 62
     7
370
    25
100
AcDbLine
 10
244.4707144509
 20
111.0152893913
 30
0.0
 11
240.9707144509
 21
111.0152893913
 31
0.0
  0
LINE
  5
A1
330
1F
100
AcDbEntity
  8
0
  6
Continuous
 62
     7
370
    25
100
AcDbLine
 10
244.4707144509
 20
111.662424808
 30
0.0
 11
244.4707144509
 21
111.0152893913
 31
0.0
  0
SPLINE
  5
A2
330
1F
100
AcDbEntity
  8
0
  6
Continuous
 62
     7
370
    25
100
AcDbSpline
210
0.0
220
0.0
230
1.0
 70
     8
 71
     3
 72
    19
 73
    15
 74
     0
 42
0.000000001
 43
0.00000001
 40
0.0
 40
0.0
 40
0.0
 40
0.0
 40
0.1227280999764554
 40
0.239716523588393
 40
0.3518621792202463
 40
0.4632019818032242
 40
0.5202611541541643
 40
0.5794324380306667
 40
0.6405963441586368
 40
0.7052982290880196
 40
0.7732361059084534
 40
0.844648929340316
 40
0.9200459817773696
 40
1.0
 40
1.0
 40
1.0
 40
1.0
 10
244.2014836816363
 20
113.3858955128205
 30
0.0
 10
244.2000950184915
 20
113.4257484977528
 30
0.0
 10
244.1973826363917
 20
113.5035906464084
 30
0.0
 10
244.173542020338
 20
113.6157872148253
 30
0.0
 10
244.135769021831
 20
113.7199814425597
 30
0.0
 10
244.0901582381668
 20
113.7993564260757
 30
0.0
 10
244.045289445987
 20
113.8580691705895
 30
0.0
 10
244.0066888241439
 20
113.9008291418875
 30
0.0
 10
243.9629236251018
 20
113.9420541343732
 30
0.0
 10
243.9127934187057
 20
113.9801264419545
 30
0.0
 10
243.858021979856
 20
114.0173274379239
 30
0.0
 10
243.7983076478617
 20
114.0533019083772
 30
0.0
 10
243.7327990750587
 20
114.0868943524906
 30
0.0
 10
243.6867315585124
 20
114.107342623248
 30
0.0
 10
243.6630221431747
 20
114.1178666666667
 30
0.0
  0
SPLINE
  5
A3
330
1F
100
AcDbEntity
  8
0
  6
Continuous
 62
     7
370
    25
100
AcDbSpline
210
0.0
220
0.0
230
1.0
 70
     8
 71
     3
 72
    23
 73
    19
 74
     0
 42
0.000000001
 43
0.00000001
 40
0.0
 40
0.0
 40
0.0
 40
0.0
 40
0.0552698294993248
 40
0.109956704485094
 40
0.1632335040550554
 40
0.2180575651623569
 40
0.2732775387226742
 40
0.3308810454954968
 40
0.3904799376860884
 40
0.4536559730386416
 40
0.5189026226022309
 40
0.5833461108214764
 40
0.6485466930814431
 40
0.7150552190344908
 40
0.7825206438000539
 40
0.8523352944264507
 40
0.9249348997257083
 40
1.0
 40
1.0
 40
1.0
 40
1.0
 10
243.6525053162517
 20
112.6819692307692
 30
0.0
 10
243.6707831053346
 20
112.6823835934861
 30
0.0
 10
243.7071458998471
 20
112.6832079484591
 30
0.0
 10
243.7602703237764
 20
112.6936059341641
 30
0.0
 10
243.8117736765397
 20
112.7092273325294
 30
0.0
 10
243.8614222665252
 20
112.7307171853473
 30
0.0
 10
243.9089279102222
 20
112.7594285493341
 30
0.0
 10
243.9543488877518
 20
112.7938917507429
 30
0.0
 10
243.9984464076596
 20
112.8341234233086
 30
0.0
 10
244.0391107906347
 20
112.8811750208138
 30
0.0
 10
244.0774677169169
 20
112.9321133932707
 30
0.0
 10
244.1106258528299
 20
112.9874178386999
 30
0.0
 10
244.1387306666707
 20
113.0458685500485
 30
0.0
 10
244.1619512341341
 20
113.1075192769049
 30
0.0
 10
244.1794074756613
 20
113.1726169900836
 30
0.0
 10
244.1919441705867
 20
113.2408429362187
 30
0.0
 10
244.1997815878053
 20
113.312330789902
 30
0.0
 10
244.2009100366155
 20
113.361102498336
 30
0.0
 10
244.2014836816363
 20
113.3858955128205
 30
0.0
  0
SPLINE
  5
A4
330
1F
100
AcDbEntity
  8
0
  6
Continuous
 62
     7
370
    25
100
AcDbSpline
210
0.0
220
0.0
230
1.0
 70
     8
 71
     3
 72
    19
 73
    15
 74
     0
 42
0.000000001
 43
0.00000001
 40
0.0
 40
0.0
 40
0.0
 40
0.0
 40
0.1101423815503173
 40
0.2157418685830276
 40
0.3179605426392308
 40
0.4180517606815228
 40
0.5115631470355317
 40
0.5965727584443464
 40
0.6733290469034972
 40
0.7440491927238596
 40
0.8107168223002836
 40
0.874085452109885
 40
0.9367096168966702
 40
1.0
 40
1.0
 40
1.0
 40
1.0
 10
243.0796888098414
 20
113.5794051282051
 30
0.0
 10
243.0804268174348
 20
113.5361051592967
 30
0.0
 10
243.081872393016
 20
113.451291156999
 30
0.0
 10
243.0992353029408
 20
113.3273800048823
 30
0.0
 10
243.1235237298538
 20
113.2087497224085
 30
0.0
 10
243.1598681303506
 20
113.0981081795672
 30
0.0
 10
243.2034917843173
 20
112.9975911706713
 30
0.0
 10
243.2526806399367
 20
112.9099058215143
 30
0.0
 10
243.3084094063653
 20
112.8371302405694
 30
0.0
 10
243.3699466969778
 20
112.7790826045327
 30
0.0
 10
243.4367168722246
 20
112.7364777008115
 30
0.0
 10
243.5055803693998
 20
112.7044985007489
 30
0.0
 10
243.5781394135379
 20
112.685750997959
 30
0.0
 10
243.6276293975963
 20
112.6832342585515
 30
0.0
 10
243.6525053162517
 20
112.6819692307692
 30
0.0
  0
LINE
  5
A5
330
1F
100
AcDbEntity
  8
0
  6
Continuous
 62
     7
370
    25
100
AcDbLine
 10
242.7207144509
 20
113.5794051282
 30
0.0
 11
243.0796888098
 21
113.5794051282
 31
0.0
  0
SPLINE
  5
A6
330
1F
100
AcDbEntity
  8
0
  6
Continuous
 62
     7
370
    25
100
AcDbSpline
210
0.0
220
0.0
230
1.0
 70
     8
 71
     3
 72
    23
 73
    19
 74
     0
 42
0.000000001
 43
0.00000001
 40
0.0
 40
0.0
 40
0.0
 40
0.0
 40
0.0669051223273616
 40
0.1334773340846823
 40
0.2010229080576289
 40
0.2712178684297487
 40
0.3428591616573977
 40
0.413810998062717
 40
0.4855518488903454
 40
0.559800274920053
 40
0.5998999649035782
 40
0.6436094423977958
 40
0.6919106424505658
 40
0.7447030291556901
 40
0.8015038302285955
 40
0.8628660266331956
 40
0.9293326711591617
 40
1.0
 40
1.0
 40
1.0
 40
1.0
 10
241.9803298354825
 20
112.502482051282
 30
0.0
 10
242.0129412112084
 20
112.5040123256338
 30
0.0
 10
242.0780016929968
 20
112.5070652599052
 30
0.0
 10
242.1737187152369
 20
112.5303742463636
 30
0.0
 10
242.2659442807715
 20
112.5687115230797
 30
0.0
 10
242.3530916352477
 20
112.6223902539974
 30
0.0
 10
242.4338997939501
 20
112.6877021992223
 30
0.0
 10
242.505718438182
 20
112.764015142844
 30
0.0
 10
242.5655751366969
 20
112.8515162803179
 30
0.0
 10
242.6067782432469
 20
112.9325689564156
 30
0.0
 10
242.6342383810002
 20
113.0045359605106
 30
0.0
 10
242.6534929155184
 20
113.0660014998021
 30
0.0
 10
242.6688846492277
 20
113.1348749158522
 30
0.0
 10
242.6837730909162
 20
113.2103293983049
 30
0.0
 10
242.6962546156084
 20
113.2926831760931
 30
0.0
 10
242.7067083817501
 20
113.3820104447765
 30
0.0
 10
242.7150598970528
 20
113.4783471413961
 30
0.0
 10
242.7187914974996
 20
113.5450381732825
 30
0.0
 10
242.7207144508671
 20
113.5794051282051
 30
0.0
  0
SPLINE
  5
A7
330
1F
100
AcDbEntity
  8
0
  6
Continuous
 62
     7
370
    25
100
AcDbSpline
210
0.0
220
0.0
230
1.0
 70
     8
 71
     3
 72
    23
 73
    19
 74
     0
 42
0.000000001
 43
0.00000001
 40
0.0
 40
0.0
 40
0.0
 40
0.0
 40
0.0760618905628341
 40
0.1487324608035362
 40
0.2183745247439724
 40
0.2857225935927387
 40
0.3510576941824571
 40
0.4149349157293191
 40
0.4784859417740855
 40
0.5421690352812161
 40
0.6047501165431387
 40
0.6641185017301124
 40
0.7214996756099117
 40
0.7776159163852547
 40
0.8326661086975489
 40
0.887858028113574
 40
0.9434676608977685
 40
1.0
 40
1.0
 40
1.0
 40
1.0
 10
241.2399452200978
 20
113.3936078525641
 30
0.0
 10
241.2405601236861
 20
113.3608539065472
 30
0.0
 10
241.2417625145702
 20
113.29680639266
 30
0.0
 10
241.2528522156239
 20
113.2033577276447
 30
0.0
 10
241.2689326275843
 20
113.11442814771
 30
0.0
 10
241.294085518429
 20
113.0309251789494
 30
0.0
 10
241.3242605661859
 20
112.9517125508709
 30
0.0
 10
241.3637652418223
 20
112.8785585181847
 30
0.0
 10
241.4083793863057
 20
112.8093124427101
 30
0.0
 10
241.4602742169763
 20
112.7460029144368
 30
0.0
 10
241.5163669117339
 20
112.6889262790381
 30
0.0
 10
241.5758762620122
 20
112.6396057598815
 30
0.0
 10
241.6369570906857
 20
112.5968885495333
 30
0.0
 10
241.7010342900226
 20
112.5625510412442
 30
0.0
 10
241.7674793142087
 20
112.5353884605384
 30
0.0
 10
241.8365408675581
 20
112.5169084713116
 30
0.0
 10
241.9076374085791
 20
112.5040561012619
 30
0.0
 10
241.9559664756811
 20
112.5030096048064
 30
0.0
 10
241.9803298354825
 20
112.502482051282
 30
0.0
  0
SPLINE
  5
A8
330
1F
100
AcDbEntity
  8
0
  6
Continuous
 62
     7
370
    25
100
AcDbSpline
210
0.0
220
0.0
230
1.0
 70
     8
 71
     3
 72
    15
 73
    11
 74
     0
 42
0.000000001
 43
0.00000001
 40
0.0
 40
0.0
 40
0.0
 40
0.0
 40
0.1182713048357256
 40
0.2361775330837633
 40
0.3556629329485095
 40
0.4759041646706825
 40
0.6001273417110827
 40
0.7286081161551201
 40
0.8613134756739425
 40
1.0
 40
1.0
 40
1.0
 40
1.0
 10
241.4292481047132
 20
113.9783434294872
 30
0.0
 10
241.4141397708277
 20
113.958746852962
 30
0.0
 10
241.3839697390432
 20
113.9196141900813
 30
0.0
 10
241.3454681105054
 20
113.8558459589829
 30
0.0
 10
241.3121070851707
 20
113.7887810728972
 30
0.0
 10
241.2866233894544
 20
113.7169663986762
 30
0.0
 10
241.2650457286652
 20
113.6419516282222
 30
0.0
 10
241.2509252095327
 20
113.5625242629904
 30
0.0
 10
241.2412370381895
 20
113.4793850458786
 30
0.0
 10
241.2403821066972
 20
113.4226172823956
 30
0.0
 10
241.2399452200978
 20
113.3936078525641
 30
0.0
  0
SPLINE
  5
A9
330
1F
100
AcDbEntity
  8
0
  6
Continuous
 62
     7
370
    25
100
AcDbSpline
210
0.0
220
0.0
230
1.0
 70
     8
 71
     3
 72
    15
 73
    11
 74
     0
 42
0.000000001
 43
0.00000001
 40
0.0
 40
0.0
 40
0.0
 40
0.0
 40
0.1497703860319679
 40
0.2913164099952444
 40
0.4259663731047428
 40
0.552159573969528
 40
0.6715274135235929
 40
0.786121628691659
 40
0.8953250730704447
 40
1.0
 40
1.0
 40
1.0
 40
1.0
 10
241.9130221431747
 20
114.252482051282
 30
0.0
 10
241.8860731299061
 20
114.2442987598418
 30
0.0
 10
241.833654958288
 20
114.2283815471839
 30
0.0
 10
241.7582146526131
 20
114.2012872491488
 30
0.0
 10
241.6890565993883
 20
114.1704189770783
 30
0.0
 10
241.6256734774103
 20
114.1373044184422
 30
0.0
 10
241.5674410749461
 20
114.1025259724195
 30
0.0
 10
241.5158992059121
 20
114.0636110472831
 30
0.0
 10
241.4687840037023
 20
114.0234419021358
 30
0.0
 10
241.4422393917621
 20
113.9931625487845
 30
0.0
 10
241.4292481047132
 20
113.9783434294872
 30
0.0
  0
LINE
  5
AA
330
1F
100
AcDbEntity
  8
0
  6
Continuous
 62
     7
370
    25
100
AcDbLine
 10
241.9130221432
 20
114.5665846154
 30
0.0
 11
241.9130221432
 21
114.2524820513
 31
0.0
  0
SPLINE
  5
AB
330
1F
100
AcDbEntity
  8
0
  6
Continuous
 62
     7
370
    25
100
AcDbSpline
210
0.0
220
0.0
230
1.0
 70
     8
 71
     3
 72
    23
 73
    19
 74
     0
 42
0.000000001
 43
0.00000001
 40
0.0
 40
0.0
 40
0.0
 40
0.0
 40
0.0655411703374032
 40
0.1289631677825935
 40
0.1903771361885611
 40
0.2500923616690527
 40
0.3085484324592012
 40
0.3663979630552958
 40
0.42454218926668
 40
0.4831699964229056
 40
0.54224339983112
 40
0.6017393520173301
 40
0.6625060022496068
 40
0.7248555134488471
 40
0.7891278292811813
 40
0.8563463998785101
 40
0.9262952349869055
 40
1.0
 40
1.0
 40
1.0
 40
1.0
 10
240.8809708611235
 20
113.3992168269231
 30
0.0
 10
240.881839074382
 20
113.4366361272062
 30
0.0
 10
240.8835474285592
 20
113.5102648322763
 30
0.0
 10
240.8952260297558
 20
113.6185083306626
 30
0.0
 10
240.9165560349936
 20
113.7218300300271
 30
0.0
 10
240.9452593403597
 20
113.8203696278838
 30
0.0
 10
240.9816510824402
 20
113.9142146642774
 30
0.0
 10
241.0269697804615
 20
114.0030787694551
 30
0.0
 10
241.0802812825133
 20
114.0875086629752
 30
0.0
 10
241.1422148703199
 20
114.1667076141197
 30
0.0
 10
241.2114962100766
 20
114.240666181826
 30
0.0
 10
241.2893552200443
 20
114.3074189060561
 30
0.0
 10
241.3743526239654
 20
114.3680786989982
 30
0.0
 10
241.4674756801641
 20
114.4210213377097
 30
0.0
 10
241.5675209374419
 20
114.4686582903255
 30
0.0
 10
241.6757694358235
 20
114.5078392469729
 30
0.0
 10
241.7912534578125
 20
114.5423248156091
 30
0.0
 10
241.8717311979884
 20
114.5583582798552
 30
0.0
 10
241.9130221431747
 20
114.5665846153846
 30
0.0
  0
SPLINE
  5
AC
330
1F
100
AcDbEntity
  8
0
  6
Continuous
 62
     7
370
    25
100
AcDbSpline
210
0.0
220
0.0
230
1.0
 70
     8
 71
     3
 72
    19
 73
    15
 74
     0
 42
0.000000001
 43
0.00000001
 40
0.0
 40
0.0
 40
0.0
 40
0.0
 40
0.0796417041949911
 40
0.158908613257856
 40
0.2395997983184507
 40
0.3224093988203482
 40
0.4058277481735129
 40
0.4876442139503137
 40
0.5697199979738973
 40
0.6530646649976933
 40
0.7374573001733065
 40
0.8224924079539124
 40
0.9097550737466984
 40
1.0
 40
1.0
 40
1.0
 40
1.0
 10
242.0104780726619
 20
112.1883794871795
 30
0.0
 10
241.9614703003209
 20
112.190177952173
 30
0.0
 10
241.8636853869982
 20
112.1937664185551
 30
0.0
 10
241.7191814328986
 20
112.2257112211955
 30
0.0
 10
241.57817069342
 20
112.2755199645627
 30
0.0
 10
241.4427424892617
 20
112.345015833197
 30
0.0
 10
241.3162959117559
 20
112.4310004787729
 30
0.0
 10
241.2036738823373
 20
112.5338634850315
 30
0.0
 10
241.1062149677601
 20
112.6511042686975
 30
0.0
 10
241.0250483198282
 20
112.7819555122295
 30
0.0
 10
240.9601185036478
 20
112.9236601969088
 30
0.0
 10
240.9150642971452
 20
113.0752391748548
 30
0.0
 10
240.8857174158805
 20
113.2344883064733
 30
0.0
 10
240.8825706686126
 20
113.3436957312702
 30
0.0
 10
240.8809708611235
 20
113.3992168269231
 30
0.0
  0
SPLINE
  5
AD
330
1F
100
AcDbEntity
  8
0
  6
Continuous
 62
     7
370
    25
100
AcDbSpline
210
0.0
220
0.0
230
1.0
 70
     8
 71
     3
 72
    15
 73
    11
 74
     0
 42
0.000000001
 43
0.00000001
 40
0.0
 40
0.0
 40
0.0
 40
0.0
 40
0.1281455049994643
 40
0.2541925386280423
 40
0.378141139713589
 40
0.5013808330744057
 40
0.623956978444704
 40
0.7470758858273293
 40
0.8728647202442611
 40
1.0
 40
1.0
 40
1.0
 40
1.0
 10
242.6323731047132
 20
112.3973137820513
 30
0.0
 10
242.6093178103882
 20
112.3804655842803
 30
0.0
 10
242.563584768146
 20
112.3470450896424
 30
0.0
 10
242.4900124428263
 20
112.3059097094266
 30
0.0
 10
242.4158682112768
 20
112.268165225444
 30
0.0
 10
242.3382368179412
 20
112.2403863778205
 30
0.0
 10
242.2596119204933
 20
112.2164143331316
 30
0.0
 10
242.1783098456395
 20
112.2006415259362
 30
0.0
 10
242.0951030319085
 20
112.1905160146296
 30
0.0
 10
242.0387863266875
 20
112.1890941860382
 30
0.0
 10
242.0104780726619
 20
112.1883794871795
 30
0.0
  0
SPLINE
  5
AE
330
1F
100
AcDbEntity
  8
0
  6
Continuous
 62
     7
370
    25
100
AcDbSpline
210
0.0
220
0.0
230
1.0
 70
     8
 71
     3
 72
    11
 73
     7
 74
     0
 42
0.000000001
 43
0.00000001
 40
0.0
 40
0.0
 40
0.0
 40
0.0
 40
0.2538796003266563
 40
0.5030089172783634
 40
0.7502910806899739
 40
1.0
 40
1.0
 40
1.0
 40
1.0
 10
242.9310509893286
 20
112.7766206730769
 30
0.0
 10
242.9130728177871
 20
112.7393889185036
 30
0.0
 10
242.8774528601769
 20
112.6656220442364
 30
0.0
 10
242.8075971026597
 20
112.5650715147035
 30
0.0
 10
242.7269407553058
 20
112.4737936393465
 30
0.0
 10
242.6639981023922
 20
112.4228899203427
 30
0.0
 10
242.6323731047132
 20
112.3973137820513
 30
0.0
  0
SPLINE
  5
AF
330
1F
100
AcDbEntity
  8
0
  6
Continuous
 62
     7
370
    25
100
AcDbSpline
210
0.0
220
0.0
230
1.0
 70
     8
 71
     3
 72
    15
 73
    11
 74
     0
 42
0.000000001
 43
0.00000001
 40
0.0
 40
0.0
 40
0.0
 40
0.0
 40
0.1280675485958903
 40
0.2506083188676687
 40
0.370630165914503
 40
0.4900722467299488
 40
0.6103747641546198
 40
0.7343130699115255
 40
0.8632165042449891
 40
1.0
 40
1.0
 40
1.0
 40
1.0
 10
243.651103072662
 20
112.3678666666667
 30
0.0
 10
243.6140962779563
 20
112.3690302577137
 30
0.0
 10
243.5416797234932
 20
112.3713072248248
 30
0.0
 10
243.435958226355
 20
112.3906409303872
 30
0.0
 10
243.3363166260729
 20
112.4231771932634
 30
0.0
 10
243.2423354639494
 20
112.4682469558413
 30
0.0
 10
243.1546106241263
 20
112.5265885060816
 30
0.0
 10
243.0729447332658
 20
112.5972612029719
 30
0.0
 10
242.9969755751375
 20
112.6807638647474
 30
0.0
 10
242.9534561021621
 20
112.7440428027707
 30
0.0
 10
242.9310509893286
 20
112.7766206730769
 30
0.0
  0
SPLINE
  5
B0
330
1F
100
AcDbEntity
  8
0
  6
Continuous
 62
     7
370
    25
100
AcDbSpline
210
0.0
220
0.0
230
1.0
 70
     8
 71
     3
 72
    19
 73
    15
 74
     0
 42
0.000000001
 43
0.00000001
 40
0.0
 40
0.0
 40
0.0
 40
0.0
 40
0.0902542493426763
 40
0.1785397915286845
 40
0.2660930338538198
 40
0.3546309779571732
 40
0.4418861533505627
 40
0.5257469151636482
 40
0.6081136336036366
 40
0.6901972728278826
 40
0.770821484330335
 40
0.8483261812554109
 40
0.9240117400247433
 40
1.0
 40
1.0
 40
1.0
 40
1.0
 10
244.5604580406106
 20
113.3901022435897
 30
0.0
 10
244.5590788103657
 20
113.3444195015147
 30
0.0
 10
244.5563504348909
 20
113.2540504905712
 30
0.0
 10
244.5314359984118
 20
113.1212874436207
 30
0.0
 10
244.4920108660576
 20
112.9932606245186
 30
0.0
 10
244.4375371389206
 20
112.8713713767023
 30
0.0
 10
244.3703498257585
 20
112.758152944106
 30
0.0
 10
244.2903850888638
 20
112.6574167573589
 30
0.0
 10
244.1991857873764
 20
112.5705282465549
 30
0.0
 10
244.0984532230578
 20
112.4976338688948
 30
0.0
 10
243.9907977136709
 20
112.4405588698411
 30
0.0
 10
243.8799975565236
 20
112.3984724963614
 30
0.0
 10
243.7663155851347
 20
112.3728508153627
 30
0.0
 10
243.6895583059595
 20
112.3695302585525
 30
0.0
 10
243.651103072662
 20
112.3678666666667
 30
0.0
  0
SPLINE
  5
B1
330
1F
100
AcDbEntity
  8
0
  6
Continuous
 62
     7
370
    25
100
AcDbSpline
210
0.0
220
0.0
230
1.0
 70
     8
 71
     3
 72
    23
 73
    19
 74
     0
 42
0.000000001
 43
0.00000001
 40
0.0
 40
0.0
 40
0.0
 40
0.0
 40
0.0726253460834357
 40
0.1419766113262346
 40
0.2089849284189387
 40
0.2739568703644447
 40
0.3368893473968407
 40
0.3987449534945903
 40
0.4601158852788617
 40
0.5208249225900291
 40
0.5809944586324856
 40
0.6401519276014649
 40
0.6986224507562546
 40
0.7572710809271642
 40
0.8164266940046601
 40
0.8762540482034703
 40
0.937165293062537
 40
1.0
 40
1.0
 40
1.0
 40
1.0
 10
243.6630221431747
 20
114.4319692307692
 30
0.0
 10
243.6982546271501
 20
114.4234596800882
 30
0.0
 10
243.7671312515408
 20
114.4068242045311
 30
0.0
 10
243.8655385123881
 20
114.3721266310622
 30
0.0
 10
243.9586620337788
 20
114.3343273758676
 30
0.0
 10
244.0447581074742
 20
114.2889382713029
 30
0.0
 10
244.1255570102069
 20
114.2394295170767
 30
0.0
 10
244.199226134675
 20
114.1827067955409
 30
0.0
 10
244.2676391001422
 20
114.121387072975
 30
0.0
 10
244.3283523376994
 20
114.0535621236732
 30
0.0
 10
244.3833300669061
 20
113.9824334620324
 30
0.0
 10
244.4302051242484
 20
113.9069988422816
 30
0.0
 10
244.4705292771129
 20
113.828775948611
 30
0.0
 10
244.5037495089883
 20
113.7472228156624
 30
0.0
 10
244.5287750326544
 20
113.6620966439704
 30
0.0
 10
244.5469318382452
 20
113.5741670206496
 30
0.0
 10
244.5587229524596
 20
113.483203520535
 30
0.0
 10
244.559873715546
 20
113.4214559299367
 30
0.0
 10
244.5604580406106
 20
113.3901022435897
 30
0.0
  0
LINE
  5
B2
330
1F
100
AcDbEntity
  8
0
  6
Continuous
 62
     7
370
    25
100
AcDbLine
 10
243.6630221432
 20
114.1178666667
 30
0.0
 11
243.6630221432
 21
114.4319692308
 31
0.0
  0
SPLINE
  5
B3
330
1F
100
AcDbEntity
  8
0
  6
Continuous
 62
     7
370
    25
100
AcDbSpline
210
0.0
220
0.0
230
1.0
 70
     8
 71
     3
 72
    18
 73
    14
 74
     0
 42
0.000000001
 43
0.00000001
 40
0.0
 40
0.0
 40
0.0
 40
0.0
 40
0.2500000000000003
 40
0.2500000000000003
 40
0.5000000000000006
 40
0.5000000000000006
 40
0.5625000000000006
 40
0.5625000000000006
 40
0.6250000000000004
 40
0.6250000000000004
 40
0.7500000000000003
 40
0.7500000000000003
 40
1.0
 40
1.0
 40
1.0
 40
1.0
 10
245.8011409684999
 20
131.8414721235288
 30
0.0
 10
246.2674814733824
 20
131.0163777563158
 30
0.0
 10
246.6505210713419
 20
130.1853005678285
 30
0.0
 10
247.1802341751962
 20
128.5061699521034
 30
0.0
 10
247.3252876178902
 20
127.6580001690064
 30
0.0
 10
247.3266414469769
 20
126.5848626749628
 30
0.0
 10
247.3179822963749
 20
126.3691661895016
 30
0.0
 10
247.2830580312278
 20
125.9396086210007
 30
0.0
 10
247.2568342097451
 20
125.7255554905159
 30
0.0
 10
247.1529685590709
 20
125.0854827123042
 30
0.0
 10
247.050074481355
 20
124.6615544866103
 30
0.0
 10
246.6521387058504
 20
123.3971618968053
 30
0.0
 10
246.2681201050579
 20
122.5640667083618
 30
0.0
 10
245.8011409684997
 20
121.7378424127106
 30
0.0
  0
SPLINE
  5
B4
330
1F
100
AcDbEntity
  8
0
  6
Continuous
 62
     7
370
    25
100
AcDbSpline
210
0.0
220
0.0
230
1.0
 70
     8
 71
     3
 72
    10
 73
     6
 74
     0
 42
0.000000001
 43
0.00000001
 40
0.0
 40
0.0
 40
0.0
 40
0.0
 40
0.1549843457883086
 40
0.7107547102477646
 40
1.0
 40
1.0
 40
1.0
 40
1.0
 10
245.7659264730206
 20
131.9038695834253
 30
0.0
 10
245.7651564282635
 20
131.9052361085683
 30
0.0
 10
245.7616250203947
 20
131.911502962018
 30
0.0
 10
245.7763933305966
 20
131.8852809192498
 30
0.0
 10
245.7948301299454
 20
131.8526437043537
 30
0.0
 10
245.8011409684999
 20
131.8414721235288
 30
0.0
  0
SPLINE
  5
B5
330
1F
100
AcDbEntity
  8
0
  6
Continuous
 62
     7
370
    25
100
AcDbSpline
210
0.0
220
0.0
230
1.0
 70
     8
 71
     3
 72
     9
 73
     5
 74
     0
 42
0.000000001
 43
0.00000001
 40
0.0
 40
0.0
 40
0.0
 40
0.0
 40
0.5771528480442167
 40
1.0
 40
1.0
 40
1.0
 40
1.0
 10
245.8011409684998
 20
90.56092787647087
 30
0.0
 10
245.7885212890438
 20
90.53857273157698
 30
0.0
 10
245.7666558863194
 20
90.49983924014631
 30
0.0
 10
245.7661432428512
 20
90.49891937776344
 30
0.0
 10
245.7659264730207
 20
90.49853041657465
 30
0.0
  0
SPLINE
  5
B6
330
1F
100
AcDbEntity
  8
0
  6
Continuous
 62
     7
370
    25
100
AcDbSpline
210
0.0
220
0.0
230
1.0
 70
     8
 71
     3
 72
    18
 73
    14
 74
     0
 42
0.000000001
 43
0.00000001
 40
0.0
 40
0.0
 40
0.0
 40
0.0
 40
0.2499999999999998
 40
0.2499999999999998
 40
0.4999999999999996
 40
0.4999999999999996
 40
0.5624999999999996
 40
0.5624999999999996
 40
0.6249999999999997
 40
0.6249999999999997
 40
0.7499999999999998
 40
0.7499999999999998
 40
1.0
 40
1.0
 40
1.0
 40
1.0
 10
245.8011409684998
 20
100.6645575872892
 30
0.0
 10
246.2674814733823
 20
99.83946322007613
 30
0.0
 10
246.6505210713418
 20
99.00838603158893
 30
0.0
 10
247.1802341751962
 20
97.32925541586376
 30
0.0
 10
247.3252876178903
 20
96.48108563276675
 30
0.0
 10
247.3266414469769
 20
95.40794813872311
 30
0.0
 10
247.317982296375
 20
95.1922516532619
 30
0.0
 10
247.2830580312279
 20
94.76269408476104
 30
0.0
 10
247.2568342097451
 20
94.54864095427621
 30
0.0
 10
247.152968559071
 20
93.90856817606443
 30
0.0
 10
247.0500744813551
 20
93.48463995037062
 30
0.0
 10
246.6521387058505
 20
92.22024736056557
 30
0.0
 10
246.2681201050579
 20
91.387152172122
 30
0.0
 10
245.8011409684998
 20
90.56092787647087
 30
0.0
  0
SPLINE
  5
B7
330
1F
100
AcDbEntity
  8
0
  6
Continuous
 62
     7
370
    25
100
AcDbSpline
210
0.0
220
0.0
230
1.0
 70
     8
 71
     3
 72
    10
 73
     6
 74
     0
 42
0.000000001
 43
0.00000001
 40
0.0
 40
0.0
 40
0.0
 40
0.0
 40
0.5
 40
0.5
 40
1.0
 40
1.0
 40
1.0
 40
1.0
 10
245.8011409684997
 20
101.0975702891814
 30
0.0
 10
245.7768978631915
 20
101.0117838330442
 30
0.0
 10
245.7633852760495
 20
100.9243478773676
 30
0.0
 10
245.7632948130352
 20
100.7715816027676
 30
0.0
 10
245.7768885400625
 20
100.7074673107323
 30
0.0
 10
245.8011409684998
 20
100.6645575872892
 30
0.0
  0
LINE
  5
B8
330
1F
100
AcDbEntity
  8
0
  6
Continuous
 62
     7
370
    25
100
AcDbLine
 10
247.4707144509
 20
128.9512
 30
0.0
 11
247.4707144509
 21
93.4512
 31
0.0
  0
SPLINE
  5
B9
330
1F
100
AcDbEntity
  8
0
  6
Continuous
 62
     7
370
    25
100
AcDbSpline
210
0.0
220
0.0
230
1.0
 70
     8
 71
     3
 72
    10
 73
     6
 74
     0
 42
0.000000001
 43
0.00000001
 40
0.0
 40
0.0
 40
0.0
 40
0.0
 40
0.1549843457882038
 40
0.7107547102492887
 40
1.0
 40
1.0
 40
1.0
 40
1.0
 10
239.1755024287134
 20
90.49853041657464
 30
0.0
 10
239.1762724734706
 20
90.49716389143165
 30
0.0
 10
239.1798038813394
 20
90.49089703798198
 30
0.0
 10
239.1650355711375
 20
90.51711908075019
 30
0.0
 10
239.1465987717887
 20
90.5497562956461
 30
0.0
 10
239.1402879332343
 20
90.56092787647086
 30
0.0
  0
SPLINE
  5
BA
330
1F
100
AcDbEntity
  8
0
  6
Continuous
 62
     7
370
    25
100
AcDbSpline
210
0.0
220
0.0
230
1.0
 70
     8
 71
     3
 72
     9
 73
     5
 74
     0
 42
0.000000001
 43
0.00000001
 40
0.0
 40
0.0
 40
0.0
 40
0.0
 40
0.5771528480439392
 40
1.0
 40
1.0
 40
1.0
 40
1.0
 10
239.1402879332344
 20
131.8414721235291
 30
0.0
 10
239.1529076126904
 20
131.863827268423
 30
0.0
 10
239.1747730154148
 20
131.9025607598537
 30
0.0
 10
239.175285658883
 20
131.9034806222365
 30
0.0
 10
239.1755024287135
 20
131.9038695834253
 30
0.0
  0
SPLINE
  5
BB
330
1F
100
AcDbEntity
  8
0
  6
Continuous
 62
     7
370
    25
100
AcDbSpline
210
0.0
220
0.0
230
1.0
 70
     8
 71
     3
 72
    18
 73
    14
 74
     0
 42
0.000000001
 43
0.00000001
 40
0.0
 40
0.0
 40
0.0
 40
0.0
 40
0.2499999999999997
 40
0.2499999999999997
 40
0.4999999999999994
 40
0.4999999999999994
 40
0.5624999999999994
 40
0.5624999999999994
 40
0.6249999999999996
 40
0.6249999999999996
 40
0.7499999999999996
 40
0.7499999999999996
 40
1.0
 40
1.0
 40
1.0
 40
1.0
 10
239.1402879332344
 20
131.8414721235291
 30
0.0
 10
238.6739474283519
 20
131.016377756316
 30
0.0
 10
238.2909078303923
 20
130.1853005678288
 30
0.0
 10
237.7611947265379
 20
128.5061699521036
 30
0.0
 10
237.6161412838439
 20
127.6580001690066
 30
0.0
 10
237.6147874547572
 20
126.5848626749629
 30
0.0
 10
237.6234466053592
 20
126.3691661895018
 30
0.0
 10
237.6583708705063
 20
125.9396086210008
 30
0.0
 10
237.684594691989
 20
125.725555490516
 30
0.0
 10
237.7884603426632
 20
125.0854827123042
 30
0.0
 10
237.8913544203791
 20
124.6615544866104
 30
0.0
 10
238.2892901958837
 20
123.3971618968053
 30
0.0
 10
238.6733087966762
 20
122.5640667083618
 30
0.0
 10
239.1402879332344
 20
121.7378424127106
 30
0.0
  0
SPLINE
  5
BC
330
1F
100
AcDbEntity
  8
0
  6
Continuous
 62
     7
370
    25
100
AcDbSpline
210
0.0
220
0.0
230
1.0
 70
     8
 71
     3
 72
    10
 73
     6
 74
     0
 42
0.000000001
 43
0.00000001
 40
0.0
 40
0.0
 40
0.0
 40
0.0
 40
0.5
 40
0.5
 40
1.0
 40
1.0
 40
1.0
 40
1.0
 10
239.1402879332344
 20
100.6645575872892
 30
0.0
 10
239.1645310385427
 20
100.7074508153578
 30
0.0
 10
239.1780436256846
 20
100.7708731901028
 30
0.0
 10
239.178134088699
 20
100.9234789011807
 30
0.0
 10
239.1645403616716
 20
101.0117508422955
 30
0.0
 10
239.1402879332344
 20
101.0975702891814
 30
0.0
  0
SPLINE
  5
BD
330
1F
100
AcDbEntity
  8
0
  6
Continuous
 62
     7
370
    25
100
AcDbSpline
210
0.0
220
0.0
230
1.0
 70
     8
 71
     3
 72
    18
 73
    14
 74
     0
 42
0.000000001
 43
0.00000001
 40
0.0
 40
0.0
 40
0.0
 40
0.0
 40
0.2500000000000002
 40
0.2500000000000002
 40
0.5000000000000003
 40
0.5000000000000003
 40
0.5625000000000002
 40
0.5625000000000002
 40
0.6250000000000002
 40
0.6250000000000002
 40
0.7500000000000001
 40
0.7500000000000001
 40
1.0
 40
1.0
 40
1.0
 40
1.0
 10
239.1402879332344
 20
100.6645575872894
 30
0.0
 10
238.6739474283519
 20
99.83946322007631
 30
0.0
 10
238.2909078303923
 20
99.00838603158908
 30
0.0
 10
237.7611947265379
 20
97.32925541586387
 30
0.0
 10
237.6161412838438
 20
96.48108563276685
 30
0.0
 10
237.6147874547572
 20
95.40794813872319
 30
0.0
 10
237.6234466053591
 20
95.192251653262
 30
0.0
 10
237.6583708705062
 20
94.76269408476111
 30
0.0
 10
237.684594691989
 20
94.54864095427628
 30
0.0
 10
237.7884603426631
 20
93.90856817606449
 30
0.0
 10
237.891354420379
 20
93.48463995037066
 30
0.0
 10
238.2892901958836
 20
92.22024736056558
 30
0.0
 10
238.6733087966762
 20
91.38715217212203
 30
0.0
 10
239.1402879332343
 20
90.56092787647086
 30
0.0
  0
LINE
  5
BE
330
1F
100
AcDbEntity
  8
0
  6
Continuous
 62
     7
370
    25
100
AcDbLine
 10
237.4707144509
 20
128.9512
 30
0.0
 11
237.4707144509
 21
93.4512
 31
0.0
  0
SPLINE
  5
BF
330
1F
100
AcDbEntity
  8
0
  6
Continuous
 62
     7
370
    25
100
AcDbSpline
210
0.0
220
0.0
230
1.0
 70
     8
 71
     3
 72
    23
 73
    19
 74
     0
 42
0.000000001
 43
0.00000001
 40
0.0
 40
0.0
 40
0.0
 40
0.0
 40
0.0611415679303345
 40
0.1200010135310723
 40
0.1782359705414085
 40
0.2364955434070171
 40
0.294887248704973
 40
0.3546771928192958
 40
0.4166948132897784
 40
0.4806333779628396
 40
0.5458046334786407
 40
0.6097347883178749
 40
0.6729516883751547
 40
0.7360010960706838
 40
0.7998274385165253
 40
0.8647672769393875
 40
0.9310835057306724
 40
1.0
 40
1.0
 40
1.0
 40
1.0
 10
241.9340557970209
 20
108.5483007524684
 30
0.0
 10
241.9579531214046
 20
108.5488446315688
 30
0.0
 10
242.0048557973384
 20
108.5499120893639
 30
0.0
 10
242.0735038957455
 20
108.5622194311617
 30
0.0
 10
242.1400617827904
 20
108.5788425445259
 30
0.0
 10
242.2030301346816
 20
108.605707019313
 30
0.0
 10
242.2641502796191
 20
108.6377048015949
 30
0.0
 10
242.3216753582116
 20
108.6784678742841
 30
0.0
 10
242.3772350662476
 20
108.7252037348727
 30
0.0
 10
242.4287840316179
 20
108.7793283962907
 30
0.0
 10
242.4759349108352
 20
108.8382111826063
 30
0.0
 10
242.5175534634185
 20
108.9008287346972
 30
0.0
 10
242.5526787042583
 20
108.9663361908233
 30
0.0
 10
242.5819857360185
 20
109.0346702714058
 30
0.0
 10
242.6031352293145
 20
109.1066131165079
 30
0.0
 10
242.6197884671253
 20
109.1810034659946
 30
0.0
 10
242.6286504862826
 20
109.258792705834
 30
0.0
 10
242.6301875512411
 20
109.3115693145373
 30
0.0
 10
242.6309708611234
 20
109.3384650152889
 30
0.0
  0
SPLINE
  5
C0
330
1F
100
AcDbEntity
  8
0
  6
Continuous
 62
     7
370
    25
100
AcDbSpline
210
0.0
220
0.0
230
1.0
 70
     8
 71
     3
 72
    23
 73
    19
 74
     0
 42
0.000000001
 43
0.00000001
 40
0.0
 40
0.0
 40
0.0
 40
0.0
 40
0.0679503475997535
 40
0.1332598223836992
 40
0.1978002967596468
 40
0.2608458295516821
 40
0.3233192927503665
 40
0.3862817224595717
 40
0.4500615162333125
 40
0.515207584485815
 40
0.5796407692199312
 40
0.6418172023841521
 40
0.7016924412115347
 40
0.7607690981778943
 40
0.8192540511346832
 40
0.8787376269055536
 40
0.938158297016091
 40
1.0
 40
1.0
 40
1.0
 40
1.0
 10
241.2399452200978
 20
109.3111212652889
 30
0.0
 10
241.2407142611938
 20
109.2851557242343
 30
0.0
 10
241.242222454801
 20
109.2342337862126
 30
0.0
 10
241.2513029807968
 20
109.1590609306817
 30
0.0
 10
241.2673644600549
 20
109.0869803766356
 30
0.0
 10
241.2901887469021
 20
109.017941992668
 30
0.0
 10
241.3179998445195
 20
108.9513705705928
 30
0.0
 10
241.3534860179177
 20
108.8882106107358
 30
0.0
 10
241.3949662714355
 20
108.8276094082299
 30
0.0
 10
241.4424228956113
 20
108.7708860452513
 30
0.0
 10
241.493424367038
 20
108.7180321118035
 30
0.0
 10
241.5494444371313
 20
108.6738153259715
 30
0.0
 10
241.6061797226031
 20
108.6339100017825
 30
0.0
 10
241.6670760406355
 20
108.6036831136176
 30
0.0
 10
241.7299276394195
 20
108.5783427177568
 30
0.0
 10
241.7956925478221
 20
108.5613076354331
 30
0.0
 10
241.8640317273914
 20
108.5501553155645
 30
0.0
 10
241.9104058171379
 20
108.5489271139487
 30
0.0
 10
241.9340557970209
 20
108.5483007524684
 30
0.0
  0
SPLINE
  5
C1
330
1F
100
AcDbEntity
  8
0
  6
Continuous
 62
     7
370
    25
100
AcDbSpline
210
0.0
220
0.0
230
1.0
 70
     8
 71
     3
 72
    23
 73
    19
 74
     0
 42
0.000000001
 43
0.00000001
 40
0.0
 40
0.0
 40
0.0
 40
0.0
 40
0.0618526459466918
 40
0.12128383061537
 40
0.1807779320756124
 40
0.2392732340142805
 40
0.2986414352139415
 40
0.3581858222417117
 40
0.4207600867589707
 40
0.4852046730216431
 40
0.5503622689482868
 40
0.6136499245309117
 40
0.6766234955168247
 40
0.7391080134690124
 40
0.8021647022429442
 40
0.8667165971324774
 40
0.9320376285055444
 40
1.0
 40
1.0
 40
1.0
 40
1.0
 10
241.9340557970209
 20
110.0739417781094
 30
0.0
 10
241.9104067173548
 20
110.0733138027253
 30
0.0
 10
241.8640343927996
 20
110.0720824364847
 30
0.0
 10
241.7956823668348
 20
110.0609531475606
 30
0.0
 10
241.7299656429159
 20
110.0438316803696
 30
0.0
 10
241.6668361552804
 20
110.0187703890521
 30
0.0
 10
241.6066382653992
 20
109.9873362019842
 30
0.0
 10
241.5489443700719
 20
109.9486529687431
 30
0.0
 10
241.4937146476451
 20
109.903375689871
 30
0.0
 10
241.4423417956927
 20
109.8507417515319
 30
0.0
 10
241.3952213674674
 20
109.7939811519846
 30
0.0
 10
241.3532652497161
 20
109.7339530584393
 30
0.0
 10
241.3180333299768
 20
109.6708483369291
 30
0.0
 10
241.2901797203887
 20
109.6043069058632
 30
0.0
 10
241.2673669501233
 20
109.5352603972684
 30
0.0
 10
241.251302302191
 20
109.4631820786336
 30
0.0
 10
241.242222633351
 20
109.3880086184031
 30
0.0
 10
241.2407143214916
 20
109.337086763805
 30
0.0
 10
241.2399452200978
 20
109.3111212652889
 30
0.0
  0
SPLINE
  5
C2
330
1F
100
AcDbEntity
  8
0
  6
Continuous
 62
     7
370
    25
100
AcDbSpline
210
0.0
220
0.0
230
1.0
 70
     8
 71
     3
 72
    23
 73
    19
 74
     0
 42
0.000000001
 43
0.00000001
 40
0.0
 40
0.0
 40
0.0
 40
0.0
 40
0.0705921865358074
 40
0.1385012886049303
 40
0.2037899961427016
 40
0.2667875726696013
 40
0.3290979656467183
 40
0.391174524603966
 40
0.4531677986176574
 40
0.5157967602265846
 40
0.5779688050530403
 40
0.6389663383752914
 40
0.698381066162843
 40
0.7573204555574263
 40
0.8164122397216685
 40
0.8762793582308311
 40
0.936823465650193
 40
1.0
 40
1.0
 40
1.0
 40
1.0
 10
242.6309708611234
 20
109.3384650152889
 30
0.0
 10
242.6301825107294
 20
109.3651264235771
 30
0.0
 10
242.6286357737489
 20
109.4174358870624
 30
0.0
 10
242.619899792138
 20
109.4940846182313
 30
0.0
 10
242.6033475020238
 20
109.5664317968313
 30
0.0
 10
242.5819367337258
 20
109.6353037456276
 30
0.0
 10
242.5527844744665
 20
109.6999826381051
 30
0.0
 10
242.5177934985298
 20
109.7612062682379
 30
0.0
 10
242.4761915155599
 20
109.818367120114
 30
0.0
 10
242.4284423774425
 20
109.8704613500225
 30
0.0
 10
242.3769276174561
 20
109.918296719036
 30
0.0
 10
242.3214201287326
 20
109.9594429478775
 30
0.0
 10
242.2636157621107
 20
109.9949743904636
 30
0.0
 10
242.2029712266817
 20
110.0238538254372
 30
0.0
 10
242.1395254235742
 20
110.0463445414656
 30
0.0
 10
242.0735659849099
 20
110.0626126183319
 30
0.0
 10
242.0046517298148
 20
110.0716664164648
 30
0.0
 10
241.957919220031
 20
110.0731726414853
 30
0.0
 10
241.9340557970209
 20
110.0739417781094
 30
0.0
  0
LINE
  5
C3
330
1F
100
AcDbEntity
  8
0
  6
Continuous
 62
     7
370
    25
100
AcDbLine
 10
245.8011409685
 20
100.6645575873
 30
0.0
 11
239.1402879332
 21
100.6645575873
 31
0.0
  0
LINE
  5
C4
330
1F
100
AcDbEntity
  8
0
  6
Continuous
 62
     7
370
    25
100
AcDbLine
 10
239.1402879332
 20
90.5609278765
 30
0.0
 11
245.8011409685
 21
90.5609278765
 31
0.0
  0
LINE
  5
C5
330
1F
100
AcDbEntity
  8
0
  6
Continuous
 62
     7
370
    25
100
AcDbLine
 10
245.8011409685
 20
131.8414721235
 30
0.0
 11
239.1402879332
 21
131.8414721235
 31
0.0
  0
LINE
  5
C6
330
1F
100
AcDbEntity
  8
0
  6
Continuous
 62
     7
370
    25
100
AcDbLine
 10
220.7887864282
 20
127.6168897493
 30
0.0
 11
220.7887864282
 21
94.7855102507
 31
0.0
  0
LINE
  5
C7
330
1F
100
AcDbEntity
  8
0
  6
Continuous
 62
     7
370
    25
100
AcDbLine
 10
217.4707144509
 20
111.2012
 30
0.0
 11
217.4707144509
 21
125.7012
 31
0.0
  0
LINE
  5
C8
330
1F
100
AcDbEntity
  8
0
  6
Continuous
 62
     7
370
    25
100
AcDbLine
 10
217.4707144509
 20
96.7012
 30
0.0
 11
217.4707144509
 21
111.2012
 31
0.0
  0
LINE
  5
C9
330
1F
100
AcDbEntity
  8
0
  6
Continuous
 62
     7
370
    25
100
AcDbLine
 10
255.4707144509
 20
124.7012
 30
0.0
 11
255.4707144509
 21
97.7012
 31
0.0
  0
LINE
  5
CA
330
1F
100
AcDbEntity
  8
0
  6
Continuous
 62
     7
370
    25
100
AcDbLine
 10
261.4707144509
 20
124.7012
 30
0.0
 11
261.4707144509
 21
97.7012
 31
0.0
  0
LINE
  5
CB
330
1F
100
AcDbEntity
  8
0
  6
Continuous
 62
     7
370
    25
100
AcDbLine
 10
267.4707144509
 20
124.7012
 30
0.0
 11
267.4707144509
 21
97.7012
 31
0.0
  0
LINE
  5
CC
330
1F
100
AcDbEntity
  8
0
  6
Continuous
 62
     7
370
    25
100
AcDbLine
 10
273.4707144509
 20
124.7012
 30
0.0
 11
273.4707144509
 21
97.7012
 31
0.0
  0
LINE
  5
CD
330
1F
100
AcDbEntity
  8
0
  6
Continuous
 62
     7
370
    25
100
AcDbLine
 10
279.4707144509
 20
124.7012
 30
0.0
 11
279.4707144509
 21
97.7012
 31
0.0
  0
LINE
  5
CE
330
1F
100
AcDbEntity
  8
0
  6
Continuous
 62
     7
370
    25
100
AcDbLine
 10
287.4707144509
 20
122.8184177815
 30
0.0
 11
287.4707144509
 21
99.5839822185
 31
0.0
  0
LINE
  5
CF
330
1F
100
AcDbEntity
  8
0
  6
Continuous
 62
     8
370
    25
100
AcDbLine
 10
286.5947491855
 20
98.5917043418
 30
0.0
 11
286.5947491855
 21
123.8106956582
 31
0.0
  0
LINE
  5
D0
330
1F
100
AcDbEntity
  8
0
  6
Continuous
 62
     7
370
    18
100
AcDbLine
 10
218.6527318136
 20
126.3836380426
 30
0.0
 11
236.9707144509
 21
126.956075
 31
0.0
  0
LINE
  5
D1
330
1F
100
AcDbEntity
  8
0
  6
Continuous
 62
     7
370
    18
100
AcDbLine
 10
218.6527318136
 20
96.0187619574
 30
0.0
 11
236.9707144509
 21
95.446325
 31
0.0
  0
LINE
  5
D2
330
1F
100
AcDbEntity
  8
0
  6
Continuous
 62
     7
370
    18
100
AcDbLine
 10
236.9707144509
 20
94.279825
 30
0.0
 11
236.9707144509
 21
128.122575
 31
0.0
  0
LINE
  5
D3
330
1F
100
AcDbEntity
  8
0
  6
CENTERX2
 62
     7
370
    18
100
AcDbLine
 10
289.4707144509
 20
111.2012
 30
0.0
 11
215.4743536473
 21
111.2012
 31
0.0
  0
CIRCLE
  5
D4
330
1F
100
AcDbEntity
  8
0
  6
Continuous
 62
     7
370
    25
100
AcDbCircle
 10
328.9726954913
 20
111.2012
 30
0.0
 40
11.61721778146268
  0
CIRCLE
  5
D5
330
1F
100
AcDbEntity
  8
0
  6
Continuous
 62
     7
370
    25
100
AcDbCircle
 10
328.9726954913
 20
111.2012
 30
0.0
 40
10.24999999999996
  0
CIRCLE
  5
D6
330
1F
100
AcDbEntity
  8
0
  6
Continuous
 62
     7
370
    25
100
AcDbCircle
 10
328.9726954913
 20
111.2012
 30
0.0
 40
12.60949565817634
  0
CIRCLE
  5
D7
330
1F
100
AcDbEntity
  8
0
  6
Continuous
 62
     7
370
    25
100
AcDbCircle
 10
328.9726954913
 20
111.2012
 30
0.0
 40
9.75
  0
CIRCLE
  5
D8
330
1F
100
AcDbEntity
  8
0
  6
Continuous
 62
     7
370
    25
100
AcDbCircle
 10
328.9726954913
 20
111.2012
 30
0.0
 40
13.5
  0
SPLINE
  5
D9
330
1F
100
AcDbEntity
  8
0
  6
Continuous
 62
     7
370
    25
100
AcDbSpline
210
0.0
220
0.0
230
1.0
 70
     8
 71
     3
 72
    10
 73
     6
 74
     0
 42
0.000000001
 43
0.00000001
 40
0.0
 40
0.0
 40
0.0
 40
0.0
 40
0.5
 40
0.5
 40
1.0
 40
1.0
 40
1.0
 40
1.0
 10
311.2226954913294
 20
121.7378424127106
 30
0.0
 10
311.148402241014
 20
121.694949184642
 30
0.0
 10
311.0840568210519
 20
121.6315268098973
 30
0.0
 10
310.995764469896
 20
121.4789210988192
 30
0.0
 10
310.9726954913294
 20
121.3906491577045
 30
0.0
 10
310.9726954913294
 20
121.3048297108184
 30
0.0
  0
SPLINE
  5
DA
330
1F
100
AcDbEntity
  8
0
  6
Continuous
 62
     7
370
    25
100
AcDbSpline
210
0.0
220
0.0
230
1.0
 70
    24
 71
     3
 72
    18
 73
    14
 74
     0
 42
0.000000001
 43
0.00000001
 40
0.0
 40
0.0
 40
0.0
 40
0.0
 40
0.2500000000000003
 40
0.2500000000000003
 40
0.5000000000000006
 40
0.5000000000000006
 40
0.5625000000000006
 40
0.5625000000000006
 40
0.6250000000000004
 40
0.6250000000000004
 40
0.7500000000000003
 40
0.7500000000000003
 40
1.0
 40
1.0
 40
1.0
 40
1.0
 10
328.7226954913289
 20
131.8414721235288
 30
0.0
 10
327.293590126277
 20
131.0163777563158
 30
0.0
 10
325.8541222108057
 20
130.1853005678285
 30
0.0
 10
322.9457826718253
 20
128.5061699521034
 30
0.0
 10
321.4767095140567
 20
127.6580001690064
 30
0.0
 10
319.6179808508659
 20
126.5848626749628
 30
0.0
 10
319.2443835790331
 20
126.3691661895016
 30
0.0
 10
318.5003680456139
 20
125.9396086210007
 30
0.0
 10
318.129617148095
 20
125.7255554905159
 30
0.0
 10
317.0209785756904
 20
125.0854827123042
 30
0.0
 10
316.2867133500262
 20
124.6615544866103
 30
0.0
 10
314.0967211437704
 20
123.3971618968053
 30
0.0
 10
312.6537579498449
 20
122.5640667083618
 30
0.0
 10
311.2226954913294
 20
121.7378424127106
 30
0.0
  0
SPLINE
  5
DB
330
1F
100
AcDbEntity
  8
0
  6
Continuous
 62
     7
370
    25
100
AcDbSpline
210
0.0
220
0.0
230
1.0
 70
     8
 71
     3
 72
    10
 73
     6
 74
     0
 42
0.000000001
 43
0.00000001
 40
0.0
 40
0.0
 40
0.0
 40
0.0
 40
0.5
 40
0.5
 40
1.0
 40
1.0
 40
1.0
 40
1.0
 10
329.2226954913294
 20
131.8414721235291
 30
0.0
 10
329.1484022410139
 20
131.8843653515978
 30
0.0
 10
329.0613041433355
 20
131.9083789325297
 30
0.0
 10
328.8849975452011
 20
131.9085394960515
 30
0.0
 10
328.7970173124708
 20
131.8843818469719
 30
0.0
 10
328.7226954913287
 20
131.8414721235287
 30
0.0
  0
SPLINE
  5
DC
330
1F
100
AcDbEntity
  8
0
  6
Continuous
 62
     7
370
    25
100
AcDbSpline
210
0.0
220
0.0
230
1.0
 70
    24
 71
     3
 72
    18
 73
    14
 74
     0
 42
0.000000001
 43
0.00000001
 40
0.0
 40
0.0
 40
0.0
 40
0.0
 40
0.2499999999999998
 40
0.2499999999999998
 40
0.4999999999999996
 40
0.4999999999999996
 40
0.5624999999999996
 40
0.5624999999999996
 40
0.6249999999999997
 40
0.6249999999999997
 40
0.7499999999999997
 40
0.7499999999999997
 40
1.0
 40
1.0
 40
1.0
 40
1.0
 10
346.7226954913293
 20
121.7378424127109
 30
0.0
 10
345.2935901262774
 20
122.562936779924
 30
0.0
 10
343.854122210806
 20
123.3940139684112
 30
0.0
 10
340.9457826718256
 20
125.0731445841363
 30
0.0
 10
339.4767095140569
 20
125.9213143672333
 30
0.0
 10
337.6179808508662
 20
126.9944518612769
 30
0.0
 10
337.2443835790334
 20
127.2101483467381
 30
0.0
 10
336.500368045614
 20
127.639705915239
 30
0.0
 10
336.1296171480952
 20
127.8537590457238
 30
0.0
 10
335.0209785756906
 20
128.4938318239356
 30
0.0
 10
334.2867133500264
 20
128.9177600496294
 30
0.0
 10
332.0967211437704
 20
130.1821526394344
 30
0.0
 10
330.653757949845
 20
131.015247827878
 30
0.0
 10
329.2226954913294
 20
131.8414721235291
 30
0.0
  0
SPLINE
  5
DD
330
1F
100
AcDbEntity
  8
0
  6
Continuous
 62
     7
370
    25
100
AcDbSpline
210
0.0
220
0.0
230
1.0
 70
     8
 71
     3
 72
    10
 73
     6
 74
     0
 42
0.000000001
 43
0.00000001
 40
0.0
 40
0.0
 40
0.0
 40
0.0
 40
0.5
 40
0.5
 40
1.0
 40
1.0
 40
1.0
 40
1.0
 10
346.9726954913294
 20
121.3048297108187
 30
0.0
 10
346.9726954913294
 20
121.3906161669559
 30
0.0
 10
346.9499428136131
 20
121.4780521226325
 30
0.0
 10
346.8619285666348
 20
121.6308183972325
 30
0.0
 10
346.7970173124714
 20
121.6949326892678
 30
0.0
 10
346.7226954913293
 20
121.7378424127109
 30
0.0
  0
SPLINE
  5
DE
330
1F
100
AcDbEntity
  8
0
  6
Continuous
 62
     7
370
    25
100
AcDbSpline
210
0.0
220
0.0
230
1.0
 70
    24
 71
     3
 72
    18
 73
    14
 74
     0
 42
0.000000001
 43
0.00000001
 40
0.0
 40
0.0
 40
0.0
 40
0.0
 40
0.125
 40
0.125
 40
0.2500000000000001
 40
0.2500000000000001
 40
0.5000000000000001
 40
0.5000000000000001
 40
0.6250000000000001
 40
0.6250000000000001
 40
0.7500000000000002
 40
0.7500000000000002
 40
1.0
 40
1.0
 40
1.0
 40
1.0
 10
346.9726954913296
 20
101.0975702891817
 30
0.0
 10
346.9726954913296
 20
101.9220477337449
 30
0.0
 10
346.9726954913295
 20
102.7566228204557
 30
0.0
 10
346.9726954913295
 20
104.4311748750064
 30
0.0
 10
346.9726954913295
 20
105.2708608702326
 30
0.0
 10
346.9726954913295
 20
107.7983194151627
 30
0.0
 10
346.9726954913295
 20
109.4946550879979
 30
0.0
 10
346.9726954913294
 20
112.0591456928928
 30
0.0
 10
346.9726954913294
 20
112.9194852492394
 30
0.0
 10
346.9726954913294
 20
114.6369596514211
 30
0.0
 10
346.9726954913294
 20
115.4870249879488
 30
0.0
 10
346.9726954913294
 20
118.0146927318031
 30
0.0
 10
346.9726954913294
 20
119.6698980264638
 30
0.0
 10
346.9726954913294
 20
121.3048297108187
 30
0.0
  0
SPLINE
  5
DF
330
1F
100
AcDbEntity
  8
0
  6
Continuous
 62
     7
370
    25
100
AcDbSpline
210
0.0
220
0.0
230
1.0
 70
     8
 71
     3
 72
    10
 73
     6
 74
     0
 42
0.000000001
 43
0.00000001
 40
0.0
 40
0.0
 40
0.0
 40
0.0
 40
0.5
 40
0.5
 40
1.0
 40
1.0
 40
1.0
 40
1.0
 10
346.7226954913295
 20
100.6645575872895
 30
0.0
 10
346.7969887416451
 20
100.7074508153581
 30
0.0
 10
346.861334161607
 20
100.7708731901028
 30
0.0
 10
346.949626512763
 20
100.9234789011809
 30
0.0
 10
346.9726954913296
 20
101.0117508422956
 30
0.0
 10
346.9726954913296
 20
101.0975702891817
 30
0.0
  0
SPLINE
  5
E0
330
1F
100
AcDbEntity
  8
0
  6
Continuous
 62
     7
370
    25
100
AcDbSpline
210
0.0
220
0.0
230
1.0
 70
    24
 71
     3
 72
    18
 73
    14
 74
     0
 42
0.000000001
 43
0.00000001
 40
0.0
 40
0.0
 40
0.0
 40
0.0
 40
0.25
 40
0.25
 40
0.5
 40
0.5
 40
0.5625000000000001
 40
0.5625000000000001
 40
0.6250000000000002
 40
0.6250000000000002
 40
0.7500000000000002
 40
0.7500000000000002
 40
1.0
 40
1.0
 40
1.0
 40
1.0
 10
329.2226954913296
 20
90.56092787647087
 30
0.0
 10
330.6518008563816
 20
91.386022243684
 30
0.0
 10
332.091268771853
 20
92.21709943217121
 30
0.0
 10
334.9996083108334
 20
93.89623004789644
 30
0.0
 10
336.4686814686021
 20
94.74439983099346
 30
0.0
 10
338.3274101317928
 20
95.81753732503712
 30
0.0
 10
338.7010074036256
 20
96.03323381049832
 30
0.0
 10
339.4450229370449
 20
96.46279137899921
 30
0.0
 10
339.8157738345638
 20
96.67684450948404
 30
0.0
 10
340.9244124069684
 20
97.31691728769583
 30
0.0
 10
341.6586776326326
 20
97.74084551338966
 30
0.0
 10
343.8486698388886
 20
99.00523810319476
 30
0.0
 10
345.2916330328139
 20
99.83833329163832
 30
0.0
 10
346.7226954913295
 20
100.6645575872895
 30
0.0
  0
SPLINE
  5
E1
330
1F
100
AcDbEntity
  8
0
  6
Continuous
 62
     7
370
    25
100
AcDbSpline
210
0.0
220
0.0
230
1.0
 70
     8
 71
     3
 72
    10
 73
     6
 74
     0
 42
0.000000001
 43
0.00000001
 40
0.0
 40
0.0
 40
0.0
 40
0.0
 40
0.5
 40
0.5
 40
1.0
 40
1.0
 40
1.0
 40
1.0
 10
328.7226954913296
 20
90.56092787647087
 30
0.0
 10
328.7969887416451
 20
90.51803464840226
 30
0.0
 10
328.8840868393233
 20
90.49402106747037
 30
0.0
 10
329.0603934374575
 20
90.49386050394847
 30
0.0
 10
329.1483736701875
 20
90.51801815302782
 30
0.0
 10
329.2226954913296
 20
90.56092787647087
 30
0.0
  0
SPLINE
  5
E2
330
1F
100
AcDbEntity
  8
0
  6
Continuous
 62
     7
370
    25
100
AcDbSpline
210
0.0
220
0.0
230
1.0
 70
    24
 71
     3
 72
    18
 73
    14
 74
     0
 42
0.000000001
 43
0.00000001
 40
0.0
 40
0.0
 40
0.0
 40
0.0
 40
0.2499999999999998
 40
0.2499999999999998
 40
0.4999999999999996
 40
0.4999999999999996
 40
0.5624999999999996
 40
0.5624999999999996
 40
0.6249999999999997
 40
0.6249999999999997
 40
0.7499999999999998
 40
0.7499999999999998
 40
1.0
 40
1.0
 40
1.0
 40
1.0
 10
311.2226954913295
 20
100.6645575872892
 30
0.0
 10
312.6518008563815
 20
99.83946322007613
 30
0.0
 10
314.0912687718528
 20
99.00838603158893
 30
0.0
 10
316.9996083108334
 20
97.32925541586376
 30
0.0
 10
318.468681468602
 20
96.48108563276675
 30
0.0
 10
320.3274101317928
 20
95.40794813872311
 30
0.0
 10
320.7010074036256
 20
95.1922516532619
 30
0.0
 10
321.4450229370449
 20
94.76269408476104
 30
0.0
 10
321.8157738345638
 20
94.54864095427621
 30
0.0
 10
322.9244124069683
 20
93.90856817606443
 30
0.0
 10
323.6586776326326
 20
93.48463995037062
 30
0.0
 10
325.8486698388886
 20
92.22024736056557
 30
0.0
 10
327.291633032814
 20
91.387152172122
 30
0.0
 10
328.7226954913296
 20
90.56092787647087
 30
0.0
  0
SPLINE
  5
E3
330
1F
100
AcDbEntity
  8
0
  6
Continuous
 62
     7
370
    25
100
AcDbSpline
210
0.0
220
0.0
230
1.0
 70
     8
 71
     3
 72
    10
 73
     6
 74
     0
 42
0.000000001
 43
0.00000001
 40
0.0
 40
0.0
 40
0.0
 40
0.0
 40
0.5
 40
0.5
 40
1.0
 40
1.0
 40
1.0
 40
1.0
 10
310.9726954913295
 20
101.0975702891814
 30
0.0
 10
310.9726954913295
 20
101.0117838330442
 30
0.0
 10
310.9954481690458
 20
100.9243478773676
 30
0.0
 10
311.083462416024
 20
100.7715816027676
 30
0.0
 10
311.1483736701874
 20
100.7074673107323
 30
0.0
 10
311.2226954913295
 20
100.6645575872892
 30
0.0
  0
SPLINE
  5
E4
330
1F
100
AcDbEntity
  8
0
  6
Continuous
 62
     7
370
    25
100
AcDbSpline
210
0.0
220
0.0
230
1.0
 70
    24
 71
     3
 72
    18
 73
    14
 74
     0
 42
0.000000001
 43
0.00000001
 40
0.0
 40
0.0
 40
0.0
 40
0.0
 40
0.1250000000000002
 40
0.1250000000000002
 40
0.2500000000000002
 40
0.2500000000000002
 40
0.5000000000000002
 40
0.5000000000000002
 40
0.6250000000000001
 40
0.6250000000000001
 40
0.7500000000000001
 40
0.7500000000000001
 40
1.0
 40
1.0
 40
1.0
 40
1.0
 10
310.9726954913295
 20
101.0975702891814
 30
0.0
 10
310.9726954913295
 20
101.9220477337447
 30
0.0
 10
310.9726954913295
 20
102.7566228204555
 30
0.0
 10
310.9726954913295
 20
104.4311748750061
 30
0.0
 10
310.9726954913295
 20
105.2708608702324
 30
0.0
 10
310.9726954913295
 20
107.7983194151624
 30
0.0
 10
310.9726954913294
 20
109.4946550879976
 30
0.0
 10
310.9726954913294
 20
112.0591456928925
 30
0.0
 10
310.9726954913294
 20
112.9194852492391
 30
0.0
 10
310.9726954913294
 20
114.6369596514208
 30
0.0
 10
310.9726954913294
 20
115.4870249879485
 30
0.0
 10
310.9726954913294
 20
118.0146927318028
 30
0.0
 10
310.9726954913294
 20
119.6698980264636
 30
0.0
 10
310.9726954913294
 20
121.3048297108184
 30
0.0
  0
CIRCLE
  5
E5
330
1F
100
AcDbEntity
  8
0
  6
Continuous
 62
     7
370
    25
100
AcDbCircle
 10
328.9726954913
 20
111.2012
 30
0.0
 40
17.75
  0
INSERT
  5
F1
330
1F
100
AcDbEntity
  8
0
  6
Continuous
 62
     7
370
    18
100
AcDbBlockReference
  2
SW_CENTERMARKSYMBOL_0
 10
328.9726954913
 20
111.2012
 30
0.0
  0
INSERT
  5
FD
330
1F
100
AcDbEntity
  8
0
  6
Continuous
 62
     7
370
    18
100
AcDbBlockReference
  2
SW_CENTERMARKSYMBOL_1
 10
328.9726954913
 20
111.2012
 30
0.0
  0
LINE
  5
FE
330
1F
100
AcDbEntity
  8
0
  6
Continuous
 62
     7
370
    25
100
AcDbLine
 10
237.6150520182
 20
186.7588920231
 30
0.0
 11
237.4707144509
 21
186.5088920231
 31
0.0
  0
LINE
  5
FF
330
1F
100
AcDbEntity
  8
0
  6
Continuous
 62
     7
370
    25
100
AcDbLine
 10
237.4707144509
 20
151.0088920231
 30
0.0
 11
237.6150520182
 21
150.7588920231
 31
0.0
  0
LINE
  5
100
330
1F
100
AcDbEntity
  8
0
  6
Continuous
 62
     7
370
    25
100
AcDbLine
 10
247.3263768836
 20
150.7588920231
 30
0.0
 11
247.4707144509
 21
151.0088920231
 31
0.0
  0
LINE
  5
101
330
1F
100
AcDbEntity
  8
0
  6
Continuous
 62
     7
370
    25
100
AcDbLine
 10
247.4707144509
 20
186.5088920231
 30
0.0
 11
247.3263768836
 21
186.7588920231
 31
0.0
  0
LINE
  5
102
330
1F
100
AcDbEntity
  8
0
  6
Continuous
 62
     7
370
    25
100
AcDbLine
 10
237.4707144509
 20
185.6958920231
 30
0.0
 11
220.7887864282
 21
185.1745817724
 31
0.0
  0
LINE
  5
103
330
1F
100
AcDbEntity
  8
0
  6
Continuous
 62
     7
370
    25
100
AcDbLine
 10
220.7887864282
 20
152.3432022738
 30
0.0
 11
237.4707144509
 21
151.8218920231
 31
0.0
  0
LINE
  5
104
330
1F
100
AcDbEntity
  8
0
  6
Continuous
 62
     7
370
    25
100
AcDbLine
 10
220.7887864282
 20
185.1745817724
 30
0.0
 11
217.4707144509
 21
183.2588920231
 31
0.0
  0
LINE
  5
105
330
1F
100
AcDbEntity
  8
0
  6
Continuous
 62
     7
370
    25
100
AcDbLine
 10
217.4707144509
 20
154.2588920231
 30
0.0
 11
220.7887864282
 21
152.3432022738
 31
0.0
  0
LINE
  5
106
330
1F
100
AcDbEntity
  8
0
  6
Continuous
 62
     7
370
    25
100
AcDbLine
 10
255.4707144509
 20
155.2588920231
 30
0.0
 11
261.4707144509
 21
156.2588920231
 31
0.0
  0
LINE
  5
107
330
1F
100
AcDbEntity
  8
0
  6
Continuous
 62
     7
370
    25
100
AcDbLine
 10
261.4707144509
 20
181.2588920231
 30
0.0
 11
255.4707144509
 21
182.2588920231
 31
0.0
  0
LINE
  5
108
330
1F
100
AcDbEntity
  8
0
  6
Continuous
 62
     7
370
    25
100
AcDbLine
 10
279.4707144509
 20
155.2588920231
 30
0.0
 11
286.5947491855
 21
156.1493963649
 31
0.0
  0
LINE
  5
109
330
1F
100
AcDbEntity
  8
0
  6
Continuous
 62
     7
370
    25
100
AcDbLine
 10
286.5947491855
 20
181.3683876813
 30
0.0
 11
279.4707144509
 21
182.2588920231
 31
0.0
  0
LINE
  5
10A
330
1F
100
AcDbEntity
  8
0
  6
Continuous
 62
     7
370
    25
100
AcDbLine
 10
255.4707144509
 20
182.2588920231
 30
0.0
 11
247.4707144509
 21
182.2588920231
 31
0.0
  0
LINE
  5
10B
330
1F
100
AcDbEntity
  8
0
  6
Continuous
 62
     7
370
    25
100
AcDbLine
 10
247.4707144509
 20
155.2588920231
 30
0.0
 11
255.4707144509
 21
155.2588920231
 31
0.0
  0
LINE
  5
10C
330
1F
100
AcDbEntity
  8
0
  6
Continuous
 62
     7
370
    25
100
AcDbLine
 10
273.4707144509
 20
155.2588920231
 30
0.0
 11
279.4707144509
 21
156.2588920231
 31
0.0
  0
LINE
  5
10D
330
1F
100
AcDbEntity
  8
0
  6
Continuous
 62
     7
370
    25
100
AcDbLine
 10
279.4707144509
 20
181.2588920231
 30
0.0
 11
273.4707144509
 21
182.2588920231
 31
0.0
  0
LINE
  5
10E
330
1F
100
AcDbEntity
  8
0
  6
Continuous
 62
     7
370
    25
100
AcDbLine
 10
267.4707144509
 20
155.2588920231
 30
0.0
 11
273.4707144509
 21
156.2588920231
 31
0.0
  0
LINE
  5
10F
330
1F
100
AcDbEntity
  8
0
  6
Continuous
 62
     7
370
    25
100
AcDbLine
 10
273.4707144509
 20
181.2588920231
 30
0.0
 11
267.4707144509
 21
182.2588920231
 31
0.0
  0
LINE
  5
110
330
1F
100
AcDbEntity
  8
0
  6
Continuous
 62
     7
370
    25
100
AcDbLine
 10
261.4707144509
 20
155.2588920231
 30
0.0
 11
267.4707144509
 21
156.2588920231
 31
0.0
  0
LINE
  5
111
330
1F
100
AcDbEntity
  8
0
  6
Continuous
 62
     7
370
    25
100
AcDbLine
 10
267.4707144509
 20
181.2588920231
 30
0.0
 11
261.4707144509
 21
182.2588920231
 31
0.0
  0
ARC
  5
112
330
1F
100
AcDbEntity
  8
0
  6
Continuous
 62
     7
370
    25
100
AcDbCircle
 10
286.4707144509
 20
180.3761098046
 30
0.0
 40
1.0
100
AcDbArc
 50
0.0
 51
82.8749836511
  0
ARC
  5
113
330
1F
100
AcDbEntity
  8
0
  6
Continuous
 62
     7
370
    25
100
AcDbCircle
 10
286.4707144509
 20
157.1416742417
 30
0.0
 40
1.0
100
AcDbArc
 50
277.1250163489
 51
0.0
  0
SPLINE
  5
114
330
1F
100
AcDbEntity
  8
0
  6
Continuous
 62
     7
370
    25
100
AcDbSpline
210
0.0
220
0.0
230
1.0
 70
    24
 71
     3
 72
    13
 73
     9
 74
     0
 42
0.000000001
 43
0.00000001
 40
0.0
 40
0.0
 40
0.0
 40
0.0
 40
0.0897155179013352
 40
0.2236654580104007
 40
0.4163570054781018
 40
0.6096906582321437
 40
0.8046411172561433
 40
1.0
 40
1.0
 40
1.0
 40
1.0
 10
237.6217586931253
 20
186.7588920231213
 30
0.0
 10
237.6217660886369
 20
186.7588920231213
 30
0.0
 10
237.6217845260324
 20
186.7588920231213
 30
0.0
 10
237.7015604749582
 20
186.7588920231213
 30
0.0
 10
237.8822540782018
 20
186.7588920231213
 30
0.0
 10
238.2018810599406
 20
186.7588920231213
 30
0.0
 10
238.6170771012411
 20
186.7588920231213
 30
0.0
 10
238.9657626998347
 20
186.7588920231213
 30
0.0
 10
239.1402879332344
 20
186.7588920231212
 30
0.0
  0
SPLINE
  5
115
330
1F
100
AcDbEntity
  8
0
  6
Continuous
 62
     7
370
    25
100
AcDbSpline
210
0.0
220
0.0
230
1.0
 70
     8
 71
     3
 72
    10
 73
     6
 74
     0
 42
0.000000001
 43
0.00000001
 40
0.0
 40
0.0
 40
0.0
 40
0.0
 40
0.5
 40
0.5
 40
1.0
 40
1.0
 40
1.0
 40
1.0
 10
239.1402879332345
 20
186.5088920231212
 30
0.0
 10
239.1645310385427
 20
186.5831852734366
 30
0.0
 10
239.1780436256846
 20
186.6475306933988
 30
0.0
 10
239.178134088699
 20
186.7358230445547
 30
0.0
 10
239.1645403616716
 20
186.7588920231212
 30
0.0
 10
239.1402879332344
 20
186.7588920231212
 30
0.0
  0
SPLINE
  5
116
330
1F
100
AcDbEntity
  8
0
  6
Continuous
 62
     7
370
    25
100
AcDbSpline
210
0.0
220
0.0
230
1.0
 70
     8
 71
     3
 72
    18
 73
    14
 74
     0
 42
0.000000001
 43
0.00000001
 40
0.0
 40
0.0
 40
0.0
 40
0.0
 40
0.2499999999999998
 40
0.2499999999999998
 40
0.4999999999999996
 40
0.4999999999999996
 40
0.5624999999999996
 40
0.5624999999999996
 40
0.6249999999999996
 40
0.6249999999999996
 40
0.7499999999999997
 40
0.7499999999999997
 40
1.0
 40
1.0
 40
1.0
 40
1.0
 10
239.1402879332345
 20
186.5088920231215
 30
0.0
 10
238.6739474283519
 20
185.0797866580695
 30
0.0
 10
238.2909078303924
 20
183.6403187425982
 30
0.0
 10
237.761194726538
 20
180.7319792036177
 30
0.0
 10
237.6161412838439
 20
179.262906045849
 30
0.0
 10
237.6147874547573
 20
177.4041773826582
 30
0.0
 10
237.6234466053592
 20
177.0305801108254
 30
0.0
 10
237.6583708705063
 20
176.2865645774061
 30
0.0
 10
237.6845946919891
 20
175.9158136798872
 30
0.0
 10
237.7884603426632
 20
174.8071751074826
 30
0.0
 10
237.8913544203791
 20
174.0729098818184
 30
0.0
 10
238.2892901958837
 20
171.8829176755624
 30
0.0
 10
238.6733087966762
 20
170.439954481637
 30
0.0
 10
239.1402879332344
 20
169.0088920231213
 30
0.0
  0
SPLINE
  5
117
330
1F
100
AcDbEntity
  8
0
  6
Continuous
 62
     7
370
    25
100
AcDbSpline
210
0.0
220
0.0
230
1.0
 70
     8
 71
     3
 72
    10
 73
     6
 74
     0
 42
0.000000001
 43
0.00000001
 40
0.0
 40
0.0
 40
0.0
 40
0.0
 40
0.5
 40
0.5
 40
1.0
 40
1.0
 40
1.0
 40
1.0
 10
239.1402879332345
 20
168.5088920231213
 30
0.0
 10
239.1645310385427
 20
168.5831852734368
 30
0.0
 10
239.1780436256846
 20
168.6702833711151
 30
0.0
 10
239.178134088699
 20
168.8465899692493
 30
0.0
 10
239.1645403616716
 20
168.9345702019793
 30
0.0
 10
239.1402879332344
 20
169.0088920231213
 30
0.0
  0
SPLINE
  5
118
330
1F
100
AcDbEntity
  8
0
  6
Continuous
 62
     7
370
    25
100
AcDbSpline
210
0.0
220
0.0
230
1.0
 70
     8
 71
     3
 72
    18
 73
    14
 74
     0
 42
0.000000001
 43
0.00000001
 40
0.0
 40
0.0
 40
0.0
 40
0.0
 40
0.2499999999999997
 40
0.2499999999999997
 40
0.4999999999999994
 40
0.4999999999999994
 40
0.5624999999999994
 40
0.5624999999999994
 40
0.6249999999999996
 40
0.6249999999999996
 40
0.7499999999999996
 40
0.7499999999999996
 40
1.0
 40
1.0
 40
1.0
 40
1.0
 10
239.1402879332344
 20
168.5088920231213
 30
0.0
 10
238.6739474283519
 20
167.0797866580694
 30
0.0
 10
238.2909078303923
 20
165.640318742598
 30
0.0
 10
237.7611947265379
 20
162.7319792036176
 30
0.0
 10
237.6161412838439
 20
161.2629060458489
 30
0.0
 10
237.6147874547572
 20
159.4041773826581
 30
0.0
 10
237.6234466053592
 20
159.0305801108253
 30
0.0
 10
237.6583708705063
 20
158.286564577406
 30
0.0
 10
237.684594691989
 20
157.9158136798871
 30
0.0
 10
237.7884603426632
 20
156.8071751074825
 30
0.0
 10
237.8913544203791
 20
156.0729098818183
 30
0.0
 10
238.2892901958837
 20
153.8829176755623
 30
0.0
 10
238.6733087966762
 20
152.4399544816369
 30
0.0
 10
239.1402879332344
 20
151.0088920231213
 30
0.0
  0
SPLINE
  5
119
330
1F
100
AcDbEntity
  8
0
  6
Continuous
 62
     7
370
    25
100
AcDbSpline
210
0.0
220
0.0
230
1.0
 70
     8
 71
     3
 72
    10
 73
     6
 74
     0
 42
0.000000001
 43
0.00000001
 40
0.0
 40
0.0
 40
0.0
 40
0.0
 40
0.5
 40
0.5
 40
1.0
 40
1.0
 40
1.0
 40
1.0
 10
239.1402879332344
 20
150.7588920231213
 30
0.0
 10
239.1645310385426
 20
150.7588920231213
 30
0.0
 10
239.1780436256846
 20
150.7816447008376
 30
0.0
 10
239.178134088699
 20
150.8696589478158
 30
0.0
 10
239.1645403616716
 20
150.9345702019793
 30
0.0
 10
239.1402879332344
 20
151.0088920231213
 30
0.0
  0
SPLINE
  5
11A
330
1F
100
AcDbEntity
  8
0
  6
Continuous
 62
     7
370
    25
100
AcDbSpline
210
0.0
220
0.0
230
1.0
 70
    24
 71
     3
 72
    12
 73
     8
 74
     0
 42
0.000000001
 43
0.00000001
 40
0.0
 40
0.0
 40
0.0
 40
0.0
 40
0.192975085504164
 40
0.3863067901014525
 40
0.5810205283590463
 40
0.7763543951353232
 40
1.0
 40
1.0
 40
1.0
 40
1.0
 10
239.1402879332344
 20
150.7588920231213
 30
0.0
 10
238.9678826758331
 20
150.7588920231213
 30
0.0
 10
238.6227535551007
 20
150.7588920231213
 30
0.0
 10
238.2068678131622
 20
150.7588920231213
 30
0.0
 10
237.8879666950079
 20
150.7588920231213
 30
0.0
 10
237.6584921606467
 20
150.7588920231213
 30
0.0
 10
237.6388842988772
 20
150.7588920231213
 30
0.0
 10
237.6284178860757
 20
150.7588920231213
 30
0.0
  0
LINE
  5
11B
330
1F
100
AcDbEntity
  8
0
  6
Continuous
 62
     7
370
    25
100
AcDbLine
 10
237.4707144509
 20
186.5088920231
 30
0.0
 11
237.4707144509
 21
151.0088920231
 31
0.0
  0
SPLINE
  5
11C
330
1F
100
AcDbEntity
  8
0
  6
Continuous
 62
     7
370
    25
100
AcDbSpline
210
0.0
220
0.0
230
1.0
 70
     8
 71
     3
 72
    10
 73
     6
 74
     0
 42
0.000000001
 43
0.00000001
 40
0.0
 40
0.0
 40
0.0
 40
0.0
 40
0.5
 40
0.5
 40
1.0
 40
1.0
 40
1.0
 40
1.0
 10
245.8011409684997
 20
151.0088920231213
 30
0.0
 10
245.7768978631915
 20
150.9345987728059
 30
0.0
 10
245.7633852760495
 20
150.8702533528439
 30
0.0
 10
245.7632948130351
 20
150.7819610016879
 30
0.0
 10
245.7768885400625
 20
150.7588920231213
 30
0.0
 10
245.8011409684997
 20
150.7588920231213
 30
0.0
  0
SPLINE
  5
11D
330
1F
100
AcDbEntity
  8
0
  6
Continuous
 62
     7
370
    25
100
AcDbSpline
210
0.0
220
0.0
230
1.0
 70
     8
 71
     3
 72
    18
 73
    14
 74
     0
 42
0.000000001
 43
0.00000001
 40
0.0
 40
0.0
 40
0.0
 40
0.0
 40
0.2500000000000003
 40
0.2500000000000003
 40
0.5000000000000006
 40
0.5000000000000006
 40
0.5625000000000006
 40
0.5625000000000006
 40
0.6250000000000004
 40
0.6250000000000004
 40
0.7500000000000003
 40
0.7500000000000003
 40
1.0
 40
1.0
 40
1.0
 40
1.0
 10
245.8011409684999
 20
168.5088920231208
 30
0.0
 10
246.2674814733824
 20
167.0797866580689
 30
0.0
 10
246.6505210713419
 20
165.6403187425976
 30
0.0
 10
247.1802341751962
 20
162.7319792036172
 30
0.0
 10
247.3252876178902
 20
161.2629060458485
 30
0.0
 10
247.3266414469769
 20
159.4041773826578
 30
0.0
 10
247.3179822963749
 20
159.030580110825
 30
0.0
 10
247.2830580312278
 20
158.2865645774058
 30
0.0
 10
247.2568342097451
 20
157.9158136798869
 30
0.0
 10
247.1529685590709
 20
156.8071751074824
 30
0.0
 10
247.050074481355
 20
156.0729098818182
 30
0.0
 10
246.6521387058504
 20
153.8829176755622
 30
0.0
 10
246.2681201050579
 20
152.4399544816368
 30
0.0
 10
245.8011409684997
 20
151.0088920231213
 30
0.0
  0
SPLINE
  5
11E
330
1F
100
AcDbEntity
  8
0
  6
Continuous
 62
     7
370
    25
100
AcDbSpline
210
0.0
220
0.0
230
1.0
 70
     8
 71
     3
 72
    10
 73
     6
 74
     0
 42
0.000000001
 43
0.00000001
 40
0.0
 40
0.0
 40
0.0
 40
0.0
 40
0.5
 40
0.5
 40
1.0
 40
1.0
 40
1.0
 40
1.0
 10
245.8011409684997
 20
169.0088920231213
 30
0.0
 10
245.7768978631915
 20
168.9345987728058
 30
0.0
 10
245.7633852760495
 20
168.8475006751274
 30
0.0
 10
245.7632948130351
 20
168.671194076993
 30
0.0
 10
245.7768885400626
 20
168.5832138442627
 30
0.0
 10
245.8011409684999
 20
168.5088920231206
 30
0.0
  0
SPLINE
  5
11F
330
1F
100
AcDbEntity
  8
0
  6
Continuous
 62
     7
370
    25
100
AcDbSpline
210
0.0
220
0.0
230
1.0
 70
     8
 71
     3
 72
    18
 73
    14
 74
     0
 42
0.000000001
 43
0.00000001
 40
0.0
 40
0.0
 40
0.0
 40
0.0
 40
0.2499999999999998
 40
0.2499999999999998
 40
0.4999999999999996
 40
0.4999999999999996
 40
0.5624999999999996
 40
0.5624999999999996
 40
0.6249999999999997
 40
0.6249999999999997
 40
0.7499999999999997
 40
0.7499999999999997
 40
1.0
 40
1.0
 40
1.0
 40
1.0
 10
245.8011409684997
 20
186.5088920231212
 30
0.0
 10
246.2674814733823
 20
185.0797866580693
 30
0.0
 10
246.6505210713418
 20
183.6403187425979
 30
0.0
 10
247.1802341751961
 20
180.7319792036175
 30
0.0
 10
247.3252876178902
 20
179.2629060458488
 30
0.0
 10
247.3266414469768
 20
177.4041773826581
 30
0.0
 10
247.3179822963749
 20
177.0305801108252
 30
0.0
 10
247.2830580312278
 20
176.286564577406
 30
0.0
 10
247.256834209745
 20
175.9158136798871
 30
0.0
 10
247.1529685590709
 20
174.8071751074825
 30
0.0
 10
247.050074481355
 20
174.0729098818183
 30
0.0
 10
246.6521387058504
 20
171.8829176755623
 30
0.0
 10
246.2681201050579
 20
170.4399544816369
 30
0.0
 10
245.8011409684997
 20
169.0088920231213
 30
0.0
  0
SPLINE
  5
120
330
1F
100
AcDbEntity
  8
0
  6
Continuous
 62
     7
370
    25
100
AcDbSpline
210
0.0
220
0.0
230
1.0
 70
     8
 71
     3
 72
    10
 73
     6
 74
     0
 42
0.000000001
 43
0.00000001
 40
0.0
 40
0.0
 40
0.0
 40
0.0
 40
0.5
 40
0.5
 40
1.0
 40
1.0
 40
1.0
 40
1.0
 10
245.8011409684997
 20
186.7588920231212
 30
0.0
 10
245.7768978631915
 20
186.7588920231212
 30
0.0
 10
245.7633852760495
 20
186.736139345405
 30
0.0
 10
245.7632948130351
 20
186.6481250984267
 30
0.0
 10
245.7768885400625
 20
186.5832138442633
 30
0.0
 10
245.8011409684997
 20
186.5088920231212
 30
0.0
  0
SPLINE
  5
121
330
1F
100
AcDbEntity
  8
0
  6
Continuous
 62
     7
370
    25
100
AcDbSpline
210
0.0
220
0.0
230
1.0
 70
    24
 71
     3
 72
    13
 73
     9
 74
     0
 42
0.000000001
 43
0.00000001
 40
0.0
 40
0.0
 40
0.0
 40
0.0
 40
0.0897155179013351
 40
0.2236654580104005
 40
0.4163570054781016
 40
0.6096906582321435
 40
0.8046411172561433
 40
0.9999999999999999
 40
0.9999999999999999
 40
0.9999999999999999
 40
0.9999999999999999
 10
247.3196702086088
 20
186.7588920231213
 30
0.0
 10
247.3196628130972
 20
186.7588920231213
 30
0.0
 10
247.3196443757017
 20
186.7588920231213
 30
0.0
 10
247.2398684267759
 20
186.7588920231213
 30
0.0
 10
247.0591748235323
 20
186.7588920231213
 30
0.0
 10
246.7395478417935
 20
186.7588920231213
 30
0.0
 10
246.324351800493
 20
186.7588920231213
 30
0.0
 10
245.9756662018994
 20
186.7588920231212
 30
0.0
 10
245.8011409684997
 20
186.7588920231212
 30
0.0
  0
SPLINE
  5
122
330
1F
100
AcDbEntity
  8
0
  6
Continuous
 62
     7
370
    25
100
AcDbSpline
210
0.0
220
0.0
230
1.0
 70
    24
 71
     3
 72
    12
 73
     8
 74
     0
 42
0.000000001
 43
0.00000001
 40
0.0
 40
0.0
 40
0.0
 40
0.0
 40
0.192975085504164
 40
0.3863067901014525
 40
0.5810205283590463
 40
0.7763543951353232
 40
1.0
 40
1.0
 40
1.0
 40
1.0
 10
245.8011409684997
 20
150.7588920231213
 30
0.0
 10
245.973546225901
 20
150.7588920231213
 30
0.0
 10
246.3186753466334
 20
150.7588920231213
 30
0.0
 10
246.7345610885719
 20
150.7588920231213
 30
0.0
 10
247.0534622067262
 20
150.7588920231213
 30
0.0
 10
247.2829367410874
 20
150.7588920231213
 30
0.0
 10
247.302544602857
 20
150.7588920231213
 30
0.0
 10
247.3130110156584
 20
150.7588920231213
 30
0.0
  0
LINE
  5
123
330
1F
100
AcDbEntity
  8
0
  6
Continuous
 62
     7
370
    25
100
AcDbLine
 10
247.4707144509
 20
186.5088920231
 30
0.0
 11
247.4707144509
 21
151.0088920231
 31
0.0
  0
LINE
  5
124
330
1F
100
AcDbEntity
  8
0
  6
Continuous
 62
     7
370
    25
100
AcDbLine
 10
245.8011409685
 20
168.5088920231
 30
0.0
 11
239.1402879332
 21
168.5088920231
 31
0.0
  0
LINE
  5
125
330
1F
100
AcDbEntity
  8
0
  6
Continuous
 62
     7
370
    25
100
AcDbLine
 10
239.1402879332
 20
169.0088920231
 30
0.0
 11
245.8011409685
 21
169.0088920231
 31
0.0
  0
LINE
  5
126
330
1F
100
AcDbEntity
  8
0
  6
Continuous
 62
     7
370
    25
100
AcDbLine
 10
245.8011409685
 20
186.5088920231
 30
0.0
 11
239.1402879332
 21
186.5088920231
 31
0.0
  0
LINE
  5
127
330
1F
100
AcDbEntity
  8
0
  6
Continuous
 62
     7
370
    25
100
AcDbLine
 10
239.1402879332
 20
151.0088920231
 30
0.0
 11
245.8011409685
 21
151.0088920231
 31
0.0
  0
LINE
  5
128
330
1F
100
AcDbEntity
  8
0
  6
Continuous
 62
     7
370
    25
100
AcDbLine
 10
220.7887864282
 20
185.1745817724
 30
0.0
 11
220.7887864282
 21
152.3432022738
 31
0.0
  0
LINE
  5
129
330
1F
100
AcDbEntity
  8
0
  6
Continuous
 62
     7
370
    25
100
AcDbLine
 10
217.4707144509
 20
154.2588920231
 30
0.0
 11
217.4707144509
 21
183.2588920231
 31
0.0
  0
LINE
  5
12A
330
1F
100
AcDbEntity
  8
0
  6
Continuous
 62
     7
370
    25
100
AcDbLine
 10
255.4707144509
 20
168.7588920231
 30
0.0
 11
255.4707144509
 21
155.2588920231
 31
0.0
  0
LINE
  5
12B
330
1F
100
AcDbEntity
  8
0
  6
Continuous
 62
     7
370
    25
100
AcDbLine
 10
255.4707144509
 20
182.2588920231
 30
0.0
 11
255.4707144509
 21
168.7588920231
 31
0.0
  0
LINE
  5
12C
330
1F
100
AcDbEntity
  8
0
  6
Continuous
 62
     7
370
    25
100
AcDbLine
 10
279.4707144509
 20
168.7588920231
 30
0.0
 11
279.4707144509
 21
155.2588920231
 31
0.0
  0
LINE
  5
12D
330
1F
100
AcDbEntity
  8
0
  6
Continuous
 62
     7
370
    25
100
AcDbLine
 10
279.4707144509
 20
182.2588920231
 30
0.0
 11
279.4707144509
 21
168.7588920231
 31
0.0
  0
LINE
  5
12E
330
1F
100
AcDbEntity
  8
0
  6
Continuous
 62
     7
370
    25
100
AcDbLine
 10
273.4707144509
 20
168.7588920231
 30
0.0
 11
273.4707144509
 21
155.2588920231
 31
0.0
  0
LINE
  5
12F
330
1F
100
AcDbEntity
  8
0
  6
Continuous
 62
     7
370
    25
100
AcDbLine
 10
273.4707144509
 20
182.2588920231
 30
0.0
 11
273.4707144509
 21
168.7588920231
 31
0.0
  0
LINE
  5
130
330
1F
100
AcDbEntity
  8
0
  6
Continuous
 62
     7
370
    25
100
AcDbLine
 10
267.4707144509
 20
168.7588920231
 30
0.0
 11
267.4707144509
 21
155.2588920231
 31
0.0
  0
LINE
  5
131
330
1F
100
AcDbEntity
  8
0
  6
Continuous
 62
     7
370
    25
100
AcDbLine
 10
267.4707144509
 20
182.2588920231
 30
0.0
 11
267.4707144509
 21
168.7588920231
 31
0.0
  0
LINE
  5
132
330
1F
100
AcDbEntity
  8
0
  6
Continuous
 62
     7
370
    25
100
AcDbLine
 10
261.4707144509
 20
168.7588920231
 30
0.0
 11
261.4707144509
 21
155.2588920231
 31
0.0
  0
LINE
  5
133
330
1F
100
AcDbEntity
  8
0
  6
Continuous
 62
     7
370
    25
100
AcDbLine
 10
261.4707144509
 20
182.2588920231
 30
0.0
 11
261.4707144509
 21
168.7588920231
 31
0.0
  0
LINE
  5
134
330
1F
100
AcDbEntity
  8
0
  6
Continuous
 62
     7
370
    25
100
AcDbLine
 10
287.4707144509
 20
168.7588920231
 30
0.0
 11
287.4707144509
 21
157.1416742417
 31
0.0
  0
LINE
  5
135
330
1F
100
AcDbEntity
  8
0
  6
Continuous
 62
     7
370
    25
100
AcDbLine
 10
287.4707144509
 20
180.3761098046
 30
0.0
 11
287.4707144509
 21
168.7588920231
 31
0.0
  0
LINE
  5
136
330
1F
100
AcDbEntity
  8
0
  6
Continuous
 62
     7
370
    25
100
AcDbLine
 10
239.1402879332
 20
186.7588920231
 30
0.0
 11
245.8011409685
 21
186.7588920231
 31
0.0
  0
LINE
  5
137
330
1F
100
AcDbEntity
  8
0
  6
Continuous
 62
     7
370
    25
100
AcDbLine
 10
245.8011409685
 20
150.7588920231
 30
0.0
 11
239.1402879332
 21
150.7588920231
 31
0.0
  0
LINE
  5
138
330
1F
100
AcDbEntity
  8
0
  6
Continuous
 62
     8
370
    25
100
AcDbLine
 10
286.5947491855
 20
168.7588920231
 30
0.0
 11
286.5947491855
 21
181.3683876813
 31
0.0
  0
LINE
  5
139
330
1F
100
AcDbEntity
  8
0
  6
Continuous
 62
     8
370
    25
100
AcDbLine
 10
286.5947491855
 20
156.1493963649
 30
0.0
 11
286.5947491855
 21
168.7588920231
 31
0.0
  0
LINE
  5
13A
330
1F
100
AcDbEntity
  8
0
  6
Continuous
 62
     7
370
    18
100
AcDbLine
 10
218.6527318136
 20
183.9413300657
 30
0.0
 11
236.9707144509
 21
184.5137670231
 31
0.0
  0
LINE
  5
13B
330
1F
100
AcDbEntity
  8
0
  6
Continuous
 62
     7
370
    18
100
AcDbLine
 10
218.6527318136
 20
153.5764539805
 30
0.0
 11
236.9707144509
 21
153.0040170231
 31
0.0
  0
LINE
  5
13C
330
1F
100
AcDbEntity
  8
0
  6
Continuous
 62
     7
370
    18
100
AcDbLine
 10
236.9707144509
 20
151.8375170231
 30
0.0
 11
236.9707144509
 21
185.6802670231
 31
0.0
  0
LINE
  5
13D
330
1F
100
AcDbEntity
  8
0
  6
CENTERX2
 62
     7
370
    18
100
AcDbLine
 10
289.4707144509
 20
168.7588920231
 30
0.0
 11
216.2640249191
 21
168.7588920231
 31
0.0
  0
ENDSEC
  0
SECTION
  2
OBJECTS
  0
DICTIONARY
  5
C
330
0
100
AcDbDictionary
281
     1
  3
ACAD_GROUP
350
D
  3
ACAD_LAYOUT
350
1A
  3
ACAD_MLINESTYLE
350
17
  3
ACAD_PLOTSETTINGS
350
19
  3
ACAD_PLOTSTYLENAME
350
E
  3
ACAD_SCALELIST
350
47
  0
DICTIONARY
  5
D
102
{ACAD_REACTORS
330
C
102
}
330
C
100
AcDbDictionary
281
     1
  0
DICTIONARY
  5
1A
102
{ACAD_REACTORS
330
C
102
}
330
C
100
AcDbDictionary
281
     1
  3
Layout1
350
1E
  3
Layout2
350
26
  3
Model
350
22
  0
DICTIONARY
  5
17
102
{ACAD_REACTORS
330
C
102
}
330
C
100
AcDbDictionary
281
     1
  3
Standard
350
18
  0
DICTIONARY
  5
19
102
{ACAD_REACTORS
330
C
102
}
330
C
100
AcDbDictionary
281
     1
  0
ACDBDICTIONARYWDFLT
  5
E
102
{ACAD_REACTORS
330
C
102
}
330
C
100
AcDbDictionary
281
     1
  3
Normal
350
F
100
AcDbDictionaryWithDefault
340
F
  0
DICTIONARY
  5
47
102
{ACAD_REACTORS
330
C
102
}
330
C
100
AcDbDictionary
281
     1
  3
A0
350
48
  3
A1
350
49
  3
A2
350
4A
  3
A3
350
4B
  3
A4
350
4C
  3
A5
350
4D
  3
A6
350
4E
  3
A7
350
4F
  3
A8
350
50
  3
A9
350
51
  3
B0
350
52
  3
B1
350
53
  3
B2
350
54
  3
B3
350
55
  3
B4
350
56
  3
B5
350
57
  3
B6
350
58
  3
B7
350
59
  3
B8
350
5A
  3
B9
350
5B
  3
C0
350
5C
  3
C1
350
5D
  3
C2
350
5E
  3
C3
350
5F
  3
C4
350
60
  3
C5
350
61
  3
C6
350
62
  3
C7
350
63
  3
C8
350
64
  3
C9
350
65
  3
D0
350
66
  3
D1
350
67
  3
D2
350
68
  0
LAYOUT
  5
1E
102
{ACAD_REACTORS
330
1A
102
}
330
1A
100
AcDbPlotSettings
  1

  2
none_device
  4

  6

 40
0.0
 41
0.0
 42
0.0
 43
0.0
 44
0.0
 45
0.0
 46
0.0
 47
0.0
 48
0.0
 49
0.0
140
0.0
141
0.0
142
1.0
143
1.0
 70
   688
 72
     1
 73
     0
 74
     5
  7

 75
    16
147
1.0
148
0.0
149
0.0
100
AcDbLayout
  1
Layout1
 70
     1
 71
     1
 10
0.0
 20
0.0
 11
420.0
 21
297.0
 12
0.0
 22
0.0
 32
0.0
 14
1.0000000000E+20
 24
1.0000000000E+20
 34
1.0000000000E+20
 15
-1.0000000000E+20
 25
-1.0000000000E+20
 35
-1.0000000000E+20
146
0.0
 13
0.0
 23
0.0
 33
0.0
 16
1.0
 26
0.0
 36
0.0
 17
0.0
 27
1.0
 37
0.0
 76
     0
330
1B
  0
LAYOUT
  5
26
102
{ACAD_REACTORS
330
1A
102
}
330
1A
100
AcDbPlotSettings
  1

  2
none_device
  4

  6

 40
0.0
 41
0.0
 42
0.0
 43
0.0
 44
0.0
 45
0.0
 46
0.0
 47
0.0
 48
0.0
 49
0.0
140
0.0
141
0.0
142
1.0
143
1.0
 70
   688
 72
     1
 73
     0
 74
     5
  7

 75
    16
147
1.0
148
0.0
149
0.0
100
AcDbLayout
  1
Layout2
 70
     1
 71
     2
 10
0.0
 20
0.0
 11
0.0
 21
0.0
 12
0.0
 22
0.0
 32
0.0
 14
0.0
 24
0.0
 34
0.0
 15
0.0
 25
0.0
 35
0.0
146
0.0
 13
0.0
 23
0.0
 33
0.0
 16
1.0
 26
0.0
 36
0.0
 17
0.0
 27
1.0
 37
0.0
 76
     0
330
23
  0
LAYOUT
  5
22
102
{ACAD_REACTORS
330
1A
102
}
330
1A
100
AcDbPlotSettings
  1

  2
none_device
  4
Letter_(8.50_x_11.00_Inches)
  6

 40
6.35
 41
6.35
 42
6.35000508
 43
6.35000508
 44
215.9
 45
279.4
 46
0.0
 47
0.0
 48
0.0
 49
0.0
140
0.0
141
0.0
142
1.0
143
1.0
 70
  1712
 72
     1
 73
     0
 74
     0
  7

 75
     0
147
1.0
148
0.0
149
0.0
100
AcDbLayout
  1
Model
 70
     1
 71
     0
 10
0.0
 20
0.0
 11
431.8
 21
279.4
 12
0.0
 22
0.0
 32
0.0
 14
0.0
 24
0.0
 34
0.0
 15
431.8
 25
279.4
 35
0.0
146
0.0
 13
0.0
 23
0.0
 33
0.0
 16
1.0
 26
0.0
 36
0.0
 17
0.0
 27
1.0
 37
0.0
 76
     0
330
1F
331
29
  0
MLINESTYLE
  5
18
102
{ACAD_REACTORS
330
17
102
}
330
17
100
AcDbMlineStyle
  2
Standard
 70
     0
  3

 62
   256
 51
90.0
 52
90.0
 71
     2
 49
0.5
 62
   256
  6
BYLAYER
 49
-0.5
 62
   256
  6
BYLAYER
  0
ACDBPLACEHOLDER
  5
F
102
{ACAD_REACTORS
330
E
102
}
330
E
  0
SCALE
  5
48
102
{ACAD_REACTORS
330
47
102
}
330
47
100
AcDbScale
 70
     0
300
1:1
140
1.0
141
1.0
290
     1
  0
SCALE
  5
49
102
{ACAD_REACTORS
330
47
102
}
330
47
100
AcDbScale
 70
     0
300
1:2
140
1.0
141
2.0
290
     0
  0
SCALE
  5
4A
102
{ACAD_REACTORS
330
47
102
}
330
47
100
AcDbScale
 70
     0
300
1:4
140
1.0
141
4.0
290
     0
  0
SCALE
  5
4B
102
{ACAD_REACTORS
330
47
102
}
330
47
100
AcDbScale
 70
     0
300
1:5
140
1.0
141
5.0
290
     0
  0
SCALE
  5
4C
102
{ACAD_REACTORS
330
47
102
}
330
47
100
AcDbScale
 70
     0
300
1:8
140
1.0
141
8.0
290
     0
  0
SCALE
  5
4D
102
{ACAD_REACTORS
330
47
102
}
330
47
100
AcDbScale
 70
     0
300
1:10
140
1.0
141
10.0
290
     0
  0
SCALE
  5
4E
102
{ACAD_REACTORS
330
47
102
}
330
47
100
AcDbScale
 70
     0
300
1:16
140
1.0
141
16.0
290
     0
  0
SCALE
  5
4F
102
{ACAD_REACTORS
330
47
102
}
330
47
100
AcDbScale
 70
     0
300
1:20
140
1.0
141
20.0
290
     0
  0
SCALE
  5
50
102
{ACAD_REACTORS
330
47
102
}
330
47
100
AcDbScale
 70
     0
300
1:30
140
1.0
141
30.0
290
     0
  0
SCALE
  5
51
102
{ACAD_REACTORS
330
47
102
}
330
47
100
AcDbScale
 70
     0
300
1:40
140
1.0
141
40.0
290
     0
  0
SCALE
  5
52
102
{ACAD_REACTORS
330
47
102
}
330
47
100
AcDbScale
 70
     0
300
1:50
140
1.0
141
50.0
290
     0
  0
SCALE
  5
53
102
{ACAD_REACTORS
330
47
102
}
330
47
100
AcDbScale
 70
     0
300
1:100
140
1.0
141
100.0
290
     0
  0
SCALE
  5
54
102
{ACAD_REACTORS
330
47
102
}
330
47
100
AcDbScale
 70
     0
300
2:1
140
2.0
141
1.0
290
     0
  0
SCALE
  5
55
102
{ACAD_REACTORS
330
47
102
}
330
47
100
AcDbScale
 70
     0
300
4:1
140
4.0
141
1.0
290
     0
  0
SCALE
  5
56
102
{ACAD_REACTORS
330
47
102
}
330
47
100
AcDbScale
 70
     0
300
8:1
140
8.0
141
1.0
290
     0
  0
SCALE
  5
57
102
{ACAD_REACTORS
330
47
102
}
330
47
100
AcDbScale
 70
     0
300
10:1
140
10.0
141
1.0
290
     0
  0
SCALE
  5
58
102
{ACAD_REACTORS
330
47
102
}
330
47
100
AcDbScale
 70
     0
300
100:1
140
100.0
141
1.0
290
     0
  0
SCALE
  5
59
102
{ACAD_REACTORS
330
47
102
}
330
47
100
AcDbScale
 70
     0
300
1/128" = 1'-0"
140
0.0078125
141
12.0
290
     0
  0
SCALE
  5
5A
102
{ACAD_REACTORS
330
47
102
}
330
47
100
AcDbScale
 70
     0
300
1/64" = 1'-0"
140
0.015625
141
12.0
290
     0
  0
SCALE
  5
5B
102
{ACAD_REACTORS
330
47
102
}
330
47
100
AcDbScale
 70
     0
300
1/32" = 1'-0"
140
0.03125
141
12.0
290
     0
  0
SCALE
  5
5C
102
{ACAD_REACTORS
330
47
102
}
330
47
100
AcDbScale
 70
     0
300
1/16" = 1'-0"
140
0.0625
141
12.0
290
     0
  0
SCALE
  5
5D
102
{ACAD_REACTORS
330
47
102
}
330
47
100
AcDbScale
 70
     0
300
3/32" = 1'-0"
140
0.09375
141
12.0
290
     0
  0
SCALE
  5
5E
102
{ACAD_REACTORS
330
47
102
}
330
47
100
AcDbScale
 70
     0
300
1/8" = 1'-0"
140
0.125
141
12.0
290
     0
  0
SCALE
  5
5F
102
{ACAD_REACTORS
330
47
102
}
330
47
100
AcDbScale
 70
     0
300
3/16" = 1'-0"
140
0.1875
141
12.0
290
     0
  0
SCALE
  5
60
102
{ACAD_REACTORS
330
47
102
}
330
47
100
AcDbScale
 70
     0
300
1/4" = 1'-0"
140
0.25
141
12.0
290
     0
  0
SCALE
  5
61
102
{ACAD_REACTORS
330
47
102
}
330
47
100
AcDbScale
 70
     0
300
3/8" = 1'-0"
140
0.375
141
12.0
290
     0
  0
SCALE
  5
62
102
{ACAD_REACTORS
330
47
102
}
330
47
100
AcDbScale
 70
     0
300
1/2" = 1'-0"
140
0.5
141
12.0
290
     0
  0
SCALE
  5
63
102
{ACAD_REACTORS
330
47
102
}
330
47
100
AcDbScale
 70
     0
300
3/4" = 1'-0"
140
0.75
141
12.0
290
     0
  0
SCALE
  5
64
102
{ACAD_REACTORS
330
47
102
}
330
47
100
AcDbScale
 70
     0
300
1" = 1'-0"
140
1.0
141
12.0
290
     0
  0
SCALE
  5
65
102
{ACAD_REACTORS
330
47
102
}
330
47
100
AcDbScale
 70
     0
300
1-1/2" = 1'-0"
140
1.5
141
12.0
290
     0
  0
SCALE
  5
66
102
{ACAD_REACTORS
330
47
102
}
330
47
100
AcDbScale
 70
     0
300
3" = 1'-0"
140
3.0
141
12.0
290
     0
  0
SCALE
  5
67
102
{ACAD_REACTORS
330
47
102
}
330
47
100
AcDbScale
 70
     0
300
6" = 1'-0"
140
6.0
141
12.0
290
     0
  0
SCALE
  5
68
102
{ACAD_REACTORS
330
47
102
}
330
47
100
AcDbScale
 70
     0
300
1'-0" = 1'-0"
140
12.0
141
12.0
290
     0
  0
ENDSEC
  0
EOF
