  0
SECTION
  2
HEADER
  9
$ACADVER
  1
AC1015
  9
$ACADMAINTVER
 70
     6
  9
$DWGCODEPAGE
  3
DOS932
  9
$INSBASE
 10
0.0
 20
0.0
 30
0.0
  9
$EXTMIN
 10
0.0
 20
0.0
 30
0.0
  9
$EXTMAX
 10
215.9
 20
139.7
 30
0.0
  9
$LIMMIN
 10
0.0
 20
0.0
  9
$LIMMAX
 10
215.9
 20
139.7
  9
$ORTHOMODE
 70
     0
  9
$REGENMODE
 70
     1
  9
$FILLMODE
 70
     1
  9
$QTEXTMODE
 70
     0
  9
$MIRRTEXT
 70
     1
  9
$LTSCALE
 40
0.5
  9
$ATTMODE
 70
     1
  9
$TEXTSIZE
 40
1.75
  9
$TRACEWID
 40
1.0
  9
$TEXTSTYLE
  7
Standard
  9
$CLAYER
  8
0
  9
$CELTYPE
  6
ByLayer
  9
$CECOLOR
 62
   256
  9
$CELTSCALE
 40
1.0
  9
$DISPSILH
 70
     0
  9
$DIMSCALE
 40
1.0
  9
$DIMASZ
 40
1.651
  9
$DIMEXO
 40
0.5
  9
$DIMDLI
 40
3.75
  9
$DIMRND
 40
0.0
  9
$DIMDLE
 40
0.0
  9
$DIMEXE
 40
0.5
  9
$DIMTP
 40
0.0
  9
$DIMTM
 40
0.0
  9
$DIMTXT
 40
1.75
  9
$DIMCEN
 40
2.5
  9
$DIMTSZ
 40
0.0
  9
$DIMTOL
 70
     0
  9
$DIMLIM
 70
     0
  9
$DIMTIH
 70
     1
  9
$DIMTOH
 70
     1
  9
$DIMSE1
 70
     0
  9
$DIMSE2
 70
     0
  9
$DIMTAD
 70
     1
  9
$DIMZIN
 70
     1
  9
$DIMBLK
  1

  9
$DIMASO
 70
     1
  9
$DIMSHO
 70
     1
  9
$DIMPOST
  1

  9
$DIMAPOST
  1

  9
$DIMALT
 70
     0
  9
$DIMALTD
 70
     3
  9
$DIMALTF
 40
0.0393700787
  9
$DIMLFAC
 40
1.0
  9
$DIMTOFL
 70
     1
  9
$DIMTVP
 40
0.0
  9
$DIMTIX
 70
     0
  9
$DIMSOXD
 70
     0
  9
$DIMSAH
 70
     0
  9
$DIMBLK1
  1

  9
$DIMBLK2
  1

  9
$DIMSTYLE
  2
ISO-25
  9
$DIMCLRD
 70
     0
  9
$DIMCLRE
 70
     0
  9
$DIMCLRT
 70
     0
  9
$DIMTFAC
 40
1.0
  9
$DIMGAP
 40
0.762
  9
$DIMJUST
 70
     0
  9
$DIMSD1
 70
     0
  9
$DIMSD2
 70
     0
  9
$DIMTOLJ
 70
     0
  9
$DIMTZIN
 70
     1
  9
$DIMALTZ
 70
     0
  9
$DIMALTTZ
 70
     0
  9
$DIMUPT
 70
     0
  9
$DIMDEC
 70
     2
  9
$DIMTDEC
 70
     2
  9
$DIMALTU
 70
     2
  9
$DIMALTTD
 70
     3
  9
$DIMTXSTY
  7
Standard
  9
$DIMAUNIT
 70
     0
  9
$DIMADEC
 70
     2
  9
$DIMALTRND
 40
0.0
  9
$DIMAZIN
 70
     0
  9
$DIMDSEP
 70
    44
  9
$DIMATFIT
 70
     3
  9
$DIMFRAC
 70
     0
  9
$DIMLDRBLK
  1

  9
$DIMLUNIT
 70
     2
  9
$DIMLWD
 70
    -2
  9
$DIMLWE
 70
    -2
  9
$DIMTMOVE
 70
     0
  9
$LUNITS
 70
     2
  9
$LUPREC
 70
     2
  9
$SKETCHINC
 40
1.0
  9
$FILLETRAD
 40
10.0
  9
$AUNITS
 70
     0
  9
$AUPREC
 70
     2
  9
$MENU
  1
.
  9
$ELEVATION
 40
0.0
  9
$PELEVATION
 40
0.0
  9
$THICKNESS
 40
0.0
  9
$LIMCHECK
 70
     0
  9
$CHAMFERA
 40
0.0
  9
$CHAMFERB
 40
0.0
  9
$CHAMFERC
 40
0.0
  9
$CHAMFERD
 40
0.0
  9
$SKPOLY
 70
     0
  9
$TDCREATE
 40
2460082.707270232
  9
$TDUCREATE
 40
2460082.332270232
  9
$TDUPDATE
 40
2460082.707270833
  9
$TDUUPDATE
 40
2460082.332270833
  9
$TDINDWG
 40
0.0000000116
  9
$TDUSRTIMER
 40
0.0000000116
  9
$USRTIMER
 70
     1
  9
$ANGBASE
 50
0.0
  9
$ANGDIR
 70
     0
  9
$PDMODE
 70
     0
  9
$PDSIZE
 40
-1.0
  9
$PLINEWID
 40
0.0
  9
$SPLFRAME
 70
     0
  9
$SPLINETYPE
 70
     6
  9
$SPLINESEGS
 70
     8
  9
$HANDSEED
  5
14D
  9
$SURFTAB1
 70
     6
  9
$SURFTAB2
 70
     6
  9
$SURFTYPE
 70
     6
  9
$SURFU
 70
     6
  9
$SURFV
 70
     6
  9
$UCSBASE
  2

  9
$UCSNAME
  2

  9
$UCSORG
 10
0.0
 20
0.0
 30
0.0
  9
$UCSXDIR
 10
1.0
 20
0.0
 30
0.0
  9
$UCSYDIR
 10
0.0
 20
1.0
 30
0.0
  9
$UCSORTHOREF
  2

  9
$UCSORTHOVIEW
 70
     0
  9
$UCSORGTOP
 10
0.0
 20
0.0
 30
0.0
  9
$UCSORGBOTTOM
 10
0.0
 20
0.0
 30
0.0
  9
$UCSORGLEFT
 10
0.0
 20
0.0
 30
0.0
  9
$UCSORGRIGHT
 10
0.0
 20
0.0
 30
0.0
  9
$UCSORGFRONT
 10
0.0
 20
0.0
 30
0.0
  9
$UCSORGBACK
 10
0.0
 20
0.0
 30
0.0
  9
$PUCSBASE
  2

  9
$PUCSNAME
  2

  9
$PUCSORG
 10
0.0
 20
0.0
 30
0.0
  9
$PUCSXDIR
 10
1.0
 20
0.0
 30
0.0
  9
$PUCSYDIR
 10
0.0
 20
1.0
 30
0.0
  9
$PUCSORTHOREF
  2

  9
$PUCSORTHOVIEW
 70
     0
  9
$PUCSORGTOP
 10
0.0
 20
0.0
 30
0.0
  9
$PUCSORGBOTTOM
 10
0.0
 20
0.0
 30
0.0
  9
$PUCSORGLEFT
 10
0.0
 20
0.0
 30
0.0
  9
$PUCSORGRIGHT
 10
0.0
 20
0.0
 30
0.0
  9
$PUCSORGFRONT
 10
0.0
 20
0.0
 30
0.0
  9
$PUCSORGBACK
 10
0.0
 20
0.0
 30
0.0
  9
$USERI1
 70
     0
  9
$USERI2
 70
     0
  9
$USERI3
 70
     0
  9
$USERI4
 70
     0
  9
$USERI5
 70
     0
  9
$USERR1
 40
0.0
  9
$USERR2
 40
0.0
  9
$USERR3
 40
0.0
  9
$USERR4
 40
0.0
  9
$USERR5
 40
0.0
  9
$WORLDVIEW
 70
     1
  9
$SHADEDGE
 70
     3
  9
$SHADEDIF
 70
    70
  9
$TILEMODE
 70
     1
  9
$MAXACTVP
 70
    64
  9
$PINSBASE
 10
0.0
 20
0.0
 30
0.0
  9
$PLIMCHECK
 70
     0
  9
$PEXTMIN
 10
1.0000000000E+20
 20
1.0000000000E+20
 30
1.0000000000E+20
  9
$PEXTMAX
 10
-1.0000000000E+20
 20
-1.0000000000E+20
 30
-1.0000000000E+20
  9
$PLIMMIN
 10
0.0
 20
0.0
  9
$PLIMMAX
 10
420.0
 20
297.0
  9
$UNITMODE
 70
     0
  9
$VISRETAIN
 70
     1
  9
$PLINEGEN
 70
     0
  9
$PSLTSCALE
 70
     1
  9
$TREEDEPTH
 70
  3020
  9
$CMLSTYLE
  2
Standard
  9
$CMLJUST
 70
     0
  9
$CMLSCALE
 40
20.0
  9
$PROXYGRAPHICS
 70
     1
  9
$MEASUREMENT
 70
     1
  9
$CELWEIGHT
370
    -1
  9
$ENDCAPS
280
     0
  9
$JOINSTYLE
280
     0
  9
$LWDISPLAY
290
     1
  9
$INSUNITS
 70
     4
  9
$HYPERLINKBASE
  1

  9
$STYLESHEET
  1

  9
$XEDIT
290
     1
  9
$CEPSNTYPE
380
     0
  9
$PSTYLEMODE
290
     1
  9
$FINGERPRINTGUID
  2
{1EC1CBE2-DA6E-4525-81F2-E229394B7E90}
  9
$VERSIONGUID
  2
{FAEB1C32-E019-11D5-929B-00C0DF256EC4}
  9
$EXTNAMES
290
     1
  9
$PSVPSCALE
 40
0.0
  9
$OLESTARTUP
290
     0
  0
ENDSEC
  0
SECTION
  2
CLASSES
  0
CLASS
  1
ACDBDICTIONARYWDFLT
  2
AcDbDictionaryWithDefault
  3
ObjectDBX Classes
 90
        0
280
     0
281
     0
  0
CLASS
  1
VISUALSTYLE
  2
AcDbVisualStyle
  3
ObjectDBX Classes
 90
     4095
280
     0
281
     0
  0
CLASS
  1
MATERIAL
  2
AcDbMaterial
  3
ObjectDBX Classes
 90
     1153
280
     0
281
     0
  0
CLASS
  1
SCALE
  2
AcDbScale
  3
ObjectDBX Classes
 90
     1153
280
     0
281
     0
  0
CLASS
  1
TABLESTYLE
  2
AcDbTableStyle
  3
ObjectDBX Classes
 90
     4095
280
     0
281
     0
  0
CLASS
  1
MLEADERSTYLE
  2
AcDbMLeaderStyle
  3
ACDB_MLEADERSTYLE_CLASS
 90
     4095
280
     0
281
     0
  0
CLASS
  1
SUN
  2
AcDbSun
  3
SCENEOE
 90
     1153
280
     0
281
     0
  0
CLASS
  1
ACDBPLACEHOLDER
  2
AcDbPlaceHolder
  3
ObjectDBX Classes
 90
        0
280
     0
281
     0
  0
CLASS
  1
LAYOUT
  2
AcDbLayout
  3
ObjectDBX Classes
 90
        0
280
     0
281
     0
  0
ENDSEC
  0
SECTION
  2
TABLES
  0
TABLE
  2
VPORT
  5
8
330
0
100
AcDbSymbolTable
 70
     1
  0
VPORT
  5
29
330
8
100
AcDbSymbolTableRecord
100
AcDbViewportTableRecord
  2
*Active
 70
     0
 10
0.0
 20
0.0
 11
1.0
 21
1.0
 12
107.95
 22
69.85
 13
0.0
 23
0.0
 14
10.0
 24
10.0
 15
10.0
 25
10.0
 16
0.0
 26
0.0
 36
1.0
 17
0.0
 27
0.0
 37
0.0
 40
139.7
 41
1.5454545455
 42
50.0
 43
0.0
 44
0.0
 50
0.0
 51
0.0
 71
     0
 72
  2000
 73
     1
 74
     3
 75
     0
 76
     0
 77
     0
 78
     0
281
     0
 65
     1
110
0.0
120
0.0
130
0.0
111
1.0
121
0.0
131
0.0
112
0.0
122
1.0
132
0.0
 79
     0
146
0.0
  0
ENDTAB
  0
TABLE
  2
LTYPE
  5
5
330
0
100
AcDbSymbolTable
 70
     6
  0
LTYPE
  5
14
330
5
100
AcDbSymbolTableRecord
100
AcDbLinetypeTableRecord
  2
ByBlock
 70
     0
  3

 72
    65
 73
     0
 40
0.0
  0
LTYPE
  5
15
330
5
100
AcDbSymbolTableRecord
100
AcDbLinetypeTableRecord
  2
ByLayer
 70
     0
  3

 72
    65
 73
     0
 40
0.0
  0
LTYPE
  5
16
330
5
100
AcDbSymbolTableRecord
100
AcDbLinetypeTableRecord
  2
Continuous
 70
     0
  3
Solid line
 72
    65
 73
     0
 40
0.0
  0
LTYPE
  5
6E
330
5
100
AcDbSymbolTableRecord
100
AcDbLinetypeTableRecord
  2
HIDDEN
 70
     0
  3
Hidden __ __ __ __ __ __ __ __ __ __ __ __ __ __
 72
    65
 73
     2
 40
1.905
 49
1.27
 74
     0
 49
-0.635
 74
     0
  0
LTYPE
  5
6F
330
5
100
AcDbSymbolTableRecord
100
AcDbLinetypeTableRecord
  2
PHANTOM
 70
     0
  3
Phantom ______  __  __  ______  __  __  ______
 72
    65
 73
     6
 40
12.7
 49
6.35
 74
     0
 49
-1.27
 74
     0
 49
1.27
 74
     0
 49
-1.27
 74
     0
 49
1.27
 74
     0
 49
-1.27
 74
     0
  0
LTYPE
  5
70
330
5
100
AcDbSymbolTableRecord
100
AcDbLinetypeTableRecord
  2
CENTER
 70
     0
  3
Center ____ _ ____ _ ____ _ ____ _ ____ _ ____
 72
    65
 73
     4
 40
10.16
 49
6.35
 74
     0
 49
-1.27
 74
     0
 49
1.27
 74
     0
 49
-1.27
 74
     0
  0
LTYPE
  5
71
330
5
100
AcDbSymbolTableRecord
100
AcDbLinetypeTableRecord
  2
CENTERX2
 70
     0
  3
Center (2x) ________  __  ________  __  _____
 72
    65
 73
     4
 40
20.32
 49
12.7
 74
     0
 49
-2.54
 74
     0
 49
2.54
 74
     0
 49
-2.54
 74
     0
  0
LTYPE
  5
72
330
5
100
AcDbSymbolTableRecord
100
AcDbLinetypeTableRecord
  2
DOT2
 70
     0
  3
Dot (.5x) ........................................
 72
    65
 73
     2
 40
0.635
 49
0.0
 74
     0
 49
-0.635
 74
     0
  0
ENDTAB
  0
TABLE
  2
LAYER
  5
2
330
0
100
AcDbSymbolTable
 70
     1
  0
LAYER
  5
10
330
2
100
AcDbSymbolTableRecord
100
AcDbLayerTableRecord
  2
0
 70
     0
 62
     7
  6
Continuous
370
    -3
390
F
  0
ENDTAB
  0
TABLE
  2
STYLE
  5
3
330
0
100
AcDbSymbolTable
 70
     2
  0
STYLE
  5
11
330
3
100
AcDbSymbolTableRecord
100
AcDbTextStyleTableRecord
  2
Standard
 70
     0
 40
0.0
 41
1.0
 50
0.0
 71
     0
 42
1.75
  3
txt
  4
bigfont
  0
STYLE
  5
73
330
3
100
AcDbSymbolTableRecord
100
AcDbTextStyleTableRecord
  2
SLDTEXTSTYLE0
 70
     0
 40
0.0
 41
0.7
 50
0.0
 71
     0
 42
1.75
  3
TXT
  4
bigfont
  0
ENDTAB
  0
TABLE
  2
VIEW
  5
6
330
0
100
AcDbSymbolTable
 70
     0
  0
ENDTAB
  0
TABLE
  2
UCS
  5
7
330
0
100
AcDbSymbolTable
 70
     0
  0
ENDTAB
  0
TABLE
  2
APPID
  5
9
330
0
100
AcDbSymbolTable
 70
     1
  0
APPID
  5
12
330
9
100
AcDbSymbolTableRecord
100
AcDbRegAppTableRecord
  2
ACAD
 70
     0
  0
ENDTAB
  0
TABLE
  2
DIMSTYLE
  5
A
330
0
100
AcDbSymbolTable
 70
     1
100
AcDbDimStyleTable
  0
DIMSTYLE
105
27
330
A
100
AcDbSymbolTableRecord
100
AcDbDimStyleTableRecord
  2
ISO-25
 70
     0
 41
2.5
 42
0.625
 43
3.75
 44
1.25
 73
     0
 74
     0
 77
     1
 78
     8
140
2.5
141
2.5
143
0.0393700787
147
0.625
171
     3
172
     1
178
     0
271
     2
272
     2
274
     3
278
    44
283
     0
284
     8
340
11
  0
ENDTAB
  0
TABLE
  2
BLOCK_RECORD
  5
1
330
0
100
AcDbSymbolTable
 70
     3
  0
BLOCK_RECORD
  5
1F
330
1
100
AcDbSymbolTableRecord
100
AcDbBlockTableRecord
  2
*Model_Space
340
22
  0
BLOCK_RECORD
  5
1B
330
1
100
AcDbSymbolTableRecord
100
AcDbBlockTableRecord
  2
*Paper_Space
340
1E
  0
BLOCK_RECORD
  5
23
330
1
100
AcDbSymbolTableRecord
100
AcDbBlockTableRecord
  2
*Paper_Space0
340
26
  0
BLOCK_RECORD
  5
EC
330
1
100
AcDbSymbolTableRecord
100
AcDbBlockTableRecord
  2
SW_CENTERMARKSYMBOL_0
340
0
102
{BLKREFS
331
F7
102
}
  0
BLOCK_RECORD
  5
F8
330
1
100
AcDbSymbolTableRecord
100
AcDbBlockTableRecord
  2
SW_CENTERMARKSYMBOL_1
340
0
102
{BLKREFS
331
103
102
}
  0
ENDTAB
  0
ENDSEC
  0
SECTION
  2
BLOCKS
  0
BLOCK
  5
20
330
1F
100
AcDbEntity
  8
0
100
AcDbBlockBegin
  2
*Model_Space
 70
     0
 10
0.0
 20
0.0
 30
0.0
  3
*Model_Space
  1

  0
ENDBLK
  5
21
330
1F
100
AcDbEntity
  8
0
100
AcDbBlockEnd
  0
BLOCK
  5
1C
330
1B
100
AcDbEntity
 67
     1
  8
0
100
AcDbBlockBegin
  2
*Paper_Space
 70
     0
 10
0.0
 20
0.0
 30
0.0
  3
*Paper_Space
  1

  0
ENDBLK
  5
1D
330
1B
100
AcDbEntity
 67
     1
  8
0
100
AcDbBlockEnd
  0
BLOCK
  5
24
330
23
100
AcDbEntity
  8
0
100
AcDbBlockBegin
  2
*Paper_Space0
 70
     0
 10
0.0
 20
0.0
 30
0.0
  3
*Paper_Space0
  1

  0
ENDBLK
  5
25
330
23
100
AcDbEntity
  8
0
100
AcDbBlockEnd
  0
BLOCK
  5
ED
330
EC
100
AcDbEntity
  8
0
100
AcDbBlockBegin
  2
SW_CENTERMARKSYMBOL_0
 70
     0
 10
0.0
 20
0.0
 30
0.0
  3
SW_CENTERMARKSYMBOL_0
  1

  0
LINE
  5
EF
330
EC
100
AcDbEntity
  8
0
  6
Continuous
 62
     0
370
    18
100
AcDbLine
 10
0.0
 20
0.0
 30
0.0
 11
0.0
 21
2.5
 31
0.0
  0
LINE
  5
F0
330
EC
100
AcDbEntity
  8
0
  6
Continuous
 62
     0
370
    18
100
AcDbLine
 10
0.0
 20
0.0
 30
0.0
 11
-2.5
 21
0.0
 31
0.0
  0
LINE
  5
F1
330
EC
100
AcDbEntity
  8
0
  6
Continuous
 62
     0
370
    18
100
AcDbLine
 10
0.0
 20
0.0
 30
0.0
 11
0.0
 21
-2.5
 31
0.0
  0
LINE
  5
F2
330
EC
100
AcDbEntity
  8
0
  6
Continuous
 62
     0
370
    18
100
AcDbLine
 10
0.0
 20
0.0
 30
0.0
 11
2.5
 21
0.0
 31
0.0
  0
LINE
  5
F3
330
EC
100
AcDbEntity
  8
0
  6
Continuous
 62
     0
370
    18
100
AcDbLine
 10
0.0
 20
5.0
 30
0.0
 11
0.0
 21
11.5
 31
0.0
  0
LINE
  5
F4
330
EC
100
AcDbEntity
  8
0
  6
Continuous
 62
     0
370
    18
100
AcDbLine
 10
-5.0
 20
0.0
 30
0.0
 11
-11.5
 21
0.0
 31
0.0
  0
LINE
  5
F5
330
EC
100
AcDbEntity
  8
0
  6
Continuous
 62
     0
370
    18
100
AcDbLine
 10
0.0
 20
-5.0
 30
0.0
 11
0.0
 21
-11.5
 31
0.0
  0
LINE
  5
F6
330
EC
100
AcDbEntity
  8
0
  6
Continuous
 62
     0
370
    18
100
AcDbLine
 10
5.0
 20
0.0
 30
0.0
 11
11.5
 21
0.0
 31
0.0
  0
ENDBLK
  5
EE
330
EC
100
AcDbEntity
  8
0
100
AcDbBlockEnd
  0
BLOCK
  5
F9
330
F8
100
AcDbEntity
  8
0
100
AcDbBlockBegin
  2
SW_CENTERMARKSYMBOL_1
 70
     0
 10
0.0
 20
0.0
 30
0.0
  3
SW_CENTERMARKSYMBOL_1
  1

  0
LINE
  5
FB
330
F8
100
AcDbEntity
  8
0
  6
Continuous
 62
     0
370
    18
100
AcDbLine
 10
0.0
 20
0.0
 30
0.0
 11
0.0
 21
2.5
 31
0.0
  0
LINE
  5
FC
330
F8
100
AcDbEntity
  8
0
  6
Continuous
 62
     0
370
    18
100
AcDbLine
 10
0.0
 20
0.0
 30
0.0
 11
-2.5
 21
0.0
 31
0.0
  0
LINE
  5
FD
330
F8
100
AcDbEntity
  8
0
  6
Continuous
 62
     0
370
    18
100
AcDbLine
 10
0.0
 20
0.0
 30
0.0
 11
0.0
 21
-2.5
 31
0.0
  0
LINE
  5
FE
330
F8
100
AcDbEntity
  8
0
  6
Continuous
 62
     0
370
    18
100
AcDbLine
 10
0.0
 20
0.0
 30
0.0
 11
2.5
 21
0.0
 31
0.0
  0
LINE
  5
FF
330
F8
100
AcDbEntity
  8
0
  6
Continuous
 62
     0
370
    18
100
AcDbLine
 10
0.0
 20
5.0
 30
0.0
 11
0.0
 21
18.2853572254
 31
0.0
  0
LINE
  5
100
330
F8
100
AcDbEntity
  8
0
  6
Continuous
 62
     0
370
    18
100
AcDbLine
 10
-5.0
 20
0.0
 30
0.0
 11
-16.75
 21
0.0
 31
0.0
  0
LINE
  5
101
330
F8
100
AcDbEntity
  8
0
  6
Continuous
 62
     0
370
    18
100
AcDbLine
 10
0.0
 20
-5.0
 30
0.0
 11
0.0
 21
-18.1206242775
 31
0.0
  0
LINE
  5
102
330
F8
100
AcDbEntity
  8
0
  6
Continuous
 62
     0
370
    18
100
AcDbLine
 10
5.0
 20
0.0
 30
0.0
 11
16.75
 21
0.0
 31
0.0
  0
ENDBLK
  5
FA
330
F8
100
AcDbEntity
  8
0
100
AcDbBlockEnd
  0
ENDSEC
  0
SECTION
  2
ENTITIES
  0
MTEXT
  5
74
330
1F
100
AcDbEntity
  8
0
  6
Continuous
 62
     7
370
     0
100
AcDbMText
 10
140.8232556608
 20
71.7503761636
 30
0.0
 40
2.38125
 41
0.0
 71
     1
 72
     1
  1
エースニップル　HN-8627
  7
SLDTEXTSTYLE0
 73
     1
 44
1.0
  0
LINE
  5
75
330
1F
100
AcDbEntity
  8
0
  6
Continuous
 62
     7
370
    25
100
AcDbLine
 10
106.0998925884
 20
31.2797265866
 30
0.0
 11
107.5393179191
 21
33.7728843931
 31
0.0
  0
LINE
  5
76
330
1F
100
AcDbEntity
  8
0
  6
Continuous
 62
     7
370
    25
100
AcDbLine
 10
107.5393179191
 20
62.2728843931
 30
0.0
 11
106.0998925884
 21
64.7660421996
 31
0.0
  0
LINE
  5
77
330
1F
100
AcDbEntity
  8
0
  6
Continuous
 62
     7
370
    25
100
AcDbLine
 10
99.9787432498
 20
64.7660421996
 30
0.0
 11
98.5393179191
 21
62.2728843931
 31
0.0
  0
LINE
  5
78
330
1F
100
AcDbEntity
  8
0
  6
Continuous
 62
     7
370
    25
100
AcDbLine
 10
98.5393179191
 20
33.7728843931
 30
0.0
 11
99.9787432498
 21
31.2797265866
 31
0.0
  0
LINE
  5
79
330
1F
100
AcDbEntity
  8
0
  6
Continuous
 62
     7
370
    25
100
AcDbLine
 10
115.5393179191
 20
34.5228843931
 30
0.0
 11
121.5393179191
 21
35.5228843931
 31
0.0
  0
LINE
  5
7A
330
1F
100
AcDbEntity
  8
0
  6
Continuous
 62
     7
370
    25
100
AcDbLine
 10
121.5393179191
 20
60.5228843931
 30
0.0
 11
115.5393179191
 21
61.5228843931
 31
0.0
  0
LINE
  5
7B
330
1F
100
AcDbEntity
  8
0
  6
Continuous
 62
     7
370
    25
100
AcDbLine
 10
115.5393179191
 20
61.5228843931
 30
0.0
 11
107.5393179191
 21
61.5228843931
 31
0.0
  0
LINE
  5
7C
330
1F
100
AcDbEntity
  8
0
  6
Continuous
 62
     7
370
    25
100
AcDbLine
 10
107.5393179191
 20
34.5228843931
 30
0.0
 11
115.5393179191
 21
34.5228843931
 31
0.0
  0
LINE
  5
7D
330
1F
100
AcDbEntity
  8
0
  6
Continuous
 62
     7
370
    25
100
AcDbLine
 10
127.5393179191
 20
34.5228843931
 30
0.0
 11
133.5393179191
 21
35.5228843931
 31
0.0
  0
LINE
  5
7E
330
1F
100
AcDbEntity
  8
0
  6
Continuous
 62
     7
370
    25
100
AcDbLine
 10
133.5393179191
 20
60.5228843931
 30
0.0
 11
127.5393179191
 21
61.5228843931
 31
0.0
  0
LINE
  5
7F
330
1F
100
AcDbEntity
  8
0
  6
Continuous
 62
     7
370
    25
100
AcDbLine
 10
121.5393179191
 20
34.5228843931
 30
0.0
 11
127.5393179191
 21
35.5228843931
 31
0.0
  0
LINE
  5
80
330
1F
100
AcDbEntity
  8
0
  6
Continuous
 62
     7
370
    25
100
AcDbLine
 10
127.5393179191
 20
60.5228843931
 30
0.0
 11
121.5393179191
 21
61.5228843931
 31
0.0
  0
LINE
  5
81
330
1F
100
AcDbEntity
  8
0
  6
Continuous
 62
     7
370
    25
100
AcDbLine
 10
133.5393179191
 20
34.5228843931
 30
0.0
 11
139.5393179191
 21
35.5228843931
 31
0.0
  0
LINE
  5
82
330
1F
100
AcDbEntity
  8
0
  6
Continuous
 62
     7
370
    25
100
AcDbLine
 10
139.5393179191
 20
60.5228843931
 30
0.0
 11
133.5393179191
 21
61.5228843931
 31
0.0
  0
LINE
  5
83
330
1F
100
AcDbEntity
  8
0
  6
Continuous
 62
     7
370
    25
100
AcDbLine
 10
139.5393179191
 20
34.5228843931
 30
0.0
 11
147.1013352864
 21
35.468136564
 31
0.0
  0
LINE
  5
84
330
1F
100
AcDbEntity
  8
0
  6
Continuous
 62
     7
370
    25
100
AcDbLine
 10
147.1013352864
 20
60.5776322222
 30
0.0
 11
139.5393179191
 21
61.5228843931
 31
0.0
  0
LINE
  5
85
330
1F
100
AcDbEntity
  8
0
  6
Continuous
 62
     7
370
    25
100
AcDbLine
 10
98.5393179191
 20
61.4121795127
 30
0.0
 11
84.2525144932
 21
61.0893491655
 31
0.0
  0
LINE
  5
86
330
1F
100
AcDbEntity
  8
0
  6
Continuous
 62
     7
370
    25
100
AcDbLine
 10
84.2525144932
 20
34.9564196206
 30
0.0
 11
98.5393179191
 21
34.6335892734
 31
0.0
  0
LINE
  5
87
330
1F
100
AcDbEntity
  8
0
  6
Continuous
 62
     7
370
    25
100
AcDbLine
 10
84.2525144932
 20
61.0893491655
 30
0.0
 11
81.5393179191
 21
59.5228843931
 31
0.0
  0
LINE
  5
88
330
1F
100
AcDbEntity
  8
0
  6
Continuous
 62
     7
370
    25
100
AcDbLine
 10
81.5393179191
 20
36.5228843931
 30
0.0
 11
84.2525144932
 21
34.9564196206
 31
0.0
  0
ARC
  5
89
330
1F
100
AcDbEntity
  8
0
  6
Continuous
 62
     7
370
    25
100
AcDbCircle
 10
147.0393179191
 20
35.9642755023
 30
0.0
 40
0.5
100
AcDbArc
 50
277.1250163489
 51
0.0
  0
ARC
  5
8A
330
1F
100
AcDbEntity
  8
0
  6
Continuous
 62
     7
370
    25
100
AcDbCircle
 10
147.0393179191
 20
60.0814932838
 30
0.0
 40
0.5
100
AcDbArc
 50
0.0
 51
82.8749836511
  0
LINE
  5
8B
330
1F
100
AcDbEntity
  8
0
  6
Continuous
 62
     7
370
    25
100
AcDbLine
 10
103.1197026768
 20
64.7660421996
 30
0.0
 11
103.0393179191
 21
64.4660421996
 31
0.0
  0
LINE
  5
8C
330
1F
100
AcDbEntity
  8
0
  6
Continuous
 62
     7
370
    25
100
AcDbLine
 10
103.0393179191
 20
64.4660421996
 30
0.0
 11
102.9589331613
 21
64.7660421996
 31
0.0
  0
LINE
  5
8D
330
1F
100
AcDbEntity
  8
0
  6
Continuous
 62
     7
370
    25
100
AcDbLine
 10
103.0393179191
 20
31.5797265866
 30
0.0
 11
103.1197026768
 21
31.2797265866
 31
0.0
  0
LINE
  5
8E
330
1F
100
AcDbEntity
  8
0
  6
Continuous
 62
     7
370
    25
100
AcDbLine
 10
102.9589331613
 20
31.2797265866
 30
0.0
 11
103.0393179191
 21
31.5797265866
 31
0.0
  0
SPLINE
  5
8F
330
1F
100
AcDbEntity
  8
0
  6
Continuous
 62
     7
370
    25
100
AcDbSpline
210
0.0
220
0.0
230
1.0
 70
     8
 71
     3
 72
     8
 73
     4
 74
     0
 42
0.000000001
 43
0.00000001
 40
0.0
 40
0.0
 40
0.0
 40
0.0
 40
1.0
 40
1.0
 40
1.0
 40
1.0
 10
103.0393179190751
 20
39.34261026742308
 30
0.0
 10
103.0653384966832
 20
39.44557378179322
 30
0.0
 10
103.0921482429239
 20
39.54847094259789
 30
0.0
 10
103.1197026768045
 20
39.65130548981402
 30
0.0
  0
LINE
  5
90
330
1F
100
AcDbEntity
  8
0
  6
Continuous
 62
     7
370
    25
100
AcDbLine
 10
103.0393179191
 20
39.3426102674
 30
0.0
 11
103.0393179191
 21
40.2686959346
 31
0.0
  0
SPLINE
  5
91
330
1F
100
AcDbEntity
  8
0
  6
Continuous
 62
     7
370
    25
100
AcDbSpline
210
0.0
220
0.0
230
1.0
 70
     8
 71
     3
 72
     8
 73
     4
 74
     0
 42
0.000000001
 43
0.00000001
 40
0.0
 40
0.0
 40
0.0
 40
0.0
 40
1.0
 40
1.0
 40
1.0
 40
1.0
 10
103.1197026768045
 20
39.65130548981402
 30
0.0
 10
103.092140265883
 20
39.85703412569028
 30
0.0
 10
103.0653308211264
 20
40.06282965026386
 30
0.0
 10
103.0393179190751
 20
40.26869593459586
 30
0.0
  0
SPLINE
  5
92
330
1F
100
AcDbEntity
  8
0
  6
Continuous
 62
     7
370
    25
100
AcDbSpline
210
0.0
220
0.0
230
1.0
 70
     8
 71
     3
 72
    19
 73
    15
 74
     0
 42
0.000000001
 43
0.00000001
 40
0.0
 40
0.0
 40
0.0
 40
0.0
 40
0.1227280999764558
 40
0.2397165235883927
 40
0.3518621792202467
 40
0.4632019818032242
 40
0.5202611541541642
 40
0.5794324380306669
 40
0.6405963441586366
 40
0.7052982290880196
 40
0.773236105908453
 40
0.8446489293403162
 40
0.9200459817773702
 40
1.0
 40
1.0
 40
1.0
 40
1.0
 10
104.3470102267675
 20
49.58338118793538
 30
0.0
 10
104.3460183245211
 20
49.61184760574415
 30
0.0
 10
104.3440809087356
 20
49.66744914049816
 30
0.0
 10
104.3270518972687
 20
49.74758954651021
 30
0.0
 10
104.3000711840494
 20
49.82201399489195
 30
0.0
 10
104.2674920528607
 20
49.87871041168908
 30
0.0
 10
104.2354429155894
 20
49.92064808634183
 30
0.0
 10
104.2078710428443
 20
49.95119092298326
 30
0.0
 10
104.1766101863857
 20
49.9806373461873
 30
0.0
 10
104.1408028961027
 20
50.00783185160255
 30
0.0
 10
104.1016804397816
 20
50.03440399158065
 30
0.0
 10
104.0590273454999
 20
50.06010004190443
 30
0.0
 10
104.0122355077834
 20
50.08409464484259
 30
0.0
 10
103.9793301388218
 20
50.09870055252645
 30
0.0
 10
103.9623948421521
 20
50.10621772639691
 30
0.0
  0
SPLINE
  5
93
330
1F
100
AcDbEntity
  8
0
  6
Continuous
 62
     7
370
    25
100
AcDbSpline
210
0.0
220
0.0
230
1.0
 70
     8
 71
     3
 72
    23
 73
    19
 74
     0
 42
0.000000001
 43
0.00000001
 40
0.0
 40
0.0
 40
0.0
 40
0.0
 40
0.0552698294993251
 40
0.109956704485094
 40
0.1632335040550558
 40
0.2180575651623567
 40
0.2732775387226746
 40
0.3308810454954968
 40
0.3904799376860886
 40
0.4536559730386416
 40
0.5189026226022312
 40
0.5833461108214766
 40
0.6485466930814432
 40
0.7150552190344911
 40
0.7825206438000538
 40
0.852335294426451
 40
0.9249348997257086
 40
1.0
 40
1.0
 40
1.0
 40
1.0
 10
103.9548828229213
 20
49.08057670075589
 30
0.0
 10
103.9679383865519
 20
49.08087267412508
 30
0.0
 10
103.9939118112038
 20
49.08146149910582
 30
0.0
 10
104.0318578282961
 20
49.08888863175223
 30
0.0
 10
104.0686459374128
 20
49.10004677344172
 30
0.0
 10
104.1041092159738
 20
49.11539666831168
 30
0.0
 10
104.1380418186146
 20
49.13590478544507
 30
0.0
 10
104.1704853739929
 20
49.16052135787992
 30
0.0
 10
104.2019836024984
 20
49.18925826685545
 30
0.0
 10
104.2310295903377
 20
49.2228665507877
 30
0.0
 10
104.258427394825
 20
49.25925110254266
 30
0.0
 10
104.28211177762
 20
49.29875427784922
 30
0.0
 10
104.3021866446492
 20
49.34050478595536
 30
0.0
 10
104.3187727642659
 20
49.3845410194242
 30
0.0
 10
104.3312415082139
 20
49.43103938598045
 30
0.0
 10
104.3401962903034
 20
49.47977220464837
 30
0.0
 10
104.3457944454596
 20
49.5308349572793
 30
0.0
 10
104.346600480324
 20
49.56567189187498
 30
0.0
 10
104.3470102267675
 20
49.58338118793538
 30
0.0
  0
SPLINE
  5
94
330
1F
100
AcDbEntity
  8
0
  6
Continuous
 62
     7
370
    25
100
AcDbSpline
210
0.0
220
0.0
230
1.0
 70
     8
 71
     3
 72
    19
 73
    15
 74
     0
 42
0.000000001
 43
0.00000001
 40
0.0
 40
0.0
 40
0.0
 40
0.0
 40
0.1101423815503172
 40
0.2157418685830273
 40
0.3179605426392306
 40
0.4180517606815226
 40
0.5115631470355316
 40
0.5965727584443461
 40
0.6733290469034968
 40
0.7440491927238596
 40
0.8107168223002834
 40
0.8740854521098848
 40
0.93670961689667
 40
1.0
 40
1.0
 40
1.0
 40
1.0
 10
103.5457281754854
 20
49.72160234178154
 30
0.0
 10
103.5462553237664
 20
49.69067379256125
 30
0.0
 10
103.547287877753
 20
49.63009236234861
 30
0.0
 10
103.5596899562707
 20
49.54158439655091
 30
0.0
 10
103.5770388326371
 20
49.45684848049819
 30
0.0
 10
103.6029991187063
 20
49.37781880704019
 30
0.0
 10
103.6341588715396
 20
49.30602094354309
 30
0.0
 10
103.6692937684106
 20
49.24338855128808
 30
0.0
 10
103.7091000301453
 20
49.19140599347029
 30
0.0
 10
103.7530552377257
 20
49.14994339630123
 30
0.0
 10
103.8007482200448
 20
49.11951132221469
 30
0.0
 10
103.8499364323129
 20
49.09666903645564
 30
0.0
 10
103.9017643209828
 20
49.0832779630343
 30
0.0
 10
103.9371143095961
 20
49.08148029202894
 30
0.0
 10
103.9548828229213
 20
49.08057670075589
 30
0.0
  0
LINE
  5
95
330
1F
100
AcDbEntity
  8
0
  6
Continuous
 62
     7
370
    25
100
AcDbLine
 10
103.2893179191
 20
49.7216023418
 30
0.0
 11
103.5457281755
 21
49.7216023418
 31
0.0
  0
SPLINE
  5
96
330
1F
100
AcDbEntity
  8
0
  6
Continuous
 62
     7
370
    25
100
AcDbSpline
210
0.0
220
0.0
230
1.0
 70
     8
 71
     3
 72
    23
 73
    19
 74
     0
 42
0.000000001
 43
0.00000001
 40
0.0
 40
0.0
 40
0.0
 40
0.0
 40
0.0669051223273615
 40
0.1334773340846823
 40
0.2010229080576287
 40
0.2712178684297487
 40
0.3428591616573977
 40
0.4138109980627168
 40
0.4855518488903452
 40
0.5598002749200528
 40
0.599899964903578
 40
0.6436094423977957
 40
0.6919106424505658
 40
0.7447030291556901
 40
0.8015038302285952
 40
0.8628660266331953
 40
0.9293326711591617
 40
1.0
 40
1.0
 40
1.0
 40
1.0
 10
102.760471765229
 20
48.95237157255077
 30
0.0
 10
102.7837656050332
 20
48.95346462565913
 30
0.0
 10
102.8302373777393
 20
48.95564529299584
 30
0.0
 10
102.8986066793393
 20
48.97229456903762
 30
0.0
 10
102.9644820832927
 20
48.99967833812055
 30
0.0
 10
103.0267301936327
 20
49.03802028877599
 30
0.0
 10
103.0844503069916
 20
49.08467167822236
 30
0.0
 10
103.1357493385859
 20
49.13918092366643
 30
0.0
 10
103.1785041232393
 20
49.20168173614782
 30
0.0
 10
103.2079349136322
 20
49.259576504789
 30
0.0
 10
103.2275492977416
 20
49.31098150771398
 30
0.0
 10
103.2413025366833
 20
49.35488546435083
 30
0.0
 10
103.2522966321899
 20
49.40408076152941
 30
0.0
 10
103.262931233396
 20
49.45797682042419
 30
0.0
 10
103.2718466081761
 20
49.5168009474158
 30
0.0
 10
103.2793135839916
 20
49.58060613933255
 30
0.0
 10
103.285278952065
 20
49.64941806548937
 30
0.0
 10
103.2879443809556
 20
49.69705451683682
 30
0.0
 10
103.2893179190751
 20
49.72160234178154
 30
0.0
  0
SPLINE
  5
97
330
1F
100
AcDbEntity
  8
0
  6
Continuous
 62
     7
370
    25
100
AcDbSpline
210
0.0
220
0.0
230
1.0
 70
     8
 71
     3
 72
    23
 73
    19
 74
     0
 42
0.000000001
 43
0.00000001
 40
0.0
 40
0.0
 40
0.0
 40
0.0
 40
0.0760618905628338
 40
0.1487324608035361
 40
0.2183745247439721
 40
0.2857225935927384
 40
0.3510576941824568
 40
0.414934915729319
 40
0.4784859417740853
 40
0.5421690352812158
 40
0.6047501165431387
 40
0.6641185017301124
 40
0.7214996756099116
 40
0.777615916385255
 40
0.8326661086975489
 40
0.887858028113574
 40
0.9434676608977686
 40
1.0
 40
1.0
 40
1.0
 40
1.0
 10
102.2316256113828
 20
49.58889000203794
 30
0.0
 10
102.2320648282316
 20
49.56549432631162
 30
0.0
 10
102.2329236788631
 20
49.51974610210647
 30
0.0
 10
102.2408448939015
 20
49.45299705566698
 30
0.0
 10
102.2523309024446
 20
49.38947592714213
 30
0.0
 10
102.270297253048
 20
49.32983094945604
 30
0.0
 10
102.2918508585886
 20
49.27325050082848
 30
0.0
 10
102.3200684840431
 20
49.22099762033837
 30
0.0
 10
102.3519357301028
 20
49.17153613785653
 30
0.0
 10
102.389003466296
 20
49.1263150462327
 30
0.0
 10
102.4290696768372
 20
49.08554602094791
 30
0.0
 10
102.4715763556074
 20
49.05031707869325
 30
0.0
 10
102.5152055189456
 20
49.01980478558736
 30
0.0
 10
102.5609749470434
 20
48.99527799395234
 30
0.0
 10
102.6084356786049
 20
48.97587615059101
 30
0.0
 10
102.6577653595687
 20
48.96267615828615
 30
0.0
 10
102.7085486031552
 20
48.95349589396493
 30
0.0
 10
102.7430693653709
 20
48.95274839649671
 30
0.0
 10
102.760471765229
 20
48.95237157255077
 30
0.0
  0
SPLINE
  5
98
330
1F
100
AcDbEntity
  8
0
  6
Continuous
 62
     7
370
    25
100
AcDbSpline
210
0.0
220
0.0
230
1.0
 70
     8
 71
     3
 72
    15
 73
    11
 74
     0
 42
0.000000001
 43
0.00000001
 40
0.0
 40
0.0
 40
0.0
 40
0.0
 40
0.1182713048357257
 40
0.236177533083763
 40
0.3556629329485093
 40
0.4759041646706824
 40
0.6001273417110827
 40
0.7286081161551192
 40
0.8613134756739418
 40
1.0
 40
1.0
 40
1.0
 40
1.0
 10
102.3668419575367
 20
50.00655827126872
 30
0.0
 10
102.3560502904756
 20
49.99256071660789
 30
0.0
 10
102.3345002677724
 20
49.96460881455025
 30
0.0
 10
102.3069991045311
 20
49.91906007805136
 30
0.0
 10
102.2831698007206
 20
49.87115658799012
 30
0.0
 10
102.2649671609232
 20
49.81986039211805
 30
0.0
 10
102.2495545460738
 20
49.76627841322231
 30
0.0
 10
102.2394684609792
 20
49.70954458091386
 30
0.0
 10
102.2325483385912
 20
49.65015942583404
 30
0.0
 10
102.2319376732395
 20
49.60961102334614
 30
0.0
 10
102.2316256113828
 20
49.58889000203794
 30
0.0
  0
SPLINE
  5
99
330
1F
100
AcDbEntity
  8
0
  6
Continuous
 62
     7
370
    25
100
AcDbSpline
210
0.0
220
0.0
230
1.0
 70
     8
 71
     3
 72
    15
 73
    11
 74
     0
 42
0.000000001
 43
0.00000001
 40
0.0
 40
0.0
 40
0.0
 40
0.0
 40
0.149770386031968
 40
0.2913164099952444
 40
0.4259663731047428
 40
0.5521595739695285
 40
0.6715274135235931
 40
0.7861216286916591
 40
0.8953250730704452
 40
1.0
 40
1.0
 40
1.0
 40
1.0
 10
102.7123948421521
 20
50.20237157255077
 30
0.0
 10
102.6931455469602
 20
50.19652636437914
 30
0.0
 10
102.6557039958044
 20
50.18515692676635
 30
0.0
 10
102.6018180631795
 20
50.16580385674127
 30
0.0
 10
102.5524194537332
 20
50.14375509097665
 30
0.0
 10
102.5071457951775
 20
50.12010183480805
 30
0.0
 10
102.4655512219888
 20
50.09526008764895
 30
0.0
 10
102.4287356012502
 20
50.06746371255151
 30
0.0
 10
102.395081885386
 20
50.03877146601773
 30
0.0
 10
102.3761214482859
 20
50.01714335648105
 30
0.0
 10
102.3668419575367
 20
50.00655827126872
 30
0.0
  0
LINE
  5
9A
330
1F
100
AcDbEntity
  8
0
  6
Continuous
 62
     7
370
    25
100
AcDbLine
 10
102.7123948422
 20
50.4267305469
 30
0.0
 11
102.7123948422
 21
50.2023715726
 31
0.0
  0
SPLINE
  5
9B
330
1F
100
AcDbEntity
  8
0
  6
Continuous
 62
     7
370
    25
100
AcDbSpline
210
0.0
220
0.0
230
1.0
 70
     8
 71
     3
 72
    23
 73
    19
 74
     0
 42
0.000000001
 43
0.00000001
 40
0.0
 40
0.0
 40
0.0
 40
0.0
 40
0.0655411703374035
 40
0.1289631677825934
 40
0.190377136188561
 40
0.2500923616690529
 40
0.3085484324592012
 40
0.3663979630552958
 40
0.42454218926668
 40
0.4831699964229056
 40
0.5422433998311202
 40
0.6017393520173301
 40
0.6625060022496068
 40
0.724855513448847
 40
0.7891278292811813
 40
0.8563463998785101
 40
0.9262952349869055
 40
1.0
 40
1.0
 40
1.0
 40
1.0
 10
101.9752153549726
 20
49.59289641229436
 30
0.0
 10
101.9758355073001
 20
49.61962448392516
 30
0.0
 10
101.9770557602838
 20
49.67221641611808
 30
0.0
 10
101.9853976182814
 20
49.74953320067974
 30
0.0
 10
102.0006333363084
 20
49.82333441451154
 30
0.0
 10
102.0211356972842
 20
49.89371984155202
 30
0.0
 10
102.0471297987702
 20
49.96075201040455
 30
0.0
 10
102.0795002973569
 20
50.02422637124577
 30
0.0
 10
102.1175799416796
 20
50.08453343804585
 30
0.0
 10
102.1618182186843
 20
50.14110411743483
 30
0.0
 10
102.2113048899391
 20
50.19393166579643
 30
0.0
 10
102.2669184684875
 20
50.24161218310366
 30
0.0
 10
102.3276308998596
 20
50.28494060663373
 30
0.0
 10
102.394147368573
 20
50.32275677714195
 30
0.0
 10
102.4656082666286
 20
50.35678317186755
 30
0.0
 10
102.5429286226155
 20
50.38476956947277
 30
0.0
 10
102.6254172097505
 20
50.40940211849869
 30
0.0
 10
102.6829013098761
 20
50.42085459296018
 30
0.0
 10
102.7123948421521
 20
50.42673054690974
 30
0.0
  0
SPLINE
  5
9C
330
1F
100
AcDbEntity
  8
0
  6
Continuous
 62
     7
370
    25
100
AcDbSpline
210
0.0
220
0.0
230
1.0
 70
     8
 71
     3
 72
    19
 73
    15
 74
     0
 42
0.000000001
 43
0.00000001
 40
0.0
 40
0.0
 40
0.0
 40
0.0
 40
0.0796417041949911
 40
0.158908613257856
 40
0.2395997983184508
 40
0.3224093988203484
 40
0.405827748173513
 40
0.4876442139503137
 40
0.5697199979738973
 40
0.6530646649976933
 40
0.7374573001733064
 40
0.8224924079539123
 40
0.9097550737466981
 40
0.9999999999999999
 40
0.9999999999999999
 40
0.9999999999999999
 40
0.9999999999999999
 10
102.7820062203572
 20
48.72801259819179
 30
0.0
 10
102.747000668685
 20
48.72929721604432
 30
0.0
 10
102.677154302026
 20
48.73186040631722
 30
0.0
 10
102.5739371919548
 20
48.75467812248897
 30
0.0
 10
102.4732152351844
 20
48.79025579632267
 30
0.0
 10
102.3764808036427
 20
48.83989570249005
 30
0.0
 10
102.28616181971
 20
48.90131330647279
 30
0.0
 10
102.2057175129824
 20
48.9747868823718
 30
0.0
 10
102.1361040025702
 20
49.05853029927609
 30
0.0
 10
102.078127825476
 20
49.1519954732275
 30
0.0
 10
102.0317493853471
 20
49.25321310514133
 30
0.0
 10
101.9995678092738
 20
49.36148380367416
 30
0.0
 10
101.9786057512276
 20
49.47523318340166
 30
0.0
 10
101.9763580746077
 20
49.553238486828
 30
0.0
 10
101.9752153549726
 20
49.59289641229436
 30
0.0
  0
SPLINE
  5
9D
330
1F
100
AcDbEntity
  8
0
  6
Continuous
 62
     7
370
    25
100
AcDbSpline
210
0.0
220
0.0
230
1.0
 70
     8
 71
     3
 72
    15
 73
    11
 74
     0
 42
0.000000001
 43
0.00000001
 40
0.0
 40
0.0
 40
0.0
 40
0.0
 40
0.1281455049994642
 40
0.254192538628042
 40
0.378141139713589
 40
0.5013808330744056
 40
0.6239569784447038
 40
0.7470758858273291
 40
0.8728647202442611
 40
1.0
 40
1.0
 40
1.0
 40
1.0
 10
103.2262169575367
 20
48.87725138024307
 30
0.0
 10
103.2097488901617
 20
48.86521695326381
 30
0.0
 10
103.1770824314172
 20
48.84134517137959
 30
0.0
 10
103.1245307704746
 20
48.81196275693971
 30
0.0
 10
103.0715706050821
 20
48.78500241123789
 30
0.0
 10
103.0161196098424
 20
48.76516037722105
 30
0.0
 10
102.9599589688082
 20
48.74803748815762
 30
0.0
 10
102.9018860581983
 20
48.73677119730372
 30
0.0
 10
102.842452619819
 20
48.72953868922756
 30
0.0
 10
102.802226401804
 20
48.72852309737656
 30
0.0
 10
102.7820062203572
 20
48.72801259819179
 30
0.0
  0
SPLINE
  5
9E
330
1F
100
AcDbEntity
  8
0
  6
Continuous
 62
     7
370
    25
100
AcDbSpline
210
0.0
220
0.0
230
1.0
 70
     8
 71
     3
 72
    11
 73
     7
 74
     0
 42
0.000000001
 43
0.00000001
 40
0.0
 40
0.0
 40
0.0
 40
0.0
 40
0.2538796003266561
 40
0.5030089172783634
 40
0.7502910806899732
 40
1.0
 40
1.0
 40
1.0
 40
1.0
 10
103.4395583036905
 20
49.14818487383282
 30
0.0
 10
103.4267167525895
 20
49.12159076342329
 30
0.0
 10
103.401273925725
 20
49.06890013894672
 30
0.0
 10
103.3513769560699
 20
48.9970783321375
 30
0.0
 10
103.2937652793885
 20
48.93187984973967
 30
0.0
 10
103.2488062415931
 20
48.89552005045125
 30
0.0
 10
103.2262169575367
 20
48.87725138024307
 30
0.0
  0
SPLINE
  5
9F
330
1F
100
AcDbEntity
  8
0
  6
Continuous
 62
     7
370
    25
100
AcDbSpline
210
0.0
220
0.0
230
1.0
 70
     8
 71
     3
 72
    15
 73
    11
 74
     0
 42
0.000000001
 43
0.00000001
 40
0.0
 40
0.0
 40
0.0
 40
0.0
 40
0.1280675485958908
 40
0.2506083188676689
 40
0.3706301659145033
 40
0.4900722467299491
 40
0.6103747641546201
 40
0.7343130699115257
 40
0.8632165042449896
 40
1.0
 40
1.0
 40
1.0
 40
1.0
 10
103.9538812203572
 20
48.85621772639691
 30
0.0
 10
103.9274477955675
 20
48.85704886285911
 30
0.0
 10
103.8757216852367
 20
48.85867526793847
 30
0.0
 10
103.800206330138
 20
48.87248505762587
 30
0.0
 10
103.7290337585079
 20
48.89572524539459
 30
0.0
 10
103.6619043569911
 20
48.92791793295021
 30
0.0
 10
103.5992437571174
 20
48.96959046883612
 30
0.0
 10
103.5409109779314
 20
49.02007096661492
 30
0.0
 10
103.486647293554
 20
49.07971572502599
 30
0.0
 10
103.4555619557144
 20
49.1249149664712
 30
0.0
 10
103.4395583036905
 20
49.14818487383282
 30
0.0
  0
SPLINE
  5
A0
330
1F
100
AcDbEntity
  8
0
  6
Continuous
 62
     7
370
    25
100
AcDbSpline
210
0.0
220
0.0
230
1.0
 70
     8
 71
     3
 72
    19
 73
    15
 74
     0
 42
0.000000001
 43
0.00000001
 40
0.0
 40
0.0
 40
0.0
 40
0.0
 40
0.0902542493426765
 40
0.1785397915286845
 40
0.2660930338538199
 40
0.3546309779571733
 40
0.4418861533505625
 40
0.5257469151636482
 40
0.6081136336036366
 40
0.6901972728278825
 40
0.7708214843303354
 40
0.8483261812554111
 40
0.9240117400247433
 40
1.0
 40
1.0
 40
1.0
 40
1.0
 10
104.6034204831777
 20
49.58638599562769
 30
0.0
 10
104.602435318717
 20
49.55375546557406
 30
0.0
 10
104.6004864790922
 20
49.48920617204301
 30
0.0
 10
104.5826904530357
 20
49.39437542422123
 30
0.0
 10
104.5545296442112
 20
49.30292769629115
 30
0.0
 10
104.5156198391134
 20
49.21586394785091
 30
0.0
 10
104.4676289011405
 20
49.13499363885358
 30
0.0
 10
104.4105112319299
 20
49.0630392197485
 30
0.0
 10
104.3453688737247
 20
49.00097599774567
 30
0.0
 10
104.2734170420685
 20
48.9489085851313
 30
0.0
 10
104.1965202496493
 20
48.90814072866438
 30
0.0
 10
104.1173772802584
 20
48.87807903332173
 30
0.0
 10
104.0361758721234
 20
48.8597778326084
 30
0.0
 10
103.9813492441412
 20
48.85740600631538
 30
0.0
 10
103.9538812203572
 20
48.85621772639691
 30
0.0
  0
SPLINE
  5
A1
330
1F
100
AcDbEntity
  8
0
  6
Continuous
 62
     7
370
    25
100
AcDbSpline
210
0.0
220
0.0
230
1.0
 70
     8
 71
     3
 72
    23
 73
    19
 74
     0
 42
0.000000001
 43
0.00000001
 40
0.0
 40
0.0
 40
0.0
 40
0.0
 40
0.0726253460834355
 40
0.1419766113262345
 40
0.2089849284189387
 40
0.2739568703644448
 40
0.3368893473968407
 40
0.3987449534945904
 40
0.4601158852788615
 40
0.5208249225900294
 40
0.5809944586324858
 40
0.6401519276014649
 40
0.6986224507562545
 40
0.7572710809271643
 40
0.8164266940046601
 40
0.8762540482034703
 40
0.9371652930625372
 40
1.0
 40
1.0
 40
1.0
 40
1.0
 10
103.9623948421521
 20
50.33057670075589
 30
0.0
 10
103.9875609021345
 20
50.32449845026947
 30
0.0
 10
104.036758490985
 20
50.31261596772868
 30
0.0
 10
104.1070493915902
 20
50.28783198667946
 30
0.0
 10
104.1735661925836
 20
50.26083251868332
 30
0.0
 10
104.2350633880803
 20
50.22841172970849
 30
0.0
 10
104.2927768900322
 20
50.19304833383269
 30
0.0
 10
104.3453976932237
 20
50.1525321041642
 30
0.0
 10
104.3942640971288
 20
50.1087323023314
 30
0.0
 10
104.4376306953839
 20
50.060285909973
 30
0.0
 10
104.4769005019601
 20
50.00947972308671
 30
0.0
 10
104.5103826857761
 20
49.95559785183619
 30
0.0
 10
104.5391856521079
 20
49.89972435635718
 30
0.0
 10
104.5629143891617
 20
49.84147211853676
 30
0.0
 10
104.580789763209
 20
49.78066771018533
 30
0.0
 10
104.5937589100595
 20
49.71786083638476
 30
0.0
 10
104.6021811344984
 20
49.65288690773144
 30
0.0
 10
104.6030031081315
 20
49.60878148587553
 30
0.0
 10
104.6034204831777
 20
49.58638599562769
 30
0.0
  0
LINE
  5
A2
330
1F
100
AcDbEntity
  8
0
  6
Continuous
 62
     7
370
    25
100
AcDbLine
 10
103.9623948422
 20
50.1062177264
 30
0.0
 11
103.9623948422
 21
50.3305767008
 31
0.0
  0
LINE
  5
A3
330
1F
100
AcDbEntity
  8
0
  6
Continuous
 62
     7
370
    25
100
AcDbLine
 10
104.6034204832
 20
46.4165694773
 30
0.0
 11
104.4677033357
 21
46.243793035
 31
0.0
  0
LINE
  5
A4
330
1F
100
AcDbEntity
  8
0
  6
Continuous
 62
     7
370
    25
100
AcDbLine
 10
103.4625951627
 20
47.1627633875
 30
0.0
 11
104.6034204832
 21
46.4165694773
 31
0.0
  0
SPLINE
  5
A5
330
1F
100
AcDbEntity
  8
0
  6
Continuous
 62
     7
370
    25
100
AcDbSpline
210
0.0
220
0.0
230
1.0
 70
     8
 71
     3
 72
    19
 73
    15
 74
     0
 42
0.000000001
 43
0.00000001
 40
0.0
 40
0.0
 40
0.0
 40
0.0
 40
0.0978059775289526
 40
0.1996122522918969
 40
0.3052960258330042
 40
0.4158173591641854
 40
0.474240566618493
 40
0.5372869128296534
 40
0.6033858352934853
 40
0.6743111580696056
 40
0.7495304673574819
 40
0.8286083142695118
 40
0.9120427387714449
 40
1.0
 40
1.0
 40
1.0
 40
1.0
 10
102.7364333036905
 20
47.44221050292271
 30
0.0
 10
102.7621700602961
 20
47.44130446842189
 30
0.0
 10
102.814696215471
 20
47.43945534230573
 30
0.0
 10
102.8944786722417
 20
47.42841997068407
 30
0.0
 10
102.9757933608788
 20
47.40817975085233
 30
0.0
 10
103.0447259702889
 20
47.38627540923643
 30
0.0
 10
103.1018146599642
 20
47.36453969016138
 30
0.0
 10
103.1468960901426
 20
47.34438583130017
 30
0.0
 10
103.1945035279381
 20
47.32185136140104
 30
0.0
 10
103.2437361937807
 20
47.29543782453568
 30
0.0
 10
103.2960007715689
 20
47.26743734386952
 30
0.0
 10
103.3493617444301
 20
47.2347296049556
 30
0.0
 10
103.4057680198628
 20
47.20059857682171
 30
0.0
 10
103.4433224418657
 20
47.17559505570746
 30
0.0
 10
103.4625951626649
 20
47.1627633875381
 30
0.0
  0
SPLINE
  5
A6
330
1F
100
AcDbEntity
  8
0
  6
Continuous
 62
     7
370
    25
100
AcDbSpline
210
0.0
220
0.0
230
1.0
 70
     8
 71
     3
 72
    19
 73
    15
 74
     0
 42
0.000000001
 43
0.00000001
 40
0.0
 40
0.0
 40
0.0
 40
0.0
 40
0.0843261511037433
 40
0.1670353409858405
 40
0.2495407139852791
 40
0.3327066655796641
 40
0.415872617174049
 40
0.4977774155681172
 40
0.5803136056784763
 40
0.6645325781316561
 40
0.7495711764063213
 40
0.8324741628544073
 40
0.9156738488962567
 40
1.0
 40
1.0
 40
1.0
 40
1.0
 10
101.9752153549726
 20
46.68499896446118
 30
0.0
 10
101.9763069277478
 20
46.71863947141407
 30
0.0
 10
101.9784691422962
 20
46.78527542569711
 30
0.0
 10
101.997730566801
 20
46.88329875527769
 30
0.0
 10
102.0289497733245
 20
46.97748698397492
 30
0.0
 10
102.0719605467371
 20
47.0671780468173
 30
0.0
 10
102.1262854691229
 20
47.15026922845371
 30
0.0
 10
102.1916949747698
 20
47.22458328415963
 30
0.0
 10
102.2667434385188
 20
47.28986165972888
 30
0.0
 10
102.3516610815875
 20
47.34390060529542
 30
0.0
 10
102.4423229836505
 20
47.38794249260191
 30
0.0
 10
102.5377189982249
 20
47.41900587259678
 30
0.0
 10
102.6359292426623
 20
47.43909464152242
 30
0.0
 10
102.7027821076221
 20
47.44116723699067
 30
0.0
 10
102.7364333036905
 20
47.44221050292271
 30
0.0
  0
SPLINE
  5
A7
330
1F
100
AcDbEntity
  8
0
  6
Continuous
 62
     7
370
    25
100
AcDbSpline
210
0.0
220
0.0
230
1.0
 70
     8
 71
     3
 72
    19
 73
    15
 74
     0
 42
0.000000001
 43
0.00000001
 40
0.0
 40
0.0
 40
0.0
 40
0.0
 40
0.0859901205637197
 40
0.1691084375726414
 40
0.2505285789581878
 40
0.3322556961768449
 40
0.41357636523564
 40
0.4941261456201217
 40
0.5763059341204169
 40
0.6607126719045471
 40
0.7461272722239101
 40
0.8300149859609741
 40
0.914419725928851
 40
1.0
 40
1.0
 40
1.0
 40
1.0
 10
102.740940515229
 20
45.90374896446118
 30
0.0
 10
102.7059758097521
 20
45.90505362779974
 30
0.0
 10
102.6372141116103
 20
45.90761938276433
 30
0.0
 10
102.5366445297074
 20
45.92629698915311
 30
0.0
 10
102.4416030376727
 20
45.95853036464673
 30
0.0
 10
102.3517161381344
 20
46.00165475578064
 30
0.0
 10
102.2695990956915
 20
46.05760526236843
 30
0.0
 10
102.1953873089744
 20
46.12390968879426
 30
0.0
 10
102.130700834972
 20
46.2011947972517
 30
0.0
 10
102.0752090035424
 20
46.28763045931198
 30
0.0
 10
102.0311208133462
 20
46.38118068897368
 30
0.0
 10
101.9985255144445
 20
46.4792711648501
 30
0.0
 10
101.979048994978
 20
46.58106346248628
 30
0.0
 10
101.9764991128913
 20
46.65019443834377
 30
0.0
 10
101.9752153549726
 20
46.68499896446117
 30
0.0
  0
SPLINE
  5
A8
330
1F
100
AcDbEntity
  8
0
  6
Continuous
 62
     7
370
    25
100
AcDbSpline
210
0.0
220
0.0
230
1.0
 70
     8
 71
     3
 72
    23
 73
    19
 74
     0
 42
0.000000001
 43
0.00000001
 40
0.0
 40
0.0
 40
0.0
 40
0.0
 40
0.0652308037420295
 40
0.128404896003223
 40
0.1900670715964783
 40
0.2509433657682803
 40
0.3115458328521435
 40
0.3728628021568293
 40
0.4350236738562387
 40
0.4990717247070434
 40
0.5630910750496626
 40
0.6255101063303751
 40
0.6866800359296497
 40
0.7472825030135127
 40
0.808563495215959
 40
0.8707421035159858
 40
0.9343409515059125
 40
1.0
 40
1.0
 40
1.0
 40
1.0
 10
103.4816256113828
 20
46.64543566317913
 30
0.0
 10
103.4809426744573
 20
46.62002673722544
 30
0.0
 10
103.4795983334424
 20
46.57001002261404
 30
0.0
 10
103.4692527258054
 20
46.49657659248977
 30
0.0
 10
103.4529490744314
 20
46.42601306679464
 30
0.0
 10
103.4291831773255
 20
46.35861191518363
 30
0.0
 10
103.398824352781
 20
46.29413121385537
 30
0.0
 10
103.3624394454378
 20
46.2322009309207
 30
0.0
 10
103.3181496737544
 20
46.17398520941627
 30
0.0
 10
103.2686747053374
 20
46.11873436712205
 30
0.0
 10
103.2138768592694
 20
46.06857215469851
 30
0.0
 10
103.1557330473365
 20
46.02416068644314
 30
0.0
 10
103.0943038466235
 20
45.98685583520448
 30
0.0
 10
103.0296203709569
 20
45.95658874833693
 30
0.0
 10
102.9617823284136
 20
45.93308526362416
 30
0.0
 10
102.8908765144933
 20
45.91595123145014
 30
0.0
 10
102.816854034879
 20
45.90582295086455
 30
0.0
 10
102.7665124811174
 20
45.90444760035377
 30
0.0
 10
102.740940515229
 20
45.90374896446118
 30
0.0
  0
SPLINE
  5
A9
330
1F
100
AcDbEntity
  8
0
  6
Continuous
 62
     7
370
    25
100
AcDbSpline
210
0.0
220
0.0
230
1.0
 70
     8
 71
     3
 72
     9
 73
     5
 74
     0
 42
0.000000001
 43
0.00000001
 40
0.0
 40
0.0
 40
0.0
 40
0.0
 40
0.5126593363417816
 40
1.0
 40
1.0
 40
1.0
 40
1.0
 10
103.4575871498444
 20
46.90434992599964
 30
0.0
 10
103.4645970503112
 20
46.86037115672583
 30
0.0
 10
103.4782706537549
 20
46.77458559474303
 30
0.0
 10
103.4805263290752
 20
46.68775281008276
 30
0.0
 10
103.4816256113828
 20
46.64543566317913
 30
0.0
  0
LINE
  5
AA
330
1F
100
AcDbEntity
  8
0
  6
Continuous
 62
     7
370
    25
100
AcDbLine
 10
104.4677033357
 20
46.243793035
 30
0.0
 11
103.4575871498
 21
46.904349926
 31
0.0
  0
LINE
  5
AB
330
1F
100
AcDbEntity
  8
0
  6
Continuous
 62
     7
370
    25
100
AcDbLine
 10
104.5393179191
 20
48.3539295585
 30
0.0
 11
104.5393179191
 21
47.8916899752
 31
0.0
  0
LINE
  5
AC
330
1F
100
AcDbEntity
  8
0
  6
Continuous
 62
     7
370
    25
100
AcDbLine
 10
104.2829076627
 20
48.5006643341
 30
0.0
 11
104.5393179191
 21
48.3539295585
 31
0.0
  0
LINE
  5
AD
330
1F
100
AcDbEntity
  8
0
  6
Continuous
 62
     7
370
    25
100
AcDbLine
 10
104.2829076627
 20
48.1160489495
 30
0.0
 11
104.2829076627
 21
48.5006643341
 31
0.0
  0
LINE
  5
AE
330
1F
100
AcDbEntity
  8
0
  6
Continuous
 62
     7
370
    25
100
AcDbLine
 10
102.0393179191
 20
48.1160489495
 30
0.0
 11
104.2829076627
 21
48.1160489495
 31
0.0
  0
LINE
  5
AF
330
1F
100
AcDbEntity
  8
0
  6
Continuous
 62
     7
370
    25
100
AcDbLine
 10
102.0393179191
 20
47.8916899752
 30
0.0
 11
102.0393179191
 21
48.1160489495
 31
0.0
  0
LINE
  5
B0
330
1F
100
AcDbEntity
  8
0
  6
Continuous
 62
     7
370
    25
100
AcDbLine
 10
104.5393179191
 20
47.8916899752
 30
0.0
 11
102.0393179191
 21
47.8916899752
 31
0.0
  0
LINE
  5
B1
330
1F
100
AcDbEntity
  8
0
  6
Continuous
 62
     7
370
    25
100
AcDbLine
 10
103.1197026768
 20
56.3944632963
 30
0.0
 11
106.0998925884
 21
56.3944632963
 31
0.0
  0
SPLINE
  5
B2
330
1F
100
AcDbEntity
  8
0
  6
Continuous
 62
     7
370
    25
100
AcDbSpline
210
0.0
220
0.0
230
1.0
 70
     8
 71
     3
 72
    16
 73
    12
 74
     0
 42
0.000000001
 43
0.00000001
 40
0.0
 40
0.0
 40
0.0
 40
0.0
 40
0.25
 40
0.25
 40
0.5
 40
0.5
 40
0.625
 40
0.625
 40
0.75
 40
0.75
 40
1.0
 40
1.0
 40
1.0
 40
1.0
 10
106.0998925883606
 20
39.65130548981401
 30
0.0
 10
106.4931747028344
 20
41.01367469776739
 30
0.0
 10
106.8228585897896
 20
42.40854137671081
 30
0.0
 10
107.2735460397648
 20
45.20413943102523
 30
0.0
 10
107.3951303945006
 20
46.61007261305194
 30
0.0
 10
107.3949051183692
 20
48.73328734756515
 30
0.0
 10
107.3647535418994
 20
49.44338342072871
 30
0.0
 10
107.2450333361497
 20
50.8682335320018
 30
0.0
 10
107.1562461656492
 20
51.57422477704753
 30
0.0
 10
106.8158610523793
 20
53.67028831618866
 30
0.0
 10
106.490553548248
 20
55.0411740341962
 30
0.0
 10
106.0998925883606
 20
56.39446329631317
 30
0.0
  0
LINE
  5
B3
330
1F
100
AcDbEntity
  8
0
  6
Continuous
 62
     7
370
    25
100
AcDbLine
 10
103.1197026768
 20
39.6513054898
 30
0.0
 11
106.0998925884
 21
39.6513054898
 31
0.0
  0
SPLINE
  5
B4
330
1F
100
AcDbEntity
  8
0
  6
Continuous
 62
     7
370
    25
100
AcDbSpline
210
0.0
220
0.0
230
1.0
 70
     8
 71
     3
 72
     8
 73
     4
 74
     0
 42
0.000000001
 43
0.00000001
 40
0.0
 40
0.0
 40
0.0
 40
0.0
 40
1.0
 40
1.0
 40
1.0
 40
1.0
 10
103.0393179190751
 20
40.26869593459587
 30
0.0
 10
103.0132976858647
 20
40.06277163142036
 30
0.0
 10
102.9864879529516
 20
39.85697725434371
 30
0.0
 10
102.9589331613458
 20
39.65130548981401
 30
0.0
  0
LINE
  5
B5
330
1F
100
AcDbEntity
  8
0
  6
Continuous
 62
     7
370
    25
100
AcDbLine
 10
99.9787432498
 20
39.6513054898
 30
0.0
 11
102.9589331613
 21
39.6513054898
 31
0.0
  0
SPLINE
  5
B6
330
1F
100
AcDbEntity
  8
0
  6
Continuous
 62
     7
370
    25
100
AcDbSpline
210
0.0
220
0.0
230
1.0
 70
     8
 71
     3
 72
    16
 73
    12
 74
     0
 42
0.000000001
 43
0.00000001
 40
0.0
 40
0.0
 40
0.0
 40
0.0
 40
0.2500000000000001
 40
0.2500000000000001
 40
0.5000000000000001
 40
0.5000000000000001
 40
0.625
 40
0.625
 40
0.7500000000000001
 40
0.7500000000000001
 40
1.0
 40
1.0
 40
1.0
 40
1.0
 10
99.97874324978964
 20
39.65130548981401
 30
0.0
 10
99.58530588697333
 20
41.01421249380153
 30
0.0
 10
99.2557224741935
 20
42.40888795982907
 30
0.0
 10
98.80515176957938
 20
45.20374820511771
 30
0.0
 10
98.68349374197177
 20
46.60972723741148
 30
0.0
 10
98.68373660482816
 20
48.73377039524077
 30
0.0
 10
98.71393994636537
 20
49.44452925812195
 30
0.0
 10
98.83378137234259
 20
50.86990173449081
 30
0.0
 10
98.92249310746504
 20
51.57493476182346
 30
0.0
 10
99.26280313648513
 20
53.67031674025115
 30
0.0
 10
99.5880570504414
 20
55.04108660213893
 30
0.0
 10
99.97874324978964
 20
56.39446329631316
 30
0.0
  0
LINE
  5
B7
330
1F
100
AcDbEntity
  8
0
  6
Continuous
 62
     7
370
    25
100
AcDbLine
 10
99.9787432498
 20
56.3944632963
 30
0.0
 11
102.9589331613
 21
56.3944632963
 31
0.0
  0
SPLINE
  5
B8
330
1F
100
AcDbEntity
  8
0
  6
Continuous
 62
     7
370
    25
100
AcDbSpline
210
0.0
220
0.0
230
1.0
 70
     8
 71
     3
 72
     8
 73
     4
 74
     0
 42
0.000000001
 43
0.00000001
 40
0.0
 40
0.0
 40
0.0
 40
0.0
 40
1.0
 40
1.0
 40
1.0
 40
1.0
 10
102.9589331613458
 20
56.39446329631316
 30
0.0
 10
102.9864955722673
 20
56.1887346604369
 30
0.0
 10
103.0133050170239
 20
55.9829391358633
 30
0.0
 10
103.0393179190751
 20
55.77707285153131
 30
0.0
  0
SPLINE
  5
B9
330
1F
100
AcDbEntity
  8
0
  6
Continuous
 62
     7
370
    25
100
AcDbSpline
210
0.0
220
0.0
230
1.0
 70
     8
 71
     3
 72
     8
 73
     4
 74
     0
 42
0.000000001
 43
0.00000001
 40
0.0
 40
0.0
 40
0.0
 40
0.0
 40
1.0
 40
1.0
 40
1.0
 40
1.0
 10
103.0393179190751
 20
55.77707285153131
 30
0.0
 10
103.0653381522856
 20
55.98299715470682
 30
0.0
 10
103.0921478851987
 20
56.18879153178347
 30
0.0
 10
103.1197026768045
 20
56.39446329631316
 30
0.0
  0
SPLINE
  5
BA
330
1F
100
AcDbEntity
  8
0
  6
Continuous
 62
     7
370
    25
100
AcDbSpline
210
0.0
220
0.0
230
1.0
 70
     8
 71
     3
 72
    16
 73
    12
 74
     0
 42
0.000000001
 43
0.00000001
 40
0.0
 40
0.0
 40
0.0
 40
0.0
 40
0.2499999999999998
 40
0.2499999999999998
 40
0.4999999999999996
 40
0.4999999999999996
 40
0.6249999999999996
 40
0.6249999999999996
 40
0.7499999999999996
 40
0.7499999999999996
 40
1.0
 40
1.0
 40
1.0
 40
1.0
 10
106.0998925883609
 20
31.27972658656441
 30
0.0
 10
106.4944884728485
 20
31.96318670695456
 30
0.0
 10
106.819706886656
 20
32.65162969016231
 30
0.0
 10
107.2702399253409
 20
34.04287324481494
 30
0.0
 10
107.3940684376231
 20
34.74578055256948
 30
0.0
 10
107.3954286646401
 20
35.81338432776573
 30
0.0
 10
107.3651574474581
 20
36.17092720299263
 30
0.0
 10
107.2471154613135
 20
36.87818463978895
 30
0.0
 10
107.1594645080384
 20
37.22944218891865
 30
0.0
 10
106.8210037939167
 20
38.2769611809633
 30
0.0
 10
106.4949803946544
 20
38.96699333586258
 30
0.0
 10
106.0998925883608
 20
39.65130548981402
 30
0.0
  0
LINE
  5
BB
330
1F
100
AcDbEntity
  8
0
  6
Continuous
 62
     7
370
    25
100
AcDbLine
 10
103.1197026768
 20
31.2797265866
 30
0.0
 11
106.0998925884
 21
31.2797265866
 31
0.0
  0
SPLINE
  5
BC
330
1F
100
AcDbEntity
  8
0
  6
Continuous
 62
     7
370
    25
100
AcDbSpline
210
0.0
220
0.0
230
1.0
 70
     8
 71
     3
 72
     8
 73
     4
 74
     0
 42
0.000000001
 43
0.00000001
 40
0.0
 40
0.0
 40
0.0
 40
0.0
 40
1.0
 40
1.0
 40
1.0
 40
1.0
 10
103.1197026768045
 20
31.27972658656444
 30
0.0
 10
103.0921412864792
 20
31.38258709558581
 30
0.0
 10
103.0653318026498
 20
31.48548478289817
 30
0.0
 10
103.0393179190751
 20
31.58842180895537
 30
0.0
  0
SPLINE
  5
BD
330
1F
100
AcDbEntity
  8
0
  6
Continuous
 62
     7
370
    25
100
AcDbSpline
210
0.0
220
0.0
230
1.0
 70
     8
 71
     3
 72
     8
 73
     4
 74
     0
 42
0.000000001
 43
0.00000001
 40
0.0
 40
0.0
 40
0.0
 40
0.0
 40
1.0
 40
1.0
 40
1.0
 40
1.0
 10
103.0393179190751
 20
31.58842180895537
 30
0.0
 10
103.0132973414671
 20
31.48545829458523
 30
0.0
 10
102.9864875952264
 20
31.38256113378056
 30
0.0
 10
102.9589331613458
 20
31.27972658656444
 30
0.0
  0
LINE
  5
BE
330
1F
100
AcDbEntity
  8
0
  6
Continuous
 62
     7
370
    25
100
AcDbLine
 10
99.9787432498
 20
31.2797265866
 30
0.0
 11
102.9589331613
 21
31.2797265866
 31
0.0
  0
SPLINE
  5
BF
330
1F
100
AcDbEntity
  8
0
  6
Continuous
 62
     7
370
    25
100
AcDbSpline
210
0.0
220
0.0
230
1.0
 70
     8
 71
     3
 72
    16
 73
    12
 74
     0
 42
0.000000001
 43
0.00000001
 40
0.0
 40
0.0
 40
0.0
 40
0.0
 40
0.2500000000000001
 40
0.2500000000000001
 40
0.5000000000000001
 40
0.5000000000000001
 40
0.6250000000000001
 40
0.6250000000000001
 40
0.7500000000000002
 40
0.7500000000000002
 40
1.0
 40
1.0
 40
1.0
 40
1.0
 10
99.9787432497894
 20
39.65130548981403
 30
0.0
 10
99.58414736530179
 20
38.96784536942389
 30
0.0
 10
99.25892895149434
 20
38.27940238621613
 30
0.0
 10
98.80839591280935
 20
36.8881588315635
 30
0.0
 10
98.68456740052716
 20
36.18525152380897
 30
0.0
 10
98.68320717351017
 20
35.11764774861271
 30
0.0
 10
98.71347839069222
 20
34.76010487338582
 30
0.0
 10
98.83152037683685
 20
34.0528474365895
 30
0.0
 10
98.91917133011194
 20
33.7015898874598
 30
0.0
 10
99.25763204423356
 20
32.65407089541515
 30
0.0
 10
99.58365544349593
 20
31.96403874051588
 30
0.0
 10
99.97874324978952
 20
31.27972658656443
 30
0.0
  0
SPLINE
  5
C0
330
1F
100
AcDbEntity
  8
0
  6
Continuous
 62
     7
370
    25
100
AcDbSpline
210
0.0
220
0.0
230
1.0
 70
     8
 71
     3
 72
     8
 73
     4
 74
     0
 42
0.000000001
 43
0.00000001
 40
0.0
 40
0.0
 40
0.0
 40
0.0
 40
1.0
 40
1.0
 40
1.0
 40
1.0
 10
102.9589331613458
 20
39.65130548981401
 30
0.0
 10
102.9864945516711
 20
39.54844498079265
 30
0.0
 10
103.0133040355005
 20
39.44554729348029
 30
0.0
 10
103.0393179190751
 20
39.34261026742308
 30
0.0
  0
SPLINE
  5
C1
330
1F
100
AcDbEntity
  8
0
  6
Continuous
 62
     7
370
    25
100
AcDbSpline
210
0.0
220
0.0
230
1.0
 70
     8
 71
     3
 72
     8
 73
     4
 74
     0
 42
0.000000001
 43
0.00000001
 40
0.0
 40
0.0
 40
0.0
 40
0.0
 40
1.0
 40
1.0
 40
1.0
 40
1.0
 10
103.0393179190751
 20
56.70315851870409
 30
0.0
 10
103.0132973414671
 20
56.60019500433395
 30
0.0
 10
102.9864875952264
 20
56.49729784352927
 30
0.0
 10
102.9589331613458
 20
56.39446329631316
 30
0.0
  0
LINE
  5
C2
330
1F
100
AcDbEntity
  8
0
  6
Continuous
 62
     7
370
    25
100
AcDbLine
 10
103.0393179191
 20
55.7770728515
 30
0.0
 11
103.0393179191
 21
56.7031585187
 31
0.0
  0
LINE
  5
C3
330
1F
100
AcDbEntity
  8
0
  6
Continuous
 62
     7
370
    25
100
AcDbLine
 10
103.1197026768
 20
64.7660421996
 30
0.0
 11
106.0998925884
 21
64.7660421996
 31
0.0
  0
SPLINE
  5
C4
330
1F
100
AcDbEntity
  8
0
  6
Continuous
 62
     7
370
    25
100
AcDbSpline
210
0.0
220
0.0
230
1.0
 70
     8
 71
     3
 72
    16
 73
    12
 74
     0
 42
0.000000001
 43
0.00000001
 40
0.0
 40
0.0
 40
0.0
 40
0.0
 40
0.2500000000000001
 40
0.2500000000000001
 40
0.5000000000000001
 40
0.5000000000000001
 40
0.6250000000000001
 40
0.6250000000000001
 40
0.7500000000000002
 40
0.7500000000000002
 40
1.0
 40
1.0
 40
1.0
 40
1.0
 10
106.0998925883609
 20
56.39446329631315
 30
0.0
 10
106.4944884728485
 20
57.07792341670329
 30
0.0
 10
106.819706886656
 20
57.76636639991104
 30
0.0
 10
107.2702399253409
 20
59.15760995456367
 30
0.0
 10
107.3940684376231
 20
59.8605172623182
 30
0.0
 10
107.3954286646401
 20
60.92812103751447
 30
0.0
 10
107.3651574474581
 20
61.28566391274135
 30
0.0
 10
107.2471154613135
 20
61.99292134953767
 30
0.0
 10
107.1594645080384
 20
62.34417889866738
 30
0.0
 10
106.8210037939167
 20
63.39169789071203
 30
0.0
 10
106.4949803946544
 20
64.0817300456113
 30
0.0
 10
106.0998925883608
 20
64.76604219956275
 30
0.0
  0
SPLINE
  5
C5
330
1F
100
AcDbEntity
  8
0
  6
Continuous
 62
     7
370
    25
100
AcDbSpline
210
0.0
220
0.0
230
1.0
 70
     8
 71
     3
 72
     8
 73
     4
 74
     0
 42
0.000000001
 43
0.00000001
 40
0.0
 40
0.0
 40
0.0
 40
0.0
 40
1.0
 40
1.0
 40
1.0
 40
1.0
 10
103.1197026768045
 20
56.39446329631316
 30
0.0
 10
103.0921412864792
 20
56.49732380533452
 30
0.0
 10
103.0653318026498
 20
56.60022149264689
 30
0.0
 10
103.0393179190752
 20
56.70315851870409
 30
0.0
  0
SPLINE
  5
C6
330
1F
100
AcDbEntity
  8
0
  6
Continuous
 62
     7
370
    25
100
AcDbSpline
210
0.0
220
0.0
230
1.0
 70
     8
 71
     3
 72
    16
 73
    12
 74
     0
 42
0.000000001
 43
0.00000001
 40
0.0
 40
0.0
 40
0.0
 40
0.0
 40
0.2499999999999999
 40
0.2499999999999999
 40
0.4999999999999998
 40
0.4999999999999998
 40
0.6249999999999998
 40
0.6249999999999998
 40
0.7499999999999999
 40
0.7499999999999999
 40
1.0
 40
1.0
 40
1.0
 40
1.0
 10
99.97874324978939
 20
64.76604219956275
 30
0.0
 10
99.58414736530179
 20
64.08258207917261
 30
0.0
 10
99.25892895149434
 20
63.39413909596486
 30
0.0
 10
98.80839591280935
 20
62.00289554131223
 30
0.0
 10
98.68456740052716
 20
61.2999882335577
 30
0.0
 10
98.68320717351017
 20
60.23238445836144
 30
0.0
 10
98.71347839069222
 20
59.87484158313455
 30
0.0
 10
98.83152037683685
 20
59.16758414633823
 30
0.0
 10
98.91917133011194
 20
58.81632659720852
 30
0.0
 10
99.25763204423356
 20
57.76880760516388
 30
0.0
 10
99.58365544349591
 20
57.0787754502646
 30
0.0
 10
99.97874324978952
 20
56.39446329631316
 30
0.0
  0
LINE
  5
C7
330
1F
100
AcDbEntity
  8
0
  6
Continuous
 62
     7
370
    25
100
AcDbLine
 10
99.9787432498
 20
64.7660421996
 30
0.0
 11
102.9589331613
 21
64.7660421996
 31
0.0
  0
SPLINE
  5
C8
330
1F
100
AcDbEntity
  8
0
  6
Continuous
 62
     7
370
    25
100
AcDbSpline
210
0.0
220
0.0
230
1.0
 70
     8
 71
     3
 72
     8
 73
     4
 74
     0
 42
0.000000001
 43
0.00000001
 40
0.0
 40
0.0
 40
0.0
 40
0.0
 40
1.0
 40
1.0
 40
1.0
 40
1.0
 10
102.9589331613458
 20
64.76604219956273
 30
0.0
 10
102.9864945516711
 20
64.66318169054136
 30
0.0
 10
103.0133040355005
 20
64.56028400322901
 30
0.0
 10
103.0393179190751
 20
64.45734697717181
 30
0.0
  0
SPLINE
  5
C9
330
1F
100
AcDbEntity
  8
0
  6
Continuous
 62
     7
370
    25
100
AcDbSpline
210
0.0
220
0.0
230
1.0
 70
     8
 71
     3
 72
     8
 73
     4
 74
     0
 42
0.000000001
 43
0.00000001
 40
0.0
 40
0.0
 40
0.0
 40
0.0
 40
1.0
 40
1.0
 40
1.0
 40
1.0
 10
103.0393179190751
 20
64.4573469771718
 30
0.0
 10
103.0653384966832
 20
64.56031049154194
 30
0.0
 10
103.0921482429239
 20
64.66320765234663
 30
0.0
 10
103.1197026768045
 20
64.76604219956273
 30
0.0
  0
LINE
  5
CA
330
1F
100
AcDbEntity
  8
0
  6
Continuous
 62
     7
370
    25
100
AcDbLine
 10
107.5393179191
 20
62.2728843931
 30
0.0
 11
107.5393179191
 21
33.7728843931
 31
0.0
  0
LINE
  5
CB
330
1F
100
AcDbEntity
  8
0
  6
Continuous
 62
     7
370
    25
100
AcDbLine
 10
98.5393179191
 20
48.0228843931
 30
0.0
 11
98.5393179191
 21
62.2728843931
 31
0.0
  0
LINE
  5
CC
330
1F
100
AcDbEntity
  8
0
  6
Continuous
 62
     7
370
    25
100
AcDbLine
 10
98.5393179191
 20
33.7728843931
 30
0.0
 11
98.5393179191
 21
48.0228843931
 31
0.0
  0
SPLINE
  5
CD
330
1F
100
AcDbEntity
  8
0
  6
Continuous
 62
     7
370
    25
100
AcDbSpline
210
0.0
220
0.0
230
1.0
 70
     8
 71
     3
 72
    23
 73
    19
 74
     0
 42
0.000000001
 43
0.00000001
 40
0.0
 40
0.0
 40
0.0
 40
0.0
 40
0.0611415679303345
 40
0.1200010135310723
 40
0.1782359705414084
 40
0.236495543407017
 40
0.294887248704973
 40
0.3546771928192958
 40
0.4166948132897783
 40
0.4806333779628394
 40
0.5458046334786406
 40
0.6097347883178744
 40
0.6729516883751544
 40
0.7360010960706833
 40
0.799827438516525
 40
0.8647672769393869
 40
0.9310835057306723
 40
1.0
 40
1.0
 40
1.0
 40
1.0
 10
102.7274188806136
 20
46.12810793882016
 30
0.0
 10
102.7444883980305
 20
46.12849642389188
 30
0.0
 10
102.7779903094118
 20
46.12925889374551
 30
0.0
 10
102.8270246654169
 20
46.13804985217249
 30
0.0
 10
102.8745660133061
 20
46.14992350457551
 30
0.0
 10
102.9195434075141
 20
46.16911241513775
 30
0.0
 10
102.963200653898
 20
46.1919679739105
 30
0.0
 10
103.0042899957498
 20
46.2210844544028
 30
0.0
 10
103.0439755014898
 20
46.25446721196609
 30
0.0
 10
103.08079619104
 20
46.29312768440752
 30
0.0
 10
103.1144753904809
 20
46.33518681749011
 30
0.0
 10
103.1442029280405
 20
46.37991364041216
 30
0.0
 10
103.1692923857831
 20
46.42670468050223
 30
0.0
 10
103.1902259798976
 20
46.47551473806116
 30
0.0
 10
103.2053327608233
 20
46.52690248456265
 30
0.0
 10
103.2172279306882
 20
46.58003844848169
 30
0.0
 10
103.223557944372
 20
46.63560219122413
 30
0.0
 10
103.2246558479137
 20
46.67329976886939
 30
0.0
 10
103.2252153549726
 20
46.69251098369195
 30
0.0
  0
SPLINE
  5
CE
330
1F
100
AcDbEntity
  8
0
  6
Continuous
 62
     7
370
    25
100
AcDbSpline
210
0.0
220
0.0
230
1.0
 70
     8
 71
     3
 72
    23
 73
    19
 74
     0
 42
0.000000001
 43
0.00000001
 40
0.0
 40
0.0
 40
0.0
 40
0.0
 40
0.0679503475997535
 40
0.1332598223836994
 40
0.1978002967596469
 40
0.2608458295516823
 40
0.3233192927503669
 40
0.386281722459572
 40
0.4500615162333126
 40
0.5152075844858152
 40
0.5796407692199315
 40
0.6418172023841521
 40
0.7016924412115348
 40
0.7607690981778943
 40
0.8192540511346832
 40
0.8787376269055535
 40
0.9381582970160909
 40
1.0
 40
1.0
 40
1.0
 40
1.0
 10
102.2316256113828
 20
46.67297973369195
 30
0.0
 10
102.2321749264514
 20
46.65443291865297
 30
0.0
 10
102.2332522075993
 20
46.61806010578032
 30
0.0
 10
102.2397382975964
 20
46.5643652089725
 30
0.0
 10
102.2512107827808
 20
46.51287909893963
 30
0.0
 10
102.2675138448144
 20
46.46356596753414
 30
0.0
 10
102.2873789145412
 20
46.41601495176619
 30
0.0
 10
102.3127261812542
 20
46.37090069472546
 30
0.0
 10
102.3423549337669
 20
46.32761412150697
 30
0.0
 10
102.3762525224639
 20
46.28709743366507
 30
0.0
 10
102.4126821449116
 20
46.24934462405949
 30
0.0
 10
102.4526964806925
 20
46.21776120560813
 30
0.0
 10
102.4932216846009
 20
46.18925740261595
 30
0.0
 10
102.536719054624
 20
46.16766676821248
 30
0.0
 10
102.5816130537555
 20
46.14956648545473
 30
0.0
 10
102.6285879883287
 20
46.13739856950925
 30
0.0
 10
102.6774016880211
 20
46.12943262674596
 30
0.0
 10
102.71052603784
 20
46.12855533987756
 30
0.0
 10
102.7274188806136
 20
46.12810793882016
 30
0.0
  0
SPLINE
  5
CF
330
1F
100
AcDbEntity
  8
0
  6
Continuous
 62
     7
370
    25
100
AcDbSpline
210
0.0
220
0.0
230
1.0
 70
     8
 71
     3
 72
    23
 73
    19
 74
     0
 42
0.000000001
 43
0.00000001
 40
0.0
 40
0.0
 40
0.0
 40
0.0
 40
0.0618526459466919
 40
0.1212838306153701
 40
0.1807779320756125
 40
0.2392732340142805
 40
0.2986414352139415
 40
0.3581858222417119
 40
0.4207600867589709
 40
0.4852046730216431
 40
0.5503622689482868
 40
0.6136499245309119
 40
0.6766234955168249
 40
0.7391080134690124
 40
0.8021647022429446
 40
0.8667165971324776
 40
0.9320376285055447
 40
1.0
 40
1.0
 40
1.0
 40
1.0
 10
102.7274188806136
 20
47.21785152856375
 30
0.0
 10
102.7105266808521
 20
47.21740297471798
 30
0.0
 10
102.6774035918841
 20
47.21652342740324
 30
0.0
 10
102.6285807161949
 20
47.20857393531458
 30
0.0
 10
102.58164019911
 20
47.19634431589248
 30
0.0
 10
102.5365477079418
 20
47.17844339352282
 30
0.0
 10
102.4935492151695
 20
47.15599040276005
 30
0.0
 10
102.4523392899358
 20
47.12835952187353
 30
0.0
 10
102.4128894882023
 20
47.09601860839348
 30
0.0
 10
102.3761945939506
 20
47.05842293815125
 30
0.0
 10
102.3425371452183
 20
47.01787965276033
 30
0.0
 10
102.3125684896816
 20
46.97500244308511
 30
0.0
 10
102.287402832725
 20
46.92992764200638
 30
0.0
 10
102.2675073973049
 20
46.88239804838789
 30
0.0
 10
102.251212561401
 20
46.83307911367729
 30
0.0
 10
102.239737812878
 20
46.7815946003667
 30
0.0
 10
102.2332523351351
 20
46.72789927163067
 30
0.0
 10
102.2321749695213
 20
46.69152651834633
 30
0.0
 10
102.2316256113828
 20
46.67297973369195
 30
0.0
  0
SPLINE
  5
D0
330
1F
100
AcDbEntity
  8
0
  6
Continuous
 62
     7
370
    25
100
AcDbSpline
210
0.0
220
0.0
230
1.0
 70
     8
 71
     3
 72
    23
 73
    19
 74
     0
 42
0.000000001
 43
0.00000001
 40
0.0
 40
0.0
 40
0.0
 40
0.0
 40
0.0705921865358073
 40
0.1385012886049301
 40
0.2037899961427013
 40
0.2667875726696012
 40
0.3290979656467186
 40
0.3911745246039659
 40
0.4531677986176574
 40
0.5157967602265846
 40
0.5779688050530402
 40
0.6389663383752913
 40
0.6983810661628429
 40
0.7573204555574264
 40
0.8164122397216687
 40
0.876279358230831
 40
0.936823465650193
 40
0.9999999999999999
 40
0.9999999999999999
 40
0.9999999999999999
 40
0.9999999999999999
 10
103.2252153549726
 20
46.69251098369195
 30
0.0
 10
103.2246522475483
 20
46.71155484675497
 30
0.0
 10
103.2235474354193
 20
46.74891874924447
 30
0.0
 10
103.2173074485544
 20
46.80366784293652
 30
0.0
 10
103.2054843841871
 20
46.85534439907935
 30
0.0
 10
103.1901909782599
 20
46.90453864821959
 30
0.0
 10
103.1693679359319
 20
46.9507378571321
 30
0.0
 10
103.1443743816914
 20
46.99446902151266
 30
0.0
 10
103.1146586795701
 20
47.0352982014242
 30
0.0
 10
103.0805521523433
 20
47.0725083656445
 30
0.0
 10
103.0437558952102
 20
47.10667648636842
 30
0.0
 10
103.0041076889791
 20
47.1360666498267
 30
0.0
 10
102.9628188556778
 20
47.16144625167391
 30
0.0
 10
102.9195013303713
 20
47.18207441951218
 30
0.0
 10
102.8741828995802
 20
47.19813921667529
 30
0.0
 10
102.8270690148201
 20
47.20975927157977
 30
0.0
 10
102.777844546895
 20
47.21622627024619
 30
0.0
 10
102.7444641827637
 20
47.2173021452608
 30
0.0
 10
102.7274188806136
 20
47.21785152856375
 30
0.0
  0
LINE
  5
D1
330
1F
100
AcDbEntity
  8
0
  6
Continuous
 62
     7
370
    25
100
AcDbLine
 10
115.5393179191
 20
61.5228843931
 30
0.0
 11
115.5393179191
 21
34.5228843931
 31
0.0
  0
LINE
  5
D2
330
1F
100
AcDbEntity
  8
0
  6
Continuous
 62
     7
370
    25
100
AcDbLine
 10
127.5393179191
 20
61.5228843931
 30
0.0
 11
127.5393179191
 21
34.5228843931
 31
0.0
  0
LINE
  5
D3
330
1F
100
AcDbEntity
  8
0
  6
Continuous
 62
     7
370
    25
100
AcDbLine
 10
121.5393179191
 20
61.5228843931
 30
0.0
 11
121.5393179191
 21
34.5228843931
 31
0.0
  0
LINE
  5
D4
330
1F
100
AcDbEntity
  8
0
  6
Continuous
 62
     7
370
    25
100
AcDbLine
 10
133.5393179191
 20
61.5228843931
 30
0.0
 11
133.5393179191
 21
34.5228843931
 31
0.0
  0
LINE
  5
D5
330
1F
100
AcDbEntity
  8
0
  6
Continuous
 62
     7
370
    25
100
AcDbLine
 10
139.5393179191
 20
61.5228843931
 30
0.0
 11
139.5393179191
 21
34.5228843931
 31
0.0
  0
LINE
  5
D6
330
1F
100
AcDbEntity
  8
0
  6
Continuous
 62
     7
370
    25
100
AcDbLine
 10
84.2525144932
 20
61.0893491655
 30
0.0
 11
84.2525144932
 21
34.9564196206
 31
0.0
  0
LINE
  5
D7
330
1F
100
AcDbEntity
  8
0
  6
Continuous
 62
     7
370
    25
100
AcDbLine
 10
81.5393179191
 20
36.5228843931
 30
0.0
 11
81.5393179191
 21
59.5228843931
 31
0.0
  0
LINE
  5
D8
330
1F
100
AcDbEntity
  8
0
  6
Continuous
 62
     7
370
    25
100
AcDbLine
 10
147.5393179191
 20
60.0814932834
 30
0.0
 11
147.5393179191
 21
35.9642755023
 31
0.0
  0
LINE
  5
D9
330
1F
100
AcDbEntity
  8
0
  6
Continuous
 62
     7
370
    25
100
AcDbLine
 10
103.0393179191
 20
64.4573469772
 30
0.0
 11
103.0393179191
 21
64.4660421996
 31
0.0
  0
LINE
  5
DA
330
1F
100
AcDbEntity
  8
0
  6
Continuous
 62
     7
370
    25
100
AcDbLine
 10
103.0393179191
 20
31.5797265866
 30
0.0
 11
103.0393179191
 21
31.588421809
 31
0.0
  0
LINE
  5
DB
330
1F
100
AcDbEntity
  8
0
  6
Continuous
 62
     8
370
    25
100
AcDbLine
 10
147.1013352864
 20
35.468136564
 30
0.0
 11
147.1013352864
 21
60.5776322222
 31
0.0
  0
LINE
  5
DC
330
1F
100
AcDbEntity
  8
0
  6
Continuous
 62
     7
370
    18
100
AcDbLine
 10
82.6950916741
 20
60.1901706817
 30
0.0
 11
98.0393179191
 21
60.5368949796
 31
0.0
  0
LINE
  5
DD
330
1F
100
AcDbEntity
  8
0
  6
Continuous
 62
     7
370
    18
100
AcDbLine
 10
82.6950916741
 20
35.8555981045
 30
0.0
 11
98.0393179191
 21
35.5088738066
 31
0.0
  0
LINE
  5
DE
330
1F
100
AcDbEntity
  8
0
  6
Continuous
 62
     7
370
    18
100
AcDbLine
 10
98.0393179191
 20
34.6448874742
 30
0.0
 11
98.0393179191
 21
61.4008813119
 31
0.0
  0
LINE
  5
DF
330
1F
100
AcDbEntity
  8
0
  6
CENTERX2
 62
     7
370
    18
100
AcDbLine
 10
148.5393179191
 20
48.0228843931
 30
0.0
 11
79.9453988439
 21
48.0228843931
 31
0.0
  0
CIRCLE
  5
E0
330
1F
100
AcDbEntity
  8
0
  6
Continuous
 62
     7
370
    25
100
AcDbCircle
 10
173.5137132948
 20
48.0228843931
 30
0.0
 40
12.05860889073135
  0
CIRCLE
  5
E1
330
1F
100
AcDbEntity
  8
0
  6
Continuous
 62
     7
370
    25
100
AcDbCircle
 10
173.5137132948
 20
48.0228843931
 30
0.0
 40
9.20000000000001
  0
CIRCLE
  5
E2
330
1F
100
AcDbEntity
  8
0
  6
Continuous
 62
     7
370
    25
100
AcDbCircle
 10
173.5137132948
 20
48.0228843931
 30
0.0
 40
12.55474782908818
  0
CIRCLE
  5
E3
330
1F
100
AcDbEntity
  8
0
  6
Continuous
 62
     7
370
    25
100
AcDbCircle
 10
173.5137132948
 20
48.0228843931
 30
0.0
 40
9.0
  0
CIRCLE
  5
E4
330
1F
100
AcDbEntity
  8
0
  6
Continuous
 62
     7
370
    25
100
AcDbCircle
 10
173.5137132948
 20
48.0228843931
 30
0.0
 40
13.5
  0
CIRCLE
  5
E5
330
1F
100
AcDbEntity
  8
0
  6
Continuous
 62
     7
370
    25
100
AcDbCircle
 10
173.5137132948
 20
48.0228843931
 30
0.0
 40
14.25
  0
SPLINE
  5
E6
330
1F
100
AcDbEntity
  8
0
  6
Continuous
 62
     7
370
    25
100
AcDbSpline
210
0.0
220
0.0
230
1.0
 70
    24
 71
     3
 72
    16
 73
    12
 74
     0
 42
0.000000001
 43
0.00000001
 40
0.0
 40
0.0
 40
0.0
 40
0.0
 40
0.2499999999999998
 40
0.2499999999999998
 40
0.4999999999999997
 40
0.4999999999999997
 40
0.6249999999999997
 40
0.6249999999999997
 40
0.7499999999999997
 40
0.7499999999999997
 40
1.0
 40
1.0
 40
1.0
 40
1.0
 10
173.5137132947977
 20
31.27972658656441
 30
0.0
 10
172.3299256413349
 20
31.96318670695456
 30
0.0
 10
171.1375074163048
 20
32.65162969016231
 30
0.0
 10
168.7278028939437
 20
34.04287324481494
 30
0.0
 10
167.5103317239014
 20
34.74578055256948
 30
0.0
 10
165.6611877429091
 20
35.81338432776573
 30
0.0
 10
165.0419053171319
 20
36.17092720299263
 30
0.0
 10
163.8168995025697
 20
36.87818463978895
 30
0.0
 10
163.2085035809349
 20
37.22944218891865
 30
0.0
 10
161.3941474648203
 20
38.2769611809633
 30
0.0
 10
160.1989767136785
 20
38.96699333586258
 30
0.0
 10
159.0137132947977
 20
39.65130548981402
 30
0.0
  0
SPLINE
  5
E7
330
1F
100
AcDbEntity
  8
0
  6
Continuous
 62
     7
370
    25
100
AcDbSpline
210
0.0
220
0.0
230
1.0
 70
    24
 71
     3
 72
    16
 73
    12
 74
     0
 42
0.000000001
 43
0.00000001
 40
0.0
 40
0.0
 40
0.0
 40
0.0
 40
0.25
 40
0.25
 40
0.5
 40
0.5
 40
0.625
 40
0.625
 40
0.75
 40
0.75
 40
1.0
 40
1.0
 40
1.0
 40
1.0
 10
159.0137132947977
 20
39.65130548981401
 30
0.0
 10
159.0137132947977
 20
41.01367469776739
 30
0.0
 10
159.0137132947977
 20
42.40854137671081
 30
0.0
 10
159.0137132947977
 20
45.20413943102523
 30
0.0
 10
159.0137132947977
 20
46.61007261305194
 30
0.0
 10
159.0137132947977
 20
48.73328734756515
 30
0.0
 10
159.0137132947977
 20
49.44338342072871
 30
0.0
 10
159.0137132947977
 20
50.8682335320018
 30
0.0
 10
159.0137132947977
 20
51.57422477704753
 30
0.0
 10
159.0137132947977
 20
53.67028831618866
 30
0.0
 10
159.0137132947977
 20
55.0411740341962
 30
0.0
 10
159.0137132947977
 20
56.39446329631317
 30
0.0
  0
SPLINE
  5
E8
330
1F
100
AcDbEntity
  8
0
  6
Continuous
 62
     7
370
    25
100
AcDbSpline
210
0.0
220
0.0
230
1.0
 70
    24
 71
     3
 72
    16
 73
    12
 74
     0
 42
0.000000001
 43
0.00000001
 40
0.0
 40
0.0
 40
0.0
 40
0.0
 40
0.2500000000000001
 40
0.2500000000000001
 40
0.5000000000000001
 40
0.5000000000000001
 40
0.6250000000000001
 40
0.6250000000000001
 40
0.7500000000000002
 40
0.7500000000000002
 40
1.0
 40
1.0
 40
1.0
 40
1.0
 10
159.0137132947977
 20
56.39446329631315
 30
0.0
 10
160.1975009482605
 20
57.07792341670329
 30
0.0
 10
161.3899191732907
 20
57.76636639991104
 30
0.0
 10
163.7996236956517
 20
59.15760995456367
 30
0.0
 10
165.017094865694
 20
59.8605172623182
 30
0.0
 10
166.8662388466863
 20
60.92812103751447
 30
0.0
 10
167.4855212724636
 20
61.28566391274135
 30
0.0
 10
168.7105270870257
 20
61.99292134953767
 30
0.0
 10
169.3189230086605
 20
62.34417889866738
 30
0.0
 10
171.1332791247752
 20
63.39169789071203
 30
0.0
 10
172.3284498759169
 20
64.0817300456113
 30
0.0
 10
173.5137132947977
 20
64.76604219956275
 30
0.0
  0
SPLINE
  5
E9
330
1F
100
AcDbEntity
  8
0
  6
Continuous
 62
     7
370
    25
100
AcDbSpline
210
0.0
220
0.0
230
1.0
 70
    24
 71
     3
 72
    16
 73
    12
 74
     0
 42
0.000000001
 43
0.00000001
 40
0.0
 40
0.0
 40
0.0
 40
0.0
 40
0.2499999999999998
 40
0.2499999999999998
 40
0.4999999999999997
 40
0.4999999999999997
 40
0.6249999999999997
 40
0.6249999999999997
 40
0.7499999999999997
 40
0.7499999999999997
 40
1.0
 40
1.0
 40
1.0
 40
1.0
 10
173.5137132947977
 20
64.76604219956275
 30
0.0
 10
174.6975009482606
 20
64.08258207917261
 30
0.0
 10
175.8899191732907
 20
63.39413909596486
 30
0.0
 10
178.2996236956517
 20
62.00289554131223
 30
0.0
 10
179.517094865694
 20
61.29998823355769
 30
0.0
 10
181.3662388466863
 20
60.23238445836144
 30
0.0
 10
181.9855212724636
 20
59.87484158313455
 30
0.0
 10
183.2105270870257
 20
59.16758414633823
 30
0.0
 10
183.8189230086605
 20
58.81632659720852
 30
0.0
 10
185.6332791247752
 20
57.76880760516388
 30
0.0
 10
186.8284498759169
 20
57.0787754502646
 30
0.0
 10
188.0137132947978
 20
56.39446329631316
 30
0.0
  0
SPLINE
  5
EA
330
1F
100
AcDbEntity
  8
0
  6
Continuous
 62
     7
370
    25
100
AcDbSpline
210
0.0
220
0.0
230
1.0
 70
    24
 71
     3
 72
    16
 73
    12
 74
     0
 42
0.000000001
 43
0.00000001
 40
0.0
 40
0.0
 40
0.0
 40
0.0
 40
0.2499999999999999
 40
0.2499999999999999
 40
0.4999999999999999
 40
0.4999999999999999
 40
0.6249999999999999
 40
0.6249999999999999
 40
0.7499999999999999
 40
0.7499999999999999
 40
1.0
 40
1.0
 40
1.0
 40
1.0
 10
188.0137132947977
 20
39.65130548981401
 30
0.0
 10
188.0137132947977
 20
41.01367469776739
 30
0.0
 10
188.0137132947977
 20
42.40854137671081
 30
0.0
 10
188.0137132947977
 20
45.20413943102524
 30
0.0
 10
188.0137132947977
 20
46.61007261305197
 30
0.0
 10
188.0137132947977
 20
48.7332873475652
 30
0.0
 10
188.0137132947977
 20
49.44338342072879
 30
0.0
 10
188.0137132947977
 20
50.86823353200191
 30
0.0
 10
188.0137132947977
 20
51.57422477704759
 30
0.0
 10
188.0137132947977
 20
53.67028831618867
 30
0.0
 10
188.0137132947977
 20
55.0411740341962
 30
0.0
 10
188.0137132947977
 20
56.39446329631316
 30
0.0
  0
SPLINE
  5
EB
330
1F
100
AcDbEntity
  8
0
  6
Continuous
 62
     7
370
    25
100
AcDbSpline
210
0.0
220
0.0
230
1.0
 70
    24
 71
     3
 72
    16
 73
    12
 74
     0
 42
0.000000001
 43
0.00000001
 40
0.0
 40
0.0
 40
0.0
 40
0.0
 40
0.2500000000000001
 40
0.2500000000000001
 40
0.5000000000000001
 40
0.5000000000000001
 40
0.6250000000000001
 40
0.6250000000000001
 40
0.7500000000000002
 40
0.7500000000000002
 40
1.0
 40
1.0
 40
1.0
 40
1.0
 10
188.0137132947978
 20
39.65130548981402
 30
0.0
 10
186.8299256413349
 20
38.96784536942388
 30
0.0
 10
185.6375074163047
 20
38.27940238621613
 30
0.0
 10
183.2278028939437
 20
36.8881588315635
 30
0.0
 10
182.0103317239013
 20
36.18525152380897
 30
0.0
 10
180.1611877429091
 20
35.11764774861271
 30
0.0
 10
179.5419053171319
 20
34.76010487338582
 30
0.0
 10
178.3168995025697
 20
34.0528474365895
 30
0.0
 10
177.7085035809349
 20
33.70158988745979
 30
0.0
 10
175.8941474648203
 20
32.65407089541514
 30
0.0
 10
174.6989767136785
 20
31.96403874051588
 30
0.0
 10
173.5137132947977
 20
31.27972658656443
 30
0.0
  0
INSERT
  5
F7
330
1F
100
AcDbEntity
  8
0
  6
Continuous
 62
     7
370
    18
100
AcDbBlockReference
  2
SW_CENTERMARKSYMBOL_0
 10
173.5137132948
 20
48.0228843931
 30
0.0
  0
INSERT
  5
103
330
1F
100
AcDbEntity
  8
0
  6
Continuous
 62
     7
370
    18
100
AcDbBlockReference
  2
SW_CENTERMARKSYMBOL_1
 10
173.5137132948
 20
48.0228843931
 30
0.0
  0
LINE
  5
104
330
1F
100
AcDbEntity
  8
0
  6
Continuous
 62
     7
370
    25
100
AcDbLine
 10
98.6836554864
 20
105.0239849711
 30
0.0
 11
98.5393179191
 21
104.7739849711
 31
0.0
  0
LINE
  5
105
330
1F
100
AcDbEntity
  8
0
  6
Continuous
 62
     7
370
    25
100
AcDbLine
 10
98.5393179191
 20
76.2739849711
 30
0.0
 11
98.6836554864
 21
76.0239849711
 31
0.0
  0
LINE
  5
106
330
1F
100
AcDbEntity
  8
0
  6
Continuous
 62
     7
370
    25
100
AcDbLine
 10
107.3949803518
 20
76.0239849711
 30
0.0
 11
107.5393179191
 21
76.2739849711
 31
0.0
  0
LINE
  5
107
330
1F
100
AcDbEntity
  8
0
  6
Continuous
 62
     7
370
    25
100
AcDbLine
 10
107.5393179191
 20
104.7739849711
 30
0.0
 11
107.3949803518
 21
105.0239849711
 31
0.0
  0
LINE
  5
108
330
1F
100
AcDbEntity
  8
0
  6
Continuous
 62
     7
370
    25
100
AcDbLine
 10
115.5393179191
 20
77.0239849711
 30
0.0
 11
121.5393179191
 21
78.0239849711
 31
0.0
  0
LINE
  5
109
330
1F
100
AcDbEntity
  8
0
  6
Continuous
 62
     7
370
    25
100
AcDbLine
 10
121.5393179191
 20
103.0239849711
 30
0.0
 11
115.5393179191
 21
104.0239849711
 31
0.0
  0
LINE
  5
10A
330
1F
100
AcDbEntity
  8
0
  6
Continuous
 62
     7
370
    25
100
AcDbLine
 10
115.5393179191
 20
104.0239849711
 30
0.0
 11
107.5393179191
 21
104.0239849711
 31
0.0
  0
LINE
  5
10B
330
1F
100
AcDbEntity
  8
0
  6
Continuous
 62
     7
370
    25
100
AcDbLine
 10
107.5393179191
 20
77.0239849711
 30
0.0
 11
115.5393179191
 21
77.0239849711
 31
0.0
  0
LINE
  5
10C
330
1F
100
AcDbEntity
  8
0
  6
Continuous
 62
     7
370
    25
100
AcDbLine
 10
139.5393179191
 20
77.0239849711
 30
0.0
 11
147.1013352864
 21
77.969237142
 31
0.0
  0
LINE
  5
10D
330
1F
100
AcDbEntity
  8
0
  6
Continuous
 62
     7
370
    25
100
AcDbLine
 10
147.1013352864
 20
103.0787328002
 30
0.0
 11
139.5393179191
 21
104.0239849711
 31
0.0
  0
LINE
  5
10E
330
1F
100
AcDbEntity
  8
0
  6
Continuous
 62
     7
370
    25
100
AcDbLine
 10
121.5393179191
 20
77.0239849711
 30
0.0
 11
127.5393179191
 21
78.0239849711
 31
0.0
  0
LINE
  5
10F
330
1F
100
AcDbEntity
  8
0
  6
Continuous
 62
     7
370
    25
100
AcDbLine
 10
127.5393179191
 20
103.0239849711
 30
0.0
 11
121.5393179191
 21
104.0239849711
 31
0.0
  0
LINE
  5
110
330
1F
100
AcDbEntity
  8
0
  6
Continuous
 62
     7
370
    25
100
AcDbLine
 10
127.5393179191
 20
77.0239849711
 30
0.0
 11
133.5393179191
 21
78.0239849711
 31
0.0
  0
LINE
  5
111
330
1F
100
AcDbEntity
  8
0
  6
Continuous
 62
     7
370
    25
100
AcDbLine
 10
133.5393179191
 20
103.0239849711
 30
0.0
 11
127.5393179191
 21
104.0239849711
 31
0.0
  0
LINE
  5
112
330
1F
100
AcDbEntity
  8
0
  6
Continuous
 62
     7
370
    25
100
AcDbLine
 10
133.5393179191
 20
77.0239849711
 30
0.0
 11
139.5393179191
 21
78.0239849711
 31
0.0
  0
LINE
  5
113
330
1F
100
AcDbEntity
  8
0
  6
Continuous
 62
     7
370
    25
100
AcDbLine
 10
139.5393179191
 20
103.0239849711
 30
0.0
 11
133.5393179191
 21
104.0239849711
 31
0.0
  0
LINE
  5
114
330
1F
100
AcDbEntity
  8
0
  6
Continuous
 62
     7
370
    25
100
AcDbLine
 10
98.5393179191
 20
103.9132800908
 30
0.0
 11
84.2525144932
 21
103.5904497435
 31
0.0
  0
LINE
  5
115
330
1F
100
AcDbEntity
  8
0
  6
Continuous
 62
     7
370
    25
100
AcDbLine
 10
84.2525144932
 20
77.4575201987
 30
0.0
 11
98.5393179191
 21
77.1346898514
 31
0.0
  0
LINE
  5
116
330
1F
100
AcDbEntity
  8
0
  6
Continuous
 62
     7
370
    25
100
AcDbLine
 10
84.2525144932
 20
103.5904497435
 30
0.0
 11
81.5393179191
 21
102.0239849711
 31
0.0
  0
LINE
  5
117
330
1F
100
AcDbEntity
  8
0
  6
Continuous
 62
     7
370
    25
100
AcDbLine
 10
81.5393179191
 20
79.0239849711
 30
0.0
 11
84.2525144932
 21
77.4575201987
 31
0.0
  0
ARC
  5
118
330
1F
100
AcDbEntity
  8
0
  6
Continuous
 62
     7
370
    25
100
AcDbCircle
 10
147.0393179191
 20
78.4653760804
 30
0.0
 40
0.5
100
AcDbArc
 50
277.1250163489
 51
0.0
  0
ARC
  5
119
330
1F
100
AcDbEntity
  8
0
  6
Continuous
 62
     7
370
    25
100
AcDbCircle
 10
147.0393179191
 20
102.5825938618
 30
0.0
 40
0.5000000000000017
100
AcDbArc
 50
0.0
 51
82.8749836511
  0
LINE
  5
11A
330
1F
100
AcDbEntity
  8
0
  6
Continuous
 62
     7
370
    25
100
AcDbLine
 10
98.5393179191
 20
76.2739849711
 30
0.0
 11
98.5393179191
 21
104.7739849711
 31
0.0
  0
SPLINE
  5
11B
330
1F
100
AcDbEntity
  8
0
  6
Continuous
 62
     7
370
    25
100
AcDbSpline
210
0.0
220
0.0
230
1.0
 70
    24
 71
     3
 72
    12
 73
     8
 74
     0
 42
0.000000001
 43
0.00000001
 40
0.0
 40
0.0
 40
0.0
 40
0.0
 40
0.2480530905380837
 40
0.4347458661949394
 40
0.6220392421406866
 40
0.8108320818115596
 40
1.0
 40
1.0
 40
1.0
 40
1.0
 10
98.68722591928267
 20
105.0239849710983
 30
0.0
 10
98.70252718259536
 20
105.0239849710983
 30
0.0
 10
98.729344671377
 20
105.0239849710983
 30
0.0
 10
98.93635633150814
 20
105.0239849710983
 30
0.0
 10
99.2039027649571
 20
105.0239849710983
 30
0.0
 10
99.54961930172968
 20
105.0239849710983
 30
0.0
 10
99.83560733138569
 20
105.0239849710983
 30
0.0
 10
99.97874324978963
 20
105.0239849710983
 30
0.0
  0
SPLINE
  5
11C
330
1F
100
AcDbEntity
  8
0
  6
Continuous
 62
     7
370
    25
100
AcDbSpline
210
0.0
220
0.0
230
1.0
 70
     8
 71
     3
 72
    16
 73
    12
 74
     0
 42
0.000000001
 43
0.00000001
 40
0.0
 40
0.0
 40
0.0
 40
0.0
 40
0.2500000000000001
 40
0.2500000000000001
 40
0.5000000000000001
 40
0.5000000000000001
 40
0.6250000000000001
 40
0.6250000000000001
 40
0.7500000000000002
 40
0.7500000000000002
 40
1.0
 40
1.0
 40
1.0
 40
1.0
 10
99.97874324978939
 20
105.0239849710983
 30
0.0
 10
99.58414736530177
 20
103.8401973176354
 30
0.0
 10
99.25892895149433
 20
102.6477790926053
 30
0.0
 10
98.80839591280933
 20
100.2380745702442
 30
0.0
 10
98.68456740052714
 20
99.0206034002019
 30
0.0
 10
98.68320717351016
 20
97.17145941920965
 30
0.0
 10
98.7134783906922
 20
96.55217699343243
 30
0.0
 10
98.83152037683682
 20
95.32717117887027
 30
0.0
 10
98.91917133011192
 20
94.7187752572355
 30
0.0
 10
99.25763204423355
 20
92.90441914112083
 30
0.0
 10
99.5836554434959
 20
91.70924838997904
 30
0.0
 10
99.9787432497895
 20
90.52398497109824
 30
0.0
  0
SPLINE
  5
11D
330
1F
100
AcDbEntity
  8
0
  6
Continuous
 62
     7
370
    25
100
AcDbSpline
210
0.0
220
0.0
230
1.0
 70
     8
 71
     3
 72
    16
 73
    12
 74
     0
 42
0.000000001
 43
0.00000001
 40
0.0
 40
0.0
 40
0.0
 40
0.0
 40
0.2499999999999999
 40
0.2499999999999999
 40
0.4999999999999998
 40
0.4999999999999998
 40
0.6249999999999998
 40
0.6249999999999998
 40
0.7499999999999999
 40
0.7499999999999999
 40
1.0
 40
1.0
 40
1.0
 40
1.0
 10
99.97874324978939
 20
90.52398497109829
 30
0.0
 10
99.58414736530177
 20
89.34019731763543
 30
0.0
 10
99.25892895149433
 20
88.14777909260532
 30
0.0
 10
98.80839591280933
 20
85.73807457024424
 30
0.0
 10
98.68456740052714
 20
84.5206034002019
 30
0.0
 10
98.68320717351016
 20
82.67145941920965
 30
0.0
 10
98.7134783906922
 20
82.05217699343243
 30
0.0
 10
98.83152037683682
 20
80.82717117887027
 30
0.0
 10
98.91917133011192
 20
80.2187752572355
 30
0.0
 10
99.25763204423355
 20
78.40441914112083
 30
0.0
 10
99.5836554434959
 20
77.20924838997904
 30
0.0
 10
99.9787432497895
 20
76.02398497109824
 30
0.0
  0
SPLINE
  5
11E
330
1F
100
AcDbEntity
  8
0
  6
Continuous
 62
     7
370
    25
100
AcDbSpline
210
0.0
220
0.0
230
1.0
 70
    24
 71
     3
 72
    12
 73
     8
 74
     0
 42
0.000000001
 43
0.00000001
 40
0.0
 40
0.0
 40
0.0
 40
0.0
 40
0.1869584353546297
 40
0.3742443193951785
 40
0.5628057526338639
 40
0.7519442655640026
 40
1.0
 40
1.0
 40
1.0
 40
1.0
 10
99.97874324978963
 20
76.02398497109826
 30
0.0
 10
99.83721474903554
 20
76.02398497109826
 30
0.0
 10
99.55390986718162
 20
76.02398497109826
 30
0.0
 10
99.20858203230897
 20
76.02398497109827
 30
0.0
 10
98.93843074081045
 20
76.02398497109826
 30
0.0
 10
98.7301203566914
 20
76.02398497109826
 30
0.0
 10
98.7008819176602
 20
76.02398497109826
 30
0.0
 10
98.68429258120086
 20
76.02398497109826
 30
0.0
  0
LINE
  5
11F
330
1F
100
AcDbEntity
  8
0
  6
Continuous
 62
     7
370
    25
100
AcDbLine
 10
103.1197026768
 20
105.0239849711
 30
0.0
 11
106.0998925884
 21
105.0239849711
 31
0.0
  0
SPLINE
  5
120
330
1F
100
AcDbEntity
  8
0
  6
Continuous
 62
     7
370
    25
100
AcDbSpline
210
0.0
220
0.0
230
1.0
 70
     8
 71
     3
 72
    16
 73
    12
 74
     0
 42
0.000000001
 43
0.00000001
 40
0.0
 40
0.0
 40
0.0
 40
0.0
 40
0.2499999999999998
 40
0.2499999999999998
 40
0.4999999999999997
 40
0.4999999999999997
 40
0.6249999999999997
 40
0.6249999999999997
 40
0.7499999999999997
 40
0.7499999999999997
 40
1.0
 40
1.0
 40
1.0
 40
1.0
 10
106.0998925883609
 20
90.52398497109823
 30
0.0
 10
106.4944884728485
 20
91.70777262456109
 30
0.0
 10
106.819706886656
 20
92.90019084959121
 30
0.0
 10
107.2702399253409
 20
95.3098953719523
 30
0.0
 10
107.3940684376231
 20
96.52736654199461
 30
0.0
 10
107.3954286646401
 20
98.37651052298686
 30
0.0
 10
107.3651574474581
 20
98.99579294876409
 30
0.0
 10
107.2471154613134
 20
100.2207987633263
 30
0.0
 10
107.1594645080383
 20
100.829194684961
 30
0.0
 10
106.8210037939167
 20
102.6435508010757
 30
0.0
 10
106.4949803946543
 20
103.8387215522175
 30
0.0
 10
106.0998925883608
 20
105.0239849710983
 30
0.0
  0
LINE
  5
121
330
1F
100
AcDbEntity
  8
0
  6
Continuous
 62
     7
370
    25
100
AcDbLine
 10
103.1197026768
 20
90.5239849711
 30
0.0
 11
106.0998925884
 21
90.5239849711
 31
0.0
  0
SPLINE
  5
122
330
1F
100
AcDbEntity
  8
0
  6
Continuous
 62
     7
370
    25
100
AcDbSpline
210
0.0
220
0.0
230
1.0
 70
     8
 71
     3
 72
     8
 73
     4
 74
     0
 42
0.000000001
 43
0.00000001
 40
0.0
 40
0.0
 40
0.0
 40
0.0
 40
1.0
 40
1.0
 40
1.0
 40
1.0
 10
103.1197026768045
 20
90.52398497109826
 30
0.0
 10
103.0921412864791
 20
90.70214459881566
 30
0.0
 10
103.0653318026498
 20
90.880368621222
 30
0.0
 10
103.0393179190751
 20
91.05866078033311
 30
0.0
  0
SPLINE
  5
123
330
1F
100
AcDbEntity
  8
0
  6
Continuous
 62
     7
370
    25
100
AcDbSpline
210
0.0
220
0.0
230
1.0
 70
     8
 71
     3
 72
     8
 73
     4
 74
     0
 42
0.000000001
 43
0.00000001
 40
0.0
 40
0.0
 40
0.0
 40
0.0
 40
1.0
 40
1.0
 40
1.0
 40
1.0
 10
103.0393179190751
 20
91.05866078033313
 30
0.0
 10
103.0132973414671
 20
90.8803227421182
 30
0.0
 10
102.9864875952264
 20
90.70209963164992
 30
0.0
 10
102.9589331613458
 20
90.52398497109827
 30
0.0
  0
LINE
  5
124
330
1F
100
AcDbEntity
  8
0
  6
Continuous
 62
     7
370
    25
100
AcDbLine
 10
99.9787432498
 20
90.5239849711
 30
0.0
 11
102.9589331613
 21
90.5239849711
 31
0.0
  0
LINE
  5
125
330
1F
100
AcDbEntity
  8
0
  6
Continuous
 62
     7
370
    25
100
AcDbLine
 10
99.9787432498
 20
105.0239849711
 30
0.0
 11
102.9589331613
 21
105.0239849711
 31
0.0
  0
SPLINE
  5
126
330
1F
100
AcDbEntity
  8
0
  6
Continuous
 62
     7
370
    25
100
AcDbSpline
210
0.0
220
0.0
230
1.0
 70
     8
 71
     3
 72
     8
 73
     4
 74
     0
 42
0.000000001
 43
0.00000001
 40
0.0
 40
0.0
 40
0.0
 40
0.0
 40
1.0
 40
1.0
 40
1.0
 40
1.0
 10
102.9589331613458
 20
105.0239849710982
 30
0.0
 10
102.9864945516711
 20
104.8458253433809
 30
0.0
 10
103.0133040355005
 20
104.6676013209745
 30
0.0
 10
103.0393179190751
 20
104.4893091618634
 30
0.0
  0
SPLINE
  5
127
330
1F
100
AcDbEntity
  8
0
  6
Continuous
 62
     7
370
    25
100
AcDbSpline
210
0.0
220
0.0
230
1.0
 70
     8
 71
     3
 72
     8
 73
     4
 74
     0
 42
0.000000001
 43
0.00000001
 40
0.0
 40
0.0
 40
0.0
 40
0.0
 40
1.0
 40
1.0
 40
1.0
 40
1.0
 10
103.0393179190751
 20
104.4893091618634
 30
0.0
 10
103.0653384966831
 20
104.6676472000783
 30
0.0
 10
103.0921482429239
 20
104.8458703105466
 30
0.0
 10
103.1197026768045
 20
105.0239849710983
 30
0.0
  0
LINE
  5
128
330
1F
100
AcDbEntity
  8
0
  6
Continuous
 62
     7
370
    25
100
AcDbLine
 10
107.5393179191
 20
104.7739849711
 30
0.0
 11
107.5393179191
 21
76.2739849711
 31
0.0
  0
SPLINE
  5
129
330
1F
100
AcDbEntity
  8
0
  6
Continuous
 62
     7
370
    25
100
AcDbSpline
210
0.0
220
0.0
230
1.0
 70
    24
 71
     3
 72
    13
 73
     9
 74
     0
 42
0.000000001
 43
0.00000001
 40
0.0
 40
0.0
 40
0.0
 40
0.0
 40
0.0023400194059
 40
0.2597141131817907
 40
0.4435612662142308
 40
0.6279764809457049
 40
0.8138104285387664
 40
1.0
 40
1.0
 40
1.0
 40
1.0
 10
107.3941347460037
 20
76.02398497109826
 30
0.0
 10
107.3944162988639
 20
76.02398497109826
 30
0.0
 10
107.4256652924472
 20
76.0239849710983
 30
0.0
 10
107.3283045382725
 20
76.02398497109826
 30
0.0
 10
107.1349157303154
 20
76.02398497109826
 30
0.0
 10
106.8634743886431
 20
76.02398497109826
 30
0.0
 10
106.5227537591539
 20
76.02398497109826
 30
0.0
 10
106.2409361101184
 20
76.02398497109826
 30
0.0
 10
106.0998925883606
 20
76.02398497109826
 30
0.0
  0
SPLINE
  5
12A
330
1F
100
AcDbEntity
  8
0
  6
Continuous
 62
     7
370
    25
100
AcDbSpline
210
0.0
220
0.0
230
1.0
 70
     8
 71
     3
 72
    16
 73
    12
 74
     0
 42
0.000000001
 43
0.00000001
 40
0.0
 40
0.0
 40
0.0
 40
0.0
 40
0.2500000000000001
 40
0.2500000000000001
 40
0.5000000000000001
 40
0.5000000000000001
 40
0.6250000000000001
 40
0.6250000000000001
 40
0.7500000000000002
 40
0.7500000000000002
 40
1.0
 40
1.0
 40
1.0
 40
1.0
 10
106.0998925883609
 20
76.02398497109823
 30
0.0
 10
106.4944884728485
 20
77.20777262456109
 30
0.0
 10
106.819706886656
 20
78.40019084959121
 30
0.0
 10
107.2702399253409
 20
80.8098953719523
 30
0.0
 10
107.3940684376231
 20
82.02736654199461
 30
0.0
 10
107.3954286646401
 20
83.87651052298686
 30
0.0
 10
107.3651574474581
 20
84.49579294876409
 30
0.0
 10
107.2471154613134
 20
85.72079876332624
 30
0.0
 10
107.1594645080383
 20
86.32919468496102
 30
0.0
 10
106.8210037939167
 20
88.14355080107569
 30
0.0
 10
106.4949803946543
 20
89.33872155221748
 30
0.0
 10
106.0998925883608
 20
90.52398497109827
 30
0.0
  0
SPLINE
  5
12B
330
1F
100
AcDbEntity
  8
0
  6
Continuous
 62
     7
370
    25
100
AcDbSpline
210
0.0
220
0.0
230
1.0
 70
    24
 71
     3
 72
    13
 73
     9
 74
     0
 42
0.000000001
 43
0.00000001
 40
0.0
 40
0.0
 40
0.0
 40
0.0
 40
0.1840963264858659
 40
0.3685039555133613
 40
0.5541202396581255
 40
0.7402817301574391
 40
0.9894028886592325
 40
1.0
 40
1.0
 40
1.0
 40
1.0
 10
106.0998925883606
 20
105.0239849710983
 30
0.0
 10
106.2394046479911
 20
105.0239849710983
 30
0.0
 10
106.518664678851
 20
105.0239849710983
 30
0.0
 10
106.8590867009439
 20
105.0239849710983
 30
0.0
 10
107.1326906502146
 20
105.0239849710983
 30
0.0
 10
107.3258997842407
 20
105.0239849710983
 30
0.0
 10
107.4221077648506
 20
105.0239849710983
 30
0.0
 10
107.3925480514108
 20
105.0239849710983
 30
0.0
 10
107.3913419461387
 20
105.0239849710983
 30
0.0
  0
LINE
  5
12C
330
1F
100
AcDbEntity
  8
0
  6
Continuous
 62
     7
370
    25
100
AcDbLine
 10
103.0393179191
 20
89.9893091619
 30
0.0
 11
103.0393179191
 21
91.0586607803
 31
0.0
  0
SPLINE
  5
12D
330
1F
100
AcDbEntity
  8
0
  6
Continuous
 62
     7
370
    25
100
AcDbSpline
210
0.0
220
0.0
230
1.0
 70
     8
 71
     3
 72
     8
 73
     4
 74
     0
 42
0.000000001
 43
0.00000001
 40
0.0
 40
0.0
 40
0.0
 40
0.0
 40
1.0
 40
1.0
 40
1.0
 40
1.0
 10
103.0393179190751
 20
89.98930916186339
 30
0.0
 10
103.0653384966831
 20
90.16764720007833
 30
0.0
 10
103.0921482429239
 20
90.3458703105466
 30
0.0
 10
103.1197026768045
 20
90.52398497109827
 30
0.0
  0
SPLINE
  5
12E
330
1F
100
AcDbEntity
  8
0
  6
Continuous
 62
     7
370
    25
100
AcDbSpline
210
0.0
220
0.0
230
1.0
 70
     8
 71
     3
 72
     8
 73
     4
 74
     0
 42
0.000000001
 43
0.00000001
 40
0.0
 40
0.0
 40
0.0
 40
0.0
 40
1.0
 40
1.0
 40
1.0
 40
1.0
 10
102.9589331613458
 20
90.52398497109826
 30
0.0
 10
102.9864945516711
 20
90.34582534338085
 30
0.0
 10
103.0133040355005
 20
90.16760132097451
 30
0.0
 10
103.0393179190751
 20
89.9893091618634
 30
0.0
  0
LINE
  5
12F
330
1F
100
AcDbEntity
  8
0
  6
Continuous
 62
     7
370
    25
100
AcDbLine
 10
103.1197026768
 20
76.0239849711
 30
0.0
 11
106.0998925884
 21
76.0239849711
 31
0.0
  0
SPLINE
  5
130
330
1F
100
AcDbEntity
  8
0
  6
Continuous
 62
     7
370
    25
100
AcDbSpline
210
0.0
220
0.0
230
1.0
 70
     8
 71
     3
 72
     8
 73
     4
 74
     0
 42
0.000000001
 43
0.00000001
 40
0.0
 40
0.0
 40
0.0
 40
0.0
 40
1.0
 40
1.0
 40
1.0
 40
1.0
 10
103.1197026768045
 20
76.02398497109826
 30
0.0
 10
103.0921412864791
 20
76.20214459881566
 30
0.0
 10
103.0653318026498
 20
76.38036862122199
 30
0.0
 10
103.0393179190751
 20
76.5586607803331
 30
0.0
  0
SPLINE
  5
131
330
1F
100
AcDbEntity
  8
0
  6
Continuous
 62
     7
370
    25
100
AcDbSpline
210
0.0
220
0.0
230
1.0
 70
     8
 71
     3
 72
     8
 73
     4
 74
     0
 42
0.000000001
 43
0.00000001
 40
0.0
 40
0.0
 40
0.0
 40
0.0
 40
1.0
 40
1.0
 40
1.0
 40
1.0
 10
103.0393179190751
 20
76.55866078033311
 30
0.0
 10
103.0132973414671
 20
76.38032274211818
 30
0.0
 10
102.9864875952264
 20
76.20209963164993
 30
0.0
 10
102.9589331613458
 20
76.02398497109826
 30
0.0
  0
LINE
  5
132
330
1F
100
AcDbEntity
  8
0
  6
Continuous
 62
     7
370
    25
100
AcDbLine
 10
99.9787432498
 20
76.0239849711
 30
0.0
 11
102.9589331613
 21
76.0239849711
 31
0.0
  0
LINE
  5
133
330
1F
100
AcDbEntity
  8
0
  6
Continuous
 62
     7
370
    25
100
AcDbLine
 10
115.5393179191
 20
90.5239849711
 30
0.0
 11
115.5393179191
 21
77.0239849711
 31
0.0
  0
LINE
  5
134
330
1F
100
AcDbEntity
  8
0
  6
Continuous
 62
     7
370
    25
100
AcDbLine
 10
115.5393179191
 20
104.0239849711
 30
0.0
 11
115.5393179191
 21
90.5239849711
 31
0.0
  0
LINE
  5
135
330
1F
100
AcDbEntity
  8
0
  6
Continuous
 62
     7
370
    25
100
AcDbLine
 10
139.5393179191
 20
90.5239849711
 30
0.0
 11
139.5393179191
 21
77.0239849711
 31
0.0
  0
LINE
  5
136
330
1F
100
AcDbEntity
  8
0
  6
Continuous
 62
     7
370
    25
100
AcDbLine
 10
139.5393179191
 20
104.0239849711
 30
0.0
 11
139.5393179191
 21
90.5239849711
 31
0.0
  0
LINE
  5
137
330
1F
100
AcDbEntity
  8
0
  6
Continuous
 62
     7
370
    25
100
AcDbLine
 10
121.5393179191
 20
90.5239849711
 30
0.0
 11
121.5393179191
 21
77.0239849711
 31
0.0
  0
LINE
  5
138
330
1F
100
AcDbEntity
  8
0
  6
Continuous
 62
     7
370
    25
100
AcDbLine
 10
121.5393179191
 20
104.0239849711
 30
0.0
 11
121.5393179191
 21
90.5239849711
 31
0.0
  0
LINE
  5
139
330
1F
100
AcDbEntity
  8
0
  6
Continuous
 62
     7
370
    25
100
AcDbLine
 10
127.5393179191
 20
90.5239849711
 30
0.0
 11
127.5393179191
 21
77.0239849711
 31
0.0
  0
LINE
  5
13A
330
1F
100
AcDbEntity
  8
0
  6
Continuous
 62
     7
370
    25
100
AcDbLine
 10
127.5393179191
 20
104.0239849711
 30
0.0
 11
127.5393179191
 21
90.5239849711
 31
0.0
  0
LINE
  5
13B
330
1F
100
AcDbEntity
  8
0
  6
Continuous
 62
     7
370
    25
100
AcDbLine
 10
133.5393179191
 20
90.5239849711
 30
0.0
 11
133.5393179191
 21
77.0239849711
 31
0.0
  0
LINE
  5
13C
330
1F
100
AcDbEntity
  8
0
  6
Continuous
 62
     7
370
    25
100
AcDbLine
 10
133.5393179191
 20
104.0239849711
 30
0.0
 11
133.5393179191
 21
90.5239849711
 31
0.0
  0
LINE
  5
13D
330
1F
100
AcDbEntity
  8
0
  6
Continuous
 62
     7
370
    25
100
AcDbLine
 10
84.2525144932
 20
90.5239849711
 30
0.0
 11
84.2525144932
 21
77.4575201987
 31
0.0
  0
LINE
  5
13E
330
1F
100
AcDbEntity
  8
0
  6
Continuous
 62
     7
370
    25
100
AcDbLine
 10
84.2525144932
 20
103.5904497435
 30
0.0
 11
84.2525144932
 21
90.5239849711
 31
0.0
  0
LINE
  5
13F
330
1F
100
AcDbEntity
  8
0
  6
Continuous
 62
     7
370
    25
100
AcDbLine
 10
81.5393179191
 20
79.0239849711
 30
0.0
 11
81.5393179191
 21
102.0239849711
 31
0.0
  0
LINE
  5
140
330
1F
100
AcDbEntity
  8
0
  6
Continuous
 62
     7
370
    25
100
AcDbLine
 10
147.5393179191
 20
102.5825938618
 30
0.0
 11
147.5393179191
 21
78.4653760804
 31
0.0
  0
LINE
  5
141
330
1F
100
AcDbEntity
  8
0
  6
Continuous
 62
     7
370
    25
100
AcDbLine
 10
103.0393179191
 20
104.4893091619
 30
0.0
 11
103.0393179191
 21
105.0239849711
 31
0.0
  0
SPLINE
  5
142
330
1F
100
AcDbEntity
  8
0
  6
Continuous
 62
     7
370
    25
100
AcDbSpline
210
0.0
220
0.0
230
1.0
 70
    24
 71
     3
 72
     8
 73
     4
 74
     0
 42
0.000000001
 43
0.00000001
 40
0.0
 40
0.0
 40
0.0
 40
0.0
 40
1.0
 40
1.0
 40
1.0
 40
1.0
 10
103.1197026768045
 20
105.0239849710983
 30
0.0
 10
103.092140265883
 20
105.0239849710983
 30
0.0
 10
103.0653308211264
 20
105.0239849710983
 30
0.0
 10
103.0393179190751
 20
105.0239849710983
 30
0.0
  0
SPLINE
  5
143
330
1F
100
AcDbEntity
  8
0
  6
Continuous
 62
     7
370
    25
100
AcDbSpline
210
0.0
220
0.0
230
1.0
 70
    24
 71
     3
 72
     8
 73
     4
 74
     0
 42
0.000000001
 43
0.00000001
 40
0.0
 40
0.0
 40
0.0
 40
0.0
 40
1.0
 40
1.0
 40
1.0
 40
1.0
 10
103.0393179190751
 20
105.0239849710983
 30
0.0
 10
103.0132976858647
 20
105.0239849710983
 30
0.0
 10
102.9864879529516
 20
105.0239849710983
 30
0.0
 10
102.9589331613458
 20
105.0239849710983
 30
0.0
  0
LINE
  5
144
330
1F
100
AcDbEntity
  8
0
  6
Continuous
 62
     7
370
    25
100
AcDbLine
 10
103.0393179191
 20
76.0239849711
 30
0.0
 11
103.0393179191
 21
76.5586607803
 31
0.0
  0
SPLINE
  5
145
330
1F
100
AcDbEntity
  8
0
  6
Continuous
 62
     7
370
    25
100
AcDbSpline
210
0.0
220
0.0
230
1.0
 70
    24
 71
     3
 72
     8
 73
     4
 74
     0
 42
0.000000001
 43
0.00000001
 40
0.0
 40
0.0
 40
0.0
 40
0.0
 40
1.0
 40
1.0
 40
1.0
 40
1.0
 10
103.0393179190751
 20
76.02398497109826
 30
0.0
 10
103.0653381522856
 20
76.02398497109826
 30
0.0
 10
103.0921478851987
 20
76.02398497109826
 30
0.0
 10
103.1197026768045
 20
76.02398497109826
 30
0.0
  0
SPLINE
  5
146
330
1F
100
AcDbEntity
  8
0
  6
Continuous
 62
     7
370
    25
100
AcDbSpline
210
0.0
220
0.0
230
1.0
 70
    24
 71
     3
 72
     8
 73
     4
 74
     0
 42
0.000000001
 43
0.00000001
 40
0.0
 40
0.0
 40
0.0
 40
0.0
 40
1.0
 40
1.0
 40
1.0
 40
1.0
 10
102.9589331613458
 20
76.02398497109826
 30
0.0
 10
102.9864955722673
 20
76.02398497109826
 30
0.0
 10
103.0133050170238
 20
76.02398497109826
 30
0.0
 10
103.0393179190751
 20
76.02398497109826
 30
0.0
  0
LINE
  5
147
330
1F
100
AcDbEntity
  8
0
  6
Continuous
 62
     8
370
    25
100
AcDbLine
 10
147.1013352864
 20
90.5239849711
 30
0.0
 11
147.1013352864
 21
103.0787328002
 31
0.0
  0
LINE
  5
148
330
1F
100
AcDbEntity
  8
0
  6
Continuous
 62
     8
370
    25
100
AcDbLine
 10
147.1013352864
 20
77.969237142
 30
0.0
 11
147.1013352864
 21
90.5239849711
 31
0.0
  0
LINE
  5
149
330
1F
100
AcDbEntity
  8
0
  6
Continuous
 62
     7
370
    18
100
AcDbLine
 10
82.6950916741
 20
102.6912712597
 30
0.0
 11
98.0393179191
 21
103.0379955576
 31
0.0
  0
LINE
  5
14A
330
1F
100
AcDbEntity
  8
0
  6
Continuous
 62
     7
370
    18
100
AcDbLine
 10
82.6950916741
 20
78.3566986825
 30
0.0
 11
98.0393179191
 21
78.0099743846
 31
0.0
  0
LINE
  5
14B
330
1F
100
AcDbEntity
  8
0
  6
Continuous
 62
     7
370
    18
100
AcDbLine
 10
98.0393179191
 20
77.1459880522
 30
0.0
 11
98.0393179191
 21
103.90198189
 31
0.0
  0
LINE
  5
14C
330
1F
100
AcDbEntity
  8
0
  6
CENTERX2
 62
     7
370
    18
100
AcDbLine
 10
148.5393179191
 20
90.5239849711
 30
0.0
 11
80.1101317919
 21
90.5239849711
 31
0.0
  0
ENDSEC
  0
SECTION
  2
OBJECTS
  0
DICTIONARY
  5
C
330
0
100
AcDbDictionary
281
     1
  3
ACAD_GROUP
350
D
  3
ACAD_LAYOUT
350
1A
  3
ACAD_MLINESTYLE
350
17
  3
ACAD_PLOTSETTINGS
350
19
  3
ACAD_PLOTSTYLENAME
350
E
  3
ACAD_SCALELIST
350
47
  0
DICTIONARY
  5
D
102
{ACAD_REACTORS
330
C
102
}
330
C
100
AcDbDictionary
281
     1
  0
DICTIONARY
  5
1A
102
{ACAD_REACTORS
330
C
102
}
330
C
100
AcDbDictionary
281
     1
  3
Layout1
350
1E
  3
Layout2
350
26
  3
Model
350
22
  0
DICTIONARY
  5
17
102
{ACAD_REACTORS
330
C
102
}
330
C
100
AcDbDictionary
281
     1
  3
Standard
350
18
  0
DICTIONARY
  5
19
102
{ACAD_REACTORS
330
C
102
}
330
C
100
AcDbDictionary
281
     1
  0
ACDBDICTIONARYWDFLT
  5
E
102
{ACAD_REACTORS
330
C
102
}
330
C
100
AcDbDictionary
281
     1
  3
Normal
350
F
100
AcDbDictionaryWithDefault
340
F
  0
DICTIONARY
  5
47
102
{ACAD_REACTORS
330
C
102
}
330
C
100
AcDbDictionary
281
     1
  3
A0
350
48
  3
A1
350
49
  3
A2
350
4A
  3
A3
350
4B
  3
A4
350
4C
  3
A5
350
4D
  3
A6
350
4E
  3
A7
350
4F
  3
A8
350
50
  3
A9
350
51
  3
B0
350
52
  3
B1
350
53
  3
B2
350
54
  3
B3
350
55
  3
B4
350
56
  3
B5
350
57
  3
B6
350
58
  3
B7
350
59
  3
B8
350
5A
  3
B9
350
5B
  3
C0
350
5C
  3
C1
350
5D
  3
C2
350
5E
  3
C3
350
5F
  3
C4
350
60
  3
C5
350
61
  3
C6
350
62
  3
C7
350
63
  3
C8
350
64
  3
C9
350
65
  3
D0
350
66
  3
D1
350
67
  3
D2
350
68
  0
LAYOUT
  5
1E
102
{ACAD_REACTORS
330
1A
102
}
330
1A
100
AcDbPlotSettings
  1

  2
none_device
  4

  6

 40
0.0
 41
0.0
 42
0.0
 43
0.0
 44
0.0
 45
0.0
 46
0.0
 47
0.0
 48
0.0
 49
0.0
140
0.0
141
0.0
142
1.0
143
1.0
 70
   688
 72
     1
 73
     0
 74
     5
  7

 75
    16
147
1.0
148
0.0
149
0.0
100
AcDbLayout
  1
Layout1
 70
     1
 71
     1
 10
0.0
 20
0.0
 11
420.0
 21
297.0
 12
0.0
 22
0.0
 32
0.0
 14
1.0000000000E+20
 24
1.0000000000E+20
 34
1.0000000000E+20
 15
-1.0000000000E+20
 25
-1.0000000000E+20
 35
-1.0000000000E+20
146
0.0
 13
0.0
 23
0.0
 33
0.0
 16
1.0
 26
0.0
 36
0.0
 17
0.0
 27
1.0
 37
0.0
 76
     0
330
1B
  0
LAYOUT
  5
26
102
{ACAD_REACTORS
330
1A
102
}
330
1A
100
AcDbPlotSettings
  1

  2
none_device
  4

  6

 40
0.0
 41
0.0
 42
0.0
 43
0.0
 44
0.0
 45
0.0
 46
0.0
 47
0.0
 48
0.0
 49
0.0
140
0.0
141
0.0
142
1.0
143
1.0
 70
   688
 72
     1
 73
     0
 74
     5
  7

 75
    16
147
1.0
148
0.0
149
0.0
100
AcDbLayout
  1
Layout2
 70
     1
 71
     2
 10
0.0
 20
0.0
 11
0.0
 21
0.0
 12
0.0
 22
0.0
 32
0.0
 14
0.0
 24
0.0
 34
0.0
 15
0.0
 25
0.0
 35
0.0
146
0.0
 13
0.0
 23
0.0
 33
0.0
 16
1.0
 26
0.0
 36
0.0
 17
0.0
 27
1.0
 37
0.0
 76
     0
330
23
  0
LAYOUT
  5
22
102
{ACAD_REACTORS
330
1A
102
}
330
1A
100
AcDbPlotSettings
  1

  2
none_device
  4
Letter_(8.50_x_11.00_Inches)
  6

 40
6.35
 41
6.35
 42
6.35000508
 43
6.35000508
 44
215.9
 45
279.4
 46
0.0
 47
0.0
 48
0.0
 49
0.0
140
0.0
141
0.0
142
1.0
143
1.0
 70
  1712
 72
     1
 73
     0
 74
     0
  7

 75
     0
147
1.0
148
0.0
149
0.0
100
AcDbLayout
  1
Model
 70
     1
 71
     0
 10
0.0
 20
0.0
 11
215.9
 21
139.7
 12
0.0
 22
0.0
 32
0.0
 14
0.0
 24
0.0
 34
0.0
 15
215.9
 25
139.7
 35
0.0
146
0.0
 13
0.0
 23
0.0
 33
0.0
 16
1.0
 26
0.0
 36
0.0
 17
0.0
 27
1.0
 37
0.0
 76
     0
330
1F
331
29
  0
MLINESTYLE
  5
18
102
{ACAD_REACTORS
330
17
102
}
330
17
100
AcDbMlineStyle
  2
Standard
 70
     0
  3

 62
   256
 51
90.0
 52
90.0
 71
     2
 49
0.5
 62
   256
  6
BYLAYER
 49
-0.5
 62
   256
  6
BYLAYER
  0
ACDBPLACEHOLDER
  5
F
102
{ACAD_REACTORS
330
E
102
}
330
E
  0
SCALE
  5
48
102
{ACAD_REACTORS
330
47
102
}
330
47
100
AcDbScale
 70
     0
300
1:1
140
1.0
141
1.0
290
     1
  0
SCALE
  5
49
102
{ACAD_REACTORS
330
47
102
}
330
47
100
AcDbScale
 70
     0
300
1:2
140
1.0
141
2.0
290
     0
  0
SCALE
  5
4A
102
{ACAD_REACTORS
330
47
102
}
330
47
100
AcDbScale
 70
     0
300
1:4
140
1.0
141
4.0
290
     0
  0
SCALE
  5
4B
102
{ACAD_REACTORS
330
47
102
}
330
47
100
AcDbScale
 70
     0
300
1:5
140
1.0
141
5.0
290
     0
  0
SCALE
  5
4C
102
{ACAD_REACTORS
330
47
102
}
330
47
100
AcDbScale
 70
     0
300
1:8
140
1.0
141
8.0
290
     0
  0
SCALE
  5
4D
102
{ACAD_REACTORS
330
47
102
}
330
47
100
AcDbScale
 70
     0
300
1:10
140
1.0
141
10.0
290
     0
  0
SCALE
  5
4E
102
{ACAD_REACTORS
330
47
102
}
330
47
100
AcDbScale
 70
     0
300
1:16
140
1.0
141
16.0
290
     0
  0
SCALE
  5
4F
102
{ACAD_REACTORS
330
47
102
}
330
47
100
AcDbScale
 70
     0
300
1:20
140
1.0
141
20.0
290
     0
  0
SCALE
  5
50
102
{ACAD_REACTORS
330
47
102
}
330
47
100
AcDbScale
 70
     0
300
1:30
140
1.0
141
30.0
290
     0
  0
SCALE
  5
51
102
{ACAD_REACTORS
330
47
102
}
330
47
100
AcDbScale
 70
     0
300
1:40
140
1.0
141
40.0
290
     0
  0
SCALE
  5
52
102
{ACAD_REACTORS
330
47
102
}
330
47
100
AcDbScale
 70
     0
300
1:50
140
1.0
141
50.0
290
     0
  0
SCALE
  5
53
102
{ACAD_REACTORS
330
47
102
}
330
47
100
AcDbScale
 70
     0
300
1:100
140
1.0
141
100.0
290
     0
  0
SCALE
  5
54
102
{ACAD_REACTORS
330
47
102
}
330
47
100
AcDbScale
 70
     0
300
2:1
140
2.0
141
1.0
290
     0
  0
SCALE
  5
55
102
{ACAD_REACTORS
330
47
102
}
330
47
100
AcDbScale
 70
     0
300
4:1
140
4.0
141
1.0
290
     0
  0
SCALE
  5
56
102
{ACAD_REACTORS
330
47
102
}
330
47
100
AcDbScale
 70
     0
300
8:1
140
8.0
141
1.0
290
     0
  0
SCALE
  5
57
102
{ACAD_REACTORS
330
47
102
}
330
47
100
AcDbScale
 70
     0
300
10:1
140
10.0
141
1.0
290
     0
  0
SCALE
  5
58
102
{ACAD_REACTORS
330
47
102
}
330
47
100
AcDbScale
 70
     0
300
100:1
140
100.0
141
1.0
290
     0
  0
SCALE
  5
59
102
{ACAD_REACTORS
330
47
102
}
330
47
100
AcDbScale
 70
     0
300
1/128" = 1'-0"
140
0.0078125
141
12.0
290
     0
  0
SCALE
  5
5A
102
{ACAD_REACTORS
330
47
102
}
330
47
100
AcDbScale
 70
     0
300
1/64" = 1'-0"
140
0.015625
141
12.0
290
     0
  0
SCALE
  5
5B
102
{ACAD_REACTORS
330
47
102
}
330
47
100
AcDbScale
 70
     0
300
1/32" = 1'-0"
140
0.03125
141
12.0
290
     0
  0
SCALE
  5
5C
102
{ACAD_REACTORS
330
47
102
}
330
47
100
AcDbScale
 70
     0
300
1/16" = 1'-0"
140
0.0625
141
12.0
290
     0
  0
SCALE
  5
5D
102
{ACAD_REACTORS
330
47
102
}
330
47
100
AcDbScale
 70
     0
300
3/32" = 1'-0"
140
0.09375
141
12.0
290
     0
  0
SCALE
  5
5E
102
{ACAD_REACTORS
330
47
102
}
330
47
100
AcDbScale
 70
     0
300
1/8" = 1'-0"
140
0.125
141
12.0
290
     0
  0
SCALE
  5
5F
102
{ACAD_REACTORS
330
47
102
}
330
47
100
AcDbScale
 70
     0
300
3/16" = 1'-0"
140
0.1875
141
12.0
290
     0
  0
SCALE
  5
60
102
{ACAD_REACTORS
330
47
102
}
330
47
100
AcDbScale
 70
     0
300
1/4" = 1'-0"
140
0.25
141
12.0
290
     0
  0
SCALE
  5
61
102
{ACAD_REACTORS
330
47
102
}
330
47
100
AcDbScale
 70
     0
300
3/8" = 1'-0"
140
0.375
141
12.0
290
     0
  0
SCALE
  5
62
102
{ACAD_REACTORS
330
47
102
}
330
47
100
AcDbScale
 70
     0
300
1/2" = 1'-0"
140
0.5
141
12.0
290
     0
  0
SCALE
  5
63
102
{ACAD_REACTORS
330
47
102
}
330
47
100
AcDbScale
 70
     0
300
3/4" = 1'-0"
140
0.75
141
12.0
290
     0
  0
SCALE
  5
64
102
{ACAD_REACTORS
330
47
102
}
330
47
100
AcDbScale
 70
     0
300
1" = 1'-0"
140
1.0
141
12.0
290
     0
  0
SCALE
  5
65
102
{ACAD_REACTORS
330
47
102
}
330
47
100
AcDbScale
 70
     0
300
1-1/2" = 1'-0"
140
1.5
141
12.0
290
     0
  0
SCALE
  5
66
102
{ACAD_REACTORS
330
47
102
}
330
47
100
AcDbScale
 70
     0
300
3" = 1'-0"
140
3.0
141
12.0
290
     0
  0
SCALE
  5
67
102
{ACAD_REACTORS
330
47
102
}
330
47
100
AcDbScale
 70
     0
300
6" = 1'-0"
140
6.0
141
12.0
290
     0
  0
SCALE
  5
68
102
{ACAD_REACTORS
330
47
102
}
330
47
100
AcDbScale
 70
     0
300
1'-0" = 1'-0"
140
12.0
141
12.0
290
     0
  0
ENDSEC
  0
EOF
