  0
SECTION
  2
HEADER
  9
$ACADVER
  1
AC1015
  9
$ACADMAINTVER
 70
     6
  9
$DWGCODEPAGE
  3
DOS932
  9
$INSBASE
 10
0.0
 20
0.0
 30
0.0
  9
$EXTMIN
 10
0.0
 20
0.0
 30
0.0
  9
$EXTMAX
 10
215.9
 20
139.7
 30
0.0
  9
$LIMMIN
 10
0.0
 20
0.0
  9
$LIMMAX
 10
215.9
 20
139.7
  9
$ORTHOMODE
 70
     0
  9
$REGENMODE
 70
     1
  9
$FILLMODE
 70
     1
  9
$QTEXTMODE
 70
     0
  9
$MIRRTEXT
 70
     1
  9
$LTSCALE
 40
0.5
  9
$ATTMODE
 70
     1
  9
$TEXTSIZE
 40
1.75
  9
$TRACEWID
 40
1.0
  9
$TEXTSTYLE
  7
Standard
  9
$CLAYER
  8
0
  9
$CELTYPE
  6
ByLayer
  9
$CECOLOR
 62
   256
  9
$CELTSCALE
 40
1.0
  9
$DISPSILH
 70
     0
  9
$DIMSCALE
 40
1.0
  9
$DIMASZ
 40
1.651
  9
$DIMEXO
 40
0.5
  9
$DIMDLI
 40
3.75
  9
$DIMRND
 40
0.0
  9
$DIMDLE
 40
0.0
  9
$DIMEXE
 40
0.5
  9
$DIMTP
 40
0.0
  9
$DIMTM
 40
0.0
  9
$DIMTXT
 40
1.75
  9
$DIMCEN
 40
2.5
  9
$DIMTSZ
 40
0.0
  9
$DIMTOL
 70
     0
  9
$DIMLIM
 70
     0
  9
$DIMTIH
 70
     1
  9
$DIMTOH
 70
     1
  9
$DIMSE1
 70
     0
  9
$DIMSE2
 70
     0
  9
$DIMTAD
 70
     1
  9
$DIMZIN
 70
     1
  9
$DIMBLK
  1

  9
$DIMASO
 70
     1
  9
$DIMSHO
 70
     1
  9
$DIMPOST
  1

  9
$DIMAPOST
  1

  9
$DIMALT
 70
     0
  9
$DIMALTD
 70
     3
  9
$DIMALTF
 40
0.0393700787
  9
$DIMLFAC
 40
1.0
  9
$DIMTOFL
 70
     1
  9
$DIMTVP
 40
0.0
  9
$DIMTIX
 70
     0
  9
$DIMSOXD
 70
     0
  9
$DIMSAH
 70
     0
  9
$DIMBLK1
  1

  9
$DIMBLK2
  1

  9
$DIMSTYLE
  2
ISO-25
  9
$DIMCLRD
 70
     0
  9
$DIMCLRE
 70
     0
  9
$DIMCLRT
 70
     0
  9
$DIMTFAC
 40
1.0
  9
$DIMGAP
 40
0.762
  9
$DIMJUST
 70
     0
  9
$DIMSD1
 70
     0
  9
$DIMSD2
 70
     0
  9
$DIMTOLJ
 70
     0
  9
$DIMTZIN
 70
     1
  9
$DIMALTZ
 70
     0
  9
$DIMALTTZ
 70
     0
  9
$DIMUPT
 70
     0
  9
$DIMDEC
 70
     2
  9
$DIMTDEC
 70
     2
  9
$DIMALTU
 70
     2
  9
$DIMALTTD
 70
     3
  9
$DIMTXSTY
  7
Standard
  9
$DIMAUNIT
 70
     0
  9
$DIMADEC
 70
     2
  9
$DIMALTRND
 40
0.0
  9
$DIMAZIN
 70
     0
  9
$DIMDSEP
 70
    44
  9
$DIMATFIT
 70
     3
  9
$DIMFRAC
 70
     0
  9
$DIMLDRBLK
  1

  9
$DIMLUNIT
 70
     2
  9
$DIMLWD
 70
    -2
  9
$DIMLWE
 70
    -2
  9
$DIMTMOVE
 70
     0
  9
$LUNITS
 70
     2
  9
$LUPREC
 70
     2
  9
$SKETCHINC
 40
1.0
  9
$FILLETRAD
 40
10.0
  9
$AUNITS
 70
     0
  9
$AUPREC
 70
     2
  9
$MENU
  1
.
  9
$ELEVATION
 40
0.0
  9
$PELEVATION
 40
0.0
  9
$THICKNESS
 40
0.0
  9
$LIMCHECK
 70
     0
  9
$CHAMFERA
 40
0.0
  9
$CHAMFERB
 40
0.0
  9
$CHAMFERC
 40
0.0
  9
$CHAMFERD
 40
0.0
  9
$SKPOLY
 70
     0
  9
$TDCREATE
 40
2460082.706402651
  9
$TDUCREATE
 40
2460082.331402651
  9
$TDUPDATE
 40
2460082.706403241
  9
$TDUUPDATE
 40
2460082.331403241
  9
$TDINDWG
 40
0.0000000116
  9
$TDUSRTIMER
 40
0.0000000116
  9
$USRTIMER
 70
     1
  9
$ANGBASE
 50
0.0
  9
$ANGDIR
 70
     0
  9
$PDMODE
 70
     0
  9
$PDSIZE
 40
-1.0
  9
$PLINEWID
 40
0.0
  9
$SPLFRAME
 70
     0
  9
$SPLINETYPE
 70
     6
  9
$SPLINESEGS
 70
     8
  9
$HANDSEED
  5
146
  9
$SURFTAB1
 70
     6
  9
$SURFTAB2
 70
     6
  9
$SURFTYPE
 70
     6
  9
$SURFU
 70
     6
  9
$SURFV
 70
     6
  9
$UCSBASE
  2

  9
$UCSNAME
  2

  9
$UCSORG
 10
0.0
 20
0.0
 30
0.0
  9
$UCSXDIR
 10
1.0
 20
0.0
 30
0.0
  9
$UCSYDIR
 10
0.0
 20
1.0
 30
0.0
  9
$UCSORTHOREF
  2

  9
$UCSORTHOVIEW
 70
     0
  9
$UCSORGTOP
 10
0.0
 20
0.0
 30
0.0
  9
$UCSORGBOTTOM
 10
0.0
 20
0.0
 30
0.0
  9
$UCSORGLEFT
 10
0.0
 20
0.0
 30
0.0
  9
$UCSORGRIGHT
 10
0.0
 20
0.0
 30
0.0
  9
$UCSORGFRONT
 10
0.0
 20
0.0
 30
0.0
  9
$UCSORGBACK
 10
0.0
 20
0.0
 30
0.0
  9
$PUCSBASE
  2

  9
$PUCSNAME
  2

  9
$PUCSORG
 10
0.0
 20
0.0
 30
0.0
  9
$PUCSXDIR
 10
1.0
 20
0.0
 30
0.0
  9
$PUCSYDIR
 10
0.0
 20
1.0
 30
0.0
  9
$PUCSORTHOREF
  2

  9
$PUCSORTHOVIEW
 70
     0
  9
$PUCSORGTOP
 10
0.0
 20
0.0
 30
0.0
  9
$PUCSORGBOTTOM
 10
0.0
 20
0.0
 30
0.0
  9
$PUCSORGLEFT
 10
0.0
 20
0.0
 30
0.0
  9
$PUCSORGRIGHT
 10
0.0
 20
0.0
 30
0.0
  9
$PUCSORGFRONT
 10
0.0
 20
0.0
 30
0.0
  9
$PUCSORGBACK
 10
0.0
 20
0.0
 30
0.0
  9
$USERI1
 70
     0
  9
$USERI2
 70
     0
  9
$USERI3
 70
     0
  9
$USERI4
 70
     0
  9
$USERI5
 70
     0
  9
$USERR1
 40
0.0
  9
$USERR2
 40
0.0
  9
$USERR3
 40
0.0
  9
$USERR4
 40
0.0
  9
$USERR5
 40
0.0
  9
$WORLDVIEW
 70
     1
  9
$SHADEDGE
 70
     3
  9
$SHADEDIF
 70
    70
  9
$TILEMODE
 70
     1
  9
$MAXACTVP
 70
    64
  9
$PINSBASE
 10
0.0
 20
0.0
 30
0.0
  9
$PLIMCHECK
 70
     0
  9
$PEXTMIN
 10
1.0000000000E+20
 20
1.0000000000E+20
 30
1.0000000000E+20
  9
$PEXTMAX
 10
-1.0000000000E+20
 20
-1.0000000000E+20
 30
-1.0000000000E+20
  9
$PLIMMIN
 10
0.0
 20
0.0
  9
$PLIMMAX
 10
420.0
 20
297.0
  9
$UNITMODE
 70
     0
  9
$VISRETAIN
 70
     1
  9
$PLINEGEN
 70
     0
  9
$PSLTSCALE
 70
     1
  9
$TREEDEPTH
 70
  3020
  9
$CMLSTYLE
  2
Standard
  9
$CMLJUST
 70
     0
  9
$CMLSCALE
 40
20.0
  9
$PROXYGRAPHICS
 70
     1
  9
$MEASUREMENT
 70
     1
  9
$CELWEIGHT
370
    -1
  9
$ENDCAPS
280
     0
  9
$JOINSTYLE
280
     0
  9
$LWDISPLAY
290
     1
  9
$INSUNITS
 70
     4
  9
$HYPERLINKBASE
  1

  9
$STYLESHEET
  1

  9
$XEDIT
290
     1
  9
$CEPSNTYPE
380
     0
  9
$PSTYLEMODE
290
     1
  9
$FINGERPRINTGUID
  2
{AD2C3F96-17C5-425E-B815-CA953F7EE638}
  9
$VERSIONGUID
  2
{FAEB1C32-E019-11D5-929B-00C0DF256EC4}
  9
$EXTNAMES
290
     1
  9
$PSVPSCALE
 40
0.0
  9
$OLESTARTUP
290
     0
  0
ENDSEC
  0
SECTION
  2
CLASSES
  0
CLASS
  1
ACDBDICTIONARYWDFLT
  2
AcDbDictionaryWithDefault
  3
ObjectDBX Classes
 90
        0
280
     0
281
     0
  0
CLASS
  1
VISUALSTYLE
  2
AcDbVisualStyle
  3
ObjectDBX Classes
 90
     4095
280
     0
281
     0
  0
CLASS
  1
MATERIAL
  2
AcDbMaterial
  3
ObjectDBX Classes
 90
     1153
280
     0
281
     0
  0
CLASS
  1
SCALE
  2
AcDbScale
  3
ObjectDBX Classes
 90
     1153
280
     0
281
     0
  0
CLASS
  1
TABLESTYLE
  2
AcDbTableStyle
  3
ObjectDBX Classes
 90
     4095
280
     0
281
     0
  0
CLASS
  1
MLEADERSTYLE
  2
AcDbMLeaderStyle
  3
ACDB_MLEADERSTYLE_CLASS
 90
     4095
280
     0
281
     0
  0
CLASS
  1
SUN
  2
AcDbSun
  3
SCENEOE
 90
     1153
280
     0
281
     0
  0
CLASS
  1
ACDBPLACEHOLDER
  2
AcDbPlaceHolder
  3
ObjectDBX Classes
 90
        0
280
     0
281
     0
  0
CLASS
  1
LAYOUT
  2
AcDbLayout
  3
ObjectDBX Classes
 90
        0
280
     0
281
     0
  0
ENDSEC
  0
SECTION
  2
TABLES
  0
TABLE
  2
VPORT
  5
8
330
0
100
AcDbSymbolTable
 70
     1
  0
VPORT
  5
29
330
8
100
AcDbSymbolTableRecord
100
AcDbViewportTableRecord
  2
*Active
 70
     0
 10
0.0
 20
0.0
 11
1.0
 21
1.0
 12
107.95
 22
69.85
 13
0.0
 23
0.0
 14
10.0
 24
10.0
 15
10.0
 25
10.0
 16
0.0
 26
0.0
 36
1.0
 17
0.0
 27
0.0
 37
0.0
 40
139.7
 41
1.5454545455
 42
50.0
 43
0.0
 44
0.0
 50
0.0
 51
0.0
 71
     0
 72
  2000
 73
     1
 74
     3
 75
     0
 76
     0
 77
     0
 78
     0
281
     0
 65
     1
110
0.0
120
0.0
130
0.0
111
1.0
121
0.0
131
0.0
112
0.0
122
1.0
132
0.0
 79
     0
146
0.0
  0
ENDTAB
  0
TABLE
  2
LTYPE
  5
5
330
0
100
AcDbSymbolTable
 70
     6
  0
LTYPE
  5
14
330
5
100
AcDbSymbolTableRecord
100
AcDbLinetypeTableRecord
  2
ByBlock
 70
     0
  3

 72
    65
 73
     0
 40
0.0
  0
LTYPE
  5
15
330
5
100
AcDbSymbolTableRecord
100
AcDbLinetypeTableRecord
  2
ByLayer
 70
     0
  3

 72
    65
 73
     0
 40
0.0
  0
LTYPE
  5
16
330
5
100
AcDbSymbolTableRecord
100
AcDbLinetypeTableRecord
  2
Continuous
 70
     0
  3
Solid line
 72
    65
 73
     0
 40
0.0
  0
LTYPE
  5
6E
330
5
100
AcDbSymbolTableRecord
100
AcDbLinetypeTableRecord
  2
HIDDEN
 70
     0
  3
Hidden __ __ __ __ __ __ __ __ __ __ __ __ __ __
 72
    65
 73
     2
 40
1.905
 49
1.27
 74
     0
 49
-0.635
 74
     0
  0
LTYPE
  5
6F
330
5
100
AcDbSymbolTableRecord
100
AcDbLinetypeTableRecord
  2
PHANTOM
 70
     0
  3
Phantom ______  __  __  ______  __  __  ______
 72
    65
 73
     6
 40
12.7
 49
6.35
 74
     0
 49
-1.27
 74
     0
 49
1.27
 74
     0
 49
-1.27
 74
     0
 49
1.27
 74
     0
 49
-1.27
 74
     0
  0
LTYPE
  5
70
330
5
100
AcDbSymbolTableRecord
100
AcDbLinetypeTableRecord
  2
CENTER
 70
     0
  3
Center ____ _ ____ _ ____ _ ____ _ ____ _ ____
 72
    65
 73
     4
 40
10.16
 49
6.35
 74
     0
 49
-1.27
 74
     0
 49
1.27
 74
     0
 49
-1.27
 74
     0
  0
LTYPE
  5
71
330
5
100
AcDbSymbolTableRecord
100
AcDbLinetypeTableRecord
  2
CENTERX2
 70
     0
  3
Center (2x) ________  __  ________  __  _____
 72
    65
 73
     4
 40
20.32
 49
12.7
 74
     0
 49
-2.54
 74
     0
 49
2.54
 74
     0
 49
-2.54
 74
     0
  0
LTYPE
  5
72
330
5
100
AcDbSymbolTableRecord
100
AcDbLinetypeTableRecord
  2
DOT2
 70
     0
  3
Dot (.5x) ........................................
 72
    65
 73
     2
 40
0.635
 49
0.0
 74
     0
 49
-0.635
 74
     0
  0
ENDTAB
  0
TABLE
  2
LAYER
  5
2
330
0
100
AcDbSymbolTable
 70
     1
  0
LAYER
  5
10
330
2
100
AcDbSymbolTableRecord
100
AcDbLayerTableRecord
  2
0
 70
     0
 62
     7
  6
Continuous
370
    -3
390
F
  0
ENDTAB
  0
TABLE
  2
STYLE
  5
3
330
0
100
AcDbSymbolTable
 70
     2
  0
STYLE
  5
11
330
3
100
AcDbSymbolTableRecord
100
AcDbTextStyleTableRecord
  2
Standard
 70
     0
 40
0.0
 41
1.0
 50
0.0
 71
     0
 42
1.75
  3
txt
  4
bigfont
  0
STYLE
  5
73
330
3
100
AcDbSymbolTableRecord
100
AcDbTextStyleTableRecord
  2
SLDTEXTSTYLE0
 70
     0
 40
0.0
 41
0.7
 50
0.0
 71
     0
 42
1.75
  3
TXT
  4
bigfont
  0
ENDTAB
  0
TABLE
  2
VIEW
  5
6
330
0
100
AcDbSymbolTable
 70
     0
  0
ENDTAB
  0
TABLE
  2
UCS
  5
7
330
0
100
AcDbSymbolTable
 70
     0
  0
ENDTAB
  0
TABLE
  2
APPID
  5
9
330
0
100
AcDbSymbolTable
 70
     1
  0
APPID
  5
12
330
9
100
AcDbSymbolTableRecord
100
AcDbRegAppTableRecord
  2
ACAD
 70
     0
  0
ENDTAB
  0
TABLE
  2
DIMSTYLE
  5
A
330
0
100
AcDbSymbolTable
 70
     1
100
AcDbDimStyleTable
  0
DIMSTYLE
105
27
330
A
100
AcDbSymbolTableRecord
100
AcDbDimStyleTableRecord
  2
ISO-25
 70
     0
 41
2.5
 42
0.625
 43
3.75
 44
1.25
 73
     0
 74
     0
 77
     1
 78
     8
140
2.5
141
2.5
143
0.0393700787
147
0.625
171
     3
172
     1
178
     0
271
     2
272
     2
274
     3
278
    44
283
     0
284
     8
340
11
  0
ENDTAB
  0
TABLE
  2
BLOCK_RECORD
  5
1
330
0
100
AcDbSymbolTable
 70
     3
  0
BLOCK_RECORD
  5
1F
330
1
100
AcDbSymbolTableRecord
100
AcDbBlockTableRecord
  2
*Model_Space
340
22
  0
BLOCK_RECORD
  5
1B
330
1
100
AcDbSymbolTableRecord
100
AcDbBlockTableRecord
  2
*Paper_Space
340
1E
  0
BLOCK_RECORD
  5
23
330
1
100
AcDbSymbolTableRecord
100
AcDbBlockTableRecord
  2
*Paper_Space0
340
26
  0
BLOCK_RECORD
  5
E9
330
1
100
AcDbSymbolTableRecord
100
AcDbBlockTableRecord
  2
SW_CENTERMARKSYMBOL_0
340
0
102
{BLKREFS
331
F4
102
}
  0
BLOCK_RECORD
  5
F5
330
1
100
AcDbSymbolTableRecord
100
AcDbBlockTableRecord
  2
SW_CENTERMARKSYMBOL_1
340
0
102
{BLKREFS
331
100
102
}
  0
ENDTAB
  0
ENDSEC
  0
SECTION
  2
BLOCKS
  0
BLOCK
  5
20
330
1F
100
AcDbEntity
  8
0
100
AcDbBlockBegin
  2
*Model_Space
 70
     0
 10
0.0
 20
0.0
 30
0.0
  3
*Model_Space
  1

  0
ENDBLK
  5
21
330
1F
100
AcDbEntity
  8
0
100
AcDbBlockEnd
  0
BLOCK
  5
1C
330
1B
100
AcDbEntity
 67
     1
  8
0
100
AcDbBlockBegin
  2
*Paper_Space
 70
     0
 10
0.0
 20
0.0
 30
0.0
  3
*Paper_Space
  1

  0
ENDBLK
  5
1D
330
1B
100
AcDbEntity
 67
     1
  8
0
100
AcDbBlockEnd
  0
BLOCK
  5
24
330
23
100
AcDbEntity
  8
0
100
AcDbBlockBegin
  2
*Paper_Space0
 70
     0
 10
0.0
 20
0.0
 30
0.0
  3
*Paper_Space0
  1

  0
ENDBLK
  5
25
330
23
100
AcDbEntity
  8
0
100
AcDbBlockEnd
  0
BLOCK
  5
EA
330
E9
100
AcDbEntity
  8
0
100
AcDbBlockBegin
  2
SW_CENTERMARKSYMBOL_0
 70
     0
 10
0.0
 20
0.0
 30
0.0
  3
SW_CENTERMARKSYMBOL_0
  1

  0
LINE
  5
EC
330
E9
100
AcDbEntity
  8
0
  6
Continuous
 62
     0
370
    18
100
AcDbLine
 10
0.0
 20
0.0
 30
0.0
 11
0.0
 21
2.5
 31
0.0
  0
LINE
  5
ED
330
E9
100
AcDbEntity
  8
0
  6
Continuous
 62
     0
370
    18
100
AcDbLine
 10
0.0
 20
0.0
 30
0.0
 11
-2.5
 21
0.0
 31
0.0
  0
LINE
  5
EE
330
E9
100
AcDbEntity
  8
0
  6
Continuous
 62
     0
370
    18
100
AcDbLine
 10
0.0
 20
0.0
 30
0.0
 11
0.0
 21
-2.5
 31
0.0
  0
LINE
  5
EF
330
E9
100
AcDbEntity
  8
0
  6
Continuous
 62
     0
370
    18
100
AcDbLine
 10
0.0
 20
0.0
 30
0.0
 11
2.5
 21
0.0
 31
0.0
  0
LINE
  5
F0
330
E9
100
AcDbEntity
  8
0
  6
Continuous
 62
     0
370
    18
100
AcDbLine
 10
0.0
 20
5.0
 30
0.0
 11
0.0
 21
11.5
 31
0.0
  0
LINE
  5
F1
330
E9
100
AcDbEntity
  8
0
  6
Continuous
 62
     0
370
    18
100
AcDbLine
 10
-5.0
 20
0.0
 30
0.0
 11
-11.5
 21
0.0
 31
0.0
  0
LINE
  5
F2
330
E9
100
AcDbEntity
  8
0
  6
Continuous
 62
     0
370
    18
100
AcDbLine
 10
0.0
 20
-5.0
 30
0.0
 11
0.0
 21
-11.5
 31
0.0
  0
LINE
  5
F3
330
E9
100
AcDbEntity
  8
0
  6
Continuous
 62
     0
370
    18
100
AcDbLine
 10
5.0
 20
0.0
 30
0.0
 11
11.5
 21
0.0
 31
0.0
  0
ENDBLK
  5
EB
330
E9
100
AcDbEntity
  8
0
100
AcDbBlockEnd
  0
BLOCK
  5
F6
330
F5
100
AcDbEntity
  8
0
100
AcDbBlockBegin
  2
SW_CENTERMARKSYMBOL_1
 70
     0
 10
0.0
 20
0.0
 30
0.0
  3
SW_CENTERMARKSYMBOL_1
  1

  0
LINE
  5
F8
330
F5
100
AcDbEntity
  8
0
  6
Continuous
 62
     0
370
    18
100
AcDbLine
 10
0.0
 20
0.0
 30
0.0
 11
0.0
 21
2.5
 31
0.0
  0
LINE
  5
F9
330
F5
100
AcDbEntity
  8
0
  6
Continuous
 62
     0
370
    18
100
AcDbLine
 10
0.0
 20
0.0
 30
0.0
 11
-2.5
 21
0.0
 31
0.0
  0
LINE
  5
FA
330
F5
100
AcDbEntity
  8
0
  6
Continuous
 62
     0
370
    18
100
AcDbLine
 10
0.0
 20
0.0
 30
0.0
 11
0.0
 21
-2.5
 31
0.0
  0
LINE
  5
FB
330
F5
100
AcDbEntity
  8
0
  6
Continuous
 62
     0
370
    18
100
AcDbLine
 10
0.0
 20
0.0
 30
0.0
 11
2.5
 21
0.0
 31
0.0
  0
LINE
  5
FC
330
F5
100
AcDbEntity
  8
0
  6
Continuous
 62
     0
370
    18
100
AcDbLine
 10
0.0
 20
5.0
 30
0.0
 11
0.0
 21
16.8220507433
 31
0.0
  0
LINE
  5
FD
330
F5
100
AcDbEntity
  8
0
  6
Continuous
 62
     0
370
    18
100
AcDbLine
 10
-5.0
 20
0.0
 30
0.0
 11
-15.75
 21
0.0
 31
0.0
  0
LINE
  5
FE
330
F5
100
AcDbEntity
  8
0
  6
Continuous
 62
     0
370
    18
100
AcDbLine
 10
0.0
 20
-5.0
 30
0.0
 11
0.0
 21
-16.8217230954
 31
0.0
  0
LINE
  5
FF
330
F5
100
AcDbEntity
  8
0
  6
Continuous
 62
     0
370
    18
100
AcDbLine
 10
5.0
 20
0.0
 30
0.0
 11
15.75
 21
0.0
 31
0.0
  0
ENDBLK
  5
F7
330
F5
100
AcDbEntity
  8
0
100
AcDbBlockEnd
  0
ENDSEC
  0
SECTION
  2
ENTITIES
  0
MTEXT
  5
74
330
1F
100
AcDbEntity
  8
0
  6
Continuous
 62
     7
370
     0
100
AcDbMText
 10
140.8232556608
 20
71.7503761636
 30
0.0
 40
2.38125
 41
0.0
 71
     1
 72
     1
  1
エースニップル　HN-8626
  7
SLDTEXTSTYLE0
 73
     1
 44
1.0
  0
LINE
  5
75
330
1F
100
AcDbEntity
  8
0
  6
Continuous
 62
     7
370
    25
100
AcDbLine
 10
100.1508040823
 20
63.7252358014
 30
0.0
 11
98.9184385196
 21
61.5907160333
 31
0.0
  0
LINE
  5
76
330
1F
100
AcDbEntity
  8
0
  6
Continuous
 62
     7
370
    25
100
AcDbLine
 10
98.9184385196
 20
34.6828410333
 30
0.0
 11
100.1508040823
 21
32.5483212652
 31
0.0
  0
LINE
  5
77
330
1F
100
AcDbEntity
  8
0
  6
Continuous
 62
     7
370
    25
100
AcDbLine
 10
105.5683295864
 20
32.5483212652
 30
0.0
 11
106.9184385196
 21
34.8867785333
 31
0.0
  0
LINE
  5
78
330
1F
100
AcDbEntity
  8
0
  6
Continuous
 62
     7
370
    25
100
AcDbLine
 10
106.9184385196
 20
61.3867785333
 30
0.0
 11
105.5683295864
 21
63.7252358014
 31
0.0
  0
LINE
  5
79
330
1F
100
AcDbEntity
  8
0
  6
Continuous
 62
     7
370
    25
100
AcDbLine
 10
98.9184385196
 20
61.6219660333
 30
0.0
 11
83.5236148586
 21
61.1408777939
 31
0.0
  0
LINE
  5
7A
330
1F
100
AcDbEntity
  8
0
  6
Continuous
 62
     7
370
    25
100
AcDbLine
 10
83.5236148586
 20
35.1326792727
 30
0.0
 11
98.9184385196
 21
34.6515910333
 31
0.0
  0
LINE
  5
7B
330
1F
100
AcDbEntity
  8
0
  6
Continuous
 62
     7
370
    25
100
AcDbLine
 10
83.5236148586
 20
61.1408777939
 30
0.0
 11
80.9184385196
 21
59.6367785333
 31
0.0
  0
LINE
  5
7C
330
1F
100
AcDbEntity
  8
0
  6
Continuous
 62
     7
370
    25
100
AcDbLine
 10
80.9184385196
 20
36.6367785333
 30
0.0
 11
83.5236148586
 21
35.1326792727
 31
0.0
  0
LINE
  5
7D
330
1F
100
AcDbEntity
  8
0
  6
Continuous
 62
     7
370
    25
100
AcDbLine
 10
118.4184385196
 20
35.1367785333
 30
0.0
 11
124.4184385196
 21
36.1367785333
 31
0.0
  0
LINE
  5
7E
330
1F
100
AcDbEntity
  8
0
  6
Continuous
 62
     7
370
    25
100
AcDbLine
 10
124.4184385196
 20
60.1367785333
 30
0.0
 11
118.4184385196
 21
61.1367785333
 31
0.0
  0
LINE
  5
7F
330
1F
100
AcDbEntity
  8
0
  6
Continuous
 62
     7
370
    25
100
AcDbLine
 10
118.4184385196
 20
61.1367785333
 30
0.0
 11
106.9184385196
 21
61.1367785333
 31
0.0
  0
LINE
  5
80
330
1F
100
AcDbEntity
  8
0
  6
Continuous
 62
     7
370
    25
100
AcDbLine
 10
106.9184385196
 20
35.1367785333
 30
0.0
 11
118.4184385196
 21
35.1367785333
 31
0.0
  0
LINE
  5
81
330
1F
100
AcDbEntity
  8
0
  6
Continuous
 62
     7
370
    25
100
AcDbLine
 10
130.4184385196
 20
35.1367785333
 30
0.0
 11
136.4184385196
 21
36.1367785333
 31
0.0
  0
LINE
  5
82
330
1F
100
AcDbEntity
  8
0
  6
Continuous
 62
     7
370
    25
100
AcDbLine
 10
136.4184385196
 20
60.1367785333
 30
0.0
 11
130.4184385196
 21
61.1367785333
 31
0.0
  0
LINE
  5
83
330
1F
100
AcDbEntity
  8
0
  6
Continuous
 62
     7
370
    25
100
AcDbLine
 10
136.4184385196
 20
35.1367785333
 30
0.0
 11
144.4768591434
 21
36.0848280184
 31
0.0
  0
LINE
  5
84
330
1F
100
AcDbEntity
  8
0
  6
Continuous
 62
     7
370
    25
100
AcDbLine
 10
144.4768591434
 20
60.1887290481
 30
0.0
 11
136.4184385196
 21
61.1367785333
 31
0.0
  0
LINE
  5
85
330
1F
100
AcDbEntity
  8
0
  6
Continuous
 62
     7
370
    25
100
AcDbLine
 10
124.4184385196
 20
35.1367785333
 30
0.0
 11
130.4184385196
 21
36.1367785333
 31
0.0
  0
LINE
  5
86
330
1F
100
AcDbEntity
  8
0
  6
Continuous
 62
     7
370
    25
100
AcDbLine
 10
130.4184385196
 20
60.1367785333
 30
0.0
 11
124.4184385196
 21
61.1367785333
 31
0.0
  0
ARC
  5
87
330
1F
100
AcDbEntity
  8
0
  6
Continuous
 62
     7
370
    25
100
AcDbCircle
 10
144.4184385196
 20
36.5814033206
 30
0.0
 40
0.5000000000000068
100
AcDbArc
 50
276.7098368078
 51
0.0
  0
ARC
  5
88
330
1F
100
AcDbEntity
  8
0
  6
Continuous
 62
     7
370
    25
100
AcDbCircle
 10
144.4184385196
 20
59.692153746
 30
0.0
 40
0.5
100
AcDbArc
 50
0.0
 51
83.2901631922
  0
LINE
  5
89
330
1F
100
AcDbEntity
  8
0
  6
Continuous
 62
     7
370
    25
100
AcDbLine
 10
102.9399515921
 20
63.7252358014
 30
0.0
 11
102.8595668343
 21
63.4252358014
 31
0.0
  0
LINE
  5
8A
330
1F
100
AcDbEntity
  8
0
  6
Continuous
 62
     7
370
    25
100
AcDbLine
 10
102.8595668343
 20
63.4252358014
 30
0.0
 11
102.7791820766
 21
63.7252358014
 31
0.0
  0
LINE
  5
8B
330
1F
100
AcDbEntity
  8
0
  6
Continuous
 62
     7
370
    25
100
AcDbLine
 10
102.8595668343
 20
32.8483212652
 30
0.0
 11
102.9399515921
 21
32.5483212652
 31
0.0
  0
LINE
  5
8C
330
1F
100
AcDbEntity
  8
0
  6
Continuous
 62
     7
370
    25
100
AcDbLine
 10
102.7791820766
 20
32.5483212652
 30
0.0
 11
102.8595668343
 21
32.8483212652
 31
0.0
  0
LINE
  5
8D
330
1F
100
AcDbEntity
  8
0
  6
Continuous
 62
     7
370
    25
100
AcDbLine
 10
102.9399515921
 20
40.3425498992
 30
0.0
 11
105.5683295864
 21
40.3425498992
 31
0.0
  0
SPLINE
  5
8E
330
1F
100
AcDbEntity
  8
0
  6
Continuous
 62
     7
370
    25
100
AcDbSpline
210
0.0
220
0.0
230
1.0
 70
     8
 71
     3
 72
    16
 73
    12
 74
     0
 42
0.000000001
 43
0.00000001
 40
0.0
 40
0.0
 40
0.0
 40
0.0
 40
0.2500000000000001
 40
0.2500000000000001
 40
0.5
 40
0.5
 40
0.6249999999999999
 40
0.6249999999999999
 40
0.7499999999999999
 40
0.7499999999999999
 40
1.0
 40
1.0
 40
1.0
 40
1.0
 10
105.5683295863613
 20
32.54832126515443
 30
0.0
 10
105.9357119490473
 20
33.18464618313128
 30
0.0
 10
106.2385015094415
 20
33.82561033408393
 30
0.0
 10
106.6579633177468
 20
35.12090609401554
 30
0.0
 10
106.7732519432014
 20
35.7753370785704
 30
0.0
 10
106.7745183400653
 20
36.76931311924054
 30
0.0
 10
106.7463347829763
 20
37.10219784584513
 30
0.0
 10
106.6364336139343
 20
37.7606788794054
 30
0.0
 10
106.5548275518614
 20
38.08771175568415
 30
0.0
 10
106.2397089569705
 20
39.06298801539775
 30
0.0
 10
105.9361699406344
 20
39.70543171653907
 30
0.0
 10
105.5683295863612
 20
40.3425498992144
 30
0.0
  0
LINE
  5
8F
330
1F
100
AcDbEntity
  8
0
  6
Continuous
 62
     7
370
    25
100
AcDbLine
 10
102.9399515921
 20
32.5483212652
 30
0.0
 11
105.5683295864
 21
32.5483212652
 31
0.0
  0
SPLINE
  5
90
330
1F
100
AcDbEntity
  8
0
  6
Continuous
 62
     7
370
    25
100
AcDbSpline
210
0.0
220
0.0
230
1.0
 70
     8
 71
     3
 72
     8
 73
     4
 74
     0
 42
0.000000001
 43
0.00000001
 40
0.0
 40
0.0
 40
0.0
 40
0.0
 40
1.0
 40
1.0
 40
1.0
 40
1.0
 10
102.9399515920664
 20
32.54832126515444
 30
0.0
 10
102.9123285359725
 20
32.6514119139569
 30
0.0
 10
102.8855166888553
 20
32.75454267337745
 30
0.0
 10
102.859566834337
 20
32.85771605443673
 30
0.0
  0
SPLINE
  5
91
330
1F
100
AcDbEntity
  8
0
  6
Continuous
 62
     7
370
    25
100
AcDbSpline
210
0.0
220
0.0
230
1.0
 70
     8
 71
     3
 72
     8
 73
     4
 74
     0
 42
0.000000001
 43
0.00000001
 40
0.0
 40
0.0
 40
0.0
 40
0.0
 40
1.0
 40
1.0
 40
1.0
 40
1.0
 10
102.859566834337
 20
32.85771605443673
 30
0.0
 10
102.8336097706926
 20
32.75451401079184
 30
0.0
 10
102.8067976165982
 20
32.65138386347727
 30
0.0
 10
102.7791820766077
 20
32.54832126515444
 30
0.0
  0
LINE
  5
92
330
1F
100
AcDbEntity
  8
0
  6
Continuous
 62
     7
370
    25
100
AcDbLine
 10
100.1508040823
 20
32.5483212652
 30
0.0
 11
102.7791820766
 21
32.5483212652
 31
0.0
  0
SPLINE
  5
93
330
1F
100
AcDbEntity
  8
0
  6
Continuous
 62
     7
370
    25
100
AcDbSpline
210
0.0
220
0.0
230
1.0
 70
     8
 71
     3
 72
    16
 73
    12
 74
     0
 42
0.000000001
 43
0.00000001
 40
0.0
 40
0.0
 40
0.0
 40
0.0
 40
0.2500000000000001
 40
0.2500000000000001
 40
0.5000000000000001
 40
0.5000000000000001
 40
0.6250000000000001
 40
0.6250000000000001
 40
0.7500000000000002
 40
0.7500000000000002
 40
1.0
 40
1.0
 40
1.0
 40
1.0
 10
100.1508040823128
 20
40.34254989921441
 30
0.0
 10
99.78342171962682
 20
39.70622498123755
 30
0.0
 10
99.48063215923264
 20
39.0652608302849
 30
0.0
 10
99.06117035092728
 20
37.76996507035329
 30
0.0
 10
98.9458817254727
 20
37.11553408579843
 30
0.0
 10
98.9446153286088
 20
36.12155804512829
 30
0.0
 10
98.97279888569783
 20
35.78867331852369
 30
0.0
 10
99.08270005473979
 20
35.13019228496344
 30
0.0
 10
99.16430611681272
 20
34.80315940868469
 30
0.0
 10
99.47942471170356
 20
33.82788314897108
 30
0.0
 10
99.78296372803973
 20
33.18543944782976
 30
0.0
 10
100.1508040823129
 20
32.54832126515443
 30
0.0
  0
LINE
  5
94
330
1F
100
AcDbEntity
  8
0
  6
Continuous
 62
     7
370
    25
100
AcDbLine
 10
100.1508040823
 20
40.3425498992
 30
0.0
 11
102.7791820766
 21
40.3425498992
 31
0.0
  0
SPLINE
  5
95
330
1F
100
AcDbEntity
  8
0
  6
Continuous
 62
     7
370
    25
100
AcDbSpline
210
0.0
220
0.0
230
1.0
 70
     8
 71
     3
 72
     8
 73
     4
 74
     0
 42
0.000000001
 43
0.00000001
 40
0.0
 40
0.0
 40
0.0
 40
0.0
 40
1.0
 40
1.0
 40
1.0
 40
1.0
 10
102.7791820766077
 20
40.34254989921439
 30
0.0
 10
102.8068051327015
 20
40.23945925041193
 30
0.0
 10
102.8336169798188
 20
40.13632849099139
 30
0.0
 10
102.859566834337
 20
40.0331551099321
 30
0.0
  0
SPLINE
  5
96
330
1F
100
AcDbEntity
  8
0
  6
Continuous
 62
     7
370
    25
100
AcDbSpline
210
0.0
220
0.0
230
1.0
 70
     8
 71
     3
 72
     8
 73
     4
 74
     0
 42
0.000000001
 43
0.00000001
 40
0.0
 40
0.0
 40
0.0
 40
0.0
 40
1.0
 40
1.0
 40
1.0
 40
1.0
 10
102.859566834337
 20
40.0331551099321
 30
0.0
 10
102.8855238979815
 20
40.13635715357699
 30
0.0
 10
102.9123360520759
 20
40.23948730089157
 30
0.0
 10
102.9399515920664
 20
40.3425498992144
 30
0.0
  0
SPLINE
  5
97
330
1F
100
AcDbEntity
  8
0
  6
Continuous
 62
     7
370
    25
100
AcDbSpline
210
0.0
220
0.0
230
1.0
 70
     8
 71
     3
 72
    19
 73
    15
 74
     0
 42
0.000000001
 43
0.00000001
 40
0.0
 40
0.0
 40
0.0
 40
0.0
 40
0.1227280999764557
 40
0.2397165235883926
 40
0.3518621792202465
 40
0.463201981803224
 40
0.520261154154164
 40
0.5794324380306666
 40
0.6405963441586369
 40
0.7052982290880198
 40
0.7732361059084532
 40
0.8446489293403163
 40
0.9200459817773702
 40
1.0
 40
1.0
 40
1.0
 40
1.0
 10
103.8761308272908
 20
49.69727532814613
 30
0.0
 10
103.8751389250445
 20
49.7257417459549
 30
0.0
 10
103.8732015092589
 20
49.7813432807089
 30
0.0
 10
103.856172497792
 20
49.86148368672095
 30
0.0
 10
103.8291917845727
 20
49.9359081351027
 30
0.0
 10
103.796612653384
 20
49.99260455189984
 30
0.0
 10
103.7645635161127
 20
50.03454222655257
 30
0.0
 10
103.7369916433676
 20
50.065085063194
 30
0.0
 10
103.705730786909
 20
50.09453148639805
 30
0.0
 10
103.6699234966261
 20
50.12172599181329
 30
0.0
 10
103.6308010403049
 20
50.1482981317914
 30
0.0
 10
103.5881479460232
 20
50.17399418211517
 30
0.0
 10
103.5413561083068
 20
50.19798878505334
 30
0.0
 10
103.5084507393451
 20
50.21259469273719
 30
0.0
 10
103.4915154426754
 20
50.22011186660767
 30
0.0
  0
SPLINE
  5
98
330
1F
100
AcDbEntity
  8
0
  6
Continuous
 62
     7
370
    25
100
AcDbSpline
210
0.0
220
0.0
230
1.0
 70
     8
 71
     3
 72
    23
 73
    19
 74
     0
 42
0.000000001
 43
0.00000001
 40
0.0
 40
0.0
 40
0.0
 40
0.0
 40
0.0552698294993251
 40
0.109956704485094
 40
0.1632335040550558
 40
0.2180575651623567
 40
0.2732775387226746
 40
0.3308810454954968
 40
0.3904799376860886
 40
0.4536559730386416
 40
0.5189026226022312
 40
0.5833461108214766
 40
0.6485466930814432
 40
0.7150552190344911
 40
0.7825206438000538
 40
0.852335294426451
 40
0.9249348997257086
 40
1.0
 40
1.0
 40
1.0
 40
1.0
 10
103.4840034234446
 20
49.19447084096664
 30
0.0
 10
103.4970589870753
 20
49.19476681433582
 30
0.0
 10
103.5230324117271
 20
49.19535563931657
 30
0.0
 10
103.5609784288194
 20
49.20278277196297
 30
0.0
 10
103.5977665379361
 20
49.21394091365246
 30
0.0
 10
103.6332298164972
 20
49.22929080852243
 30
0.0
 10
103.6671624191379
 20
49.24979892565582
 30
0.0
 10
103.6996059745162
 20
49.27441549809066
 30
0.0
 10
103.7311042030217
 20
49.30315240706619
 30
0.0
 10
103.7601501908611
 20
49.33676069099844
 30
0.0
 10
103.7875479953484
 20
49.3731452427534
 30
0.0
 10
103.8112323781434
 20
49.41264841805997
 30
0.0
 10
103.8313072451725
 20
49.45439892616611
 30
0.0
 10
103.8478933647893
 20
49.49843515963494
 30
0.0
 10
103.8603621087372
 20
49.54493352619119
 30
0.0
 10
103.8693168908268
 20
49.59366634485912
 30
0.0
 10
103.8749150459829
 20
49.64472909749004
 30
0.0
 10
103.8757210808474
 20
49.67956603208572
 30
0.0
 10
103.8761308272908
 20
49.69727532814613
 30
0.0
  0
SPLINE
  5
99
330
1F
100
AcDbEntity
  8
0
  6
Continuous
 62
     7
370
    25
100
AcDbSpline
210
0.0
220
0.0
230
1.0
 70
     8
 71
     3
 72
    19
 73
    15
 74
     0
 42
0.000000001
 43
0.00000001
 40
0.0
 40
0.0
 40
0.0
 40
0.0
 40
0.1101423815503172
 40
0.2157418685830273
 40
0.3179605426392306
 40
0.4180517606815226
 40
0.5115631470355316
 40
0.5965727584443461
 40
0.6733290469034968
 40
0.7440491927238596
 40
0.8107168223002834
 40
0.8740854521098848
 40
0.93670961689667
 40
1.0
 40
1.0
 40
1.0
 40
1.0
 10
103.0748487760087
 20
49.83549648199228
 30
0.0
 10
103.0753759242897
 20
49.804567932772
 30
0.0
 10
103.0764084782763
 20
49.74398650255935
 30
0.0
 10
103.088810556794
 20
49.65547853676166
 30
0.0
 10
103.1061594331605
 20
49.57074262070894
 30
0.0
 10
103.1321197192296
 20
49.49171294725093
 30
0.0
 10
103.1632794720629
 20
49.41991508375384
 30
0.0
 10
103.1984143689339
 20
49.35728269149882
 30
0.0
 10
103.2382206306686
 20
49.30530013368104
 30
0.0
 10
103.282175838249
 20
49.26383753651197
 30
0.0
 10
103.3298688205682
 20
49.23340546242543
 30
0.0
 10
103.3790570328362
 20
49.21056317666639
 30
0.0
 10
103.4308849215062
 20
49.19717210324504
 30
0.0
 10
103.4662349101194
 20
49.19537443223968
 30
0.0
 10
103.4840034234446
 20
49.19447084096664
 30
0.0
  0
LINE
  5
9A
330
1F
100
AcDbEntity
  8
0
  6
Continuous
 62
     7
370
    25
100
AcDbLine
 10
102.8184385196
 20
49.835496482
 30
0.0
 11
103.074848776
 21
49.835496482
 31
0.0
  0
SPLINE
  5
9B
330
1F
100
AcDbEntity
  8
0
  6
Continuous
 62
     7
370
    25
100
AcDbSpline
210
0.0
220
0.0
230
1.0
 70
     8
 71
     3
 72
    23
 73
    19
 74
     0
 42
0.000000001
 43
0.00000001
 40
0.0
 40
0.0
 40
0.0
 40
0.0
 40
0.0669051223273615
 40
0.1334773340846823
 40
0.2010229080576287
 40
0.2712178684297487
 40
0.3428591616573977
 40
0.4138109980627168
 40
0.4855518488903452
 40
0.5598002749200528
 40
0.599899964903578
 40
0.6436094423977957
 40
0.6919106424505658
 40
0.7447030291556901
 40
0.8015038302285952
 40
0.8628660266331953
 40
0.9293326711591617
 40
1.0
 40
1.0
 40
1.0
 40
1.0
 10
102.2895923657523
 20
49.06626571276151
 30
0.0
 10
102.3128862055566
 20
49.06735876586988
 30
0.0
 10
102.3593579782626
 20
49.06953943320659
 30
0.0
 10
102.4277272798626
 20
49.08618870924836
 30
0.0
 10
102.493602683816
 20
49.1135724783313
 30
0.0
 10
102.5558507941561
 20
49.15191442898674
 30
0.0
 10
102.6135709075149
 20
49.1985658184331
 30
0.0
 10
102.6648699391092
 20
49.25307506387718
 30
0.0
 10
102.7076247237626
 20
49.31557587635857
 30
0.0
 10
102.7370555141555
 20
49.37347064499975
 30
0.0
 10
102.756669898265
 20
49.42487564792472
 30
0.0
 10
102.7704231372066
 20
49.46877960456158
 30
0.0
 10
102.7814172327132
 20
49.51797490174016
 30
0.0
 10
102.7920518339193
 20
49.57187096063494
 30
0.0
 10
102.8009672086994
 20
49.63069508762655
 30
0.0
 10
102.8084341845149
 20
49.69450027954328
 30
0.0
 10
102.8143995525883
 20
49.76331220570012
 30
0.0
 10
102.8170649814789
 20
49.81094865704757
 30
0.0
 10
102.8184385195985
 20
49.83549648199228
 30
0.0
  0
SPLINE
  5
9C
330
1F
100
AcDbEntity
  8
0
  6
Continuous
 62
     7
370
    25
100
AcDbSpline
210
0.0
220
0.0
230
1.0
 70
     8
 71
     3
 72
    23
 73
    19
 74
     0
 42
0.000000001
 43
0.00000001
 40
0.0
 40
0.0
 40
0.0
 40
0.0
 40
0.0760618905628338
 40
0.1487324608035361
 40
0.2183745247439721
 40
0.2857225935927384
 40
0.3510576941824568
 40
0.4149349157293191
 40
0.4784859417740854
 40
0.5421690352812158
 40
0.6047501165431387
 40
0.6641185017301124
 40
0.7214996756099116
 40
0.777615916385255
 40
0.8326661086975489
 40
0.887858028113574
 40
0.9434676608977686
 40
1.0
 40
1.0
 40
1.0
 40
1.0
 10
101.7607462119062
 20
49.70278414224869
 30
0.0
 10
101.7611854287549
 20
49.67938846652238
 30
0.0
 10
101.7620442793864
 20
49.63364024231721
 30
0.0
 10
101.7699654944248
 20
49.56689119587772
 30
0.0
 10
101.7814515029679
 20
49.50337006735287
 30
0.0
 10
101.7994178535713
 20
49.44372508966678
 30
0.0
 10
101.820971459112
 20
49.38714464103923
 30
0.0
 10
101.8491890845665
 20
49.33489176054911
 30
0.0
 10
101.8810563306261
 20
49.28543027806727
 30
0.0
 10
101.9181240668193
 20
49.24020918644344
 30
0.0
 10
101.9581902773605
 20
49.19944016115866
 30
0.0
 10
102.0006969561307
 20
49.164211218904
 30
0.0
 10
102.0443261194689
 20
49.1336989257981
 30
0.0
 10
102.0900955475667
 20
49.10917213416307
 30
0.0
 10
102.1375562791282
 20
49.08977029080175
 30
0.0
 10
102.1868859600921
 20
49.0765702984969
 30
0.0
 10
102.2376692036785
 20
49.06739003417568
 30
0.0
 10
102.2721899658942
 20
49.06664253670745
 30
0.0
 10
102.2895923657523
 20
49.06626571276151
 30
0.0
  0
SPLINE
  5
9D
330
1F
100
AcDbEntity
  8
0
  6
Continuous
 62
     7
370
    25
100
AcDbSpline
210
0.0
220
0.0
230
1.0
 70
     8
 71
     3
 72
    15
 73
    11
 74
     0
 42
0.000000001
 43
0.00000001
 40
0.0
 40
0.0
 40
0.0
 40
0.0
 40
0.1182713048357264
 40
0.2361775330837636
 40
0.3556629329485097
 40
0.475904164670683
 40
0.6001273417110831
 40
0.7286081161551196
 40
0.8613134756739419
 40
1.0
 40
1.0
 40
1.0
 40
1.0
 10
101.89596255806
 20
50.12045241147946
 30
0.0
 10
101.8851708909989
 20
50.10645485681864
 30
0.0
 10
101.8636208682957
 20
50.07850295476099
 30
0.0
 10
101.8361197050545
 20
50.0329542182621
 30
0.0
 10
101.8122904012439
 20
49.98505072820087
 30
0.0
 10
101.7940877614466
 20
49.9337545323288
 30
0.0
 10
101.7786751465972
 20
49.88017255343305
 30
0.0
 10
101.7685890615025
 20
49.82343872112461
 30
0.0
 10
101.7616689391145
 20
49.76405356604479
 30
0.0
 10
101.7610582737628
 20
49.72350516355689
 30
0.0
 10
101.7607462119062
 20
49.70278414224869
 30
0.0
  0
SPLINE
  5
9E
330
1F
100
AcDbEntity
  8
0
  6
Continuous
 62
     7
370
    25
100
AcDbSpline
210
0.0
220
0.0
230
1.0
 70
     8
 71
     3
 72
    15
 73
    11
 74
     0
 42
0.000000001
 43
0.00000001
 40
0.0
 40
0.0
 40
0.0
 40
0.0
 40
0.149770386031968
 40
0.2913164099952444
 40
0.4259663731047428
 40
0.5521595739695285
 40
0.6715274135235931
 40
0.7861216286916591
 40
0.8953250730704452
 40
1.0
 40
1.0
 40
1.0
 40
1.0
 10
102.2415154426754
 20
50.31626571276151
 30
0.0
 10
102.2222661474835
 20
50.31042050458989
 30
0.0
 10
102.1848245963277
 20
50.29905106697709
 30
0.0
 10
102.1309386637028
 20
50.27969799695202
 30
0.0
 10
102.0815400542565
 20
50.2576492311874
 30
0.0
 10
102.0362663957008
 20
50.23399597501879
 30
0.0
 10
101.9946718225121
 20
50.20915422785969
 30
0.0
 10
101.9578562017735
 20
50.18135785276227
 30
0.0
 10
101.9242024859094
 20
50.15266560622847
 30
0.0
 10
101.9052420488092
 20
50.1310374966918
 30
0.0
 10
101.89596255806
 20
50.12045241147946
 30
0.0
  0
LINE
  5
9F
330
1F
100
AcDbEntity
  8
0
  6
Continuous
 62
     7
370
    25
100
AcDbLine
 10
102.2415154427
 20
50.5406246871
 30
0.0
 11
102.2415154427
 21
50.3162657128
 31
0.0
  0
SPLINE
  5
A0
330
1F
100
AcDbEntity
  8
0
  6
Continuous
 62
     7
370
    25
100
AcDbSpline
210
0.0
220
0.0
230
1.0
 70
     8
 71
     3
 72
    23
 73
    19
 74
     0
 42
0.000000001
 43
0.00000001
 40
0.0
 40
0.0
 40
0.0
 40
0.0
 40
0.0655411703374035
 40
0.1289631677825933
 40
0.1903771361885609
 40
0.2500923616690527
 40
0.308548432459201
 40
0.3663979630552959
 40
0.42454218926668
 40
0.4831699964229057
 40
0.5422433998311202
 40
0.6017393520173302
 40
0.6625060022496067
 40
0.724855513448847
 40
0.7891278292811812
 40
0.8563463998785101
 40
0.9262952349869055
 40
1.0
 40
1.0
 40
1.0
 40
1.0
 10
101.5043359554959
 20
49.7067905525051
 30
0.0
 10
101.5049561078234
 20
49.7335186241359
 30
0.0
 10
101.5061763608071
 20
49.78611055632882
 30
0.0
 10
101.5145182188047
 20
49.86342734089049
 30
0.0
 10
101.5297539368317
 20
49.93722855472228
 30
0.0
 10
101.5502562978075
 20
50.00761398176277
 30
0.0
 10
101.5762503992936
 20
50.0746461506153
 30
0.0
 10
101.6086208978802
 20
50.13812051145653
 30
0.0
 10
101.6467005422029
 20
50.1984275782566
 30
0.0
 10
101.6909388192076
 20
50.25499825764558
 30
0.0
 10
101.7404254904625
 20
50.30782580600718
 30
0.0
 10
101.7960390690108
 20
50.35550632331441
 30
0.0
 10
101.856751500383
 20
50.39883474684448
 30
0.0
 10
101.9232679690964
 20
50.43665091735269
 30
0.0
 10
101.9947288671519
 20
50.4706773120783
 30
0.0
 10
102.0720492231388
 20
50.49866370968352
 30
0.0
 10
102.1545378102738
 20
50.52329625870944
 30
0.0
 10
102.2120219103994
 20
50.53474873317092
 30
0.0
 10
102.2415154426754
 20
50.54062468712048
 30
0.0
  0
SPLINE
  5
A1
330
1F
100
AcDbEntity
  8
0
  6
Continuous
 62
     7
370
    25
100
AcDbSpline
210
0.0
220
0.0
230
1.0
 70
     8
 71
     3
 72
    19
 73
    15
 74
     0
 42
0.000000001
 43
0.00000001
 40
0.0
 40
0.0
 40
0.0
 40
0.0
 40
0.0796417041949911
 40
0.158908613257856
 40
0.2395997983184508
 40
0.3224093988203484
 40
0.405827748173513
 40
0.4876442139503137
 40
0.5697199979738973
 40
0.6530646649976933
 40
0.7374573001733064
 40
0.8224924079539123
 40
0.9097550737466981
 40
0.9999999999999999
 40
0.9999999999999999
 40
0.9999999999999999
 40
0.9999999999999999
 10
102.3111268208805
 20
48.84190673840254
 30
0.0
 10
102.2761212692083
 20
48.84319135625505
 30
0.0
 10
102.2062749025493
 20
48.84575454652796
 30
0.0
 10
102.1030577924782
 20
48.86857226269971
 30
0.0
 10
102.0023358357077
 20
48.90414993653341
 30
0.0
 10
101.9056014041661
 20
48.95378984270079
 30
0.0
 10
101.8152824202334
 20
49.01520744668353
 30
0.0
 10
101.7348381135058
 20
49.08868102258253
 30
0.0
 10
101.6652246030935
 20
49.17242443948683
 30
0.0
 10
101.6072484259993
 20
49.26588961343825
 30
0.0
 10
101.5608699858704
 20
49.36710724535207
 30
0.0
 10
101.5286884097971
 20
49.47537794388491
 30
0.0
 10
101.5077263517509
 20
49.58912732361241
 30
0.0
 10
101.505478675131
 20
49.66713262703874
 30
0.0
 10
101.5043359554959
 20
49.7067905525051
 30
0.0
  0
SPLINE
  5
A2
330
1F
100
AcDbEntity
  8
0
  6
Continuous
 62
     7
370
    25
100
AcDbSpline
210
0.0
220
0.0
230
1.0
 70
     8
 71
     3
 72
    15
 73
    11
 74
     0
 42
0.000000001
 43
0.00000001
 40
0.0
 40
0.0
 40
0.0
 40
0.0
 40
0.1281455049994642
 40
0.254192538628042
 40
0.378141139713589
 40
0.5013808330744056
 40
0.6239569784447038
 40
0.7470758858273291
 40
0.8728647202442611
 40
1.0
 40
1.0
 40
1.0
 40
1.0
 10
102.75533755806
 20
48.99114552045382
 30
0.0
 10
102.738869490685
 20
48.97911109347456
 30
0.0
 10
102.7062030319406
 20
48.95523931159033
 30
0.0
 10
102.6536513709979
 20
48.92585689715045
 30
0.0
 10
102.6006912056054
 20
48.89889655144864
 30
0.0
 10
102.5452402103657
 20
48.8790545174318
 30
0.0
 10
102.4890795693315
 20
48.86193162836836
 30
0.0
 10
102.4310066587217
 20
48.85066533751447
 30
0.0
 10
102.3715732203424
 20
48.84343282943831
 30
0.0
 10
102.3313470023274
 20
48.84241723758731
 30
0.0
 10
102.3111268208805
 20
48.84190673840254
 30
0.0
  0
SPLINE
  5
A3
330
1F
100
AcDbEntity
  8
0
  6
Continuous
 62
     7
370
    25
100
AcDbSpline
210
0.0
220
0.0
230
1.0
 70
     8
 71
     3
 72
    11
 73
     7
 74
     0
 42
0.000000001
 43
0.00000001
 40
0.0
 40
0.0
 40
0.0
 40
0.0
 40
0.2538796003266561
 40
0.5030089172783634
 40
0.7502910806899732
 40
1.0
 40
1.0
 40
1.0
 40
1.0
 10
102.9686789042139
 20
49.26207901404356
 30
0.0
 10
102.9558373531128
 20
49.23548490363404
 30
0.0
 10
102.9303945262484
 20
49.18279427915746
 30
0.0
 10
102.8804975565932
 20
49.11097247234824
 30
0.0
 10
102.8228858799118
 20
49.04577398995041
 30
0.0
 10
102.7779268421164
 20
49.00941419066199
 30
0.0
 10
102.75533755806
 20
48.99114552045382
 30
0.0
  0
SPLINE
  5
A4
330
1F
100
AcDbEntity
  8
0
  6
Continuous
 62
     7
370
    25
100
AcDbSpline
210
0.0
220
0.0
230
1.0
 70
     8
 71
     3
 72
    15
 73
    11
 74
     0
 42
0.000000001
 43
0.00000001
 40
0.0
 40
0.0
 40
0.0
 40
0.0
 40
0.1280675485958908
 40
0.2506083188676689
 40
0.3706301659145033
 40
0.4900722467299491
 40
0.6103747641546201
 40
0.7343130699115257
 40
0.8632165042449896
 40
1.0
 40
1.0
 40
1.0
 40
1.0
 10
103.4830018208805
 20
48.97011186660767
 30
0.0
 10
103.4565683960908
 20
48.97094300306986
 30
0.0
 10
103.40484228576
 20
48.97256940814923
 30
0.0
 10
103.3293269306613
 20
48.98637919783661
 30
0.0
 10
103.2581543590312
 20
49.00961938560534
 30
0.0
 10
103.1910249575144
 20
49.04181207316095
 30
0.0
 10
103.1283643576408
 20
49.08348460904687
 30
0.0
 10
103.0700315784547
 20
49.13396510682568
 30
0.0
 10
103.0157678940774
 20
49.19360986523674
 30
0.0
 10
102.9846825562377
 20
49.23880910668195
 30
0.0
 10
102.9686789042139
 20
49.26207901404356
 30
0.0
  0
SPLINE
  5
A5
330
1F
100
AcDbEntity
  8
0
  6
Continuous
 62
     7
370
    25
100
AcDbSpline
210
0.0
220
0.0
230
1.0
 70
     8
 71
     3
 72
    19
 73
    15
 74
     0
 42
0.000000001
 43
0.00000001
 40
0.0
 40
0.0
 40
0.0
 40
0.0
 40
0.0902542493426765
 40
0.1785397915286845
 40
0.2660930338538199
 40
0.3546309779571733
 40
0.4418861533505625
 40
0.5257469151636482
 40
0.6081136336036366
 40
0.6901972728278825
 40
0.7708214843303354
 40
0.8483261812554111
 40
0.9240117400247433
 40
1.0
 40
1.0
 40
1.0
 40
1.0
 10
104.132541083701
 20
49.70028013583843
 30
0.0
 10
104.1315559192404
 20
49.6676496057848
 30
0.0
 10
104.1296070796155
 20
49.60310031225376
 30
0.0
 10
104.111811053559
 20
49.50826956443198
 30
0.0
 10
104.0836502447346
 20
49.4168218365019
 30
0.0
 10
104.0447404396367
 20
49.32975808806166
 30
0.0
 10
103.9967495016638
 20
49.24888777906432
 30
0.0
 10
103.9396318324532
 20
49.17693335995924
 30
0.0
 10
103.874489474248
 20
49.11487013795642
 30
0.0
 10
103.8025376425919
 20
49.06280272534205
 30
0.0
 10
103.7256408501726
 20
49.02203486887512
 30
0.0
 10
103.6464978807817
 20
48.99197317353247
 30
0.0
 10
103.5652964726468
 20
48.97367197281915
 30
0.0
 10
103.5104698446645
 20
48.97130014652613
 30
0.0
 10
103.4830018208805
 20
48.97011186660767
 30
0.0
  0
SPLINE
  5
A6
330
1F
100
AcDbEntity
  8
0
  6
Continuous
 62
     7
370
    25
100
AcDbSpline
210
0.0
220
0.0
230
1.0
 70
     8
 71
     3
 72
    23
 73
    19
 74
     0
 42
0.000000001
 43
0.00000001
 40
0.0
 40
0.0
 40
0.0
 40
0.0
 40
0.0726253460834355
 40
0.1419766113262344
 40
0.2089849284189386
 40
0.2739568703644447
 40
0.3368893473968406
 40
0.3987449534945902
 40
0.4601158852788613
 40
0.5208249225900291
 40
0.5809944586324854
 40
0.640151927601465
 40
0.6986224507562546
 40
0.7572710809271643
 40
0.8164266940046601
 40
0.8762540482034703
 40
0.937165293062537
 40
1.0
 40
1.0
 40
1.0
 40
1.0
 10
103.4915154426754
 20
50.44447084096664
 30
0.0
 10
103.5166815026578
 20
50.43839259048021
 30
0.0
 10
103.5658790915083
 20
50.42651010793942
 30
0.0
 10
103.6361699921135
 20
50.40172612689021
 30
0.0
 10
103.7026867931069
 20
50.37472665889406
 30
0.0
 10
103.7641839886036
 20
50.34230586991923
 30
0.0
 10
103.8218974905555
 20
50.30694247404344
 30
0.0
 10
103.874518293747
 20
50.26642624437495
 30
0.0
 10
103.9233846976521
 20
50.22262644254215
 30
0.0
 10
103.9667512959073
 20
50.17418005018374
 30
0.0
 10
104.0060211024835
 20
50.12337386329745
 30
0.0
 10
104.0395032862995
 20
50.06949199204694
 30
0.0
 10
104.0683062526312
 20
50.01361849656793
 30
0.0
 10
104.0920349896851
 20
49.9553662587475
 30
0.0
 10
104.1099103637323
 20
49.89456185039608
 30
0.0
 10
104.1228795105828
 20
49.8317549765955
 30
0.0
 10
104.1313017350217
 20
49.76678104794218
 30
0.0
 10
104.1321237086548
 20
49.72267562608627
 30
0.0
 10
104.132541083701
 20
49.70028013583843
 30
0.0
  0
LINE
  5
A7
330
1F
100
AcDbEntity
  8
0
  6
Continuous
 62
     7
370
    25
100
AcDbLine
 10
103.4915154427
 20
50.2201118666
 30
0.0
 11
103.4915154427
 21
50.444470841
 31
0.0
  0
LINE
  5
A8
330
1F
100
AcDbEntity
  8
0
  6
Continuous
 62
     7
370
    25
100
AcDbLine
 10
104.1325410837
 20
46.536653278
 30
0.0
 11
103.9968239363
 21
46.3638768357
 31
0.0
  0
LINE
  5
A9
330
1F
100
AcDbEntity
  8
0
  6
Continuous
 62
     7
370
    25
100
AcDbLine
 10
102.9917157632
 20
47.2828471883
 30
0.0
 11
104.1325410837
 21
46.536653278
 31
0.0
  0
SPLINE
  5
AA
330
1F
100
AcDbEntity
  8
0
  6
Continuous
 62
     7
370
    25
100
AcDbSpline
210
0.0
220
0.0
230
1.0
 70
     8
 71
     3
 72
    19
 73
    15
 74
     0
 42
0.000000001
 43
0.00000001
 40
0.0
 40
0.0
 40
0.0
 40
0.0
 40
0.0978059775289526
 40
0.1996122522918969
 40
0.3052960258330043
 40
0.4158173591641855
 40
0.4742405666184931
 40
0.5372869128296534
 40
0.6033858352934853
 40
0.6743111580696057
 40
0.749530467357482
 40
0.8286083142695118
 40
0.9120427387714449
 40
1.0
 40
1.0
 40
1.0
 40
1.0
 10
102.2655539042139
 20
47.56229430365885
 30
0.0
 10
102.2912906608194
 20
47.56138826915802
 30
0.0
 10
102.3438168159943
 20
47.55953914304186
 30
0.0
 10
102.423599272765
 20
47.54850377142021
 30
0.0
 10
102.5049139614022
 20
47.52826355158847
 30
0.0
 10
102.5738465708122
 20
47.50635920997257
 30
0.0
 10
102.6309352604875
 20
47.48462349089751
 30
0.0
 10
102.676016690666
 20
47.4644696320363
 30
0.0
 10
102.7236241284614
 20
47.44193516213718
 30
0.0
 10
102.7728567943041
 20
47.41552162527181
 30
0.0
 10
102.8251213720923
 20
47.38752114460565
 30
0.0
 10
102.8784823449534
 20
47.35481340569174
 30
0.0
 10
102.9348886203861
 20
47.32068237755784
 30
0.0
 10
102.972443042389
 20
47.29567885644359
 30
0.0
 10
102.9917157631882
 20
47.28284718827424
 30
0.0
  0
SPLINE
  5
AB
330
1F
100
AcDbEntity
  8
0
  6
Continuous
 62
     7
370
    25
100
AcDbSpline
210
0.0
220
0.0
230
1.0
 70
     8
 71
     3
 72
    19
 73
    15
 74
     0
 42
0.000000001
 43
0.00000001
 40
0.0
 40
0.0
 40
0.0
 40
0.0
 40
0.0843261511037433
 40
0.1670353409858405
 40
0.2495407139852792
 40
0.3327066655796642
 40
0.4158726171740492
 40
0.4977774155681173
 40
0.5803136056784763
 40
0.6645325781316562
 40
0.7495711764063214
 40
0.8324741628544073
 40
0.9156738488962567
 40
1.0
 40
1.0
 40
1.0
 40
1.0
 10
101.5043359554959
 20
46.80508276519731
 30
0.0
 10
101.5054275282712
 20
46.83872327215021
 30
0.0
 10
101.5075897428195
 20
46.90535922643325
 30
0.0
 10
101.5268511673243
 20
47.00338255601383
 30
0.0
 10
101.5580703738479
 20
47.09757078471106
 30
0.0
 10
101.6010811472604
 20
47.18726184755344
 30
0.0
 10
101.6554060696463
 20
47.27035302918985
 30
0.0
 10
101.7208155752932
 20
47.34466708489576
 30
0.0
 10
101.7958640390422
 20
47.40994546046502
 30
0.0
 10
101.8807816821108
 20
47.46398440603156
 30
0.0
 10
101.9714435841738
 20
47.50802629333804
 30
0.0
 10
102.0668395987482
 20
47.53908967333292
 30
0.0
 10
102.1650498431857
 20
47.55917844225856
 30
0.0
 10
102.2319027081454
 20
47.56125103772681
 30
0.0
 10
102.2655539042139
 20
47.56229430365885
 30
0.0
  0
SPLINE
  5
AC
330
1F
100
AcDbEntity
  8
0
  6
Continuous
 62
     7
370
    25
100
AcDbSpline
210
0.0
220
0.0
230
1.0
 70
     8
 71
     3
 72
    19
 73
    15
 74
     0
 42
0.000000001
 43
0.00000001
 40
0.0
 40
0.0
 40
0.0
 40
0.0
 40
0.0859901205637197
 40
0.1691084375726415
 40
0.2505285789581879
 40
0.3322556961768449
 40
0.4135763652356403
 40
0.4941261456201216
 40
0.5763059341204169
 40
0.6607126719045471
 40
0.7461272722239101
 40
0.8300149859609741
 40
0.914419725928851
 40
1.0
 40
1.0
 40
1.0
 40
1.0
 10
102.2700611157523
 20
46.02383276519732
 30
0.0
 10
102.2350964102755
 20
46.02513742853587
 30
0.0
 10
102.1663347121337
 20
46.02770318350046
 30
0.0
 10
102.0657651302307
 20
46.04638078988926
 30
0.0
 10
101.970723638196
 20
46.07861416538287
 30
0.0
 10
101.8808367386577
 20
46.12173855651678
 30
0.0
 10
101.7987196962148
 20
46.17768906310457
 30
0.0
 10
101.7245079094977
 20
46.24399348953039
 30
0.0
 10
101.6598214354953
 20
46.32127859798784
 30
0.0
 10
101.6043296040658
 20
46.40771426004812
 30
0.0
 10
101.5602414138696
 20
46.50126448970981
 30
0.0
 10
101.5276461149678
 20
46.59935496558624
 30
0.0
 10
101.5081695955013
 20
46.70114726322242
 30
0.0
 10
101.5056197134146
 20
46.77027823907991
 30
0.0
 10
101.5043359554959
 20
46.80508276519731
 30
0.0
  0
SPLINE
  5
AD
330
1F
100
AcDbEntity
  8
0
  6
Continuous
 62
     7
370
    25
100
AcDbSpline
210
0.0
220
0.0
230
1.0
 70
     8
 71
     3
 72
    23
 73
    19
 74
     0
 42
0.000000001
 43
0.00000001
 40
0.0
 40
0.0
 40
0.0
 40
0.0
 40
0.0652308037420295
 40
0.128404896003223
 40
0.1900670715964783
 40
0.2509433657682803
 40
0.3115458328521435
 40
0.3728628021568293
 40
0.4350236738562387
 40
0.4990717247070434
 40
0.5630910750496626
 40
0.625510106330375
 40
0.6866800359296493
 40
0.7472825030135126
 40
0.8085634952159588
 40
0.8707421035159857
 40
0.9343409515059125
 40
1.0
 40
1.0
 40
1.0
 40
1.0
 10
103.0107462119062
 20
46.76551946391527
 30
0.0
 10
103.0100632749806
 20
46.74011053796158
 30
0.0
 10
103.0087189339658
 20
46.69009382335018
 30
0.0
 10
102.9983733263287
 20
46.6166603932259
 30
0.0
 10
102.9820696749547
 20
46.54609686753078
 30
0.0
 10
102.9583037778489
 20
46.47869571591977
 30
0.0
 10
102.9279449533044
 20
46.41421501459151
 30
0.0
 10
102.8915600459612
 20
46.35228473165684
 30
0.0
 10
102.8472702742778
 20
46.2940690101524
 30
0.0
 10
102.7977953058607
 20
46.23881816785818
 30
0.0
 10
102.7429974597927
 20
46.18865595543465
 30
0.0
 10
102.6848536478599
 20
46.14424448717928
 30
0.0
 10
102.6234244471469
 20
46.10693963594062
 30
0.0
 10
102.5587409714802
 20
46.07667254907307
 30
0.0
 10
102.4909029289369
 20
46.05316906436029
 30
0.0
 10
102.4199971150167
 20
46.03603503218628
 30
0.0
 10
102.3459746354023
 20
46.02590675160068
 30
0.0
 10
102.2956330816407
 20
46.0245314010899
 30
0.0
 10
102.2700611157523
 20
46.02383276519732
 30
0.0
  0
SPLINE
  5
AE
330
1F
100
AcDbEntity
  8
0
  6
Continuous
 62
     7
370
    25
100
AcDbSpline
210
0.0
220
0.0
230
1.0
 70
     8
 71
     3
 72
     9
 73
     5
 74
     0
 42
0.000000001
 43
0.00000001
 40
0.0
 40
0.0
 40
0.0
 40
0.0
 40
0.5126593363417816
 40
1.0
 40
1.0
 40
1.0
 40
1.0
 10
102.9867077503677
 20
47.02443372673578
 30
0.0
 10
102.9937176508346
 20
46.98045495746197
 30
0.0
 10
103.0073912542783
 20
46.89466939547917
 30
0.0
 10
103.0096469295986
 20
46.8078366108189
 30
0.0
 10
103.0107462119062
 20
46.76551946391527
 30
0.0
  0
LINE
  5
AF
330
1F
100
AcDbEntity
  8
0
  6
Continuous
 62
     7
370
    25
100
AcDbLine
 10
103.9968239363
 20
46.3638768357
 30
0.0
 11
102.9867077504
 21
47.0244337267
 31
0.0
  0
LINE
  5
B0
330
1F
100
AcDbEntity
  8
0
  6
Continuous
 62
     7
370
    25
100
AcDbLine
 10
104.0684385196
 20
48.476615457
 30
0.0
 11
104.0684385196
 21
48.0143758737
 31
0.0
  0
LINE
  5
B1
330
1F
100
AcDbEntity
  8
0
  6
Continuous
 62
     7
370
    25
100
AcDbLine
 10
103.8120282632
 20
48.6233502326
 30
0.0
 11
104.0684385196
 21
48.476615457
 31
0.0
  0
LINE
  5
B2
330
1F
100
AcDbEntity
  8
0
  6
Continuous
 62
     7
370
    25
100
AcDbLine
 10
103.8120282632
 20
48.238734848
 30
0.0
 11
103.8120282632
 21
48.6233502326
 31
0.0
  0
LINE
  5
B3
330
1F
100
AcDbEntity
  8
0
  6
Continuous
 62
     7
370
    25
100
AcDbLine
 10
101.5684385196
 20
48.238734848
 30
0.0
 11
103.8120282632
 21
48.238734848
 31
0.0
  0
LINE
  5
B4
330
1F
100
AcDbEntity
  8
0
  6
Continuous
 62
     7
370
    25
100
AcDbLine
 10
101.5684385196
 20
48.0143758737
 30
0.0
 11
101.5684385196
 21
48.238734848
 31
0.0
  0
LINE
  5
B5
330
1F
100
AcDbEntity
  8
0
  6
Continuous
 62
     7
370
    25
100
AcDbLine
 10
104.0684385196
 20
48.0143758737
 30
0.0
 11
101.5684385196
 21
48.0143758737
 31
0.0
  0
LINE
  5
B6
330
1F
100
AcDbEntity
  8
0
  6
Continuous
 62
     7
370
    25
100
AcDbLine
 10
102.9399515921
 20
55.9310071673
 30
0.0
 11
105.5683295864
 21
55.9310071673
 31
0.0
  0
SPLINE
  5
B7
330
1F
100
AcDbEntity
  8
0
  6
Continuous
 62
     7
370
    25
100
AcDbSpline
210
0.0
220
0.0
230
1.0
 70
     8
 71
     3
 72
    16
 73
    12
 74
     0
 42
0.000000001
 43
0.00000001
 40
0.0
 40
0.0
 40
0.0
 40
0.0
 40
0.2499999999999999
 40
0.2499999999999999
 40
0.4999999999999999
 40
0.4999999999999999
 40
0.6249999999999999
 40
0.6249999999999999
 40
0.7499999999999998
 40
0.7499999999999998
 40
1.0
 40
1.0
 40
1.0
 40
1.0
 10
105.5683295863611
 20
40.34254989921438
 30
0.0
 10
105.9345488791154
 20
41.6111707427394
 30
0.0
 10
106.2414595114032
 20
42.90977820931575
 30
0.0
 10
106.6610178405826
 20
45.51228357504843
 30
0.0
 10
106.7742450794016
 20
46.82127014086167
 30
0.0
 10
106.7740286786561
 20
48.79837170582051
 30
0.0
 10
106.7459452427857
 20
49.45964928749956
 30
0.0
 10
106.6344179154742
 20
50.7866388656024
 30
0.0
 10
106.5517902596907
 20
51.44348006632246
 30
0.0
 10
106.2349090659514
 20
53.39472105026618
 30
0.0
 10
105.9320576292609
 20
54.67101626645402
 30
0.0
 10
105.568329586361
 20
55.93100716733429
 30
0.0
  0
SPLINE
  5
B8
330
1F
100
AcDbEntity
  8
0
  6
Continuous
 62
     7
370
    25
100
AcDbSpline
210
0.0
220
0.0
230
1.0
 70
     8
 71
     3
 72
     8
 73
     4
 74
     0
 42
0.000000001
 43
0.00000001
 40
0.0
 40
0.0
 40
0.0
 40
0.0
 40
1.0
 40
1.0
 40
1.0
 40
1.0
 10
102.9399515920664
 20
40.3425498992144
 30
0.0
 10
102.912327433264
 20
40.5487394275483
 30
0.0
 10
102.8855156318509
 20
40.75500112069544
 30
0.0
 10
102.859566834337
 20
40.96133947777897
 30
0.0
  0
SPLINE
  5
B9
330
1F
100
AcDbEntity
  8
0
  6
Continuous
 62
     7
370
    25
100
AcDbSpline
210
0.0
220
0.0
230
1.0
 70
     8
 71
     3
 72
     8
 73
     4
 74
     0
 42
0.000000001
 43
0.00000001
 40
0.0
 40
0.0
 40
0.0
 40
0.0
 40
1.0
 40
1.0
 40
1.0
 40
1.0
 10
102.859566834337
 20
40.96133947777897
 30
0.0
 10
102.8336101416066
 20
40.75493833990439
 30
0.0
 10
102.8067980031046
 20
40.54867798078357
 30
0.0
 10
102.7791820766077
 20
40.3425498992144
 30
0.0
  0
SPLINE
  5
BA
330
1F
100
AcDbEntity
  8
0
  6
Continuous
 62
     7
370
    25
100
AcDbSpline
210
0.0
220
0.0
230
1.0
 70
     8
 71
     3
 72
    16
 73
    12
 74
     0
 42
0.000000001
 43
0.00000001
 40
0.0
 40
0.0
 40
0.0
 40
0.0
 40
0.25
 40
0.25
 40
0.5
 40
0.5
 40
0.625
 40
0.625
 40
0.75
 40
0.75
 40
1.0
 40
1.0
 40
1.0
 40
1.0
 10
100.150804082313
 20
40.34254989921438
 30
0.0
 10
99.7844212582712
 20
41.61173723173647
 30
0.0
 10
99.47762730509551
 20
42.91008795721319
 30
0.0
 10
99.05818286286853
 20
45.51184863611214
 30
0.0
 10
98.94487580682258
 20
46.82089891384891
 30
0.0
 10
98.94511141997859
 20
48.79889625699522
 30
0.0
 10
98.97328622997964
 20
49.46129493707712
 30
0.0
 10
99.08486616315737
 20
50.78794547640147
 30
0.0
 10
99.16744832376
 20
51.4441992817332
 30
0.0
 10
99.48425053927107
 20
53.39473430098595
 30
0.0
 10
99.78704698921284
 20
54.67091563360797
 30
0.0
 10
100.1508040823131
 20
55.93100716733429
 30
0.0
  0
LINE
  5
BB
330
1F
100
AcDbEntity
  8
0
  6
Continuous
 62
     7
370
    25
100
AcDbLine
 10
100.1508040823
 20
55.9310071673
 30
0.0
 11
102.7791820766
 21
55.9310071673
 31
0.0
  0
SPLINE
  5
BC
330
1F
100
AcDbEntity
  8
0
  6
Continuous
 62
     7
370
    25
100
AcDbSpline
210
0.0
220
0.0
230
1.0
 70
     8
 71
     3
 72
     8
 73
     4
 74
     0
 42
0.000000001
 43
0.00000001
 40
0.0
 40
0.0
 40
0.0
 40
0.0
 40
1.0
 40
1.0
 40
1.0
 40
1.0
 10
102.7791820766077
 20
55.9310071673343
 30
0.0
 10
102.8068062354101
 20
55.72481763900038
 30
0.0
 10
102.8336180368232
 20
55.51855594585324
 30
0.0
 10
102.859566834337
 20
55.31221758876969
 30
0.0
  0
SPLINE
  5
BD
330
1F
100
AcDbEntity
  8
0
  6
Continuous
 62
     7
370
    25
100
AcDbSpline
210
0.0
220
0.0
230
1.0
 70
     8
 71
     3
 72
     8
 73
     4
 74
     0
 42
0.000000001
 43
0.00000001
 40
0.0
 40
0.0
 40
0.0
 40
0.0
 40
1.0
 40
1.0
 40
1.0
 40
1.0
 10
102.859566834337
 20
55.31221758876969
 30
0.0
 10
102.8855235270675
 20
55.51861872664427
 30
0.0
 10
102.9123356655695
 20
55.7248790857651
 30
0.0
 10
102.9399515920664
 20
55.93100716733429
 30
0.0
  0
LINE
  5
BE
330
1F
100
AcDbEntity
  8
0
  6
Continuous
 62
     7
370
    25
100
AcDbLine
 10
102.8595668343
 20
40.0331551099
 30
0.0
 11
102.8595668343
 21
40.9613394778
 31
0.0
  0
LINE
  5
BF
330
1F
100
AcDbEntity
  8
0
  6
Continuous
 62
     7
370
    25
100
AcDbLine
 10
102.9399515921
 20
63.7252358014
 30
0.0
 11
105.5683295864
 21
63.7252358014
 31
0.0
  0
SPLINE
  5
C0
330
1F
100
AcDbEntity
  8
0
  6
Continuous
 62
     7
370
    25
100
AcDbSpline
210
0.0
220
0.0
230
1.0
 70
     8
 71
     3
 72
    16
 73
    12
 74
     0
 42
0.000000001
 43
0.00000001
 40
0.0
 40
0.0
 40
0.0
 40
0.0
 40
0.25
 40
0.25
 40
0.5
 40
0.5
 40
0.625
 40
0.625
 40
0.75
 40
0.75
 40
1.0
 40
1.0
 40
1.0
 40
1.0
 10
105.5683295863613
 20
55.93100716733427
 30
0.0
 10
105.9357119490473
 20
56.56733208531112
 30
0.0
 10
106.2385015094415
 20
57.20829623626378
 30
0.0
 10
106.6579633177468
 20
58.50359199619538
 30
0.0
 10
106.7732519432014
 20
59.15802298075024
 30
0.0
 10
106.7745183400653
 20
60.15199902142039
 30
0.0
 10
106.7463347829763
 20
60.48488374802498
 30
0.0
 10
106.6364336139343
 20
61.14336478158523
 30
0.0
 10
106.5548275518614
 20
61.47039765786399
 30
0.0
 10
106.2397089569705
 20
62.4456739175776
 30
0.0
 10
105.9361699406344
 20
63.08811761871891
 30
0.0
 10
105.5683295863612
 20
63.72523580139425
 30
0.0
  0
SPLINE
  5
C1
330
1F
100
AcDbEntity
  8
0
  6
Continuous
 62
     7
370
    25
100
AcDbSpline
210
0.0
220
0.0
230
1.0
 70
     8
 71
     3
 72
     8
 73
     4
 74
     0
 42
0.000000001
 43
0.00000001
 40
0.0
 40
0.0
 40
0.0
 40
0.0
 40
1.0
 40
1.0
 40
1.0
 40
1.0
 10
102.9399515920664
 20
55.93100716733429
 30
0.0
 10
102.9123285359726
 20
56.03409781613674
 30
0.0
 10
102.8855166888553
 20
56.13722857555729
 30
0.0
 10
102.859566834337
 20
56.24040195661658
 30
0.0
  0
SPLINE
  5
C2
330
1F
100
AcDbEntity
  8
0
  6
Continuous
 62
     7
370
    25
100
AcDbSpline
210
0.0
220
0.0
230
1.0
 70
     8
 71
     3
 72
     8
 73
     4
 74
     0
 42
0.000000001
 43
0.00000001
 40
0.0
 40
0.0
 40
0.0
 40
0.0
 40
1.0
 40
1.0
 40
1.0
 40
1.0
 10
102.859566834337
 20
56.24040195661659
 30
0.0
 10
102.8336097706926
 20
56.13719991297169
 30
0.0
 10
102.8067976165982
 20
56.03406976565712
 30
0.0
 10
102.7791820766077
 20
55.93100716733429
 30
0.0
  0
SPLINE
  5
C3
330
1F
100
AcDbEntity
  8
0
  6
Continuous
 62
     7
370
    25
100
AcDbSpline
210
0.0
220
0.0
230
1.0
 70
     8
 71
     3
 72
    16
 73
    12
 74
     0
 42
0.000000001
 43
0.00000001
 40
0.0
 40
0.0
 40
0.0
 40
0.0
 40
0.25
 40
0.25
 40
0.5
 40
0.5
 40
0.625
 40
0.625
 40
0.75
 40
0.75
 40
1.0
 40
1.0
 40
1.0
 40
1.0
 10
100.1508040823128
 20
63.72523580139425
 30
0.0
 10
99.78342171962682
 20
63.08891088341739
 30
0.0
 10
99.48063215923264
 20
62.44794673246474
 30
0.0
 10
99.06117035092728
 20
61.15265097253313
 30
0.0
 10
98.9458817254727
 20
60.49821998797827
 30
0.0
 10
98.9446153286088
 20
59.50424394730813
 30
0.0
 10
98.97279888569783
 20
59.17135922070354
 30
0.0
 10
99.08270005473979
 20
58.51287818714329
 30
0.0
 10
99.16430611681272
 20
58.18584531086454
 30
0.0
 10
99.47942471170356
 20
57.21056905115093
 30
0.0
 10
99.78296372803973
 20
56.56812535000961
 30
0.0
 10
100.1508040823129
 20
55.93100716733428
 30
0.0
  0
LINE
  5
C4
330
1F
100
AcDbEntity
  8
0
  6
Continuous
 62
     7
370
    25
100
AcDbLine
 10
100.1508040823
 20
63.7252358014
 30
0.0
 11
102.7791820766
 21
63.7252358014
 31
0.0
  0
SPLINE
  5
C5
330
1F
100
AcDbEntity
  8
0
  6
Continuous
 62
     7
370
    25
100
AcDbSpline
210
0.0
220
0.0
230
1.0
 70
     8
 71
     3
 72
     8
 73
     4
 74
     0
 42
0.000000001
 43
0.00000001
 40
0.0
 40
0.0
 40
0.0
 40
0.0
 40
1.0
 40
1.0
 40
1.0
 40
1.0
 10
102.7791820766077
 20
63.72523580139423
 30
0.0
 10
102.8068051327015
 20
63.62214515259176
 30
0.0
 10
102.8336169798188
 20
63.51901439317122
 30
0.0
 10
102.859566834337
 20
63.41584101211194
 30
0.0
  0
SPLINE
  5
C6
330
1F
100
AcDbEntity
  8
0
  6
Continuous
 62
     7
370
    25
100
AcDbSpline
210
0.0
220
0.0
230
1.0
 70
     8
 71
     3
 72
     8
 73
     4
 74
     0
 42
0.000000001
 43
0.00000001
 40
0.0
 40
0.0
 40
0.0
 40
0.0
 40
1.0
 40
1.0
 40
1.0
 40
1.0
 10
102.859566834337
 20
63.41584101211194
 30
0.0
 10
102.8855238979815
 20
63.51904305575682
 30
0.0
 10
102.9123360520759
 20
63.62217320307141
 30
0.0
 10
102.9399515920664
 20
63.72523580139423
 30
0.0
  0
LINE
  5
C7
330
1F
100
AcDbEntity
  8
0
  6
Continuous
 62
     7
370
    25
100
AcDbLine
 10
106.9184385196
 20
61.3867785333
 30
0.0
 11
106.9184385196
 21
34.8867785333
 31
0.0
  0
LINE
  5
C8
330
1F
100
AcDbEntity
  8
0
  6
Continuous
 62
     7
370
    25
100
AcDbLine
 10
102.8595668343
 20
55.3122175888
 30
0.0
 11
102.8595668343
 21
56.2404019566
 31
0.0
  0
SPLINE
  5
C9
330
1F
100
AcDbEntity
  8
0
  6
Continuous
 62
     7
370
    25
100
AcDbSpline
210
0.0
220
0.0
230
1.0
 70
     8
 71
     3
 72
    23
 73
    19
 74
     0
 42
0.000000001
 43
0.00000001
 40
0.0
 40
0.0
 40
0.0
 40
0.0
 40
0.0611415679303345
 40
0.1200010135310723
 40
0.1782359705414084
 40
0.236495543407017
 40
0.294887248704973
 40
0.3546771928192958
 40
0.4166948132897783
 40
0.4806333779628394
 40
0.5458046334786406
 40
0.6097347883178744
 40
0.6729516883751544
 40
0.7360010960706833
 40
0.799827438516525
 40
0.8647672769393869
 40
0.9310835057306723
 40
1.0
 40
1.0
 40
1.0
 40
1.0
 10
102.2565394811369
 20
46.24819173955629
 30
0.0
 10
102.2736089985539
 20
46.24858022462802
 30
0.0
 10
102.3071109099351
 20
46.24934269448165
 30
0.0
 10
102.3561452659402
 20
46.25813365290863
 30
0.0
 10
102.4036866138294
 20
46.27000730531164
 30
0.0
 10
102.4486640080374
 20
46.28919621587389
 30
0.0
 10
102.4923212544214
 20
46.31205177464664
 30
0.0
 10
102.5334105962731
 20
46.34116825513893
 30
0.0
 10
102.5730961020131
 20
46.37455101270223
 30
0.0
 10
102.6099167915634
 20
46.41321148514366
 30
0.0
 10
102.6435959910043
 20
46.45527061822625
 30
0.0
 10
102.6733235285638
 20
46.4999974411483
 30
0.0
 10
102.6984129863065
 20
46.54678848123837
 30
0.0
 10
102.7193465804209
 20
46.5955985387973
 30
0.0
 10
102.7344533613466
 20
46.64698628529879
 30
0.0
 10
102.7463485312115
 20
46.70012224921783
 30
0.0
 10
102.7526785448953
 20
46.75568599196027
 30
0.0
 10
102.753776448437
 20
46.79338356960552
 30
0.0
 10
102.7543359554959
 20
46.81259478442809
 30
0.0
  0
SPLINE
  5
CA
330
1F
100
AcDbEntity
  8
0
  6
Continuous
 62
     7
370
    25
100
AcDbSpline
210
0.0
220
0.0
230
1.0
 70
     8
 71
     3
 72
    23
 73
    19
 74
     0
 42
0.000000001
 43
0.00000001
 40
0.0
 40
0.0
 40
0.0
 40
0.0
 40
0.0679503475997536
 40
0.1332598223836994
 40
0.197800296759647
 40
0.2608458295516823
 40
0.3233192927503669
 40
0.386281722459572
 40
0.4500615162333126
 40
0.515207584485815
 40
0.5796407692199315
 40
0.6418172023841521
 40
0.7016924412115348
 40
0.7607690981778943
 40
0.8192540511346831
 40
0.8787376269055533
 40
0.9381582970160908
 40
0.9999999999999999
 40
0.9999999999999999
 40
0.9999999999999999
 40
0.9999999999999999
 10
101.7607462119062
 20
46.79306353442809
 30
0.0
 10
101.7612955269747
 20
46.77451671938911
 30
0.0
 10
101.7623728081227
 20
46.73814390651646
 30
0.0
 10
101.7688588981197
 20
46.68444900970863
 30
0.0
 10
101.7803313833041
 20
46.63296289967576
 30
0.0
 10
101.7966344453378
 20
46.58364976827026
 30
0.0
 10
101.8164995150645
 20
46.53609875250232
 30
0.0
 10
101.8418467817775
 20
46.4909844954616
 30
0.0
 10
101.8714755342902
 20
46.4476979222431
 30
0.0
 10
101.9053731229872
 20
46.40718123440121
 30
0.0
 10
101.9418027454349
 20
46.36942842479563
 30
0.0
 10
101.9818170812158
 20
46.33784500634426
 30
0.0
 10
102.0223422851242
 20
46.30934120335209
 30
0.0
 10
102.0658396551473
 20
46.2877505689486
 30
0.0
 10
102.1107336542788
 20
46.26965028619087
 30
0.0
 10
102.157708588852
 20
46.25748237024538
 30
0.0
 10
102.2065222885445
 20
46.24951642748209
 30
0.0
 10
102.2396466383634
 20
46.2486391406137
 30
0.0
 10
102.2565394811369
 20
46.24819173955629
 30
0.0
  0
SPLINE
  5
CB
330
1F
100
AcDbEntity
  8
0
  6
Continuous
 62
     7
370
    25
100
AcDbSpline
210
0.0
220
0.0
230
1.0
 70
     8
 71
     3
 72
    23
 73
    19
 74
     0
 42
0.000000001
 43
0.00000001
 40
0.0
 40
0.0
 40
0.0
 40
0.0
 40
0.0618526459466919
 40
0.12128383061537
 40
0.1807779320756125
 40
0.2392732340142804
 40
0.2986414352139415
 40
0.3581858222417119
 40
0.4207600867589708
 40
0.4852046730216432
 40
0.5503622689482868
 40
0.613649924530912
 40
0.6766234955168249
 40
0.7391080134690126
 40
0.8021647022429446
 40
0.8667165971324776
 40
0.9320376285055444
 40
1.0
 40
1.0
 40
1.0
 40
1.0
 10
102.2565394811369
 20
47.33793532929987
 30
0.0
 10
102.2396472813754
 20
47.33748677545412
 30
0.0
 10
102.2065241924075
 20
47.33660722813938
 30
0.0
 10
102.1577013167183
 20
47.32865773605071
 30
0.0
 10
102.1107607996333
 20
47.31642811662861
 30
0.0
 10
102.0656683084652
 20
47.29852719425896
 30
0.0
 10
102.0226698156928
 20
47.27607420349619
 30
0.0
 10
101.9814598904591
 20
47.24844332260967
 30
0.0
 10
101.9420100887257
 20
47.21610240912962
 30
0.0
 10
101.905315194474
 20
47.17850673888739
 30
0.0
 10
101.8716577457416
 20
47.13796345349647
 30
0.0
 10
101.8416890902049
 20
47.09508624382125
 30
0.0
 10
101.8165234332483
 20
47.05001144274251
 30
0.0
 10
101.7966279978282
 20
47.00248184912402
 30
0.0
 10
101.7803331619244
 20
46.95316291441343
 30
0.0
 10
101.7688584134013
 20
46.90167840110284
 30
0.0
 10
101.7623729356584
 20
46.8479830723668
 30
0.0
 10
101.7612955700446
 20
46.81161031908247
 30
0.0
 10
101.7607462119062
 20
46.79306353442809
 30
0.0
  0
SPLINE
  5
CC
330
1F
100
AcDbEntity
  8
0
  6
Continuous
 62
     7
370
    25
100
AcDbSpline
210
0.0
220
0.0
230
1.0
 70
     8
 71
     3
 72
    23
 73
    19
 74
     0
 42
0.000000001
 43
0.00000001
 40
0.0
 40
0.0
 40
0.0
 40
0.0
 40
0.0705921865358073
 40
0.1385012886049301
 40
0.2037899961427013
 40
0.2667875726696012
 40
0.3290979656467186
 40
0.3911745246039659
 40
0.4531677986176574
 40
0.5157967602265847
 40
0.5779688050530403
 40
0.6389663383752914
 40
0.698381066162843
 40
0.7573204555574266
 40
0.8164122397216688
 40
0.8762793582308311
 40
0.9368234656501931
 40
0.9999999999999999
 40
0.9999999999999999
 40
0.9999999999999999
 40
0.9999999999999999
 10
102.7543359554959
 20
46.81259478442809
 30
0.0
 10
102.7537728480716
 20
46.83163864749111
 30
0.0
 10
102.7526680359427
 20
46.86900254998061
 30
0.0
 10
102.7464280490777
 20
46.92375164367266
 30
0.0
 10
102.7346049847104
 20
46.97542819981549
 30
0.0
 10
102.7193115787833
 20
47.02462244895573
 30
0.0
 10
102.6984885364552
 20
47.07082165786823
 30
0.0
 10
102.6734949822147
 20
47.1145528222488
 30
0.0
 10
102.6437792800934
 20
47.15538200216034
 30
0.0
 10
102.6096727528666
 20
47.19259216638063
 30
0.0
 10
102.5728764957335
 20
47.22676028710455
 30
0.0
 10
102.5332282895024
 20
47.25615045056283
 30
0.0
 10
102.4919394562011
 20
47.28153005241004
 30
0.0
 10
102.4486219308947
 20
47.30215822024832
 30
0.0
 10
102.4033035001035
 20
47.31822301741143
 30
0.0
 10
102.3561896153434
 20
47.32984307231591
 30
0.0
 10
102.3069651474183
 20
47.33631007098232
 30
0.0
 10
102.273584783287
 20
47.33738594599694
 30
0.0
 10
102.2565394811369
 20
47.33793532929988
 30
0.0
  0
LINE
  5
CD
330
1F
100
AcDbEntity
  8
0
  6
Continuous
 62
     7
370
    25
100
AcDbLine
 10
83.5236148586
 20
61.1408777939
 30
0.0
 11
83.5236148586
 21
35.1326792727
 31
0.0
  0
LINE
  5
CE
330
1F
100
AcDbEntity
  8
0
  6
Continuous
 62
     7
370
    25
100
AcDbLine
 10
98.9184385196
 20
48.1367785333
 30
0.0
 11
98.9184385196
 21
34.6515910333
 31
0.0
  0
LINE
  5
CF
330
1F
100
AcDbEntity
  8
0
  6
Continuous
 62
     7
370
    25
100
AcDbLine
 10
98.9184385196
 20
61.6219660333
 30
0.0
 11
98.9184385196
 21
48.1367785333
 31
0.0
  0
LINE
  5
D0
330
1F
100
AcDbEntity
  8
0
  6
Continuous
 62
     7
370
    25
100
AcDbLine
 10
80.9184385196
 20
36.6367785333
 30
0.0
 11
80.9184385196
 21
59.6367785333
 31
0.0
  0
LINE
  5
D1
330
1F
100
AcDbEntity
  8
0
  6
Continuous
 62
     7
370
    25
100
AcDbLine
 10
118.4184385196
 20
61.1367785333
 30
0.0
 11
118.4184385196
 21
35.1367785333
 31
0.0
  0
LINE
  5
D2
330
1F
100
AcDbEntity
  8
0
  6
Continuous
 62
     7
370
    25
100
AcDbLine
 10
130.4184385196
 20
61.1367785333
 30
0.0
 11
130.4184385196
 21
35.1367785333
 31
0.0
  0
LINE
  5
D3
330
1F
100
AcDbEntity
  8
0
  6
Continuous
 62
     7
370
    25
100
AcDbLine
 10
136.4184385196
 20
61.1367785333
 30
0.0
 11
136.4184385196
 21
35.1367785333
 31
0.0
  0
LINE
  5
D4
330
1F
100
AcDbEntity
  8
0
  6
Continuous
 62
     7
370
    25
100
AcDbLine
 10
124.4184385196
 20
61.1367785333
 30
0.0
 11
124.4184385196
 21
35.1367785333
 31
0.0
  0
LINE
  5
D5
330
1F
100
AcDbEntity
  8
0
  6
Continuous
 62
     7
370
    25
100
AcDbLine
 10
144.9184385196
 20
59.6921537456
 30
0.0
 11
144.9184385196
 21
36.5814033206
 31
0.0
  0
LINE
  5
D6
330
1F
100
AcDbEntity
  8
0
  6
Continuous
 62
     7
370
    25
100
AcDbLine
 10
102.8595668343
 20
63.4158410121
 30
0.0
 11
102.8595668343
 21
63.4252358014
 31
0.0
  0
LINE
  5
D7
330
1F
100
AcDbEntity
  8
0
  6
Continuous
 62
     7
370
    25
100
AcDbLine
 10
102.8595668343
 20
32.8483212652
 30
0.0
 11
102.8595668343
 21
32.8577160544
 31
0.0
  0
LINE
  5
D8
330
1F
100
AcDbEntity
  8
0
  6
Continuous
 62
     8
370
    25
100
AcDbLine
 10
144.4768591434
 20
36.0848280184
 30
0.0
 11
144.4768591434
 21
60.1887290481
 31
0.0
  0
LINE
  5
D9
330
1F
100
AcDbEntity
  8
0
  6
Continuous
 62
     7
370
    18
100
AcDbLine
 10
81.7920660681
 20
60.1411676336
 30
0.0
 11
98.4184385196
 21
60.6607417727
 31
0.0
  0
LINE
  5
DA
330
1F
100
AcDbEntity
  8
0
  6
Continuous
 62
     7
370
    18
100
AcDbLine
 10
81.7920660681
 20
36.132389433
 30
0.0
 11
98.4184385196
 21
35.6128152939
 31
0.0
  0
LINE
  5
DB
330
1F
100
AcDbEntity
  8
0
  6
Continuous
 62
     7
370
    18
100
AcDbLine
 10
98.4184385196
 20
34.6672160333
 30
0.0
 11
98.4184385196
 21
61.6063410333
 31
0.0
  0
LINE
  5
DC
330
1F
100
AcDbEntity
  8
0
  6
CENTERX2
 62
     7
370
    18
100
AcDbLine
 10
145.9184385196
 20
48.1367785333
 30
0.0
 11
79.1339953191
 21
48.1367785333
 31
0.0
  0
CIRCLE
  5
DD
330
1F
100
AcDbEntity
  8
0
  6
Continuous
 62
     7
370
    25
100
AcDbCircle
 10
172.3409176124
 20
48.1367785333
 30
0.0
 40
11.55537521268754
  0
CIRCLE
  5
DE
330
1F
100
AcDbEntity
  8
0
  6
Continuous
 62
     7
370
    25
100
AcDbCircle
 10
172.3409176124
 20
48.1367785333
 30
0.0
 40
9.199999999999982
  0
CIRCLE
  5
DF
330
1F
100
AcDbEntity
  8
0
  6
Continuous
 62
     7
370
    25
100
AcDbCircle
 10
172.3409176124
 20
48.1367785333
 30
0.0
 40
12.05195051484898
  0
CIRCLE
  5
E0
330
1F
100
AcDbEntity
  8
0
  6
Continuous
 62
     7
370
    25
100
AcDbCircle
 10
172.3409176124
 20
48.1367785333
 30
0.0
 40
8.999999999999972
  0
CIRCLE
  5
E1
330
1F
100
AcDbEntity
  8
0
  6
Continuous
 62
     7
370
    25
100
AcDbCircle
 10
172.3409176124
 20
48.1367785333
 30
0.0
 40
13.0
  0
CIRCLE
  5
E2
330
1F
100
AcDbEntity
  8
0
  6
Continuous
 62
     7
370
    25
100
AcDbCircle
 10
172.3409176124
 20
48.1367785333
 30
0.0
 40
13.25000000000003
  0
SPLINE
  5
E3
330
1F
100
AcDbEntity
  8
0
  6
Continuous
 62
     7
370
    25
100
AcDbSpline
210
0.0
220
0.0
230
1.0
 70
    24
 71
     3
 72
    16
 73
    12
 74
     0
 42
0.000000001
 43
0.00000001
 40
0.0
 40
0.0
 40
0.0
 40
0.0
 40
0.2500000000000002
 40
0.2500000000000002
 40
0.5000000000000003
 40
0.5000000000000003
 40
0.6250000000000003
 40
0.6250000000000003
 40
0.7500000000000004
 40
0.7500000000000004
 40
1.0
 40
1.0
 40
1.0
 40
1.0
 10
172.3409176123732
 20
32.54832126515443
 30
0.0
 10
171.2387705243152
 20
33.18464618313127
 30
0.0
 10
170.128588049035
 20
33.82561033408393
 30
0.0
 10
167.8850699820049
 20
35.12090609401555
 30
0.0
 10
166.7515622667086
 20
35.7753370785704
 30
0.0
 10
165.0299452627617
 20
36.76931311924054
 30
0.0
 10
164.4533720032189
 20
37.10219784584514
 30
0.0
 10
163.3128493972721
 20
37.7606788794054
 30
0.0
 10
162.7464118398119
 20
38.08771175568415
 30
0.0
 10
161.0571838065722
 20
39.06298801539776
 30
0.0
 10
159.9444386751928
 20
39.70543171653907
 30
0.0
 10
158.8409176123732
 20
40.3425498992144
 30
0.0
  0
SPLINE
  5
E4
330
1F
100
AcDbEntity
  8
0
  6
Continuous
 62
     7
370
    25
100
AcDbSpline
210
0.0
220
0.0
230
1.0
 70
    24
 71
     3
 72
    16
 73
    12
 74
     0
 42
0.000000001
 43
0.00000001
 40
0.0
 40
0.0
 40
0.0
 40
0.0
 40
0.2499999999999999
 40
0.2499999999999999
 40
0.4999999999999999
 40
0.4999999999999999
 40
0.6249999999999999
 40
0.6249999999999999
 40
0.7499999999999998
 40
0.7499999999999998
 40
1.0
 40
1.0
 40
1.0
 40
1.0
 10
158.8409176123732
 20
40.34254989921438
 30
0.0
 10
158.8409176123732
 20
41.6111707427394
 30
0.0
 10
158.8409176123732
 20
42.90977820931575
 30
0.0
 10
158.8409176123732
 20
45.51228357504843
 30
0.0
 10
158.8409176123732
 20
46.82127014086167
 30
0.0
 10
158.8409176123732
 20
48.79837170582051
 30
0.0
 10
158.8409176123732
 20
49.45964928749956
 30
0.0
 10
158.8409176123732
 20
50.7866388656024
 30
0.0
 10
158.8409176123732
 20
51.44348006632246
 30
0.0
 10
158.8409176123732
 20
53.39472105026618
 30
0.0
 10
158.8409176123732
 20
54.67101626645402
 30
0.0
 10
158.8409176123732
 20
55.93100716733429
 30
0.0
  0
SPLINE
  5
E5
330
1F
100
AcDbEntity
  8
0
  6
Continuous
 62
     7
370
    25
100
AcDbSpline
210
0.0
220
0.0
230
1.0
 70
    24
 71
     3
 72
    16
 73
    12
 74
     0
 42
0.000000001
 43
0.00000001
 40
0.0
 40
0.0
 40
0.0
 40
0.0
 40
0.25
 40
0.25
 40
0.5
 40
0.5
 40
0.625
 40
0.625
 40
0.75
 40
0.75
 40
1.0
 40
1.0
 40
1.0
 40
1.0
 10
158.8409176123732
 20
55.93100716733427
 30
0.0
 10
159.9430647004312
 20
56.56733208531112
 30
0.0
 10
161.0532471757114
 20
57.20829623626378
 30
0.0
 10
163.2967652427415
 20
58.50359199619538
 30
0.0
 10
164.4302729580378
 20
59.15802298075024
 30
0.0
 10
166.1518899619847
 20
60.15199902142039
 30
0.0
 10
166.7284632215275
 20
60.48488374802498
 30
0.0
 10
167.8689858274744
 20
61.14336478158523
 30
0.0
 10
168.4354233849346
 20
61.47039765786399
 30
0.0
 10
170.1246514181743
 20
62.4456739175776
 30
0.0
 10
171.2373965495536
 20
63.08811761871891
 30
0.0
 10
172.3409176123732
 20
63.72523580139425
 30
0.0
  0
SPLINE
  5
E6
330
1F
100
AcDbEntity
  8
0
  6
Continuous
 62
     7
370
    25
100
AcDbSpline
210
0.0
220
0.0
230
1.0
 70
    24
 71
     3
 72
    16
 73
    12
 74
     0
 42
0.000000001
 43
0.00000001
 40
0.0
 40
0.0
 40
0.0
 40
0.0
 40
0.2500000000000002
 40
0.2500000000000002
 40
0.5000000000000004
 40
0.5000000000000004
 40
0.6250000000000003
 40
0.6250000000000003
 40
0.7500000000000002
 40
0.7500000000000002
 40
1.0
 40
1.0
 40
1.0
 40
1.0
 10
172.3409176123732
 20
63.72523580139425
 30
0.0
 10
173.4430647004312
 20
63.08891088341741
 30
0.0
 10
174.5532471757114
 20
62.44794673246474
 30
0.0
 10
176.7967652427415
 20
61.15265097253313
 30
0.0
 10
177.9302729580379
 20
60.49821998797827
 30
0.0
 10
179.6518899619847
 20
59.50424394730813
 30
0.0
 10
180.2284632215275
 20
59.17135922070354
 30
0.0
 10
181.3689858274744
 20
58.51287818714329
 30
0.0
 10
181.9354233849346
 20
58.18584531086454
 30
0.0
 10
183.6246514181742
 20
57.21056905115093
 30
0.0
 10
184.7373965495536
 20
56.56812535000961
 30
0.0
 10
185.8409176123732
 20
55.93100716733428
 30
0.0
  0
SPLINE
  5
E7
330
1F
100
AcDbEntity
  8
0
  6
Continuous
 62
     7
370
    25
100
AcDbSpline
210
0.0
220
0.0
230
1.0
 70
    24
 71
     3
 72
    16
 73
    12
 74
     0
 42
0.000000001
 43
0.00000001
 40
0.0
 40
0.0
 40
0.0
 40
0.0
 40
0.2499999999999999
 40
0.2499999999999999
 40
0.4999999999999999
 40
0.4999999999999999
 40
0.6249999999999999
 40
0.6249999999999999
 40
0.7499999999999998
 40
0.7499999999999998
 40
1.0
 40
1.0
 40
1.0
 40
1.0
 10
185.8409176123732
 20
40.34254989921437
 30
0.0
 10
185.8409176123732
 20
41.6111707427394
 30
0.0
 10
185.8409176123732
 20
42.90977820931577
 30
0.0
 10
185.8409176123732
 20
45.51228357504829
 30
0.0
 10
185.8409176123732
 20
46.82127014086141
 30
0.0
 10
185.8409176123732
 20
48.79837170581998
 30
0.0
 10
185.8409176123732
 20
49.45964928749892
 30
0.0
 10
185.8409176123732
 20
50.78663886560152
 30
0.0
 10
185.8409176123732
 20
51.44348006632199
 30
0.0
 10
185.8409176123732
 20
53.39472105026602
 30
0.0
 10
185.8409176123732
 20
54.67101626645398
 30
0.0
 10
185.8409176123732
 20
55.93100716733429
 30
0.0
  0
SPLINE
  5
E8
330
1F
100
AcDbEntity
  8
0
  6
Continuous
 62
     7
370
    25
100
AcDbSpline
210
0.0
220
0.0
230
1.0
 70
    24
 71
     3
 72
    16
 73
    12
 74
     0
 42
0.000000001
 43
0.00000001
 40
0.0
 40
0.0
 40
0.0
 40
0.0
 40
0.2500000000000002
 40
0.2500000000000002
 40
0.5000000000000003
 40
0.5000000000000003
 40
0.6250000000000003
 40
0.6250000000000003
 40
0.7500000000000002
 40
0.7500000000000002
 40
1.0
 40
1.0
 40
1.0
 40
1.0
 10
185.8409176123733
 20
40.3425498992144
 30
0.0
 10
184.7387705243152
 20
39.70622498123755
 30
0.0
 10
183.628588049035
 20
39.06526083028489
 30
0.0
 10
181.3850699820049
 20
37.76996507035329
 30
0.0
 10
180.2515622667086
 20
37.11553408579842
 30
0.0
 10
178.5299452627617
 20
36.12155804512829
 30
0.0
 10
177.9533720032189
 20
35.78867331852368
 30
0.0
 10
176.8128493972721
 20
35.13019228496344
 30
0.0
 10
176.2464118398119
 20
34.80315940868469
 30
0.0
 10
174.5571838065722
 20
33.82788314897107
 30
0.0
 10
173.4444386751928
 20
33.18543944782976
 30
0.0
 10
172.3409176123732
 20
32.54832126515443
 30
0.0
  0
INSERT
  5
F4
330
1F
100
AcDbEntity
  8
0
  6
Continuous
 62
     7
370
    18
100
AcDbBlockReference
  2
SW_CENTERMARKSYMBOL_0
 10
172.3409176124
 20
48.1367785333
 30
0.0
  0
INSERT
  5
100
330
1F
100
AcDbEntity
  8
0
  6
Continuous
 62
     7
370
    18
100
AcDbBlockReference
  2
SW_CENTERMARKSYMBOL_1
 10
172.3409176124
 20
48.1367785333
 30
0.0
  0
LINE
  5
101
330
1F
100
AcDbEntity
  8
0
  6
Continuous
 62
     7
370
    25
100
AcDbLine
 10
98.9450327164
 20
105.470802487
 30
0.0
 11
98.9184385196
 21
105.424739987
 31
0.0
  0
LINE
  5
102
330
1F
100
AcDbEntity
  8
0
  6
Continuous
 62
     7
370
    25
100
AcDbLine
 10
98.9184385196
 20
78.516864987
 30
0.0
 11
98.9450327164
 21
78.470802487
 31
0.0
  0
LINE
  5
103
330
1F
100
AcDbEntity
  8
0
  6
Continuous
 62
     7
370
    25
100
AcDbLine
 10
106.7741009523
 20
78.470802487
 30
0.0
 11
106.9184385196
 21
78.720802487
 31
0.0
  0
LINE
  5
104
330
1F
100
AcDbEntity
  8
0
  6
Continuous
 62
     7
370
    25
100
AcDbLine
 10
106.9184385196
 20
105.220802487
 30
0.0
 11
106.7741009523
 21
105.470802487
 31
0.0
  0
LINE
  5
105
330
1F
100
AcDbEntity
  8
0
  6
Continuous
 62
     7
370
    25
100
AcDbLine
 10
98.9184385196
 20
105.455989987
 30
0.0
 11
83.5236148586
 21
104.9749017476
 31
0.0
  0
LINE
  5
106
330
1F
100
AcDbEntity
  8
0
  6
Continuous
 62
     7
370
    25
100
AcDbLine
 10
83.5236148586
 20
78.9667032264
 30
0.0
 11
98.9184385196
 21
78.485614987
 31
0.0
  0
LINE
  5
107
330
1F
100
AcDbEntity
  8
0
  6
Continuous
 62
     7
370
    25
100
AcDbLine
 10
83.5236148586
 20
104.9749017476
 30
0.0
 11
80.9184385196
 21
103.470802487
 31
0.0
  0
LINE
  5
108
330
1F
100
AcDbEntity
  8
0
  6
Continuous
 62
     7
370
    25
100
AcDbLine
 10
80.9184385196
 20
80.470802487
 30
0.0
 11
83.5236148586
 21
78.9667032264
 31
0.0
  0
LINE
  5
109
330
1F
100
AcDbEntity
  8
0
  6
Continuous
 62
     7
370
    25
100
AcDbLine
 10
118.4184385196
 20
104.970802487
 30
0.0
 11
106.9184385196
 21
104.970802487
 31
0.0
  0
LINE
  5
10A
330
1F
100
AcDbEntity
  8
0
  6
Continuous
 62
     7
370
    25
100
AcDbLine
 10
106.9184385196
 20
78.970802487
 30
0.0
 11
118.4184385196
 21
78.970802487
 31
0.0
  0
LINE
  5
10B
330
1F
100
AcDbEntity
  8
0
  6
Continuous
 62
     7
370
    25
100
AcDbLine
 10
136.4184385196
 20
78.970802487
 30
0.0
 11
144.4768591434
 21
79.9188519722
 31
0.0
  0
LINE
  5
10C
330
1F
100
AcDbEntity
  8
0
  6
Continuous
 62
     7
370
    25
100
AcDbLine
 10
144.4768591434
 20
104.0227530019
 30
0.0
 11
136.4184385196
 21
104.970802487
 31
0.0
  0
LINE
  5
10D
330
1F
100
AcDbEntity
  8
0
  6
Continuous
 62
     7
370
    25
100
AcDbLine
 10
118.4184385196
 20
78.970802487
 30
0.0
 11
124.4184385196
 21
79.970802487
 31
0.0
  0
LINE
  5
10E
330
1F
100
AcDbEntity
  8
0
  6
Continuous
 62
     7
370
    25
100
AcDbLine
 10
124.4184385196
 20
103.970802487
 30
0.0
 11
118.4184385196
 21
104.970802487
 31
0.0
  0
LINE
  5
10F
330
1F
100
AcDbEntity
  8
0
  6
Continuous
 62
     7
370
    25
100
AcDbLine
 10
130.4184385196
 20
78.970802487
 30
0.0
 11
136.4184385196
 21
79.970802487
 31
0.0
  0
LINE
  5
110
330
1F
100
AcDbEntity
  8
0
  6
Continuous
 62
     7
370
    25
100
AcDbLine
 10
136.4184385196
 20
103.970802487
 30
0.0
 11
130.4184385196
 21
104.970802487
 31
0.0
  0
LINE
  5
111
330
1F
100
AcDbEntity
  8
0
  6
Continuous
 62
     7
370
    25
100
AcDbLine
 10
124.4184385196
 20
78.970802487
 30
0.0
 11
130.4184385196
 21
79.970802487
 31
0.0
  0
LINE
  5
112
330
1F
100
AcDbEntity
  8
0
  6
Continuous
 62
     7
370
    25
100
AcDbLine
 10
130.4184385196
 20
103.970802487
 30
0.0
 11
124.4184385196
 21
104.970802487
 31
0.0
  0
ARC
  5
113
330
1F
100
AcDbEntity
  8
0
  6
Continuous
 62
     7
370
    25
100
AcDbCircle
 10
144.4184385196
 20
80.4154272743
 30
0.0
 40
0.5
100
AcDbArc
 50
276.7098368078
 51
0.0
  0
ARC
  5
114
330
1F
100
AcDbEntity
  8
0
  6
Continuous
 62
     7
370
    25
100
AcDbCircle
 10
144.4184385196
 20
103.5261776997
 30
0.0
 40
0.5
100
AcDbArc
 50
0.0
 51
83.2901631922
  0
LINE
  5
115
330
1F
100
AcDbEntity
  8
0
  6
Continuous
 62
     7
370
    25
100
AcDbLine
 10
102.9399515921
 20
105.470802487
 30
0.0
 11
105.5683295864
 21
105.470802487
 31
0.0
  0
SPLINE
  5
116
330
1F
100
AcDbEntity
  8
0
  6
Continuous
 62
     7
370
    25
100
AcDbSpline
210
0.0
220
0.0
230
1.0
 70
     8
 71
     3
 72
    16
 73
    12
 74
     0
 42
0.000000001
 43
0.00000001
 40
0.0
 40
0.0
 40
0.0
 40
0.0
 40
0.2500000000000002
 40
0.2500000000000002
 40
0.5000000000000004
 40
0.5000000000000004
 40
0.6250000000000003
 40
0.6250000000000003
 40
0.7500000000000002
 40
0.7500000000000002
 40
1.0
 40
1.0
 40
1.0
 40
1.0
 10
105.5683295863613
 20
91.97080248701772
 30
0.0
 10
105.9357119490473
 20
93.07294957507574
 30
0.0
 10
106.2385015094415
 20
94.18313205035597
 30
0.0
 10
106.6579633177468
 20
96.42665011738606
 30
0.0
 10
106.7732519432014
 20
97.5601578326824
 30
0.0
 10
106.7745183400653
 20
99.28177483662924
 30
0.0
 10
106.7463347829763
 20
99.85834809617205
 30
0.0
 10
106.6364336139343
 20
100.9988707021189
 30
0.0
 10
106.5548275518614
 20
101.5653082595791
 30
0.0
 10
106.2397089569705
 20
103.2545362928188
 30
0.0
 10
105.9361699406344
 20
104.3672814241981
 30
0.0
 10
105.5683295863612
 20
105.4708024870178
 30
0.0
  0
LINE
  5
117
330
1F
100
AcDbEntity
  8
0
  6
Continuous
 62
     7
370
    25
100
AcDbLine
 10
102.9399515921
 20
91.970802487
 30
0.0
 11
105.5683295864
 21
91.970802487
 31
0.0
  0
SPLINE
  5
118
330
1F
100
AcDbEntity
  8
0
  6
Continuous
 62
     7
370
    25
100
AcDbSpline
210
0.0
220
0.0
230
1.0
 70
     8
 71
     3
 72
     8
 73
     4
 74
     0
 42
0.000000001
 43
0.00000001
 40
0.0
 40
0.0
 40
0.0
 40
0.0
 40
1.0
 40
1.0
 40
1.0
 40
1.0
 10
102.9399515920664
 20
91.97080248701775
 30
0.0
 10
102.9123285359726
 20
92.14936072852885
 30
0.0
 10
102.8855166888553
 20
92.3279884436684
 30
0.0
 10
102.859566834337
 20
92.50668998165175
 30
0.0
  0
SPLINE
  5
119
330
1F
100
AcDbEntity
  8
0
  6
Continuous
 62
     7
370
    25
100
AcDbSpline
210
0.0
220
0.0
230
1.0
 70
     8
 71
     3
 72
     8
 73
     4
 74
     0
 42
0.000000001
 43
0.00000001
 40
0.0
 40
0.0
 40
0.0
 40
0.0
 40
1.0
 40
1.0
 40
1.0
 40
1.0
 10
102.859566834337
 20
92.50668998165175
 30
0.0
 10
102.8336097706926
 20
92.32793879861386
 30
0.0
 10
102.8067976165982
 20
92.14931214367294
 30
0.0
 10
102.7791820766077
 20
91.97080248701775
 30
0.0
  0
LINE
  5
11A
330
1F
100
AcDbEntity
  8
0
  6
Continuous
 62
     7
370
    25
100
AcDbLine
 10
100.1508040823
 20
91.970802487
 30
0.0
 11
102.7791820766
 21
91.970802487
 31
0.0
  0
SPLINE
  5
11B
330
1F
100
AcDbEntity
  8
0
  6
Continuous
 62
     7
370
    25
100
AcDbSpline
210
0.0
220
0.0
230
1.0
 70
     8
 71
     3
 72
    16
 73
    12
 74
     0
 42
0.000000001
 43
0.00000001
 40
0.0
 40
0.0
 40
0.0
 40
0.0
 40
0.2499999999999999
 40
0.2499999999999999
 40
0.4999999999999999
 40
0.4999999999999999
 40
0.6249999999999999
 40
0.6249999999999999
 40
0.7499999999999998
 40
0.7499999999999998
 40
1.0
 40
1.0
 40
1.0
 40
1.0
 10
100.1508040823128
 20
105.4708024870178
 30
0.0
 10
99.7834217196268
 20
104.3686553989598
 30
0.0
 10
99.48063215923264
 20
103.2584729236795
 30
0.0
 10
99.06117035092728
 20
101.0149548566494
 30
0.0
 10
98.9458817254727
 20
99.8814471413531
 30
0.0
 10
98.9446153286088
 20
98.15983013740627
 30
0.0
 10
98.97279888569783
 20
97.58325687786345
 30
0.0
 10
99.08270005473979
 20
96.4427342719166
 30
0.0
 10
99.16430611681272
 20
95.87629671445643
 30
0.0
 10
99.47942471170356
 20
94.1870686812167
 30
0.0
 10
99.78296372803973
 20
93.07432354983736
 30
0.0
 10
100.1508040823129
 20
91.97080248701774
 30
0.0
  0
LINE
  5
11C
330
1F
100
AcDbEntity
  8
0
  6
Continuous
 62
     7
370
    25
100
AcDbLine
 10
100.1508040823
 20
105.470802487
 30
0.0
 11
102.7791820766
 21
105.470802487
 31
0.0
  0
SPLINE
  5
11D
330
1F
100
AcDbEntity
  8
0
  6
Continuous
 62
     7
370
    25
100
AcDbSpline
210
0.0
220
0.0
230
1.0
 70
     8
 71
     3
 72
     8
 73
     4
 74
     0
 42
0.000000001
 43
0.00000001
 40
0.0
 40
0.0
 40
0.0
 40
0.0
 40
1.0
 40
1.0
 40
1.0
 40
1.0
 10
102.7791820766077
 20
105.4708024870177
 30
0.0
 10
102.8068051327015
 20
105.2922442455066
 30
0.0
 10
102.8336169798188
 20
105.1136165303671
 30
0.0
 10
102.859566834337
 20
104.9349149923838
 30
0.0
  0
SPLINE
  5
11E
330
1F
100
AcDbEntity
  8
0
  6
Continuous
 62
     7
370
    25
100
AcDbSpline
210
0.0
220
0.0
230
1.0
 70
     8
 71
     3
 72
     8
 73
     4
 74
     0
 42
0.000000001
 43
0.00000001
 40
0.0
 40
0.0
 40
0.0
 40
0.0
 40
1.0
 40
1.0
 40
1.0
 40
1.0
 10
102.859566834337
 20
104.9349149923838
 30
0.0
 10
102.8855238979815
 20
105.1136661754216
 30
0.0
 10
102.9123360520759
 20
105.2922928303625
 30
0.0
 10
102.9399515920664
 20
105.4708024870177
 30
0.0
  0
SPLINE
  5
11F
330
1F
100
AcDbEntity
  8
0
  6
Continuous
 62
     7
370
    25
100
AcDbSpline
210
0.0
220
0.0
230
1.0
 70
    24
 71
     3
 72
    12
 73
     8
 74
     0
 42
0.000000001
 43
0.00000001
 40
0.0
 40
0.0
 40
0.0
 40
0.0
 40
0.2416491801759947
 40
0.429903634024346
 40
0.6187770388561722
 40
0.8091954903386781
 40
1.0
 40
1.0
 40
1.0
 40
1.0
 10
98.95046981361521
 20
105.4708024870177
 30
0.0
 10
98.96303603383961
 20
105.4708024870177
 30
0.0
 10
98.98539184624703
 20
105.4708024870177
 30
0.0
 10
99.17478444199665
 20
105.4708024870177
 30
0.0
 10
99.42419075375169
 20
105.4708024870177
 30
0.0
 10
99.7479629686664
 20
105.4708024870177
 30
0.0
 10
100.0164330860171
 20
105.4708024870177
 30
0.0
 10
100.1508040823131
 20
105.4708024870177
 30
0.0
  0
SPLINE
  5
120
330
1F
100
AcDbEntity
  8
0
  6
Continuous
 62
     7
370
    25
100
AcDbSpline
210
0.0
220
0.0
230
1.0
 70
     8
 71
     3
 72
    16
 73
    12
 74
     0
 42
0.000000001
 43
0.00000001
 40
0.0
 40
0.0
 40
0.0
 40
0.0
 40
0.25
 40
0.25
 40
0.5
 40
0.5
 40
0.625
 40
0.625
 40
0.75
 40
0.75
 40
1.0
 40
1.0
 40
1.0
 40
1.0
 10
100.1508040823128
 20
91.97080248701779
 30
0.0
 10
99.78342171962682
 20
90.86865539895977
 30
0.0
 10
99.48063215923264
 20
89.75847292367953
 30
0.0
 10
99.06117035092728
 20
87.51495485664945
 30
0.0
 10
98.9458817254727
 20
86.3814471413531
 30
0.0
 10
98.9446153286088
 20
84.65983013740627
 30
0.0
 10
98.97279888569783
 20
84.08325687786343
 30
0.0
 10
99.08270005473979
 20
82.9427342719166
 30
0.0
 10
99.16430611681272
 20
82.37629671445643
 30
0.0
 10
99.47942471170356
 20
80.68706868121672
 30
0.0
 10
99.78296372803973
 20
79.57432354983736
 30
0.0
 10
100.1508040823129
 20
78.47080248701774
 30
0.0
  0
SPLINE
  5
121
330
1F
100
AcDbEntity
  8
0
  6
Continuous
 62
     7
370
    25
100
AcDbSpline
210
0.0
220
0.0
230
1.0
 70
    24
 71
     3
 72
    12
 73
     8
 74
     0
 42
0.000000001
 43
0.00000001
 40
0.0
 40
0.0
 40
0.0
 40
0.0
 40
0.1885291430371921
 40
0.3773948196515756
 40
0.5675737850321038
 40
0.758347843214285
 40
1.0
 40
1.0
 40
1.0
 40
1.0
 10
100.1508040823131
 20
78.47080248701775
 30
0.0
 10
100.0179731751925
 20
78.47080248701775
 30
0.0
 10
99.75207425140107
 20
78.47080248701775
 30
0.0
 10
99.42866018825238
 20
78.47080248701775
 30
0.0
 10
99.17674819614724
 20
78.47080248701775
 30
0.0
 10
98.98611511327407
 20
78.47080248701775
 30
0.0
 10
98.96153782014954
 20
78.47080248701775
 30
0.0
 10
98.94780332467744
 20
78.47080248701775
 30
0.0
  0
LINE
  5
122
330
1F
100
AcDbEntity
  8
0
  6
Continuous
 62
     7
370
    25
100
AcDbLine
 10
106.9184385196
 20
105.220802487
 30
0.0
 11
106.9184385196
 21
78.720802487
 31
0.0
  0
SPLINE
  5
123
330
1F
100
AcDbEntity
  8
0
  6
Continuous
 62
     7
370
    25
100
AcDbSpline
210
0.0
220
0.0
230
1.0
 70
    24
 71
     3
 72
    12
 73
     8
 74
     0
 42
0.000000001
 43
0.00000001
 40
0.0
 40
0.0
 40
0.0
 40
0.0
 40
0.2548963936089321
 40
0.4399194114980814
 40
0.6255238428074305
 40
0.8125801191897778
 40
1.0
 40
1.0
 40
1.0
 40
1.0
 10
106.7731592735437
 20
78.47080248701775
 30
0.0
 10
106.7570370714991
 20
78.47080248701775
 30
0.0
 10
106.7292121598356
 20
78.47080248701775
 30
0.0
 10
106.5328658758125
 20
78.47080248701774
 30
0.0
 10
106.2841482944574
 20
78.47080248701774
 30
0.0
 10
105.9643187580739
 20
78.47080248701775
 30
0.0
 10
105.7004113921491
 20
78.47080248701775
 30
0.0
 10
105.568329586361
 20
78.47080248701775
 30
0.0
  0
SPLINE
  5
124
330
1F
100
AcDbEntity
  8
0
  6
Continuous
 62
     7
370
    25
100
AcDbSpline
210
0.0
220
0.0
230
1.0
 70
     8
 71
     3
 72
    16
 73
    12
 74
     0
 42
0.000000001
 43
0.00000001
 40
0.0
 40
0.0
 40
0.0
 40
0.0
 40
0.25
 40
0.25
 40
0.5
 40
0.5
 40
0.625
 40
0.625
 40
0.75
 40
0.75
 40
1.0
 40
1.0
 40
1.0
 40
1.0
 10
105.5683295863613
 20
78.4708024870177
 30
0.0
 10
105.9357119490473
 20
79.57294957507573
 30
0.0
 10
106.2385015094415
 20
80.68313205035598
 30
0.0
 10
106.6579633177468
 20
82.92665011738606
 30
0.0
 10
106.7732519432014
 20
84.06015783268239
 30
0.0
 10
106.7745183400653
 20
85.78177483662924
 30
0.0
 10
106.7463347829763
 20
86.35834809617207
 30
0.0
 10
106.6364336139343
 20
87.4988707021189
 30
0.0
 10
106.5548275518614
 20
88.06530825957907
 30
0.0
 10
106.2397089569705
 20
89.7545362928188
 30
0.0
 10
105.9361699406344
 20
90.86728142419814
 30
0.0
 10
105.5683295863612
 20
91.97080248701778
 30
0.0
  0
SPLINE
  5
125
330
1F
100
AcDbEntity
  8
0
  6
Continuous
 62
     7
370
    25
100
AcDbSpline
210
0.0
220
0.0
230
1.0
 70
    24
 71
     3
 72
    13
 73
     9
 74
     0
 42
0.000000001
 43
0.00000001
 40
0.0
 40
0.0
 40
0.0
 40
0.0
 40
0.1852919990286627
 40
0.3709019533711012
 40
0.5577480940788556
 40
0.7451525490126849
 40
0.9945839373724021
 40
1.0
 40
1.0
 40
1.0
 40
1.0
 10
105.568329586361
 20
105.4708024870177
 30
0.0
 10
105.6990341201867
 20
105.4708024870177
 30
0.0
 10
105.9606674727575
 20
105.4708024870177
 30
0.0
 10
106.2790206612803
 20
105.4708024870177
 30
0.0
 10
106.534335034644
 20
105.4708024870177
 30
0.0
 10
106.7124026367331
 20
105.4708024870177
 30
0.0
 10
106.800614941979
 20
105.4708024870178
 30
0.0
 10
106.7729194401823
 20
105.4708024870177
 30
0.0
 10
106.7723308505313
 20
105.4708024870177
 30
0.0
  0
LINE
  5
126
330
1F
100
AcDbEntity
  8
0
  6
Continuous
 62
     7
370
    25
100
AcDbLine
 10
102.8595668343
 20
91.4349149924
 30
0.0
 11
102.8595668343
 21
92.5066899817
 31
0.0
  0
SPLINE
  5
127
330
1F
100
AcDbEntity
  8
0
  6
Continuous
 62
     7
370
    25
100
AcDbSpline
210
0.0
220
0.0
230
1.0
 70
     8
 71
     3
 72
     8
 73
     4
 74
     0
 42
0.000000001
 43
0.00000001
 40
0.0
 40
0.0
 40
0.0
 40
0.0
 40
1.0
 40
1.0
 40
1.0
 40
1.0
 10
102.7791820766077
 20
91.97080248701775
 30
0.0
 10
102.8068051327015
 20
91.79224424550665
 30
0.0
 10
102.8336169798188
 20
91.6136165303671
 30
0.0
 10
102.859566834337
 20
91.43491499238375
 30
0.0
  0
LINE
  5
128
330
1F
100
AcDbEntity
  8
0
  6
Continuous
 62
     7
370
    25
100
AcDbLine
 10
102.9399515921
 20
78.470802487
 30
0.0
 11
105.5683295864
 21
78.470802487
 31
0.0
  0
SPLINE
  5
129
330
1F
100
AcDbEntity
  8
0
  6
Continuous
 62
     7
370
    25
100
AcDbSpline
210
0.0
220
0.0
230
1.0
 70
     8
 71
     3
 72
     8
 73
     4
 74
     0
 42
0.000000001
 43
0.00000001
 40
0.0
 40
0.0
 40
0.0
 40
0.0
 40
1.0
 40
1.0
 40
1.0
 40
1.0
 10
102.9399515920664
 20
78.47080248701775
 30
0.0
 10
102.9123285359726
 20
78.64936072852885
 30
0.0
 10
102.8855166888553
 20
78.82798844366839
 30
0.0
 10
102.859566834337
 20
79.00668998165173
 30
0.0
  0
SPLINE
  5
12A
330
1F
100
AcDbEntity
  8
0
  6
Continuous
 62
     7
370
    25
100
AcDbSpline
210
0.0
220
0.0
230
1.0
 70
     8
 71
     3
 72
     8
 73
     4
 74
     0
 42
0.000000001
 43
0.00000001
 40
0.0
 40
0.0
 40
0.0
 40
0.0
 40
1.0
 40
1.0
 40
1.0
 40
1.0
 10
102.859566834337
 20
79.00668998165175
 30
0.0
 10
102.8336097706926
 20
78.82793879861386
 30
0.0
 10
102.8067976165982
 20
78.64931214367294
 30
0.0
 10
102.7791820766077
 20
78.47080248701775
 30
0.0
  0
LINE
  5
12B
330
1F
100
AcDbEntity
  8
0
  6
Continuous
 62
     7
370
    25
100
AcDbLine
 10
100.1508040823
 20
78.470802487
 30
0.0
 11
102.7791820766
 21
78.470802487
 31
0.0
  0
SPLINE
  5
12C
330
1F
100
AcDbEntity
  8
0
  6
Continuous
 62
     7
370
    25
100
AcDbSpline
210
0.0
220
0.0
230
1.0
 70
     8
 71
     3
 72
     8
 73
     4
 74
     0
 42
0.000000001
 43
0.00000001
 40
0.0
 40
0.0
 40
0.0
 40
0.0
 40
1.0
 40
1.0
 40
1.0
 40
1.0
 10
102.859566834337
 20
91.43491499238375
 30
0.0
 10
102.8855238979815
 20
91.61366617542164
 30
0.0
 10
102.9123360520759
 20
91.79229283036256
 30
0.0
 10
102.9399515920664
 20
91.97080248701775
 30
0.0
  0
LINE
  5
12D
330
1F
100
AcDbEntity
  8
0
  6
Continuous
 62
     7
370
    25
100
AcDbLine
 10
83.5236148586
 20
91.970802487
 30
0.0
 11
83.5236148586
 21
78.9667032264
 31
0.0
  0
LINE
  5
12E
330
1F
100
AcDbEntity
  8
0
  6
Continuous
 62
     7
370
    25
100
AcDbLine
 10
83.5236148586
 20
104.9749017476
 30
0.0
 11
83.5236148586
 21
91.970802487
 31
0.0
  0
LINE
  5
12F
330
1F
100
AcDbEntity
  8
0
  6
Continuous
 62
     7
370
    25
100
AcDbLine
 10
98.9184385196
 20
105.455989987
 30
0.0
 11
98.9184385196
 21
78.485614987
 31
0.0
  0
LINE
  5
130
330
1F
100
AcDbEntity
  8
0
  6
Continuous
 62
     7
370
    25
100
AcDbLine
 10
80.9184385196
 20
80.470802487
 30
0.0
 11
80.9184385196
 21
103.470802487
 31
0.0
  0
LINE
  5
131
330
1F
100
AcDbEntity
  8
0
  6
Continuous
 62
     7
370
    25
100
AcDbLine
 10
118.4184385196
 20
91.970802487
 30
0.0
 11
118.4184385196
 21
78.970802487
 31
0.0
  0
LINE
  5
132
330
1F
100
AcDbEntity
  8
0
  6
Continuous
 62
     7
370
    25
100
AcDbLine
 10
118.4184385196
 20
104.970802487
 30
0.0
 11
118.4184385196
 21
91.970802487
 31
0.0
  0
LINE
  5
133
330
1F
100
AcDbEntity
  8
0
  6
Continuous
 62
     7
370
    25
100
AcDbLine
 10
136.4184385196
 20
91.970802487
 30
0.0
 11
136.4184385196
 21
78.970802487
 31
0.0
  0
LINE
  5
134
330
1F
100
AcDbEntity
  8
0
  6
Continuous
 62
     7
370
    25
100
AcDbLine
 10
136.4184385196
 20
104.970802487
 30
0.0
 11
136.4184385196
 21
91.970802487
 31
0.0
  0
LINE
  5
135
330
1F
100
AcDbEntity
  8
0
  6
Continuous
 62
     7
370
    25
100
AcDbLine
 10
130.4184385196
 20
91.970802487
 30
0.0
 11
130.4184385196
 21
78.970802487
 31
0.0
  0
LINE
  5
136
330
1F
100
AcDbEntity
  8
0
  6
Continuous
 62
     7
370
    25
100
AcDbLine
 10
130.4184385196
 20
104.970802487
 30
0.0
 11
130.4184385196
 21
91.970802487
 31
0.0
  0
LINE
  5
137
330
1F
100
AcDbEntity
  8
0
  6
Continuous
 62
     7
370
    25
100
AcDbLine
 10
124.4184385196
 20
91.970802487
 30
0.0
 11
124.4184385196
 21
78.970802487
 31
0.0
  0
LINE
  5
138
330
1F
100
AcDbEntity
  8
0
  6
Continuous
 62
     7
370
    25
100
AcDbLine
 10
124.4184385196
 20
104.970802487
 30
0.0
 11
124.4184385196
 21
91.970802487
 31
0.0
  0
LINE
  5
139
330
1F
100
AcDbEntity
  8
0
  6
Continuous
 62
     7
370
    25
100
AcDbLine
 10
144.9184385196
 20
103.5261776997
 30
0.0
 11
144.9184385196
 21
80.4154272743
 31
0.0
  0
LINE
  5
13A
330
1F
100
AcDbEntity
  8
0
  6
Continuous
 62
     7
370
    25
100
AcDbLine
 10
102.8595668343
 20
104.9349149924
 30
0.0
 11
102.8595668343
 21
105.470802487
 31
0.0
  0
SPLINE
  5
13B
330
1F
100
AcDbEntity
  8
0
  6
Continuous
 62
     7
370
    25
100
AcDbSpline
210
0.0
220
0.0
230
1.0
 70
    24
 71
     3
 72
     8
 73
     4
 74
     0
 42
0.000000001
 43
0.00000001
 40
0.0
 40
0.0
 40
0.0
 40
0.0
 40
1.0
 40
1.0
 40
1.0
 40
1.0
 10
102.9399515920664
 20
105.4708024870177
 30
0.0
 10
102.912327433264
 20
105.4708024870177
 30
0.0
 10
102.8855156318509
 20
105.4708024870177
 30
0.0
 10
102.859566834337
 20
105.4708024870177
 30
0.0
  0
SPLINE
  5
13C
330
1F
100
AcDbEntity
  8
0
  6
Continuous
 62
     7
370
    25
100
AcDbSpline
210
0.0
220
0.0
230
1.0
 70
    24
 71
     3
 72
     8
 73
     4
 74
     0
 42
0.000000001
 43
0.00000001
 40
0.0
 40
0.0
 40
0.0
 40
0.0
 40
1.0
 40
1.0
 40
1.0
 40
1.0
 10
102.859566834337
 20
105.4708024870177
 30
0.0
 10
102.8336101416066
 20
105.4708024870177
 30
0.0
 10
102.8067980031046
 20
105.4708024870177
 30
0.0
 10
102.7791820766077
 20
105.4708024870177
 30
0.0
  0
LINE
  5
13D
330
1F
100
AcDbEntity
  8
0
  6
Continuous
 62
     7
370
    25
100
AcDbLine
 10
102.8595668343
 20
78.470802487
 30
0.0
 11
102.8595668343
 21
79.0066899817
 31
0.0
  0
SPLINE
  5
13E
330
1F
100
AcDbEntity
  8
0
  6
Continuous
 62
     7
370
    25
100
AcDbSpline
210
0.0
220
0.0
230
1.0
 70
    24
 71
     3
 72
     8
 73
     4
 74
     0
 42
0.000000001
 43
0.00000001
 40
0.0
 40
0.0
 40
0.0
 40
0.0
 40
1.0
 40
1.0
 40
1.0
 40
1.0
 10
102.7791820766077
 20
78.47080248701775
 30
0.0
 10
102.8068062354101
 20
78.47080248701775
 30
0.0
 10
102.8336180368232
 20
78.47080248701775
 30
0.0
 10
102.859566834337
 20
78.47080248701775
 30
0.0
  0
SPLINE
  5
13F
330
1F
100
AcDbEntity
  8
0
  6
Continuous
 62
     7
370
    25
100
AcDbSpline
210
0.0
220
0.0
230
1.0
 70
    24
 71
     3
 72
     8
 73
     4
 74
     0
 42
0.000000001
 43
0.00000001
 40
0.0
 40
0.0
 40
0.0
 40
0.0
 40
1.0
 40
1.0
 40
1.0
 40
1.0
 10
102.859566834337
 20
78.47080248701775
 30
0.0
 10
102.8855235270675
 20
78.47080248701775
 30
0.0
 10
102.9123356655695
 20
78.47080248701775
 30
0.0
 10
102.9399515920664
 20
78.47080248701775
 30
0.0
  0
LINE
  5
140
330
1F
100
AcDbEntity
  8
0
  6
Continuous
 62
     8
370
    25
100
AcDbLine
 10
144.4768591434
 20
91.970802487
 30
0.0
 11
144.4768591434
 21
104.0227530019
 31
0.0
  0
LINE
  5
141
330
1F
100
AcDbEntity
  8
0
  6
Continuous
 62
     8
370
    25
100
AcDbLine
 10
144.4768591434
 20
79.9188519722
 30
0.0
 11
144.4768591434
 21
91.970802487
 31
0.0
  0
LINE
  5
142
330
1F
100
AcDbEntity
  8
0
  6
Continuous
 62
     7
370
    18
100
AcDbLine
 10
81.7920660681
 20
103.9751915873
 30
0.0
 11
98.4184385196
 21
104.4947657264
 31
0.0
  0
LINE
  5
143
330
1F
100
AcDbEntity
  8
0
  6
Continuous
 62
     7
370
    18
100
AcDbLine
 10
81.7920660681
 20
79.9664133867
 30
0.0
 11
98.4184385196
 21
79.4468392476
 31
0.0
  0
LINE
  5
144
330
1F
100
AcDbEntity
  8
0
  6
Continuous
 62
     7
370
    18
100
AcDbLine
 10
98.4184385196
 20
78.501239987
 30
0.0
 11
98.4184385196
 21
105.440364987
 31
0.0
  0
LINE
  5
145
330
1F
100
AcDbEntity
  8
0
  6
CENTERX2
 62
     7
370
    18
100
AcDbLine
 10
145.9184385196
 20
91.970802487
 30
0.0
 11
79.405353786
 21
91.970802487
 31
0.0
  0
ENDSEC
  0
SECTION
  2
OBJECTS
  0
DICTIONARY
  5
C
330
0
100
AcDbDictionary
281
     1
  3
ACAD_GROUP
350
D
  3
ACAD_LAYOUT
350
1A
  3
ACAD_MLINESTYLE
350
17
  3
ACAD_PLOTSETTINGS
350
19
  3
ACAD_PLOTSTYLENAME
350
E
  3
ACAD_SCALELIST
350
47
  0
DICTIONARY
  5
D
102
{ACAD_REACTORS
330
C
102
}
330
C
100
AcDbDictionary
281
     1
  0
DICTIONARY
  5
1A
102
{ACAD_REACTORS
330
C
102
}
330
C
100
AcDbDictionary
281
     1
  3
Layout1
350
1E
  3
Layout2
350
26
  3
Model
350
22
  0
DICTIONARY
  5
17
102
{ACAD_REACTORS
330
C
102
}
330
C
100
AcDbDictionary
281
     1
  3
Standard
350
18
  0
DICTIONARY
  5
19
102
{ACAD_REACTORS
330
C
102
}
330
C
100
AcDbDictionary
281
     1
  0
ACDBDICTIONARYWDFLT
  5
E
102
{ACAD_REACTORS
330
C
102
}
330
C
100
AcDbDictionary
281
     1
  3
Normal
350
F
100
AcDbDictionaryWithDefault
340
F
  0
DICTIONARY
  5
47
102
{ACAD_REACTORS
330
C
102
}
330
C
100
AcDbDictionary
281
     1
  3
A0
350
48
  3
A1
350
49
  3
A2
350
4A
  3
A3
350
4B
  3
A4
350
4C
  3
A5
350
4D
  3
A6
350
4E
  3
A7
350
4F
  3
A8
350
50
  3
A9
350
51
  3
B0
350
52
  3
B1
350
53
  3
B2
350
54
  3
B3
350
55
  3
B4
350
56
  3
B5
350
57
  3
B6
350
58
  3
B7
350
59
  3
B8
350
5A
  3
B9
350
5B
  3
C0
350
5C
  3
C1
350
5D
  3
C2
350
5E
  3
C3
350
5F
  3
C4
350
60
  3
C5
350
61
  3
C6
350
62
  3
C7
350
63
  3
C8
350
64
  3
C9
350
65
  3
D0
350
66
  3
D1
350
67
  3
D2
350
68
  0
LAYOUT
  5
1E
102
{ACAD_REACTORS
330
1A
102
}
330
1A
100
AcDbPlotSettings
  1

  2
none_device
  4

  6

 40
0.0
 41
0.0
 42
0.0
 43
0.0
 44
0.0
 45
0.0
 46
0.0
 47
0.0
 48
0.0
 49
0.0
140
0.0
141
0.0
142
1.0
143
1.0
 70
   688
 72
     1
 73
     0
 74
     5
  7

 75
    16
147
1.0
148
0.0
149
0.0
100
AcDbLayout
  1
Layout1
 70
     1
 71
     1
 10
0.0
 20
0.0
 11
420.0
 21
297.0
 12
0.0
 22
0.0
 32
0.0
 14
1.0000000000E+20
 24
1.0000000000E+20
 34
1.0000000000E+20
 15
-1.0000000000E+20
 25
-1.0000000000E+20
 35
-1.0000000000E+20
146
0.0
 13
0.0
 23
0.0
 33
0.0
 16
1.0
 26
0.0
 36
0.0
 17
0.0
 27
1.0
 37
0.0
 76
     0
330
1B
  0
LAYOUT
  5
26
102
{ACAD_REACTORS
330
1A
102
}
330
1A
100
AcDbPlotSettings
  1

  2
none_device
  4

  6

 40
0.0
 41
0.0
 42
0.0
 43
0.0
 44
0.0
 45
0.0
 46
0.0
 47
0.0
 48
0.0
 49
0.0
140
0.0
141
0.0
142
1.0
143
1.0
 70
   688
 72
     1
 73
     0
 74
     5
  7

 75
    16
147
1.0
148
0.0
149
0.0
100
AcDbLayout
  1
Layout2
 70
     1
 71
     2
 10
0.0
 20
0.0
 11
0.0
 21
0.0
 12
0.0
 22
0.0
 32
0.0
 14
0.0
 24
0.0
 34
0.0
 15
0.0
 25
0.0
 35
0.0
146
0.0
 13
0.0
 23
0.0
 33
0.0
 16
1.0
 26
0.0
 36
0.0
 17
0.0
 27
1.0
 37
0.0
 76
     0
330
23
  0
LAYOUT
  5
22
102
{ACAD_REACTORS
330
1A
102
}
330
1A
100
AcDbPlotSettings
  1

  2
none_device
  4
Letter_(8.50_x_11.00_Inches)
  6

 40
6.35
 41
6.35
 42
6.35000508
 43
6.35000508
 44
215.9
 45
279.4
 46
0.0
 47
0.0
 48
0.0
 49
0.0
140
0.0
141
0.0
142
1.0
143
1.0
 70
  1712
 72
     1
 73
     0
 74
     0
  7

 75
     0
147
1.0
148
0.0
149
0.0
100
AcDbLayout
  1
Model
 70
     1
 71
     0
 10
0.0
 20
0.0
 11
215.9
 21
139.7
 12
0.0
 22
0.0
 32
0.0
 14
0.0
 24
0.0
 34
0.0
 15
215.9
 25
139.7
 35
0.0
146
0.0
 13
0.0
 23
0.0
 33
0.0
 16
1.0
 26
0.0
 36
0.0
 17
0.0
 27
1.0
 37
0.0
 76
     0
330
1F
331
29
  0
MLINESTYLE
  5
18
102
{ACAD_REACTORS
330
17
102
}
330
17
100
AcDbMlineStyle
  2
Standard
 70
     0
  3

 62
   256
 51
90.0
 52
90.0
 71
     2
 49
0.5
 62
   256
  6
BYLAYER
 49
-0.5
 62
   256
  6
BYLAYER
  0
ACDBPLACEHOLDER
  5
F
102
{ACAD_REACTORS
330
E
102
}
330
E
  0
SCALE
  5
48
102
{ACAD_REACTORS
330
47
102
}
330
47
100
AcDbScale
 70
     0
300
1:1
140
1.0
141
1.0
290
     1
  0
SCALE
  5
49
102
{ACAD_REACTORS
330
47
102
}
330
47
100
AcDbScale
 70
     0
300
1:2
140
1.0
141
2.0
290
     0
  0
SCALE
  5
4A
102
{ACAD_REACTORS
330
47
102
}
330
47
100
AcDbScale
 70
     0
300
1:4
140
1.0
141
4.0
290
     0
  0
SCALE
  5
4B
102
{ACAD_REACTORS
330
47
102
}
330
47
100
AcDbScale
 70
     0
300
1:5
140
1.0
141
5.0
290
     0
  0
SCALE
  5
4C
102
{ACAD_REACTORS
330
47
102
}
330
47
100
AcDbScale
 70
     0
300
1:8
140
1.0
141
8.0
290
     0
  0
SCALE
  5
4D
102
{ACAD_REACTORS
330
47
102
}
330
47
100
AcDbScale
 70
     0
300
1:10
140
1.0
141
10.0
290
     0
  0
SCALE
  5
4E
102
{ACAD_REACTORS
330
47
102
}
330
47
100
AcDbScale
 70
     0
300
1:16
140
1.0
141
16.0
290
     0
  0
SCALE
  5
4F
102
{ACAD_REACTORS
330
47
102
}
330
47
100
AcDbScale
 70
     0
300
1:20
140
1.0
141
20.0
290
     0
  0
SCALE
  5
50
102
{ACAD_REACTORS
330
47
102
}
330
47
100
AcDbScale
 70
     0
300
1:30
140
1.0
141
30.0
290
     0
  0
SCALE
  5
51
102
{ACAD_REACTORS
330
47
102
}
330
47
100
AcDbScale
 70
     0
300
1:40
140
1.0
141
40.0
290
     0
  0
SCALE
  5
52
102
{ACAD_REACTORS
330
47
102
}
330
47
100
AcDbScale
 70
     0
300
1:50
140
1.0
141
50.0
290
     0
  0
SCALE
  5
53
102
{ACAD_REACTORS
330
47
102
}
330
47
100
AcDbScale
 70
     0
300
1:100
140
1.0
141
100.0
290
     0
  0
SCALE
  5
54
102
{ACAD_REACTORS
330
47
102
}
330
47
100
AcDbScale
 70
     0
300
2:1
140
2.0
141
1.0
290
     0
  0
SCALE
  5
55
102
{ACAD_REACTORS
330
47
102
}
330
47
100
AcDbScale
 70
     0
300
4:1
140
4.0
141
1.0
290
     0
  0
SCALE
  5
56
102
{ACAD_REACTORS
330
47
102
}
330
47
100
AcDbScale
 70
     0
300
8:1
140
8.0
141
1.0
290
     0
  0
SCALE
  5
57
102
{ACAD_REACTORS
330
47
102
}
330
47
100
AcDbScale
 70
     0
300
10:1
140
10.0
141
1.0
290
     0
  0
SCALE
  5
58
102
{ACAD_REACTORS
330
47
102
}
330
47
100
AcDbScale
 70
     0
300
100:1
140
100.0
141
1.0
290
     0
  0
SCALE
  5
59
102
{ACAD_REACTORS
330
47
102
}
330
47
100
AcDbScale
 70
     0
300
1/128" = 1'-0"
140
0.0078125
141
12.0
290
     0
  0
SCALE
  5
5A
102
{ACAD_REACTORS
330
47
102
}
330
47
100
AcDbScale
 70
     0
300
1/64" = 1'-0"
140
0.015625
141
12.0
290
     0
  0
SCALE
  5
5B
102
{ACAD_REACTORS
330
47
102
}
330
47
100
AcDbScale
 70
     0
300
1/32" = 1'-0"
140
0.03125
141
12.0
290
     0
  0
SCALE
  5
5C
102
{ACAD_REACTORS
330
47
102
}
330
47
100
AcDbScale
 70
     0
300
1/16" = 1'-0"
140
0.0625
141
12.0
290
     0
  0
SCALE
  5
5D
102
{ACAD_REACTORS
330
47
102
}
330
47
100
AcDbScale
 70
     0
300
3/32" = 1'-0"
140
0.09375
141
12.0
290
     0
  0
SCALE
  5
5E
102
{ACAD_REACTORS
330
47
102
}
330
47
100
AcDbScale
 70
     0
300
1/8" = 1'-0"
140
0.125
141
12.0
290
     0
  0
SCALE
  5
5F
102
{ACAD_REACTORS
330
47
102
}
330
47
100
AcDbScale
 70
     0
300
3/16" = 1'-0"
140
0.1875
141
12.0
290
     0
  0
SCALE
  5
60
102
{ACAD_REACTORS
330
47
102
}
330
47
100
AcDbScale
 70
     0
300
1/4" = 1'-0"
140
0.25
141
12.0
290
     0
  0
SCALE
  5
61
102
{ACAD_REACTORS
330
47
102
}
330
47
100
AcDbScale
 70
     0
300
3/8" = 1'-0"
140
0.375
141
12.0
290
     0
  0
SCALE
  5
62
102
{ACAD_REACTORS
330
47
102
}
330
47
100
AcDbScale
 70
     0
300
1/2" = 1'-0"
140
0.5
141
12.0
290
     0
  0
SCALE
  5
63
102
{ACAD_REACTORS
330
47
102
}
330
47
100
AcDbScale
 70
     0
300
3/4" = 1'-0"
140
0.75
141
12.0
290
     0
  0
SCALE
  5
64
102
{ACAD_REACTORS
330
47
102
}
330
47
100
AcDbScale
 70
     0
300
1" = 1'-0"
140
1.0
141
12.0
290
     0
  0
SCALE
  5
65
102
{ACAD_REACTORS
330
47
102
}
330
47
100
AcDbScale
 70
     0
300
1-1/2" = 1'-0"
140
1.5
141
12.0
290
     0
  0
SCALE
  5
66
102
{ACAD_REACTORS
330
47
102
}
330
47
100
AcDbScale
 70
     0
300
3" = 1'-0"
140
3.0
141
12.0
290
     0
  0
SCALE
  5
67
102
{ACAD_REACTORS
330
47
102
}
330
47
100
AcDbScale
 70
     0
300
6" = 1'-0"
140
6.0
141
12.0
290
     0
  0
SCALE
  5
68
102
{ACAD_REACTORS
330
47
102
}
330
47
100
AcDbScale
 70
     0
300
1'-0" = 1'-0"
140
12.0
141
12.0
290
     0
  0
ENDSEC
  0
EOF
