  0
SECTION
  2
HEADER
  9
$ACADVER
  1
AC1015
  9
$ACADMAINTVER
 70
     6
  9
$DWGCODEPAGE
  3
DOS932
  9
$INSBASE
 10
0.0
 20
0.0
 30
0.0
  9
$EXTMIN
 10
0.0
 20
0.0
 30
0.0
  9
$EXTMAX
 10
215.9
 20
139.7
 30
0.0
  9
$LIMMIN
 10
0.0
 20
0.0
  9
$LIMMAX
 10
215.9
 20
139.7
  9
$ORTHOMODE
 70
     0
  9
$REGENMODE
 70
     1
  9
$FILLMODE
 70
     1
  9
$QTEXTMODE
 70
     0
  9
$MIRRTEXT
 70
     1
  9
$LTSCALE
 40
0.5
  9
$ATTMODE
 70
     1
  9
$TEXTSIZE
 40
1.75
  9
$TRACEWID
 40
1.0
  9
$TEXTSTYLE
  7
Standard
  9
$CLAYER
  8
0
  9
$CELTYPE
  6
ByLayer
  9
$CECOLOR
 62
   256
  9
$CELTSCALE
 40
1.0
  9
$DISPSILH
 70
     0
  9
$DIMSCALE
 40
1.0
  9
$DIMASZ
 40
1.651
  9
$DIMEXO
 40
0.5
  9
$DIMDLI
 40
3.75
  9
$DIMRND
 40
0.0
  9
$DIMDLE
 40
0.0
  9
$DIMEXE
 40
0.5
  9
$DIMTP
 40
0.0
  9
$DIMTM
 40
0.0
  9
$DIMTXT
 40
1.75
  9
$DIMCEN
 40
2.5
  9
$DIMTSZ
 40
0.0
  9
$DIMTOL
 70
     0
  9
$DIMLIM
 70
     0
  9
$DIMTIH
 70
     1
  9
$DIMTOH
 70
     1
  9
$DIMSE1
 70
     0
  9
$DIMSE2
 70
     0
  9
$DIMTAD
 70
     1
  9
$DIMZIN
 70
     1
  9
$DIMBLK
  1

  9
$DIMASO
 70
     1
  9
$DIMSHO
 70
     1
  9
$DIMPOST
  1

  9
$DIMAPOST
  1

  9
$DIMALT
 70
     0
  9
$DIMALTD
 70
     3
  9
$DIMALTF
 40
0.0393700787
  9
$DIMLFAC
 40
1.0
  9
$DIMTOFL
 70
     1
  9
$DIMTVP
 40
0.0
  9
$DIMTIX
 70
     0
  9
$DIMSOXD
 70
     0
  9
$DIMSAH
 70
     0
  9
$DIMBLK1
  1

  9
$DIMBLK2
  1

  9
$DIMSTYLE
  2
ISO-25
  9
$DIMCLRD
 70
     0
  9
$DIMCLRE
 70
     0
  9
$DIMCLRT
 70
     0
  9
$DIMTFAC
 40
1.0
  9
$DIMGAP
 40
0.762
  9
$DIMJUST
 70
     0
  9
$DIMSD1
 70
     0
  9
$DIMSD2
 70
     0
  9
$DIMTOLJ
 70
     0
  9
$DIMTZIN
 70
     1
  9
$DIMALTZ
 70
     0
  9
$DIMALTTZ
 70
     0
  9
$DIMUPT
 70
     0
  9
$DIMDEC
 70
     2
  9
$DIMTDEC
 70
     2
  9
$DIMALTU
 70
     2
  9
$DIMALTTD
 70
     3
  9
$DIMTXSTY
  7
Standard
  9
$DIMAUNIT
 70
     0
  9
$DIMADEC
 70
     2
  9
$DIMALTRND
 40
0.0
  9
$DIMAZIN
 70
     0
  9
$DIMDSEP
 70
    44
  9
$DIMATFIT
 70
     3
  9
$DIMFRAC
 70
     0
  9
$DIMLDRBLK
  1

  9
$DIMLUNIT
 70
     2
  9
$DIMLWD
 70
    -2
  9
$DIMLWE
 70
    -2
  9
$DIMTMOVE
 70
     0
  9
$LUNITS
 70
     2
  9
$LUPREC
 70
     2
  9
$SKETCHINC
 40
1.0
  9
$FILLETRAD
 40
10.0
  9
$AUNITS
 70
     0
  9
$AUPREC
 70
     2
  9
$MENU
  1
.
  9
$ELEVATION
 40
0.0
  9
$PELEVATION
 40
0.0
  9
$THICKNESS
 40
0.0
  9
$LIMCHECK
 70
     0
  9
$CHAMFERA
 40
0.0
  9
$CHAMFERB
 40
0.0
  9
$CHAMFERC
 40
0.0
  9
$CHAMFERD
 40
0.0
  9
$SKPOLY
 70
     0
  9
$TDCREATE
 40
2460082.705392442
  9
$TDUCREATE
 40
2460082.330392442
  9
$TDUPDATE
 40
2460082.70539294
  9
$TDUUPDATE
 40
2460082.33039294
  9
$TDINDWG
 40
0.0000000116
  9
$TDUSRTIMER
 40
0.0000000116
  9
$USRTIMER
 70
     1
  9
$ANGBASE
 50
0.0
  9
$ANGDIR
 70
     0
  9
$PDMODE
 70
     0
  9
$PDSIZE
 40
-1.0
  9
$PLINEWID
 40
0.0
  9
$SPLFRAME
 70
     0
  9
$SPLINETYPE
 70
     6
  9
$SPLINESEGS
 70
     8
  9
$HANDSEED
  5
146
  9
$SURFTAB1
 70
     6
  9
$SURFTAB2
 70
     6
  9
$SURFTYPE
 70
     6
  9
$SURFU
 70
     6
  9
$SURFV
 70
     6
  9
$UCSBASE
  2

  9
$UCSNAME
  2

  9
$UCSORG
 10
0.0
 20
0.0
 30
0.0
  9
$UCSXDIR
 10
1.0
 20
0.0
 30
0.0
  9
$UCSYDIR
 10
0.0
 20
1.0
 30
0.0
  9
$UCSORTHOREF
  2

  9
$UCSORTHOVIEW
 70
     0
  9
$UCSORGTOP
 10
0.0
 20
0.0
 30
0.0
  9
$UCSORGBOTTOM
 10
0.0
 20
0.0
 30
0.0
  9
$UCSORGLEFT
 10
0.0
 20
0.0
 30
0.0
  9
$UCSORGRIGHT
 10
0.0
 20
0.0
 30
0.0
  9
$UCSORGFRONT
 10
0.0
 20
0.0
 30
0.0
  9
$UCSORGBACK
 10
0.0
 20
0.0
 30
0.0
  9
$PUCSBASE
  2

  9
$PUCSNAME
  2

  9
$PUCSORG
 10
0.0
 20
0.0
 30
0.0
  9
$PUCSXDIR
 10
1.0
 20
0.0
 30
0.0
  9
$PUCSYDIR
 10
0.0
 20
1.0
 30
0.0
  9
$PUCSORTHOREF
  2

  9
$PUCSORTHOVIEW
 70
     0
  9
$PUCSORGTOP
 10
0.0
 20
0.0
 30
0.0
  9
$PUCSORGBOTTOM
 10
0.0
 20
0.0
 30
0.0
  9
$PUCSORGLEFT
 10
0.0
 20
0.0
 30
0.0
  9
$PUCSORGRIGHT
 10
0.0
 20
0.0
 30
0.0
  9
$PUCSORGFRONT
 10
0.0
 20
0.0
 30
0.0
  9
$PUCSORGBACK
 10
0.0
 20
0.0
 30
0.0
  9
$USERI1
 70
     0
  9
$USERI2
 70
     0
  9
$USERI3
 70
     0
  9
$USERI4
 70
     0
  9
$USERI5
 70
     0
  9
$USERR1
 40
0.0
  9
$USERR2
 40
0.0
  9
$USERR3
 40
0.0
  9
$USERR4
 40
0.0
  9
$USERR5
 40
0.0
  9
$WORLDVIEW
 70
     1
  9
$SHADEDGE
 70
     3
  9
$SHADEDIF
 70
    70
  9
$TILEMODE
 70
     1
  9
$MAXACTVP
 70
    64
  9
$PINSBASE
 10
0.0
 20
0.0
 30
0.0
  9
$PLIMCHECK
 70
     0
  9
$PEXTMIN
 10
1.0000000000E+20
 20
1.0000000000E+20
 30
1.0000000000E+20
  9
$PEXTMAX
 10
-1.0000000000E+20
 20
-1.0000000000E+20
 30
-1.0000000000E+20
  9
$PLIMMIN
 10
0.0
 20
0.0
  9
$PLIMMAX
 10
420.0
 20
297.0
  9
$UNITMODE
 70
     0
  9
$VISRETAIN
 70
     1
  9
$PLINEGEN
 70
     0
  9
$PSLTSCALE
 70
     1
  9
$TREEDEPTH
 70
  3020
  9
$CMLSTYLE
  2
Standard
  9
$CMLJUST
 70
     0
  9
$CMLSCALE
 40
20.0
  9
$PROXYGRAPHICS
 70
     1
  9
$MEASUREMENT
 70
     1
  9
$CELWEIGHT
370
    -1
  9
$ENDCAPS
280
     0
  9
$JOINSTYLE
280
     0
  9
$LWDISPLAY
290
     1
  9
$INSUNITS
 70
     4
  9
$HYPERLINKBASE
  1

  9
$STYLESHEET
  1

  9
$XEDIT
290
     1
  9
$CEPSNTYPE
380
     0
  9
$PSTYLEMODE
290
     1
  9
$FINGERPRINTGUID
  2
{58294E8D-557A-4D64-9E50-307EAC529D80}
  9
$VERSIONGUID
  2
{FAEB1C32-E019-11D5-929B-00C0DF256EC4}
  9
$EXTNAMES
290
     1
  9
$PSVPSCALE
 40
0.0
  9
$OLESTARTUP
290
     0
  0
ENDSEC
  0
SECTION
  2
CLASSES
  0
CLASS
  1
ACDBDICTIONARYWDFLT
  2
AcDbDictionaryWithDefault
  3
ObjectDBX Classes
 90
        0
280
     0
281
     0
  0
CLASS
  1
VISUALSTYLE
  2
AcDbVisualStyle
  3
ObjectDBX Classes
 90
     4095
280
     0
281
     0
  0
CLASS
  1
MATERIAL
  2
AcDbMaterial
  3
ObjectDBX Classes
 90
     1153
280
     0
281
     0
  0
CLASS
  1
SCALE
  2
AcDbScale
  3
ObjectDBX Classes
 90
     1153
280
     0
281
     0
  0
CLASS
  1
TABLESTYLE
  2
AcDbTableStyle
  3
ObjectDBX Classes
 90
     4095
280
     0
281
     0
  0
CLASS
  1
MLEADERSTYLE
  2
AcDbMLeaderStyle
  3
ACDB_MLEADERSTYLE_CLASS
 90
     4095
280
     0
281
     0
  0
CLASS
  1
SUN
  2
AcDbSun
  3
SCENEOE
 90
     1153
280
     0
281
     0
  0
CLASS
  1
ACDBPLACEHOLDER
  2
AcDbPlaceHolder
  3
ObjectDBX Classes
 90
        0
280
     0
281
     0
  0
CLASS
  1
LAYOUT
  2
AcDbLayout
  3
ObjectDBX Classes
 90
        0
280
     0
281
     0
  0
ENDSEC
  0
SECTION
  2
TABLES
  0
TABLE
  2
VPORT
  5
8
330
0
100
AcDbSymbolTable
 70
     1
  0
VPORT
  5
29
330
8
100
AcDbSymbolTableRecord
100
AcDbViewportTableRecord
  2
*Active
 70
     0
 10
0.0
 20
0.0
 11
1.0
 21
1.0
 12
107.95
 22
69.85
 13
0.0
 23
0.0
 14
10.0
 24
10.0
 15
10.0
 25
10.0
 16
0.0
 26
0.0
 36
1.0
 17
0.0
 27
0.0
 37
0.0
 40
139.7
 41
1.5454545455
 42
50.0
 43
0.0
 44
0.0
 50
0.0
 51
0.0
 71
     0
 72
  2000
 73
     1
 74
     3
 75
     0
 76
     0
 77
     0
 78
     0
281
     0
 65
     1
110
0.0
120
0.0
130
0.0
111
1.0
121
0.0
131
0.0
112
0.0
122
1.0
132
0.0
 79
     0
146
0.0
  0
ENDTAB
  0
TABLE
  2
LTYPE
  5
5
330
0
100
AcDbSymbolTable
 70
     6
  0
LTYPE
  5
14
330
5
100
AcDbSymbolTableRecord
100
AcDbLinetypeTableRecord
  2
ByBlock
 70
     0
  3

 72
    65
 73
     0
 40
0.0
  0
LTYPE
  5
15
330
5
100
AcDbSymbolTableRecord
100
AcDbLinetypeTableRecord
  2
ByLayer
 70
     0
  3

 72
    65
 73
     0
 40
0.0
  0
LTYPE
  5
16
330
5
100
AcDbSymbolTableRecord
100
AcDbLinetypeTableRecord
  2
Continuous
 70
     0
  3
Solid line
 72
    65
 73
     0
 40
0.0
  0
LTYPE
  5
6E
330
5
100
AcDbSymbolTableRecord
100
AcDbLinetypeTableRecord
  2
HIDDEN
 70
     0
  3
Hidden __ __ __ __ __ __ __ __ __ __ __ __ __ __
 72
    65
 73
     2
 40
1.905
 49
1.27
 74
     0
 49
-0.635
 74
     0
  0
LTYPE
  5
6F
330
5
100
AcDbSymbolTableRecord
100
AcDbLinetypeTableRecord
  2
PHANTOM
 70
     0
  3
Phantom ______  __  __  ______  __  __  ______
 72
    65
 73
     6
 40
12.7
 49
6.35
 74
     0
 49
-1.27
 74
     0
 49
1.27
 74
     0
 49
-1.27
 74
     0
 49
1.27
 74
     0
 49
-1.27
 74
     0
  0
LTYPE
  5
70
330
5
100
AcDbSymbolTableRecord
100
AcDbLinetypeTableRecord
  2
CENTER
 70
     0
  3
Center ____ _ ____ _ ____ _ ____ _ ____ _ ____
 72
    65
 73
     4
 40
10.16
 49
6.35
 74
     0
 49
-1.27
 74
     0
 49
1.27
 74
     0
 49
-1.27
 74
     0
  0
LTYPE
  5
71
330
5
100
AcDbSymbolTableRecord
100
AcDbLinetypeTableRecord
  2
CENTERX2
 70
     0
  3
Center (2x) ________  __  ________  __  _____
 72
    65
 73
     4
 40
20.32
 49
12.7
 74
     0
 49
-2.54
 74
     0
 49
2.54
 74
     0
 49
-2.54
 74
     0
  0
LTYPE
  5
72
330
5
100
AcDbSymbolTableRecord
100
AcDbLinetypeTableRecord
  2
DOT2
 70
     0
  3
Dot (.5x) ........................................
 72
    65
 73
     2
 40
0.635
 49
0.0
 74
     0
 49
-0.635
 74
     0
  0
ENDTAB
  0
TABLE
  2
LAYER
  5
2
330
0
100
AcDbSymbolTable
 70
     1
  0
LAYER
  5
10
330
2
100
AcDbSymbolTableRecord
100
AcDbLayerTableRecord
  2
0
 70
     0
 62
     7
  6
Continuous
370
    -3
390
F
  0
ENDTAB
  0
TABLE
  2
STYLE
  5
3
330
0
100
AcDbSymbolTable
 70
     2
  0
STYLE
  5
11
330
3
100
AcDbSymbolTableRecord
100
AcDbTextStyleTableRecord
  2
Standard
 70
     0
 40
0.0
 41
1.0
 50
0.0
 71
     0
 42
1.75
  3
txt
  4
bigfont
  0
STYLE
  5
73
330
3
100
AcDbSymbolTableRecord
100
AcDbTextStyleTableRecord
  2
SLDTEXTSTYLE0
 70
     0
 40
0.0
 41
0.7
 50
0.0
 71
     0
 42
1.75
  3
TXT
  4
bigfont
  0
ENDTAB
  0
TABLE
  2
VIEW
  5
6
330
0
100
AcDbSymbolTable
 70
     0
  0
ENDTAB
  0
TABLE
  2
UCS
  5
7
330
0
100
AcDbSymbolTable
 70
     0
  0
ENDTAB
  0
TABLE
  2
APPID
  5
9
330
0
100
AcDbSymbolTable
 70
     1
  0
APPID
  5
12
330
9
100
AcDbSymbolTableRecord
100
AcDbRegAppTableRecord
  2
ACAD
 70
     0
  0
ENDTAB
  0
TABLE
  2
DIMSTYLE
  5
A
330
0
100
AcDbSymbolTable
 70
     1
100
AcDbDimStyleTable
  0
DIMSTYLE
105
27
330
A
100
AcDbSymbolTableRecord
100
AcDbDimStyleTableRecord
  2
ISO-25
 70
     0
 41
2.5
 42
0.625
 43
3.75
 44
1.25
 73
     0
 74
     0
 77
     1
 78
     8
140
2.5
141
2.5
143
0.0393700787
147
0.625
171
     3
172
     1
178
     0
271
     2
272
     2
274
     3
278
    44
283
     0
284
     8
340
11
  0
ENDTAB
  0
TABLE
  2
BLOCK_RECORD
  5
1
330
0
100
AcDbSymbolTable
 70
     3
  0
BLOCK_RECORD
  5
1F
330
1
100
AcDbSymbolTableRecord
100
AcDbBlockTableRecord
  2
*Model_Space
340
22
  0
BLOCK_RECORD
  5
1B
330
1
100
AcDbSymbolTableRecord
100
AcDbBlockTableRecord
  2
*Paper_Space
340
1E
  0
BLOCK_RECORD
  5
23
330
1
100
AcDbSymbolTableRecord
100
AcDbBlockTableRecord
  2
*Paper_Space0
340
26
  0
BLOCK_RECORD
  5
E9
330
1
100
AcDbSymbolTableRecord
100
AcDbBlockTableRecord
  2
SW_CENTERMARKSYMBOL_0
340
0
102
{BLKREFS
331
F4
102
}
  0
BLOCK_RECORD
  5
F5
330
1
100
AcDbSymbolTableRecord
100
AcDbBlockTableRecord
  2
SW_CENTERMARKSYMBOL_1
340
0
102
{BLKREFS
331
100
102
}
  0
ENDTAB
  0
ENDSEC
  0
SECTION
  2
BLOCKS
  0
BLOCK
  5
20
330
1F
100
AcDbEntity
  8
0
100
AcDbBlockBegin
  2
*Model_Space
 70
     0
 10
0.0
 20
0.0
 30
0.0
  3
*Model_Space
  1

  0
ENDBLK
  5
21
330
1F
100
AcDbEntity
  8
0
100
AcDbBlockEnd
  0
BLOCK
  5
1C
330
1B
100
AcDbEntity
 67
     1
  8
0
100
AcDbBlockBegin
  2
*Paper_Space
 70
     0
 10
0.0
 20
0.0
 30
0.0
  3
*Paper_Space
  1

  0
ENDBLK
  5
1D
330
1B
100
AcDbEntity
 67
     1
  8
0
100
AcDbBlockEnd
  0
BLOCK
  5
24
330
23
100
AcDbEntity
  8
0
100
AcDbBlockBegin
  2
*Paper_Space0
 70
     0
 10
0.0
 20
0.0
 30
0.0
  3
*Paper_Space0
  1

  0
ENDBLK
  5
25
330
23
100
AcDbEntity
  8
0
100
AcDbBlockEnd
  0
BLOCK
  5
EA
330
E9
100
AcDbEntity
  8
0
100
AcDbBlockBegin
  2
SW_CENTERMARKSYMBOL_0
 70
     0
 10
0.0
 20
0.0
 30
0.0
  3
SW_CENTERMARKSYMBOL_0
  1

  0
LINE
  5
EC
330
E9
100
AcDbEntity
  8
0
  6
Continuous
 62
     0
370
    18
100
AcDbLine
 10
0.0
 20
0.0
 30
0.0
 11
0.0
 21
2.5
 31
0.0
  0
LINE
  5
ED
330
E9
100
AcDbEntity
  8
0
  6
Continuous
 62
     0
370
    18
100
AcDbLine
 10
0.0
 20
0.0
 30
0.0
 11
-2.5
 21
0.0
 31
0.0
  0
LINE
  5
EE
330
E9
100
AcDbEntity
  8
0
  6
Continuous
 62
     0
370
    18
100
AcDbLine
 10
0.0
 20
0.0
 30
0.0
 11
0.0
 21
-2.5
 31
0.0
  0
LINE
  5
EF
330
E9
100
AcDbEntity
  8
0
  6
Continuous
 62
     0
370
    18
100
AcDbLine
 10
0.0
 20
0.0
 30
0.0
 11
2.5
 21
0.0
 31
0.0
  0
LINE
  5
F0
330
E9
100
AcDbEntity
  8
0
  6
Continuous
 62
     0
370
    18
100
AcDbLine
 10
0.0
 20
5.0
 30
0.0
 11
0.0
 21
10.25
 31
0.0
  0
LINE
  5
F1
330
E9
100
AcDbEntity
  8
0
  6
Continuous
 62
     0
370
    18
100
AcDbLine
 10
-5.0
 20
0.0
 30
0.0
 11
-10.25
 21
0.0
 31
0.0
  0
LINE
  5
F2
330
E9
100
AcDbEntity
  8
0
  6
Continuous
 62
     0
370
    18
100
AcDbLine
 10
0.0
 20
-5.0
 30
0.0
 11
0.0
 21
-10.25
 31
0.0
  0
LINE
  5
F3
330
E9
100
AcDbEntity
  8
0
  6
Continuous
 62
     0
370
    18
100
AcDbLine
 10
5.0
 20
0.0
 30
0.0
 11
10.25
 21
0.0
 31
0.0
  0
ENDBLK
  5
EB
330
E9
100
AcDbEntity
  8
0
100
AcDbBlockEnd
  0
BLOCK
  5
F6
330
F5
100
AcDbEntity
  8
0
100
AcDbBlockBegin
  2
SW_CENTERMARKSYMBOL_1
 70
     0
 10
0.0
 20
0.0
 30
0.0
  3
SW_CENTERMARKSYMBOL_1
  1

  0
LINE
  5
F8
330
F5
100
AcDbEntity
  8
0
  6
Continuous
 62
     0
370
    18
100
AcDbLine
 10
0.0
 20
0.0
 30
0.0
 11
0.0
 21
2.5
 31
0.0
  0
LINE
  5
F9
330
F5
100
AcDbEntity
  8
0
  6
Continuous
 62
     0
370
    18
100
AcDbLine
 10
0.0
 20
0.0
 30
0.0
 11
-2.5
 21
0.0
 31
0.0
  0
LINE
  5
FA
330
F5
100
AcDbEntity
  8
0
  6
Continuous
 62
     0
370
    18
100
AcDbLine
 10
0.0
 20
0.0
 30
0.0
 11
0.0
 21
-2.5
 31
0.0
  0
LINE
  5
FB
330
F5
100
AcDbEntity
  8
0
  6
Continuous
 62
     0
370
    18
100
AcDbLine
 10
0.0
 20
0.0
 30
0.0
 11
2.5
 21
0.0
 31
0.0
  0
LINE
  5
FC
330
F5
100
AcDbEntity
  8
0
  6
Continuous
 62
     0
370
    18
100
AcDbLine
 10
0.0
 20
5.0
 30
0.0
 11
0.0
 21
16.8845268289
 31
0.0
  0
LINE
  5
FD
330
F5
100
AcDbEntity
  8
0
  6
Continuous
 62
     0
370
    18
100
AcDbLine
 10
-5.0
 20
0.0
 30
0.0
 11
-15.75
 21
0.0
 31
0.0
  0
LINE
  5
FE
330
F5
100
AcDbEntity
  8
0
  6
Continuous
 62
     0
370
    18
100
AcDbLine
 10
0.0
 20
-5.0
 30
0.0
 11
0.0
 21
-16.6500195118
 31
0.0
  0
LINE
  5
FF
330
F5
100
AcDbEntity
  8
0
  6
Continuous
 62
     0
370
    18
100
AcDbLine
 10
5.0
 20
0.0
 30
0.0
 11
15.75
 21
0.0
 31
0.0
  0
ENDBLK
  5
F7
330
F5
100
AcDbEntity
  8
0
100
AcDbBlockEnd
  0
ENDSEC
  0
SECTION
  2
ENTITIES
  0
MTEXT
  5
74
330
1F
100
AcDbEntity
  8
0
  6
Continuous
 62
     7
370
     0
100
AcDbMText
 10
140.8232556608
 20
71.7503761636
 30
0.0
 40
2.38125
 41
0.0
 71
     1
 72
     1
  1
エースニップル　HN-8621
  7
SLDTEXTSTYLE0
 73
     1
 44
1.0
  0
LINE
  5
75
330
1F
100
AcDbEntity
  8
0
  6
Continuous
 62
     7
370
    25
100
AcDbLine
 10
99.7344422662
 20
62.4547675199
 30
0.0
 11
98.5020767035
 21
60.3202477518
 31
0.0
  0
LINE
  5
76
330
1F
100
AcDbEntity
  8
0
  6
Continuous
 62
     7
370
    25
100
AcDbLine
 10
98.5020767035
 20
33.4123727518
 30
0.0
 11
99.7344422662
 21
31.2778529837
 31
0.0
  0
LINE
  5
77
330
1F
100
AcDbEntity
  8
0
  6
Continuous
 62
     7
370
    25
100
AcDbLine
 10
105.1519677702
 20
31.2778529837
 30
0.0
 11
106.5020767035
 21
33.6163102518
 31
0.0
  0
LINE
  5
78
330
1F
100
AcDbEntity
  8
0
  6
Continuous
 62
     7
370
    25
100
AcDbLine
 10
106.5020767035
 20
60.1163102518
 30
0.0
 11
105.1519677702
 21
62.4547675199
 31
0.0
  0
LINE
  5
79
330
1F
100
AcDbEntity
  8
0
  6
Continuous
 62
     7
370
    25
100
AcDbLine
 10
98.5020767035
 20
60.3202477518
 30
0.0
 11
84.1072530424
 21
59.8704095124
 31
0.0
  0
LINE
  5
7A
330
1F
100
AcDbEntity
  8
0
  6
Continuous
 62
     7
370
    25
100
AcDbLine
 10
84.1072530424
 20
33.8622109912
 30
0.0
 11
98.5020767035
 21
33.4123727518
 31
0.0
  0
LINE
  5
7B
330
1F
100
AcDbEntity
  8
0
  6
Continuous
 62
     7
370
    25
100
AcDbLine
 10
84.1072530424
 20
59.8704095124
 30
0.0
 11
81.5020767035
 21
58.3663102518
 31
0.0
  0
LINE
  5
7C
330
1F
100
AcDbEntity
  8
0
  6
Continuous
 62
     7
370
    25
100
AcDbLine
 10
81.5020767035
 20
35.3663102518
 30
0.0
 11
84.1072530424
 21
33.8622109912
 31
0.0
  0
LINE
  5
7D
330
1F
100
AcDbEntity
  8
0
  6
Continuous
 62
     7
370
    25
100
AcDbLine
 10
115.5020767035
 20
57.3663102518
 30
0.0
 11
106.5020767035
 21
57.3663102518
 31
0.0
  0
LINE
  5
7E
330
1F
100
AcDbEntity
  8
0
  6
Continuous
 62
     7
370
    25
100
AcDbLine
 10
106.5020767035
 20
36.3663102518
 30
0.0
 11
115.5020767035
 21
36.3663102518
 31
0.0
  0
LINE
  5
7F
330
1F
100
AcDbEntity
  8
0
  6
Continuous
 62
     7
370
    25
100
AcDbLine
 10
115.5020767035
 20
36.3663102518
 30
0.0
 11
121.5020767035
 21
37.3663102518
 31
0.0
  0
LINE
  5
80
330
1F
100
AcDbEntity
  8
0
  6
Continuous
 62
     7
370
    25
100
AcDbLine
 10
121.5020767035
 20
56.3663102518
 30
0.0
 11
115.5020767035
 21
57.3663102518
 31
0.0
  0
LINE
  5
81
330
1F
100
AcDbEntity
  8
0
  6
Continuous
 62
     7
370
    25
100
AcDbLine
 10
121.5020767035
 20
36.3663102518
 30
0.0
 11
127.5020767035
 21
37.3663102518
 31
0.0
  0
LINE
  5
82
330
1F
100
AcDbEntity
  8
0
  6
Continuous
 62
     7
370
    25
100
AcDbLine
 10
127.5020767035
 20
56.3663102518
 30
0.0
 11
121.5020767035
 21
57.3663102518
 31
0.0
  0
LINE
  5
83
330
1F
100
AcDbEntity
  8
0
  6
Continuous
 62
     7
370
    25
100
AcDbLine
 10
133.5020767035
 20
36.3663102518
 30
0.0
 11
141.0640940707
 21
37.3115624227
 31
0.0
  0
LINE
  5
84
330
1F
100
AcDbEntity
  8
0
  6
Continuous
 62
     7
370
    25
100
AcDbLine
 10
141.0640940707
 20
56.4210580809
 30
0.0
 11
133.5020767035
 21
57.3663102518
 31
0.0
  0
LINE
  5
85
330
1F
100
AcDbEntity
  8
0
  6
Continuous
 62
     7
370
    25
100
AcDbLine
 10
127.5020767035
 20
36.3663102518
 30
0.0
 11
133.5020767035
 21
37.3663102518
 31
0.0
  0
LINE
  5
86
330
1F
100
AcDbEntity
  8
0
  6
Continuous
 62
     7
370
    25
100
AcDbLine
 10
133.5020767035
 20
56.3663102518
 30
0.0
 11
127.5020767035
 21
57.3663102518
 31
0.0
  0
ARC
  5
87
330
1F
100
AcDbEntity
  8
0
  6
Continuous
 62
     7
370
    25
100
AcDbCircle
 10
141.0020767035
 20
37.8077013611
 30
0.0
 40
0.5000000000000017
100
AcDbArc
 50
277.1250163489
 51
0.0
  0
ARC
  5
88
330
1F
100
AcDbEntity
  8
0
  6
Continuous
 62
     7
370
    25
100
AcDbCircle
 10
141.0020767035
 20
55.9249191425
 30
0.0
 40
0.5000000000000017
100
AcDbArc
 50
0.0
 51
82.8749836511
  0
LINE
  5
89
330
1F
100
AcDbEntity
  8
0
  6
Continuous
 62
     7
370
    25
100
AcDbLine
 10
102.4432050182
 20
62.1547675199
 30
0.0
 11
102.3628202605
 21
62.4547675199
 31
0.0
  0
LINE
  5
8A
330
1F
100
AcDbEntity
  8
0
  6
Continuous
 62
     7
370
    25
100
AcDbLine
 10
102.5235897759
 20
62.4547675199
 30
0.0
 11
102.4432050182
 21
62.1547675199
 31
0.0
  0
LINE
  5
8B
330
1F
100
AcDbEntity
  8
0
  6
Continuous
 62
     7
370
    25
100
AcDbLine
 10
102.4432050182
 20
31.5778529837
 30
0.0
 11
102.5235897759
 21
31.2778529837
 31
0.0
  0
LINE
  5
8C
330
1F
100
AcDbEntity
  8
0
  6
Continuous
 62
     7
370
    25
100
AcDbLine
 10
102.3628202605
 20
31.2778529837
 30
0.0
 11
102.4432050182
 21
31.5778529837
 31
0.0
  0
LINE
  5
8D
330
1F
100
AcDbEntity
  8
0
  6
Continuous
 62
     7
370
    25
100
AcDbLine
 10
102.5235897759
 20
39.0720816177
 30
0.0
 11
105.1519677702
 21
39.0720816177
 31
0.0
  0
SPLINE
  5
8E
330
1F
100
AcDbEntity
  8
0
  6
Continuous
 62
     7
370
    25
100
AcDbSpline
210
0.0
220
0.0
230
1.0
 70
     8
 71
     3
 72
    16
 73
    12
 74
     0
 42
0.000000001
 43
0.00000001
 40
0.0
 40
0.0
 40
0.0
 40
0.0
 40
0.2500000000000001
 40
0.2500000000000001
 40
0.5
 40
0.5
 40
0.6249999999999999
 40
0.6249999999999999
 40
0.7499999999999999
 40
0.7499999999999999
 40
1.0
 40
1.0
 40
1.0
 40
1.0
 10
105.1519677702167
 20
31.2778529836617
 30
0.0
 10
105.5193501329027
 20
31.91417790163855
 30
0.0
 10
105.8221396932969
 20
32.5551420525912
 30
0.0
 10
106.2416015016022
 20
33.85043781252281
 30
0.0
 10
106.3568901270568
 20
34.50486879707768
 30
0.0
 10
106.3581565239207
 20
35.49884483774782
 30
0.0
 10
106.3299729668317
 20
35.83172956435241
 30
0.0
 10
106.2200717977897
 20
36.49021059791266
 30
0.0
 10
106.1384657357168
 20
36.81724347419141
 30
0.0
 10
105.823347140826
 20
37.79251973390502
 30
0.0
 10
105.5198081244898
 20
38.43496343504633
 30
0.0
 10
105.1519677702166
 20
39.07208161772167
 30
0.0
  0
LINE
  5
8F
330
1F
100
AcDbEntity
  8
0
  6
Continuous
 62
     7
370
    25
100
AcDbLine
 10
102.5235897759
 20
31.2778529837
 30
0.0
 11
105.1519677702
 21
31.2778529837
 31
0.0
  0
SPLINE
  5
90
330
1F
100
AcDbEntity
  8
0
  6
Continuous
 62
     7
370
    25
100
AcDbSpline
210
0.0
220
0.0
230
1.0
 70
     8
 71
     3
 72
     8
 73
     4
 74
     0
 42
0.000000001
 43
0.00000001
 40
0.0
 40
0.0
 40
0.0
 40
0.0
 40
1.0
 40
1.0
 40
1.0
 40
1.0
 10
102.5235897759218
 20
31.27785298366172
 30
0.0
 10
102.495966719828
 20
31.38094363246417
 30
0.0
 10
102.4691548727107
 20
31.48407439188472
 30
0.0
 10
102.4432050181925
 20
31.587247772944
 30
0.0
  0
SPLINE
  5
91
330
1F
100
AcDbEntity
  8
0
  6
Continuous
 62
     7
370
    25
100
AcDbSpline
210
0.0
220
0.0
230
1.0
 70
     8
 71
     3
 72
     8
 73
     4
 74
     0
 42
0.000000001
 43
0.00000001
 40
0.0
 40
0.0
 40
0.0
 40
0.0
 40
1.0
 40
1.0
 40
1.0
 40
1.0
 10
102.4432050181925
 20
31.587247772944
 30
0.0
 10
102.417247954548
 20
31.48404572929911
 30
0.0
 10
102.3904358004536
 20
31.38091558198454
 30
0.0
 10
102.3628202604631
 20
31.27785298366172
 30
0.0
  0
LINE
  5
92
330
1F
100
AcDbEntity
  8
0
  6
Continuous
 62
     7
370
    25
100
AcDbLine
 10
99.7344422662
 20
31.2778529837
 30
0.0
 11
102.3628202605
 21
31.2778529837
 31
0.0
  0
SPLINE
  5
93
330
1F
100
AcDbEntity
  8
0
  6
Continuous
 62
     7
370
    25
100
AcDbSpline
210
0.0
220
0.0
230
1.0
 70
     8
 71
     3
 72
    16
 73
    12
 74
     0
 42
0.000000001
 43
0.00000001
 40
0.0
 40
0.0
 40
0.0
 40
0.0
 40
0.2500000000000001
 40
0.2500000000000001
 40
0.5000000000000001
 40
0.5000000000000001
 40
0.6250000000000001
 40
0.6250000000000001
 40
0.7500000000000002
 40
0.7500000000000002
 40
1.0
 40
1.0
 40
1.0
 40
1.0
 10
99.73444226616822
 20
39.07208161772168
 30
0.0
 10
99.36705990348221
 20
38.43575669974482
 30
0.0
 10
99.06427034308804
 20
37.79479254879217
 30
0.0
 10
98.64480853478271
 20
36.49949678886056
 30
0.0
 10
98.52951990932812
 20
35.8450658043057
 30
0.0
 10
98.52825351246422
 20
34.85108976363556
 30
0.0
 10
98.55643706955324
 20
34.51820503703097
 30
0.0
 10
98.6663382385952
 20
33.85972400347071
 30
0.0
 10
98.74794430066814
 20
33.53269112719196
 30
0.0
 10
99.06306289555897
 20
32.55741486747834
 30
0.0
 10
99.36660191189515
 20
31.91497116633703
 30
0.0
 10
99.73444226616834
 20
31.2778529836617
 30
0.0
  0
LINE
  5
94
330
1F
100
AcDbEntity
  8
0
  6
Continuous
 62
     7
370
    25
100
AcDbLine
 10
99.7344422662
 20
39.0720816177
 30
0.0
 11
102.3628202605
 21
39.0720816177
 31
0.0
  0
SPLINE
  5
95
330
1F
100
AcDbEntity
  8
0
  6
Continuous
 62
     7
370
    25
100
AcDbSpline
210
0.0
220
0.0
230
1.0
 70
     8
 71
     3
 72
     8
 73
     4
 74
     0
 42
0.000000001
 43
0.00000001
 40
0.0
 40
0.0
 40
0.0
 40
0.0
 40
1.0
 40
1.0
 40
1.0
 40
1.0
 10
102.3628202604631
 20
39.07208161772166
 30
0.0
 10
102.3904433165569
 20
38.9689909689192
 30
0.0
 10
102.4172551636743
 20
38.86586020949866
 30
0.0
 10
102.4432050181925
 20
38.76268682843937
 30
0.0
  0
SPLINE
  5
96
330
1F
100
AcDbEntity
  8
0
  6
Continuous
 62
     7
370
    25
100
AcDbSpline
210
0.0
220
0.0
230
1.0
 70
     8
 71
     3
 72
     8
 73
     4
 74
     0
 42
0.000000001
 43
0.00000001
 40
0.0
 40
0.0
 40
0.0
 40
0.0
 40
1.0
 40
1.0
 40
1.0
 40
1.0
 10
102.4432050181925
 20
38.76268682843937
 30
0.0
 10
102.4691620818369
 20
38.86588887208426
 30
0.0
 10
102.4959742359313
 20
38.96901901939884
 30
0.0
 10
102.5235897759218
 20
39.07208161772166
 30
0.0
  0
SPLINE
  5
97
330
1F
100
AcDbEntity
  8
0
  6
Continuous
 62
     7
370
    25
100
AcDbSpline
210
0.0
220
0.0
230
1.0
 70
     8
 71
     3
 72
    19
 73
    15
 74
     0
 42
0.000000001
 43
0.00000001
 40
0.0
 40
0.0
 40
0.0
 40
0.0
 40
0.1227280999764557
 40
0.2397165235883926
 40
0.3518621792202465
 40
0.463201981803224
 40
0.520261154154164
 40
0.5794324380306666
 40
0.6405963441586369
 40
0.7052982290880198
 40
0.7732361059084532
 40
0.8446489293403163
 40
0.9200459817773702
 40
1.0
 40
1.0
 40
1.0
 40
1.0
 10
103.4597690111462
 20
48.4268070466534
 30
0.0
 10
103.4587771088999
 20
48.45527346446217
 30
0.0
 10
103.4568396931144
 20
48.51087499921618
 30
0.0
 10
103.4398106816474
 20
48.59101540522822
 30
0.0
 10
103.4128299684281
 20
48.66543985360997
 30
0.0
 10
103.3802508372395
 20
48.72213627040711
 30
0.0
 10
103.3482016999681
 20
48.76407394505984
 30
0.0
 10
103.320629827223
 20
48.79461678170128
 30
0.0
 10
103.2893689707644
 20
48.82406320490532
 30
0.0
 10
103.2535616804815
 20
48.85125771032056
 30
0.0
 10
103.2144392241603
 20
48.87782985029867
 30
0.0
 10
103.1717861298786
 20
48.90352590062245
 30
0.0
 10
103.1249942921622
 20
48.92752050356061
 30
0.0
 10
103.0920889232005
 20
48.94212641124447
 30
0.0
 10
103.0751536265308
 20
48.94964358511493
 30
0.0
  0
SPLINE
  5
98
330
1F
100
AcDbEntity
  8
0
  6
Continuous
 62
     7
370
    25
100
AcDbSpline
210
0.0
220
0.0
230
1.0
 70
     8
 71
     3
 72
    23
 73
    19
 74
     0
 42
0.000000001
 43
0.00000001
 40
0.0
 40
0.0
 40
0.0
 40
0.0
 40
0.0552698294993251
 40
0.109956704485094
 40
0.1632335040550558
 40
0.2180575651623567
 40
0.2732775387226746
 40
0.3308810454954968
 40
0.3904799376860886
 40
0.4536559730386416
 40
0.5189026226022312
 40
0.5833461108214766
 40
0.6485466930814432
 40
0.7150552190344911
 40
0.7825206438000538
 40
0.852335294426451
 40
0.9249348997257086
 40
1.0
 40
1.0
 40
1.0
 40
1.0
 10
103.0676416073
 20
47.92400255947391
 30
0.0
 10
103.0806971709307
 20
47.9242985328431
 30
0.0
 10
103.1066705955825
 20
47.92488735782384
 30
0.0
 10
103.1446166126748
 20
47.93231449047025
 30
0.0
 10
103.1814047217915
 20
47.94347263215973
 30
0.0
 10
103.2168680003526
 20
47.9588225270297
 30
0.0
 10
103.2508006029933
 20
47.97933064416309
 30
0.0
 10
103.2832441583716
 20
48.00394721659793
 30
0.0
 10
103.3147423868771
 20
48.03268412557347
 30
0.0
 10
103.3437883747165
 20
48.06629240950571
 30
0.0
 10
103.3711861792038
 20
48.10267696126067
 30
0.0
 10
103.3948705619988
 20
48.14218013656724
 30
0.0
 10
103.4149454290279
 20
48.18393064467337
 30
0.0
 10
103.4315315486447
 20
48.22796687814222
 30
0.0
 10
103.4440002925927
 20
48.27446524469847
 30
0.0
 10
103.4529550746822
 20
48.32319806336639
 30
0.0
 10
103.4585532298383
 20
48.37426081599731
 30
0.0
 10
103.4593592647028
 20
48.409097750593
 30
0.0
 10
103.4597690111462
 20
48.4268070466534
 30
0.0
  0
SPLINE
  5
99
330
1F
100
AcDbEntity
  8
0
  6
Continuous
 62
     7
370
    25
100
AcDbSpline
210
0.0
220
0.0
230
1.0
 70
     8
 71
     3
 72
    19
 73
    15
 74
     0
 42
0.000000001
 43
0.00000001
 40
0.0
 40
0.0
 40
0.0
 40
0.0
 40
0.1101423815503172
 40
0.2157418685830273
 40
0.3179605426392306
 40
0.4180517606815226
 40
0.5115631470355316
 40
0.5965727584443461
 40
0.6733290469034968
 40
0.7440491927238596
 40
0.8107168223002834
 40
0.8740854521098848
 40
0.93670961689667
 40
1.0
 40
1.0
 40
1.0
 40
1.0
 10
102.6584869598641
 20
48.56502820049955
 30
0.0
 10
102.6590141081452
 20
48.53409965127927
 30
0.0
 10
102.6600466621317
 20
48.47351822106663
 30
0.0
 10
102.6724487406494
 20
48.38501025526893
 30
0.0
 10
102.6897976170159
 20
48.30027433921622
 30
0.0
 10
102.715757903085
 20
48.2212446657582
 30
0.0
 10
102.7469176559183
 20
48.14944680226111
 30
0.0
 10
102.7820525527893
 20
48.0868144100061
 30
0.0
 10
102.821858814524
 20
48.03483185218831
 30
0.0
 10
102.8658140221044
 20
47.99336925501925
 30
0.0
 10
102.9135070044236
 20
47.96293718093271
 30
0.0
 10
102.9626952166916
 20
47.94009489517366
 30
0.0
 10
103.0145231053616
 20
47.92670382175231
 30
0.0
 10
103.0498730939748
 20
47.92490615074696
 30
0.0
 10
103.0676416073
 20
47.92400255947391
 30
0.0
  0
LINE
  5
9A
330
1F
100
AcDbEntity
  8
0
  6
Continuous
 62
     7
370
    25
100
AcDbLine
 10
102.4020767035
 20
48.5650282005
 30
0.0
 11
102.6584869599
 21
48.5650282005
 31
0.0
  0
SPLINE
  5
9B
330
1F
100
AcDbEntity
  8
0
  6
Continuous
 62
     7
370
    25
100
AcDbSpline
210
0.0
220
0.0
230
1.0
 70
     8
 71
     3
 72
    23
 73
    19
 74
     0
 42
0.000000001
 43
0.00000001
 40
0.0
 40
0.0
 40
0.0
 40
0.0
 40
0.0669051223273615
 40
0.1334773340846823
 40
0.2010229080576287
 40
0.2712178684297487
 40
0.3428591616573977
 40
0.4138109980627168
 40
0.4855518488903452
 40
0.5598002749200528
 40
0.599899964903578
 40
0.6436094423977957
 40
0.6919106424505658
 40
0.7447030291556901
 40
0.8015038302285952
 40
0.8628660266331953
 40
0.9293326711591617
 40
1.0
 40
1.0
 40
1.0
 40
1.0
 10
101.8732305496077
 20
47.79579743126878
 30
0.0
 10
101.896524389412
 20
47.79689048437715
 30
0.0
 10
101.942996162118
 20
47.79907115171385
 30
0.0
 10
102.0113654637181
 20
47.81572042775564
 30
0.0
 10
102.0772408676714
 20
47.84310419683857
 30
0.0
 10
102.1394889780115
 20
47.88144614749401
 30
0.0
 10
102.1972090913704
 20
47.92809753694037
 30
0.0
 10
102.2485081229646
 20
47.98260678238444
 30
0.0
 10
102.291262907618
 20
48.04510759486583
 30
0.0
 10
102.3206936980109
 20
48.10300236350702
 30
0.0
 10
102.3403080821204
 20
48.15440736643199
 30
0.0
 10
102.354061321062
 20
48.19831132306885
 30
0.0
 10
102.3650554165686
 20
48.24750662024744
 30
0.0
 10
102.3756900177747
 20
48.30140267914221
 30
0.0
 10
102.3846053925549
 20
48.36022680613382
 30
0.0
 10
102.3920723683703
 20
48.42403199805056
 30
0.0
 10
102.3980377364437
 20
48.49284392420739
 30
0.0
 10
102.4007031653343
 20
48.54048037555484
 30
0.0
 10
102.4020767034539
 20
48.56502820049955
 30
0.0
  0
SPLINE
  5
9C
330
1F
100
AcDbEntity
  8
0
  6
Continuous
 62
     7
370
    25
100
AcDbSpline
210
0.0
220
0.0
230
1.0
 70
     8
 71
     3
 72
    23
 73
    19
 74
     0
 42
0.000000001
 43
0.00000001
 40
0.0
 40
0.0
 40
0.0
 40
0.0
 40
0.0760618905628338
 40
0.1487324608035361
 40
0.2183745247439721
 40
0.2857225935927384
 40
0.3510576941824568
 40
0.4149349157293191
 40
0.4784859417740854
 40
0.5421690352812158
 40
0.6047501165431387
 40
0.6641185017301124
 40
0.7214996756099116
 40
0.777615916385255
 40
0.8326661086975489
 40
0.887858028113574
 40
0.9434676608977686
 40
1.0
 40
1.0
 40
1.0
 40
1.0
 10
101.3443843957616
 20
48.43231586075596
 30
0.0
 10
101.3448236126104
 20
48.40892018502964
 30
0.0
 10
101.3456824632418
 20
48.36317196082448
 30
0.0
 10
101.3536036782802
 20
48.29642291438499
 30
0.0
 10
101.3650896868233
 20
48.23290178586014
 30
0.0
 10
101.3830560374267
 20
48.17325680817405
 30
0.0
 10
101.4046096429674
 20
48.1166763595465
 30
0.0
 10
101.4328272684219
 20
48.06442347905639
 30
0.0
 10
101.4646945144815
 20
48.01496199657455
 30
0.0
 10
101.5017622506748
 20
47.96974090495072
 30
0.0
 10
101.541828461216
 20
47.92897187966592
 30
0.0
 10
101.5843351399861
 20
47.89374293741127
 30
0.0
 10
101.6279643033244
 20
47.86323064430537
 30
0.0
 10
101.6737337314221
 20
47.83870385267035
 30
0.0
 10
101.7211944629836
 20
47.81930200930903
 30
0.0
 10
101.7705241439475
 20
47.80610201700416
 30
0.0
 10
101.8213073875339
 20
47.79692175268295
 30
0.0
 10
101.8558281497496
 20
47.79617425521472
 30
0.0
 10
101.8732305496077
 20
47.79579743126878
 30
0.0
  0
SPLINE
  5
9D
330
1F
100
AcDbEntity
  8
0
  6
Continuous
 62
     7
370
    25
100
AcDbSpline
210
0.0
220
0.0
230
1.0
 70
     8
 71
     3
 72
    15
 73
    11
 74
     0
 42
0.000000001
 43
0.00000001
 40
0.0
 40
0.0
 40
0.0
 40
0.0
 40
0.1182713048357264
 40
0.2361775330837636
 40
0.3556629329485097
 40
0.475904164670683
 40
0.6001273417110831
 40
0.7286081161551196
 40
0.8613134756739419
 40
1.0
 40
1.0
 40
1.0
 40
1.0
 10
101.4796007419154
 20
48.84998412998673
 30
0.0
 10
101.4688090748543
 20
48.83598657532591
 30
0.0
 10
101.4472590521512
 20
48.80803467326826
 30
0.0
 10
101.4197578889099
 20
48.76248593676937
 30
0.0
 10
101.3959285850993
 20
48.71458244670814
 30
0.0
 10
101.377725945302
 20
48.66328625083607
 30
0.0
 10
101.3623133304526
 20
48.60970427194032
 30
0.0
 10
101.352227245358
 20
48.55297043963188
 30
0.0
 10
101.34530712297
 20
48.49358528455206
 30
0.0
 10
101.3446964576182
 20
48.45303688206415
 30
0.0
 10
101.3443843957616
 20
48.43231586075596
 30
0.0
  0
SPLINE
  5
9E
330
1F
100
AcDbEntity
  8
0
  6
Continuous
 62
     7
370
    25
100
AcDbSpline
210
0.0
220
0.0
230
1.0
 70
     8
 71
     3
 72
    15
 73
    11
 74
     0
 42
0.000000001
 43
0.00000001
 40
0.0
 40
0.0
 40
0.0
 40
0.0
 40
0.149770386031968
 40
0.2913164099952444
 40
0.4259663731047428
 40
0.5521595739695285
 40
0.6715274135235931
 40
0.7861216286916591
 40
0.8953250730704452
 40
1.0
 40
1.0
 40
1.0
 40
1.0
 10
101.8251536265308
 20
49.04579743126878
 30
0.0
 10
101.8059043313389
 20
49.03995222309716
 30
0.0
 10
101.7684627801831
 20
49.02858278548437
 30
0.0
 10
101.7145768475582
 20
49.00922971545929
 30
0.0
 10
101.6651782381119
 20
48.98718094969468
 30
0.0
 10
101.6199045795562
 20
48.96352769352606
 30
0.0
 10
101.5783100063675
 20
48.93868594636697
 30
0.0
 10
101.5414943856289
 20
48.91088957126954
 30
0.0
 10
101.5078406697648
 20
48.88219732473574
 30
0.0
 10
101.4888802326646
 20
48.86056921519907
 30
0.0
 10
101.4796007419154
 20
48.84998412998673
 30
0.0
  0
LINE
  5
9F
330
1F
100
AcDbEntity
  8
0
  6
Continuous
 62
     7
370
    25
100
AcDbLine
 10
101.8251536265
 20
49.2701564056
 30
0.0
 11
101.8251536265
 21
49.0457974313
 31
0.0
  0
SPLINE
  5
A0
330
1F
100
AcDbEntity
  8
0
  6
Continuous
 62
     7
370
    25
100
AcDbSpline
210
0.0
220
0.0
230
1.0
 70
     8
 71
     3
 72
    23
 73
    19
 74
     0
 42
0.000000001
 43
0.00000001
 40
0.0
 40
0.0
 40
0.0
 40
0.0
 40
0.0655411703374035
 40
0.1289631677825933
 40
0.1903771361885609
 40
0.2500923616690527
 40
0.308548432459201
 40
0.3663979630552959
 40
0.42454218926668
 40
0.4831699964229057
 40
0.5422433998311202
 40
0.6017393520173302
 40
0.6625060022496067
 40
0.724855513448847
 40
0.7891278292811812
 40
0.8563463998785101
 40
0.9262952349869055
 40
1.0
 40
1.0
 40
1.0
 40
1.0
 10
101.0879741393513
 20
48.43632227101237
 30
0.0
 10
101.0885942916788
 20
48.46305034264318
 30
0.0
 10
101.0898145446625
 20
48.5156422748361
 30
0.0
 10
101.0981564026601
 20
48.59295905939776
 30
0.0
 10
101.1133921206871
 20
48.66676027322956
 30
0.0
 10
101.1338944816629
 20
48.73714570027004
 30
0.0
 10
101.159888583149
 20
48.80417786912257
 30
0.0
 10
101.1922590817356
 20
48.8676522299638
 30
0.0
 10
101.2303387260583
 20
48.92795929676387
 30
0.0
 10
101.274577003063
 20
48.98452997615285
 30
0.0
 10
101.3240636743179
 20
49.03735752451445
 30
0.0
 10
101.3796772528662
 20
49.08503804182168
 30
0.0
 10
101.4403896842384
 20
49.12836646535175
 30
0.0
 10
101.5069061529518
 20
49.16618263585996
 30
0.0
 10
101.5783670510073
 20
49.20020903058557
 30
0.0
 10
101.6556874069942
 20
49.22819542819079
 30
0.0
 10
101.7381759941292
 20
49.25282797721671
 30
0.0
 10
101.7956600942548
 20
49.2642804516782
 30
0.0
 10
101.8251536265308
 20
49.27015640562776
 30
0.0
  0
SPLINE
  5
A1
330
1F
100
AcDbEntity
  8
0
  6
Continuous
 62
     7
370
    25
100
AcDbSpline
210
0.0
220
0.0
230
1.0
 70
     8
 71
     3
 72
    19
 73
    15
 74
     0
 42
0.000000001
 43
0.00000001
 40
0.0
 40
0.0
 40
0.0
 40
0.0
 40
0.0796417041949911
 40
0.158908613257856
 40
0.2395997983184508
 40
0.3224093988203484
 40
0.405827748173513
 40
0.4876442139503137
 40
0.5697199979738973
 40
0.6530646649976933
 40
0.7374573001733064
 40
0.8224924079539123
 40
0.9097550737466981
 40
0.9999999999999999
 40
0.9999999999999999
 40
0.9999999999999999
 40
0.9999999999999999
 10
101.8947650047359
 20
47.57143845690981
 30
0.0
 10
101.8597594530637
 20
47.57272307476232
 30
0.0
 10
101.7899130864047
 20
47.57528626503523
 30
0.0
 10
101.6866959763336
 20
47.59810398120699
 30
0.0
 10
101.5859740195631
 20
47.63368165504068
 30
0.0
 10
101.4892395880215
 20
47.68332156120806
 30
0.0
 10
101.3989206040888
 20
47.74473916519081
 30
0.0
 10
101.3184762973612
 20
47.81821274108981
 30
0.0
 10
101.2488627869489
 20
47.9019561579941
 30
0.0
 10
101.1908866098547
 20
47.99542133194551
 30
0.0
 10
101.1445081697258
 20
48.09663896385934
 30
0.0
 10
101.1123265936526
 20
48.20490966239218
 30
0.0
 10
101.0913645356063
 20
48.31865904211968
 30
0.0
 10
101.0891168589864
 20
48.39666434554601
 30
0.0
 10
101.0879741393513
 20
48.43632227101237
 30
0.0
  0
SPLINE
  5
A2
330
1F
100
AcDbEntity
  8
0
  6
Continuous
 62
     7
370
    25
100
AcDbSpline
210
0.0
220
0.0
230
1.0
 70
     8
 71
     3
 72
    15
 73
    11
 74
     0
 42
0.000000001
 43
0.00000001
 40
0.0
 40
0.0
 40
0.0
 40
0.0
 40
0.1281455049994642
 40
0.254192538628042
 40
0.378141139713589
 40
0.5013808330744056
 40
0.6239569784447038
 40
0.7470758858273291
 40
0.8728647202442611
 40
1.0
 40
1.0
 40
1.0
 40
1.0
 10
102.3389757419154
 20
47.72067723896109
 30
0.0
 10
102.3225076745404
 20
47.70864281198183
 30
0.0
 10
102.289841215796
 20
47.68477103009761
 30
0.0
 10
102.2372895548533
 20
47.65538861565773
 30
0.0
 10
102.1843293894608
 20
47.6284282699559
 30
0.0
 10
102.1288783942211
 20
47.60858623593907
 30
0.0
 10
102.0727177531869
 20
47.59146334687563
 30
0.0
 10
102.0146448425771
 20
47.58019705602174
 30
0.0
 10
101.9552114041978
 20
47.57296454794558
 30
0.0
 10
101.9149851861828
 20
47.57194895609458
 30
0.0
 10
101.8947650047359
 20
47.57143845690981
 30
0.0
  0
SPLINE
  5
A3
330
1F
100
AcDbEntity
  8
0
  6
Continuous
 62
     7
370
    25
100
AcDbSpline
210
0.0
220
0.0
230
1.0
 70
     8
 71
     3
 72
    11
 73
     7
 74
     0
 42
0.000000001
 43
0.00000001
 40
0.0
 40
0.0
 40
0.0
 40
0.0
 40
0.2538796003266561
 40
0.5030089172783634
 40
0.7502910806899732
 40
1.0
 40
1.0
 40
1.0
 40
1.0
 10
102.5523170880693
 20
47.99161073255083
 30
0.0
 10
102.5394755369682
 20
47.96501662214131
 30
0.0
 10
102.5140327101038
 20
47.91232599766473
 30
0.0
 10
102.4641357404486
 20
47.84050419085552
 30
0.0
 10
102.4065240637673
 20
47.77530570845769
 30
0.0
 10
102.3615650259719
 20
47.73894590916926
 30
0.0
 10
102.3389757419154
 20
47.72067723896109
 30
0.0
  0
SPLINE
  5
A4
330
1F
100
AcDbEntity
  8
0
  6
Continuous
 62
     7
370
    25
100
AcDbSpline
210
0.0
220
0.0
230
1.0
 70
     8
 71
     3
 72
    15
 73
    11
 74
     0
 42
0.000000001
 43
0.00000001
 40
0.0
 40
0.0
 40
0.0
 40
0.0
 40
0.1280675485958908
 40
0.2506083188676689
 40
0.3706301659145033
 40
0.4900722467299491
 40
0.6103747641546201
 40
0.7343130699115257
 40
0.8632165042449896
 40
1.0
 40
1.0
 40
1.0
 40
1.0
 10
103.0666400047359
 20
47.69964358511493
 30
0.0
 10
103.0402065799462
 20
47.70047472157712
 30
0.0
 10
102.9884804696155
 20
47.70210112665649
 30
0.0
 10
102.9129651145168
 20
47.71591091634387
 30
0.0
 10
102.8417925428866
 20
47.73915110411262
 30
0.0
 10
102.7746631413698
 20
47.77134379166822
 30
0.0
 10
102.7120025414962
 20
47.81301632755414
 30
0.0
 10
102.6536697623101
 20
47.86349682533294
 30
0.0
 10
102.5994060779328
 20
47.92314158374401
 30
0.0
 10
102.5683207400932
 20
47.96834082518922
 30
0.0
 10
102.5523170880693
 20
47.99161073255083
 30
0.0
  0
SPLINE
  5
A5
330
1F
100
AcDbEntity
  8
0
  6
Continuous
 62
     7
370
    25
100
AcDbSpline
210
0.0
220
0.0
230
1.0
 70
     8
 71
     3
 72
    19
 73
    15
 74
     0
 42
0.000000001
 43
0.00000001
 40
0.0
 40
0.0
 40
0.0
 40
0.0
 40
0.0902542493426765
 40
0.1785397915286845
 40
0.2660930338538199
 40
0.3546309779571733
 40
0.4418861533505625
 40
0.5257469151636482
 40
0.6081136336036366
 40
0.6901972728278825
 40
0.7708214843303354
 40
0.8483261812554111
 40
0.9240117400247433
 40
1.0
 40
1.0
 40
1.0
 40
1.0
 10
103.7161792675565
 20
48.4298118543457
 30
0.0
 10
103.7151941030958
 20
48.39718132429208
 30
0.0
 10
103.7132452634709
 20
48.33263203076103
 30
0.0
 10
103.6954492374144
 20
48.23780128293925
 30
0.0
 10
103.66728842859
 20
48.14635355500916
 30
0.0
 10
103.6283786234921
 20
48.05928980656893
 30
0.0
 10
103.5803876855192
 20
47.97841949757159
 30
0.0
 10
103.5232700163087
 20
47.90646507846651
 30
0.0
 10
103.4581276581034
 20
47.84440185646368
 30
0.0
 10
103.3861758264473
 20
47.79233444384932
 30
0.0
 10
103.3092790340281
 20
47.75156658738239
 30
0.0
 10
103.2301360646371
 20
47.72150489203975
 30
0.0
 10
103.1489346565022
 20
47.70320369132642
 30
0.0
 10
103.0941080285199
 20
47.7008318650334
 30
0.0
 10
103.0666400047359
 20
47.69964358511493
 30
0.0
  0
SPLINE
  5
A6
330
1F
100
AcDbEntity
  8
0
  6
Continuous
 62
     7
370
    25
100
AcDbSpline
210
0.0
220
0.0
230
1.0
 70
     8
 71
     3
 72
    23
 73
    19
 74
     0
 42
0.000000001
 43
0.00000001
 40
0.0
 40
0.0
 40
0.0
 40
0.0
 40
0.0726253460834355
 40
0.1419766113262344
 40
0.2089849284189386
 40
0.2739568703644447
 40
0.3368893473968406
 40
0.3987449534945902
 40
0.4601158852788613
 40
0.5208249225900291
 40
0.5809944586324854
 40
0.640151927601465
 40
0.6986224507562546
 40
0.7572710809271643
 40
0.8164266940046601
 40
0.8762540482034703
 40
0.937165293062537
 40
1.0
 40
1.0
 40
1.0
 40
1.0
 10
103.0751536265308
 20
49.17400255947391
 30
0.0
 10
103.1003196865132
 20
49.16792430898748
 30
0.0
 10
103.1495172753637
 20
49.1560418264467
 30
0.0
 10
103.2198081759689
 20
49.13125784539748
 30
0.0
 10
103.2863249769623
 20
49.10425837740133
 30
0.0
 10
103.347822172459
 20
49.0718375884265
 30
0.0
 10
103.4055356744109
 20
49.03647419255071
 30
0.0
 10
103.4581564776024
 20
48.99595796288222
 30
0.0
 10
103.5070228815075
 20
48.95215816104942
 30
0.0
 10
103.5503894797627
 20
48.90371176869101
 30
0.0
 10
103.5896592863389
 20
48.85290558180473
 30
0.0
 10
103.6231414701549
 20
48.79902371055421
 30
0.0
 10
103.6519444364866
 20
48.7431502150752
 30
0.0
 10
103.6756731735405
 20
48.68489797725478
 30
0.0
 10
103.6935485475877
 20
48.62409356890335
 30
0.0
 10
103.7065176944383
 20
48.56128669510277
 30
0.0
 10
103.7149399188771
 20
48.49631276644945
 30
0.0
 10
103.7157618925103
 20
48.45220734459355
 30
0.0
 10
103.7161792675565
 20
48.4298118543457
 30
0.0
  0
LINE
  5
A7
330
1F
100
AcDbEntity
  8
0
  6
Continuous
 62
     7
370
    25
100
AcDbLine
 10
103.0751536265
 20
48.9496435851
 30
0.0
 11
103.0751536265
 21
49.1740025595
 31
0.0
  0
LINE
  5
A8
330
1F
100
AcDbEntity
  8
0
  6
Continuous
 62
     7
370
    25
100
AcDbLine
 10
103.7161792676
 20
45.2661849965
 30
0.0
 11
103.5804621201
 21
45.0934085542
 31
0.0
  0
LINE
  5
A9
330
1F
100
AcDbEntity
  8
0
  6
Continuous
 62
     7
370
    25
100
AcDbLine
 10
102.575353947
 20
46.0123789068
 30
0.0
 11
103.7161792676
 21
45.2661849965
 31
0.0
  0
SPLINE
  5
AA
330
1F
100
AcDbEntity
  8
0
  6
Continuous
 62
     7
370
    25
100
AcDbSpline
210
0.0
220
0.0
230
1.0
 70
     8
 71
     3
 72
    19
 73
    15
 74
     0
 42
0.000000001
 43
0.00000001
 40
0.0
 40
0.0
 40
0.0
 40
0.0
 40
0.0978059775289526
 40
0.1996122522918969
 40
0.3052960258330043
 40
0.4158173591641855
 40
0.4742405666184931
 40
0.5372869128296534
 40
0.6033858352934853
 40
0.6743111580696057
 40
0.749530467357482
 40
0.8286083142695118
 40
0.9120427387714449
 40
1.0
 40
1.0
 40
1.0
 40
1.0
 10
101.8491920880693
 20
46.29182602216613
 30
0.0
 10
101.8749288446748
 20
46.2909199876653
 30
0.0
 10
101.9274549998497
 20
46.28907086154913
 30
0.0
 10
102.0072374566204
 20
46.27803548992748
 30
0.0
 10
102.0885521452576
 20
46.25779527009574
 30
0.0
 10
102.1574847546676
 20
46.23589092847983
 30
0.0
 10
102.214573444343
 20
46.21415520940479
 30
0.0
 10
102.2596548745214
 20
46.19400135054357
 30
0.0
 10
102.3072623123168
 20
46.17146688064445
 30
0.0
 10
102.3564949781595
 20
46.14505334377909
 30
0.0
 10
102.4087595559477
 20
46.11705286311292
 30
0.0
 10
102.4621205288088
 20
46.08434512419901
 30
0.0
 10
102.5185268042415
 20
46.05021409606511
 30
0.0
 10
102.5560812262444
 20
46.02521057495086
 30
0.0
 10
102.5753539470436
 20
46.01237890678151
 30
0.0
  0
SPLINE
  5
AB
330
1F
100
AcDbEntity
  8
0
  6
Continuous
 62
     7
370
    25
100
AcDbSpline
210
0.0
220
0.0
230
1.0
 70
     8
 71
     3
 72
    19
 73
    15
 74
     0
 42
0.000000001
 43
0.00000001
 40
0.0
 40
0.0
 40
0.0
 40
0.0
 40
0.0843261511037433
 40
0.1670353409858405
 40
0.2495407139852792
 40
0.3327066655796642
 40
0.4158726171740492
 40
0.4977774155681173
 40
0.5803136056784763
 40
0.6645325781316562
 40
0.7495711764063214
 40
0.8324741628544073
 40
0.9156738488962567
 40
1.0
 40
1.0
 40
1.0
 40
1.0
 10
101.0879741393513
 20
45.53461448370459
 30
0.0
 10
101.0890657121266
 20
45.56825499065748
 30
0.0
 10
101.0912279266749
 20
45.63489094494052
 30
0.0
 10
101.1104893511797
 20
45.7329142745211
 30
0.0
 10
101.1417085577033
 20
45.82710250321833
 30
0.0
 10
101.1847193311158
 20
45.91679356606071
 30
0.0
 10
101.2390442535017
 20
45.99988474769712
 30
0.0
 10
101.3044537591486
 20
46.07419880340304
 30
0.0
 10
101.3795022228976
 20
46.13947717897229
 30
0.0
 10
101.4644198659662
 20
46.19351612453882
 30
0.0
 10
101.5550817680292
 20
46.23755801184532
 30
0.0
 10
101.6504777826036
 20
46.26862139184019
 30
0.0
 10
101.7486880270411
 20
46.28871016076584
 30
0.0
 10
101.8155408920008
 20
46.29078275623408
 30
0.0
 10
101.8491920880693
 20
46.29182602216613
 30
0.0
  0
SPLINE
  5
AC
330
1F
100
AcDbEntity
  8
0
  6
Continuous
 62
     7
370
    25
100
AcDbSpline
210
0.0
220
0.0
230
1.0
 70
     8
 71
     3
 72
    19
 73
    15
 74
     0
 42
0.000000001
 43
0.00000001
 40
0.0
 40
0.0
 40
0.0
 40
0.0
 40
0.0859901205637197
 40
0.1691084375726415
 40
0.2505285789581879
 40
0.3322556961768449
 40
0.4135763652356403
 40
0.4941261456201216
 40
0.5763059341204169
 40
0.6607126719045471
 40
0.7461272722239101
 40
0.8300149859609741
 40
0.914419725928851
 40
1.0
 40
1.0
 40
1.0
 40
1.0
 10
101.8536992996077
 20
44.75336448370459
 30
0.0
 10
101.8187345941309
 20
44.75466914704315
 30
0.0
 10
101.7499728959891
 20
44.75723490200773
 30
0.0
 10
101.6494033140861
 20
44.77591250839653
 30
0.0
 10
101.5543618220514
 20
44.80814588389014
 30
0.0
 10
101.4644749225131
 20
44.85127027502405
 30
0.0
 10
101.3823578800702
 20
44.90722078161184
 30
0.0
 10
101.3081460933531
 20
44.97352520803766
 30
0.0
 10
101.2434596193508
 20
45.05081031649511
 30
0.0
 10
101.1879677879212
 20
45.13724597855539
 30
0.0
 10
101.143879597725
 20
45.23079620821709
 30
0.0
 10
101.1112842988232
 20
45.32888668409351
 30
0.0
 10
101.0918077793568
 20
45.43067898172969
 30
0.0
 10
101.08925789727
 20
45.49980995758717
 30
0.0
 10
101.0879741393513
 20
45.53461448370459
 30
0.0
  0
SPLINE
  5
AD
330
1F
100
AcDbEntity
  8
0
  6
Continuous
 62
     7
370
    25
100
AcDbSpline
210
0.0
220
0.0
230
1.0
 70
     8
 71
     3
 72
    23
 73
    19
 74
     0
 42
0.000000001
 43
0.00000001
 40
0.0
 40
0.0
 40
0.0
 40
0.0
 40
0.0652308037420295
 40
0.128404896003223
 40
0.1900670715964783
 40
0.2509433657682803
 40
0.3115458328521435
 40
0.3728628021568293
 40
0.4350236738562387
 40
0.4990717247070434
 40
0.5630910750496626
 40
0.625510106330375
 40
0.6866800359296493
 40
0.7472825030135126
 40
0.8085634952159588
 40
0.8707421035159857
 40
0.9343409515059125
 40
1.0
 40
1.0
 40
1.0
 40
1.0
 10
102.5943843957616
 20
45.49505118242254
 30
0.0
 10
102.593701458836
 20
45.46964225646885
 30
0.0
 10
102.5923571178212
 20
45.41962554185745
 30
0.0
 10
102.5820115101841
 20
45.34619211173317
 30
0.0
 10
102.5657078588101
 20
45.27562858603805
 30
0.0
 10
102.5419419617043
 20
45.20822743442704
 30
0.0
 10
102.5115831371598
 20
45.14374673309877
 30
0.0
 10
102.4751982298166
 20
45.08181645016411
 30
0.0
 10
102.4309084581332
 20
45.02360072865967
 30
0.0
 10
102.3814334897161
 20
44.96834988636546
 30
0.0
 10
102.3266356436482
 20
44.91818767394192
 30
0.0
 10
102.2684918317153
 20
44.87377620568655
 30
0.0
 10
102.2070626310023
 20
44.83647135444789
 30
0.0
 10
102.1423791553356
 20
44.80620426758033
 30
0.0
 10
102.0745411127924
 20
44.78270078286756
 30
0.0
 10
102.0036352988721
 20
44.76556675069356
 30
0.0
 10
101.9296128192577
 20
44.75543847010795
 30
0.0
 10
101.8792712654961
 20
44.75406311959718
 30
0.0
 10
101.8536992996077
 20
44.75336448370459
 30
0.0
  0
SPLINE
  5
AE
330
1F
100
AcDbEntity
  8
0
  6
Continuous
 62
     7
370
    25
100
AcDbSpline
210
0.0
220
0.0
230
1.0
 70
     8
 71
     3
 72
     9
 73
     5
 74
     0
 42
0.000000001
 43
0.00000001
 40
0.0
 40
0.0
 40
0.0
 40
0.0
 40
0.5126593363417816
 40
1.0
 40
1.0
 40
1.0
 40
1.0
 10
102.5703459342231
 20
45.75396544524305
 30
0.0
 10
102.57735583469
 20
45.70998667596924
 30
0.0
 10
102.5910294381337
 20
45.62420111398644
 30
0.0
 10
102.593285113454
 20
45.53736832932616
 30
0.0
 10
102.5943843957616
 20
45.49505118242254
 30
0.0
  0
LINE
  5
AF
330
1F
100
AcDbEntity
  8
0
  6
Continuous
 62
     7
370
    25
100
AcDbLine
 10
103.5804621201
 20
45.0934085542
 30
0.0
 11
102.5703459342
 21
45.7539654452
 31
0.0
  0
LINE
  5
B0
330
1F
100
AcDbEntity
  8
0
  6
Continuous
 62
     7
370
    25
100
AcDbLine
 10
103.6520767035
 20
47.2061471755
 30
0.0
 11
103.6520767035
 21
46.7439075922
 31
0.0
  0
LINE
  5
B1
330
1F
100
AcDbEntity
  8
0
  6
Continuous
 62
     7
370
    25
100
AcDbLine
 10
103.395666447
 20
47.3528819512
 30
0.0
 11
103.6520767035
 21
47.2061471755
 31
0.0
  0
LINE
  5
B2
330
1F
100
AcDbEntity
  8
0
  6
Continuous
 62
     7
370
    25
100
AcDbLine
 10
103.395666447
 20
46.9682665665
 30
0.0
 11
103.395666447
 21
47.3528819512
 31
0.0
  0
LINE
  5
B3
330
1F
100
AcDbEntity
  8
0
  6
Continuous
 62
     7
370
    25
100
AcDbLine
 10
101.1520767035
 20
46.9682665665
 30
0.0
 11
103.395666447
 21
46.9682665665
 31
0.0
  0
LINE
  5
B4
330
1F
100
AcDbEntity
  8
0
  6
Continuous
 62
     7
370
    25
100
AcDbLine
 10
101.1520767035
 20
46.7439075922
 30
0.0
 11
101.1520767035
 21
46.9682665665
 31
0.0
  0
LINE
  5
B5
330
1F
100
AcDbEntity
  8
0
  6
Continuous
 62
     7
370
    25
100
AcDbLine
 10
103.6520767035
 20
46.7439075922
 30
0.0
 11
101.1520767035
 21
46.7439075922
 31
0.0
  0
LINE
  5
B6
330
1F
100
AcDbEntity
  8
0
  6
Continuous
 62
     7
370
    25
100
AcDbLine
 10
102.5235897759
 20
54.6605388858
 30
0.0
 11
105.1519677702
 21
54.6605388858
 31
0.0
  0
SPLINE
  5
B7
330
1F
100
AcDbEntity
  8
0
  6
Continuous
 62
     7
370
    25
100
AcDbSpline
210
0.0
220
0.0
230
1.0
 70
     8
 71
     3
 72
    16
 73
    12
 74
     0
 42
0.000000001
 43
0.00000001
 40
0.0
 40
0.0
 40
0.0
 40
0.0
 40
0.2499999999999999
 40
0.2499999999999999
 40
0.4999999999999999
 40
0.4999999999999999
 40
0.6249999999999999
 40
0.6249999999999999
 40
0.7499999999999998
 40
0.7499999999999998
 40
1.0
 40
1.0
 40
1.0
 40
1.0
 10
105.1519677702165
 20
39.07208161772164
 30
0.0
 10
105.5181870629709
 20
40.34070246124666
 30
0.0
 10
105.8250976952586
 20
41.63930992782302
 30
0.0
 10
106.2446560244381
 20
44.2418152935557
 30
0.0
 10
106.357883263257
 20
45.55080185936894
 30
0.0
 10
106.3576668625115
 20
47.52790342432778
 30
0.0
 10
106.3295834266411
 20
48.18918100600683
 30
0.0
 10
106.2180560993296
 20
49.51617058410967
 30
0.0
 10
106.1354284435461
 20
50.17301178482974
 30
0.0
 10
105.8185472498068
 20
52.12425276877345
 30
0.0
 10
105.5156958131163
 20
53.4005479849613
 30
0.0
 10
105.1519677702164
 20
54.66053888584156
 30
0.0
  0
SPLINE
  5
B8
330
1F
100
AcDbEntity
  8
0
  6
Continuous
 62
     7
370
    25
100
AcDbSpline
210
0.0
220
0.0
230
1.0
 70
     8
 71
     3
 72
     8
 73
     4
 74
     0
 42
0.000000001
 43
0.00000001
 40
0.0
 40
0.0
 40
0.0
 40
0.0
 40
1.0
 40
1.0
 40
1.0
 40
1.0
 10
102.5235897759218
 20
39.07208161772166
 30
0.0
 10
102.4959656171194
 20
39.27827114605557
 30
0.0
 10
102.4691538157063
 20
39.48453283920271
 30
0.0
 10
102.4432050181925
 20
39.69087119628624
 30
0.0
  0
SPLINE
  5
B9
330
1F
100
AcDbEntity
  8
0
  6
Continuous
 62
     7
370
    25
100
AcDbSpline
210
0.0
220
0.0
230
1.0
 70
     8
 71
     3
 72
     8
 73
     4
 74
     0
 42
0.000000001
 43
0.00000001
 40
0.0
 40
0.0
 40
0.0
 40
0.0
 40
1.0
 40
1.0
 40
1.0
 40
1.0
 10
102.4432050181925
 20
39.69087119628624
 30
0.0
 10
102.417248325462
 20
39.48447005841167
 30
0.0
 10
102.39043618696
 20
39.27820969929084
 30
0.0
 10
102.3628202604631
 20
39.07208161772166
 30
0.0
  0
SPLINE
  5
BA
330
1F
100
AcDbEntity
  8
0
  6
Continuous
 62
     7
370
    25
100
AcDbSpline
210
0.0
220
0.0
230
1.0
 70
     8
 71
     3
 72
    16
 73
    12
 74
     0
 42
0.000000001
 43
0.00000001
 40
0.0
 40
0.0
 40
0.0
 40
0.0
 40
0.25
 40
0.25
 40
0.5
 40
0.5
 40
0.625
 40
0.625
 40
0.75
 40
0.75
 40
1.0
 40
1.0
 40
1.0
 40
1.0
 10
99.73444226616846
 20
39.07208161772165
 30
0.0
 10
99.36805944212661
 20
40.34126895024374
 30
0.0
 10
99.06126548895092
 20
41.63961967572046
 30
0.0
 10
98.64182104672395
 20
44.24138035461942
 30
0.0
 10
98.528513990678
 20
45.55043063235617
 30
0.0
 10
98.528749603834
 20
47.52842797550249
 30
0.0
 10
98.55692441383505
 20
48.19082665558439
 30
0.0
 10
98.66850434701277
 20
49.51747719490874
 30
0.0
 10
98.75108650761541
 20
50.17373100024047
 30
0.0
 10
99.06788872312649
 20
52.12426601949321
 30
0.0
 10
99.37068517306825
 20
53.40044735211524
 30
0.0
 10
99.73444226616849
 20
54.66053888584156
 30
0.0
  0
LINE
  5
BB
330
1F
100
AcDbEntity
  8
0
  6
Continuous
 62
     7
370
    25
100
AcDbLine
 10
99.7344422662
 20
54.6605388858
 30
0.0
 11
102.3628202605
 21
54.6605388858
 31
0.0
  0
SPLINE
  5
BC
330
1F
100
AcDbEntity
  8
0
  6
Continuous
 62
     7
370
    25
100
AcDbSpline
210
0.0
220
0.0
230
1.0
 70
     8
 71
     3
 72
     8
 73
     4
 74
     0
 42
0.000000001
 43
0.00000001
 40
0.0
 40
0.0
 40
0.0
 40
0.0
 40
1.0
 40
1.0
 40
1.0
 40
1.0
 10
102.3628202604631
 20
54.66053888584157
 30
0.0
 10
102.3904444192655
 20
54.45434935750765
 30
0.0
 10
102.4172562206787
 20
54.2480876643605
 30
0.0
 10
102.4432050181925
 20
54.04174930727696
 30
0.0
  0
SPLINE
  5
BD
330
1F
100
AcDbEntity
  8
0
  6
Continuous
 62
     7
370
    25
100
AcDbSpline
210
0.0
220
0.0
230
1.0
 70
     8
 71
     3
 72
     8
 73
     4
 74
     0
 42
0.000000001
 43
0.00000001
 40
0.0
 40
0.0
 40
0.0
 40
0.0
 40
1.0
 40
1.0
 40
1.0
 40
1.0
 10
102.4432050181925
 20
54.04174930727696
 30
0.0
 10
102.4691617109229
 20
54.24815044515154
 30
0.0
 10
102.4959738494249
 20
54.45441080427237
 30
0.0
 10
102.5235897759218
 20
54.66053888584156
 30
0.0
  0
LINE
  5
BE
330
1F
100
AcDbEntity
  8
0
  6
Continuous
 62
     7
370
    25
100
AcDbLine
 10
102.4432050182
 20
38.7626868284
 30
0.0
 11
102.4432050182
 21
39.6908711963
 31
0.0
  0
LINE
  5
BF
330
1F
100
AcDbEntity
  8
0
  6
Continuous
 62
     7
370
    25
100
AcDbLine
 10
102.5235897759
 20
62.4547675199
 30
0.0
 11
105.1519677702
 21
62.4547675199
 31
0.0
  0
SPLINE
  5
C0
330
1F
100
AcDbEntity
  8
0
  6
Continuous
 62
     7
370
    25
100
AcDbSpline
210
0.0
220
0.0
230
1.0
 70
     8
 71
     3
 72
    16
 73
    12
 74
     0
 42
0.000000001
 43
0.00000001
 40
0.0
 40
0.0
 40
0.0
 40
0.0
 40
0.25
 40
0.25
 40
0.5
 40
0.5
 40
0.625
 40
0.625
 40
0.75
 40
0.75
 40
1.0
 40
1.0
 40
1.0
 40
1.0
 10
105.1519677702167
 20
54.66053888584154
 30
0.0
 10
105.5193501329027
 20
55.2968638038184
 30
0.0
 10
105.8221396932969
 20
55.93782795477105
 30
0.0
 10
106.2416015016022
 20
57.23312371470266
 30
0.0
 10
106.3568901270568
 20
57.88755469925751
 30
0.0
 10
106.3581565239207
 20
58.88153073992766
 30
0.0
 10
106.3299729668317
 20
59.21441546653225
 30
0.0
 10
106.2200717977897
 20
59.8728965000925
 30
0.0
 10
106.1384657357168
 20
60.19992937637126
 30
0.0
 10
105.8233471408259
 20
61.17520563608487
 30
0.0
 10
105.5198081244898
 20
61.81764933722618
 30
0.0
 10
105.1519677702166
 20
62.45476751990151
 30
0.0
  0
SPLINE
  5
C1
330
1F
100
AcDbEntity
  8
0
  6
Continuous
 62
     7
370
    25
100
AcDbSpline
210
0.0
220
0.0
230
1.0
 70
     8
 71
     3
 72
     8
 73
     4
 74
     0
 42
0.000000001
 43
0.00000001
 40
0.0
 40
0.0
 40
0.0
 40
0.0
 40
1.0
 40
1.0
 40
1.0
 40
1.0
 10
102.5235897759218
 20
54.66053888584156
 30
0.0
 10
102.495966719828
 20
54.76362953464402
 30
0.0
 10
102.4691548727107
 20
54.86676029406456
 30
0.0
 10
102.4432050181925
 20
54.96993367512385
 30
0.0
  0
SPLINE
  5
C2
330
1F
100
AcDbEntity
  8
0
  6
Continuous
 62
     7
370
    25
100
AcDbSpline
210
0.0
220
0.0
230
1.0
 70
     8
 71
     3
 72
     8
 73
     4
 74
     0
 42
0.000000001
 43
0.00000001
 40
0.0
 40
0.0
 40
0.0
 40
0.0
 40
1.0
 40
1.0
 40
1.0
 40
1.0
 10
102.4432050181925
 20
54.96993367512385
 30
0.0
 10
102.417247954548
 20
54.86673163147896
 30
0.0
 10
102.3904358004536
 20
54.76360148416438
 30
0.0
 10
102.3628202604631
 20
54.66053888584156
 30
0.0
  0
SPLINE
  5
C3
330
1F
100
AcDbEntity
  8
0
  6
Continuous
 62
     7
370
    25
100
AcDbSpline
210
0.0
220
0.0
230
1.0
 70
     8
 71
     3
 72
    16
 73
    12
 74
     0
 42
0.000000001
 43
0.00000001
 40
0.0
 40
0.0
 40
0.0
 40
0.0
 40
0.25
 40
0.25
 40
0.5
 40
0.5
 40
0.625
 40
0.625
 40
0.75
 40
0.75
 40
1.0
 40
1.0
 40
1.0
 40
1.0
 10
99.73444226616822
 20
62.45476751990152
 30
0.0
 10
99.36705990348221
 20
61.81844260192467
 30
0.0
 10
99.06427034308804
 20
61.17747845097202
 30
0.0
 10
98.64480853478271
 20
59.88218269104041
 30
0.0
 10
98.52951990932812
 20
59.22775170648555
 30
0.0
 10
98.52825351246422
 20
58.23377566581541
 30
0.0
 10
98.55643706955324
 20
57.90089093921081
 30
0.0
 10
98.6663382385952
 20
57.24240990565055
 30
0.0
 10
98.74794430066814
 20
56.9153770293718
 30
0.0
 10
99.06306289555897
 20
55.9401007696582
 30
0.0
 10
99.36660191189515
 20
55.29765706851688
 30
0.0
 10
99.73444226616836
 20
54.66053888584155
 30
0.0
  0
LINE
  5
C4
330
1F
100
AcDbEntity
  8
0
  6
Continuous
 62
     7
370
    25
100
AcDbLine
 10
99.7344422662
 20
62.4547675199
 30
0.0
 11
102.3628202605
 21
62.4547675199
 31
0.0
  0
SPLINE
  5
C5
330
1F
100
AcDbEntity
  8
0
  6
Continuous
 62
     7
370
    25
100
AcDbSpline
210
0.0
220
0.0
230
1.0
 70
     8
 71
     3
 72
     8
 73
     4
 74
     0
 42
0.000000001
 43
0.00000001
 40
0.0
 40
0.0
 40
0.0
 40
0.0
 40
1.0
 40
1.0
 40
1.0
 40
1.0
 10
102.3628202604631
 20
62.4547675199015
 30
0.0
 10
102.3904433165569
 20
62.35167687109904
 30
0.0
 10
102.4172551636742
 20
62.24854611167849
 30
0.0
 10
102.4432050181925
 20
62.14537273061921
 30
0.0
  0
SPLINE
  5
C6
330
1F
100
AcDbEntity
  8
0
  6
Continuous
 62
     7
370
    25
100
AcDbSpline
210
0.0
220
0.0
230
1.0
 70
     8
 71
     3
 72
     8
 73
     4
 74
     0
 42
0.000000001
 43
0.00000001
 40
0.0
 40
0.0
 40
0.0
 40
0.0
 40
1.0
 40
1.0
 40
1.0
 40
1.0
 10
102.4432050181925
 20
62.14537273061921
 30
0.0
 10
102.4691620818369
 20
62.2485747742641
 30
0.0
 10
102.4959742359313
 20
62.35170492157867
 30
0.0
 10
102.5235897759218
 20
62.4547675199015
 30
0.0
  0
LINE
  5
C7
330
1F
100
AcDbEntity
  8
0
  6
Continuous
 62
     7
370
    25
100
AcDbLine
 10
98.5020767035
 20
46.8663102518
 30
0.0
 11
98.5020767035
 21
60.3202477518
 31
0.0
  0
LINE
  5
C8
330
1F
100
AcDbEntity
  8
0
  6
Continuous
 62
     7
370
    25
100
AcDbLine
 10
98.5020767035
 20
33.4123727518
 30
0.0
 11
98.5020767035
 21
46.8663102518
 31
0.0
  0
LINE
  5
C9
330
1F
100
AcDbEntity
  8
0
  6
Continuous
 62
     7
370
    25
100
AcDbLine
 10
106.5020767035
 20
60.1163102518
 30
0.0
 11
106.5020767035
 21
33.6163102518
 31
0.0
  0
LINE
  5
CA
330
1F
100
AcDbEntity
  8
0
  6
Continuous
 62
     7
370
    25
100
AcDbLine
 10
102.4432050182
 20
54.0417493073
 30
0.0
 11
102.4432050182
 21
54.9699336751
 31
0.0
  0
SPLINE
  5
CB
330
1F
100
AcDbEntity
  8
0
  6
Continuous
 62
     7
370
    25
100
AcDbSpline
210
0.0
220
0.0
230
1.0
 70
     8
 71
     3
 72
    23
 73
    19
 74
     0
 42
0.000000001
 43
0.00000001
 40
0.0
 40
0.0
 40
0.0
 40
0.0
 40
0.0611415679303345
 40
0.1200010135310723
 40
0.1782359705414084
 40
0.236495543407017
 40
0.294887248704973
 40
0.3546771928192958
 40
0.4166948132897783
 40
0.4806333779628394
 40
0.5458046334786406
 40
0.6097347883178744
 40
0.6729516883751544
 40
0.7360010960706833
 40
0.799827438516525
 40
0.8647672769393869
 40
0.9310835057306723
 40
1.0
 40
1.0
 40
1.0
 40
1.0
 10
101.8401776649924
 20
44.97772345806356
 30
0.0
 10
101.8572471824093
 20
44.9781119431353
 30
0.0
 10
101.8907490937906
 20
44.97887441298892
 30
0.0
 10
101.9397834497956
 20
44.9876653714159
 30
0.0
 10
101.9873247976848
 20
44.99953902381892
 30
0.0
 10
102.0323021918928
 20
45.01872793438115
 30
0.0
 10
102.0759594382768
 20
45.04158349315391
 30
0.0
 10
102.1170487801286
 20
45.07069997364621
 30
0.0
 10
102.1567342858686
 20
45.1040827312095
 30
0.0
 10
102.1935549754188
 20
45.14274320365093
 30
0.0
 10
102.2272341748597
 20
45.18480233673352
 30
0.0
 10
102.2569617124192
 20
45.22952915965556
 30
0.0
 10
102.2820511701619
 20
45.27632019974564
 30
0.0
 10
102.3029847642763
 20
45.32513025730457
 30
0.0
 10
102.3180915452021
 20
45.37651800380606
 30
0.0
 10
102.3299867150669
 20
45.4296539677251
 30
0.0
 10
102.3363167287507
 20
45.48521771046754
 30
0.0
 10
102.3374146322925
 20
45.52291528811279
 30
0.0
 10
102.3379741393513
 20
45.54212650293535
 30
0.0
  0
SPLINE
  5
CC
330
1F
100
AcDbEntity
  8
0
  6
Continuous
 62
     7
370
    25
100
AcDbSpline
210
0.0
220
0.0
230
1.0
 70
     8
 71
     3
 72
    23
 73
    19
 74
     0
 42
0.000000001
 43
0.00000001
 40
0.0
 40
0.0
 40
0.0
 40
0.0
 40
0.0679503475997536
 40
0.1332598223836994
 40
0.197800296759647
 40
0.2608458295516823
 40
0.3233192927503669
 40
0.386281722459572
 40
0.4500615162333126
 40
0.515207584485815
 40
0.5796407692199315
 40
0.6418172023841521
 40
0.7016924412115348
 40
0.7607690981778943
 40
0.8192540511346831
 40
0.8787376269055533
 40
0.9381582970160908
 40
0.9999999999999999
 40
0.9999999999999999
 40
0.9999999999999999
 40
0.9999999999999999
 10
101.3443843957616
 20
45.52259525293536
 30
0.0
 10
101.3449337108301
 20
45.50404843789639
 30
0.0
 10
101.3460109919781
 20
45.46767562502373
 30
0.0
 10
101.3524970819751
 20
45.4139807282159
 30
0.0
 10
101.3639695671595
 20
45.36249461818303
 30
0.0
 10
101.3802726291932
 20
45.31318148677754
 30
0.0
 10
101.4001376989199
 20
45.26563047100959
 30
0.0
 10
101.4254849656329
 20
45.22051621396886
 30
0.0
 10
101.4551137181456
 20
45.17722964075038
 30
0.0
 10
101.4890113068426
 20
45.13671295290847
 30
0.0
 10
101.5254409292903
 20
45.0989601433029
 30
0.0
 10
101.5654552650712
 20
45.06737672485153
 30
0.0
 10
101.6059804689797
 20
45.03887292185936
 30
0.0
 10
101.6494778390028
 20
45.01728228745588
 30
0.0
 10
101.6943718381342
 20
44.99918200469813
 30
0.0
 10
101.7413467727075
 20
44.98701408875265
 30
0.0
 10
101.7901604723999
 20
44.97904814598937
 30
0.0
 10
101.8232848222188
 20
44.97817085912097
 30
0.0
 10
101.8401776649924
 20
44.97772345806356
 30
0.0
  0
SPLINE
  5
CD
330
1F
100
AcDbEntity
  8
0
  6
Continuous
 62
     7
370
    25
100
AcDbSpline
210
0.0
220
0.0
230
1.0
 70
     8
 71
     3
 72
    23
 73
    19
 74
     0
 42
0.000000001
 43
0.00000001
 40
0.0
 40
0.0
 40
0.0
 40
0.0
 40
0.0705921865358073
 40
0.1385012886049301
 40
0.2037899961427013
 40
0.2667875726696012
 40
0.3290979656467186
 40
0.3911745246039659
 40
0.4531677986176574
 40
0.5157967602265847
 40
0.5779688050530403
 40
0.6389663383752914
 40
0.698381066162843
 40
0.7573204555574266
 40
0.8164122397216688
 40
0.8762793582308311
 40
0.9368234656501931
 40
0.9999999999999999
 40
0.9999999999999999
 40
0.9999999999999999
 40
0.9999999999999999
 10
102.3379741393513
 20
45.54212650293535
 30
0.0
 10
102.337411031927
 20
45.56117036599838
 30
0.0
 10
102.3363062197981
 20
45.59853426848788
 30
0.0
 10
102.3300662329331
 20
45.65328336217993
 30
0.0
 10
102.3182431685658
 20
45.70495991832276
 30
0.0
 10
102.3029497626387
 20
45.754154167463
 30
0.0
 10
102.2821267203107
 20
45.8003533763755
 30
0.0
 10
102.2571331660701
 20
45.84408454075607
 30
0.0
 10
102.2274174639488
 20
45.88491372066761
 30
0.0
 10
102.193310936722
 20
45.92212388488791
 30
0.0
 10
102.1565146795889
 20
45.95629200561183
 30
0.0
 10
102.1168664733578
 20
45.9856821690701
 30
0.0
 10
102.0755776400565
 20
46.01106177091732
 30
0.0
 10
102.0322601147501
 20
46.0316899387556
 30
0.0
 10
101.9869416839589
 20
46.0477547359187
 30
0.0
 10
101.9398277991988
 20
46.05937479082318
 30
0.0
 10
101.8906033312737
 20
46.0658417894896
 30
0.0
 10
101.8572229671424
 20
46.06691766450422
 30
0.0
 10
101.8401776649924
 20
46.06746704780716
 30
0.0
  0
SPLINE
  5
CE
330
1F
100
AcDbEntity
  8
0
  6
Continuous
 62
     7
370
    25
100
AcDbSpline
210
0.0
220
0.0
230
1.0
 70
     8
 71
     3
 72
    23
 73
    19
 74
     0
 42
0.000000001
 43
0.00000001
 40
0.0
 40
0.0
 40
0.0
 40
0.0
 40
0.0618526459466919
 40
0.12128383061537
 40
0.1807779320756125
 40
0.2392732340142804
 40
0.2986414352139415
 40
0.3581858222417119
 40
0.4207600867589708
 40
0.4852046730216432
 40
0.5503622689482868
 40
0.613649924530912
 40
0.6766234955168249
 40
0.7391080134690126
 40
0.8021647022429446
 40
0.8667165971324776
 40
0.9320376285055444
 40
1.0
 40
1.0
 40
1.0
 40
1.0
 10
101.8401776649924
 20
46.06746704780715
 30
0.0
 10
101.8232854652308
 20
46.06701849396138
 30
0.0
 10
101.7901623762629
 20
46.06613894664665
 30
0.0
 10
101.7413395005737
 20
46.05818945455798
 30
0.0
 10
101.6943989834888
 20
46.04595983513588
 30
0.0
 10
101.6493064923206
 20
46.02805891276623
 30
0.0
 10
101.6063079995482
 20
46.00560592200346
 30
0.0
 10
101.5650980743145
 20
45.97797504111694
 30
0.0
 10
101.5256482725811
 20
45.94563412763689
 30
0.0
 10
101.4889533783294
 20
45.90803845739465
 30
0.0
 10
101.455295929597
 20
45.86749517200374
 30
0.0
 10
101.4253272740603
 20
45.82461796232852
 30
0.0
 10
101.4001616171037
 20
45.77954316124978
 30
0.0
 10
101.3802661816836
 20
45.7320135676313
 30
0.0
 10
101.3639713457798
 20
45.68269463292071
 30
0.0
 10
101.3524965972567
 20
45.63121011961011
 30
0.0
 10
101.3460111195138
 20
45.57751479087408
 30
0.0
 10
101.3449337539
 20
45.54114203758974
 30
0.0
 10
101.3443843957616
 20
45.52259525293536
 30
0.0
  0
LINE
  5
CF
330
1F
100
AcDbEntity
  8
0
  6
Continuous
 62
     7
370
    25
100
AcDbLine
 10
84.1072530424
 20
59.8704095124
 30
0.0
 11
84.1072530424
 21
33.8622109912
 31
0.0
  0
LINE
  5
D0
330
1F
100
AcDbEntity
  8
0
  6
Continuous
 62
     7
370
    25
100
AcDbLine
 10
81.5020767035
 20
35.3663102518
 30
0.0
 11
81.5020767035
 21
58.3663102518
 31
0.0
  0
LINE
  5
D1
330
1F
100
AcDbEntity
  8
0
  6
Continuous
 62
     7
370
    25
100
AcDbLine
 10
115.5020767035
 20
57.3663102518
 30
0.0
 11
115.5020767035
 21
36.3663102518
 31
0.0
  0
LINE
  5
D2
330
1F
100
AcDbEntity
  8
0
  6
Continuous
 62
     7
370
    25
100
AcDbLine
 10
121.5020767035
 20
57.3663102518
 30
0.0
 11
121.5020767035
 21
36.3663102518
 31
0.0
  0
LINE
  5
D3
330
1F
100
AcDbEntity
  8
0
  6
Continuous
 62
     7
370
    25
100
AcDbLine
 10
133.5020767035
 20
57.3663102518
 30
0.0
 11
133.5020767035
 21
36.3663102518
 31
0.0
  0
LINE
  5
D4
330
1F
100
AcDbEntity
  8
0
  6
Continuous
 62
     7
370
    25
100
AcDbLine
 10
127.5020767035
 20
57.3663102518
 30
0.0
 11
127.5020767035
 21
36.3663102518
 31
0.0
  0
LINE
  5
D5
330
1F
100
AcDbEntity
  8
0
  6
Continuous
 62
     7
370
    25
100
AcDbLine
 10
141.5020767035
 20
37.8077013611
 30
0.0
 11
141.5020767035
 21
55.9249191425
 31
0.0
  0
LINE
  5
D6
330
1F
100
AcDbEntity
  8
0
  6
Continuous
 62
     7
370
    25
100
AcDbLine
 10
102.4432050182
 20
62.1453727306
 30
0.0
 11
102.4432050182
 21
62.1547675199
 31
0.0
  0
LINE
  5
D7
330
1F
100
AcDbEntity
  8
0
  6
Continuous
 62
     7
370
    25
100
AcDbLine
 10
102.4432050182
 20
31.5778529837
 30
0.0
 11
102.4432050182
 21
31.5872477729
 31
0.0
  0
LINE
  5
D8
330
1F
100
AcDbEntity
  8
0
  6
Continuous
 62
     8
370
    25
100
AcDbLine
 10
141.0640940707
 20
37.3115624227
 30
0.0
 11
141.0640940707
 21
56.4210580809
 31
0.0
  0
LINE
  5
D9
330
1F
100
AcDbEntity
  8
0
  6
Continuous
 62
     7
370
    18
100
AcDbLine
 10
82.5247826633
 20
58.956769813
 30
0.0
 11
98.0020767035
 21
59.4404352518
 31
0.0
  0
LINE
  5
DA
330
1F
100
AcDbEntity
  8
0
  6
Continuous
 62
     7
370
    18
100
AcDbLine
 10
82.5247826633
 20
34.7758506905
 30
0.0
 11
98.0020767035
 21
34.2921852518
 31
0.0
  0
LINE
  5
DB
330
1F
100
AcDbEntity
  8
0
  6
Continuous
 62
     7
370
    18
100
AcDbLine
 10
98.0020767035
 20
33.4279977518
 30
0.0
 11
98.0020767035
 21
60.3046227518
 31
0.0
  0
LINE
  5
DC
330
1F
100
AcDbEntity
  8
0
  6
CENTERX2
 62
     7
370
    18
100
AcDbLine
 10
142.5020767035
 20
46.8663102518
 30
0.0
 11
79.9608425578
 21
46.8663102518
 31
0.0
  0
CIRCLE
  5
DD
330
1F
100
AcDbEntity
  8
0
  6
Continuous
 62
     7
370
    25
100
AcDbCircle
 10
170.4806669461
 20
46.8663102518
 30
0.0
 40
9.058608890731342
  0
CIRCLE
  5
DE
330
1F
100
AcDbEntity
  8
0
  6
Continuous
 62
     7
370
    25
100
AcDbCircle
 10
170.4806669461
 20
46.8663102518
 30
0.0
 40
7.95000000000001
  0
CIRCLE
  5
DF
330
1F
100
AcDbEntity
  8
0
  6
Continuous
 62
     7
370
    25
100
AcDbCircle
 10
170.4806669461
 20
46.8663102518
 30
0.0
 40
9.554747829088171
  0
CIRCLE
  5
E0
330
1F
100
AcDbEntity
  8
0
  6
Continuous
 62
     7
370
    25
100
AcDbCircle
 10
170.4806669461
 20
46.8663102518
 30
0.0
 40
7.749999999999972
  0
CIRCLE
  5
E1
330
1F
100
AcDbEntity
  8
0
  6
Continuous
 62
     7
370
    25
100
AcDbCircle
 10
170.4806669461
 20
46.8663102518
 30
0.0
 40
10.49999999999999
  0
CIRCLE
  5
E2
330
1F
100
AcDbEntity
  8
0
  6
Continuous
 62
     7
370
    25
100
AcDbCircle
 10
170.4806669461
 20
46.8663102518
 30
0.0
 40
13.25000000000003
  0
SPLINE
  5
E3
330
1F
100
AcDbEntity
  8
0
  6
Continuous
 62
     7
370
    25
100
AcDbSpline
210
0.0
220
0.0
230
1.0
 70
    24
 71
     3
 72
    16
 73
    12
 74
     0
 42
0.000000001
 43
0.00000001
 40
0.0
 40
0.0
 40
0.0
 40
0.0
 40
0.2500000000000002
 40
0.2500000000000002
 40
0.5000000000000003
 40
0.5000000000000003
 40
0.6250000000000003
 40
0.6250000000000003
 40
0.7500000000000004
 40
0.7500000000000004
 40
1.0
 40
1.0
 40
1.0
 40
1.0
 10
170.4806669460642
 20
31.2778529836617
 30
0.0
 10
169.3785198580062
 20
31.91417790163854
 30
0.0
 10
168.2683373827259
 20
32.55514205259121
 30
0.0
 10
166.0248193156959
 20
33.85043781252282
 30
0.0
 10
164.8913116003995
 20
34.50486879707768
 30
0.0
 10
163.1696945964527
 20
35.49884483774782
 30
0.0
 10
162.5931213369098
 20
35.83172956435241
 30
0.0
 10
161.452598730963
 20
36.49021059791266
 30
0.0
 10
160.8861611735028
 20
36.81724347419141
 30
0.0
 10
159.1969331402631
 20
37.79251973390503
 30
0.0
 10
158.0841880088838
 20
38.43496343504634
 30
0.0
 10
156.9806669460641
 20
39.07208161772167
 30
0.0
  0
SPLINE
  5
E4
330
1F
100
AcDbEntity
  8
0
  6
Continuous
 62
     7
370
    25
100
AcDbSpline
210
0.0
220
0.0
230
1.0
 70
    24
 71
     3
 72
    16
 73
    12
 74
     0
 42
0.000000001
 43
0.00000001
 40
0.0
 40
0.0
 40
0.0
 40
0.0
 40
0.2499999999999999
 40
0.2499999999999999
 40
0.4999999999999999
 40
0.4999999999999999
 40
0.6249999999999999
 40
0.6249999999999999
 40
0.7499999999999998
 40
0.7499999999999998
 40
1.0
 40
1.0
 40
1.0
 40
1.0
 10
156.9806669460642
 20
39.07208161772164
 30
0.0
 10
156.9806669460642
 20
40.34070246124666
 30
0.0
 10
156.9806669460642
 20
41.63930992782302
 30
0.0
 10
156.9806669460642
 20
44.2418152935557
 30
0.0
 10
156.9806669460641
 20
45.55080185936894
 30
0.0
 10
156.9806669460641
 20
47.52790342432778
 30
0.0
 10
156.9806669460641
 20
48.18918100600683
 30
0.0
 10
156.9806669460641
 20
49.51617058410967
 30
0.0
 10
156.9806669460641
 20
50.17301178482974
 30
0.0
 10
156.9806669460642
 20
52.12425276877345
 30
0.0
 10
156.9806669460642
 20
53.4005479849613
 30
0.0
 10
156.9806669460642
 20
54.66053888584156
 30
0.0
  0
SPLINE
  5
E5
330
1F
100
AcDbEntity
  8
0
  6
Continuous
 62
     7
370
    25
100
AcDbSpline
210
0.0
220
0.0
230
1.0
 70
    24
 71
     3
 72
    16
 73
    12
 74
     0
 42
0.000000001
 43
0.00000001
 40
0.0
 40
0.0
 40
0.0
 40
0.0
 40
0.25
 40
0.25
 40
0.5
 40
0.5
 40
0.625
 40
0.625
 40
0.75
 40
0.75
 40
1.0
 40
1.0
 40
1.0
 40
1.0
 10
156.9806669460641
 20
54.66053888584154
 30
0.0
 10
158.0828140341222
 20
55.2968638038184
 30
0.0
 10
159.1929965094024
 20
55.93782795477105
 30
0.0
 10
161.4365145764325
 20
57.23312371470266
 30
0.0
 10
162.5700222917288
 20
57.88755469925751
 30
0.0
 10
164.2916392956757
 20
58.88153073992766
 30
0.0
 10
164.8682125552185
 20
59.21441546653225
 30
0.0
 10
166.0087351611653
 20
59.8728965000925
 30
0.0
 10
166.5751727186255
 20
60.19992937637126
 30
0.0
 10
168.2644007518652
 20
61.17520563608487
 30
0.0
 10
169.3771458832445
 20
61.81764933722618
 30
0.0
 10
170.4806669460642
 20
62.45476751990151
 30
0.0
  0
SPLINE
  5
E6
330
1F
100
AcDbEntity
  8
0
  6
Continuous
 62
     7
370
    25
100
AcDbSpline
210
0.0
220
0.0
230
1.0
 70
    24
 71
     3
 72
    16
 73
    12
 74
     0
 42
0.000000001
 43
0.00000001
 40
0.0
 40
0.0
 40
0.0
 40
0.0
 40
0.2500000000000002
 40
0.2500000000000002
 40
0.5000000000000004
 40
0.5000000000000004
 40
0.6250000000000003
 40
0.6250000000000003
 40
0.7500000000000002
 40
0.7500000000000002
 40
1.0
 40
1.0
 40
1.0
 40
1.0
 10
170.4806669460641
 20
62.45476751990152
 30
0.0
 10
171.5828140341221
 20
61.81844260192468
 30
0.0
 10
172.6929965094024
 20
61.17747845097202
 30
0.0
 10
174.9365145764324
 20
59.88218269104041
 30
0.0
 10
176.0700222917288
 20
59.22775170648555
 30
0.0
 10
177.7916392956756
 20
58.23377566581541
 30
0.0
 10
178.3682125552185
 20
57.90089093921082
 30
0.0
 10
179.5087351611653
 20
57.24240990565055
 30
0.0
 10
180.0751727186255
 20
56.9153770293718
 30
0.0
 10
181.7644007518652
 20
55.9401007696582
 30
0.0
 10
182.8771458832446
 20
55.29765706851688
 30
0.0
 10
183.9806669460642
 20
54.66053888584155
 30
0.0
  0
SPLINE
  5
E7
330
1F
100
AcDbEntity
  8
0
  6
Continuous
 62
     7
370
    25
100
AcDbSpline
210
0.0
220
0.0
230
1.0
 70
    24
 71
     3
 72
    16
 73
    12
 74
     0
 42
0.000000001
 43
0.00000001
 40
0.0
 40
0.0
 40
0.0
 40
0.0
 40
0.2499999999999999
 40
0.2499999999999999
 40
0.4999999999999999
 40
0.4999999999999999
 40
0.6249999999999999
 40
0.6249999999999999
 40
0.7499999999999998
 40
0.7499999999999998
 40
1.0
 40
1.0
 40
1.0
 40
1.0
 10
183.9806669460642
 20
39.07208161772164
 30
0.0
 10
183.9806669460642
 20
40.34070246124667
 30
0.0
 10
183.9806669460642
 20
41.63930992782305
 30
0.0
 10
183.9806669460642
 20
44.24181529355557
 30
0.0
 10
183.9806669460642
 20
45.55080185936868
 30
0.0
 10
183.9806669460642
 20
47.52790342432725
 30
0.0
 10
183.9806669460642
 20
48.18918100600619
 30
0.0
 10
183.9806669460642
 20
49.51617058410879
 30
0.0
 10
183.9806669460642
 20
50.17301178482926
 30
0.0
 10
183.9806669460642
 20
52.12425276877329
 30
0.0
 10
183.9806669460641
 20
53.40054798496125
 30
0.0
 10
183.9806669460641
 20
54.66053888584156
 30
0.0
  0
SPLINE
  5
E8
330
1F
100
AcDbEntity
  8
0
  6
Continuous
 62
     7
370
    25
100
AcDbSpline
210
0.0
220
0.0
230
1.0
 70
    24
 71
     3
 72
    16
 73
    12
 74
     0
 42
0.000000001
 43
0.00000001
 40
0.0
 40
0.0
 40
0.0
 40
0.0
 40
0.2500000000000002
 40
0.2500000000000002
 40
0.5000000000000003
 40
0.5000000000000003
 40
0.6250000000000003
 40
0.6250000000000003
 40
0.7500000000000002
 40
0.7500000000000002
 40
1.0
 40
1.0
 40
1.0
 40
1.0
 10
183.9806669460642
 20
39.07208161772167
 30
0.0
 10
182.8785198580061
 20
38.43575669974482
 30
0.0
 10
181.7683373827259
 20
37.79479254879217
 30
0.0
 10
179.5248193156958
 20
36.49949678886056
 30
0.0
 10
178.3913116003995
 20
35.84506580430569
 30
0.0
 10
176.6696945964526
 20
34.85108976363556
 30
0.0
 10
176.0931213369098
 20
34.51820503703096
 30
0.0
 10
174.952598730963
 20
33.85972400347071
 30
0.0
 10
174.3861611735028
 20
33.53269112719195
 30
0.0
 10
172.6969331402631
 20
32.55741486747834
 30
0.0
 10
171.5841880088838
 20
31.91497116633703
 30
0.0
 10
170.4806669460641
 20
31.2778529836617
 30
0.0
  0
INSERT
  5
F4
330
1F
100
AcDbEntity
  8
0
  6
Continuous
 62
     7
370
    18
100
AcDbBlockReference
  2
SW_CENTERMARKSYMBOL_0
 10
170.4806669461
 20
46.8663102518
 30
0.0
  0
INSERT
  5
100
330
1F
100
AcDbEntity
  8
0
  6
Continuous
 62
     7
370
    18
100
AcDbBlockReference
  2
SW_CENTERMARKSYMBOL_1
 10
170.4806669461
 20
46.8663102518
 30
0.0
  0
LINE
  5
101
330
1F
100
AcDbEntity
  8
0
  6
Continuous
 62
     7
370
    25
100
AcDbLine
 10
106.3577391362
 20
76.0466419582
 30
0.0
 11
106.5020767035
 21
76.2966419582
 31
0.0
  0
LINE
  5
102
330
1F
100
AcDbEntity
  8
0
  6
Continuous
 62
     7
370
    25
100
AcDbLine
 10
106.5020767035
 20
102.7966419582
 30
0.0
 11
106.3577391362
 21
103.0466419582
 31
0.0
  0
LINE
  5
103
330
1F
100
AcDbEntity
  8
0
  6
Continuous
 62
     7
370
    25
100
AcDbLine
 10
98.5286709002
 20
103.0466419582
 30
0.0
 11
98.5020767035
 21
103.0005794582
 31
0.0
  0
LINE
  5
104
330
1F
100
AcDbEntity
  8
0
  6
Continuous
 62
     7
370
    25
100
AcDbLine
 10
98.5020767035
 20
76.0927044582
 30
0.0
 11
98.5286709002
 21
76.0466419582
 31
0.0
  0
LINE
  5
105
330
1F
100
AcDbEntity
  8
0
  6
Continuous
 62
     7
370
    25
100
AcDbLine
 10
98.5020767035
 20
103.0005794582
 30
0.0
 11
84.1072530424
 21
102.5507412188
 31
0.0
  0
LINE
  5
106
330
1F
100
AcDbEntity
  8
0
  6
Continuous
 62
     7
370
    25
100
AcDbLine
 10
84.1072530424
 20
76.5425426976
 30
0.0
 11
98.5020767035
 21
76.0927044582
 31
0.0
  0
LINE
  5
107
330
1F
100
AcDbEntity
  8
0
  6
Continuous
 62
     7
370
    25
100
AcDbLine
 10
84.1072530424
 20
102.5507412188
 30
0.0
 11
81.5020767035
 21
101.0466419582
 31
0.0
  0
LINE
  5
108
330
1F
100
AcDbEntity
  8
0
  6
Continuous
 62
     7
370
    25
100
AcDbLine
 10
81.5020767035
 20
78.0466419582
 30
0.0
 11
84.1072530424
 21
76.5425426976
 31
0.0
  0
LINE
  5
109
330
1F
100
AcDbEntity
  8
0
  6
Continuous
 62
     7
370
    25
100
AcDbLine
 10
115.5020767035
 20
79.0466419582
 30
0.0
 11
121.5020767035
 21
80.0466419582
 31
0.0
  0
LINE
  5
10A
330
1F
100
AcDbEntity
  8
0
  6
Continuous
 62
     7
370
    25
100
AcDbLine
 10
121.5020767035
 20
99.0466419582
 30
0.0
 11
115.5020767035
 21
100.0466419582
 31
0.0
  0
LINE
  5
10B
330
1F
100
AcDbEntity
  8
0
  6
Continuous
 62
     7
370
    25
100
AcDbLine
 10
133.5020767035
 20
79.0466419582
 30
0.0
 11
141.0640940707
 21
79.9918941291
 31
0.0
  0
LINE
  5
10C
330
1F
100
AcDbEntity
  8
0
  6
Continuous
 62
     7
370
    25
100
AcDbLine
 10
141.0640940707
 20
99.1013897873
 30
0.0
 11
133.5020767035
 21
100.0466419582
 31
0.0
  0
LINE
  5
10D
330
1F
100
AcDbEntity
  8
0
  6
Continuous
 62
     7
370
    25
100
AcDbLine
 10
115.5020767035
 20
100.0466419582
 30
0.0
 11
106.5020767035
 21
100.0466419582
 31
0.0
  0
LINE
  5
10E
330
1F
100
AcDbEntity
  8
0
  6
Continuous
 62
     7
370
    25
100
AcDbLine
 10
106.5020767035
 20
79.0466419582
 30
0.0
 11
115.5020767035
 21
79.0466419582
 31
0.0
  0
LINE
  5
10F
330
1F
100
AcDbEntity
  8
0
  6
Continuous
 62
     7
370
    25
100
AcDbLine
 10
121.5020767035
 20
79.0466419582
 30
0.0
 11
127.5020767035
 21
80.0466419582
 31
0.0
  0
LINE
  5
110
330
1F
100
AcDbEntity
  8
0
  6
Continuous
 62
     7
370
    25
100
AcDbLine
 10
127.5020767035
 20
99.0466419582
 30
0.0
 11
121.5020767035
 21
100.0466419582
 31
0.0
  0
LINE
  5
111
330
1F
100
AcDbEntity
  8
0
  6
Continuous
 62
     7
370
    25
100
AcDbLine
 10
127.5020767035
 20
79.0466419582
 30
0.0
 11
133.5020767035
 21
80.0466419582
 31
0.0
  0
LINE
  5
112
330
1F
100
AcDbEntity
  8
0
  6
Continuous
 62
     7
370
    25
100
AcDbLine
 10
133.5020767035
 20
99.0466419582
 30
0.0
 11
127.5020767035
 21
100.0466419582
 31
0.0
  0
ARC
  5
113
330
1F
100
AcDbEntity
  8
0
  6
Continuous
 62
     7
370
    25
100
AcDbCircle
 10
141.0020767035
 20
80.4880330674
 30
0.0
 40
0.5000000000000158
100
AcDbArc
 50
277.1250163489
 51
0.0
  0
ARC
  5
114
330
1F
100
AcDbEntity
  8
0
  6
Continuous
 62
     7
370
    25
100
AcDbCircle
 10
141.0020767035
 20
98.6052508489
 30
0.0
 40
0.5000000000000017
100
AcDbArc
 50
0.0
 51
82.8749836511
  0
LINE
  5
115
330
1F
100
AcDbEntity
  8
0
  6
Continuous
 62
     7
370
    25
100
AcDbLine
 10
102.5235897759
 20
103.0466419582
 30
0.0
 11
105.1519677702
 21
103.0466419582
 31
0.0
  0
SPLINE
  5
116
330
1F
100
AcDbEntity
  8
0
  6
Continuous
 62
     7
370
    25
100
AcDbSpline
210
0.0
220
0.0
230
1.0
 70
     8
 71
     3
 72
    16
 73
    12
 74
     0
 42
0.000000001
 43
0.00000001
 40
0.0
 40
0.0
 40
0.0
 40
0.0
 40
0.2500000000000002
 40
0.2500000000000002
 40
0.5000000000000004
 40
0.5000000000000004
 40
0.6250000000000003
 40
0.6250000000000003
 40
0.7500000000000002
 40
0.7500000000000002
 40
1.0
 40
1.0
 40
1.0
 40
1.0
 10
105.1519677702167
 20
89.54664195816355
 30
0.0
 10
105.5193501329027
 20
90.64878904622157
 30
0.0
 10
105.8221396932969
 20
91.75897152150179
 30
0.0
 10
106.2416015016022
 20
94.00248958853189
 30
0.0
 10
106.3568901270568
 20
95.13599730382823
 30
0.0
 10
106.3581565239207
 20
96.85761430777507
 30
0.0
 10
106.3299729668317
 20
97.43418756731789
 30
0.0
 10
106.2200717977897
 20
98.57471017326472
 30
0.0
 10
106.1384657357168
 20
99.1411477307249
 30
0.0
 10
105.823347140826
 20
100.8303757639646
 30
0.0
 10
105.5198081244898
 20
101.943120895344
 30
0.0
 10
105.1519677702166
 20
103.0466419581636
 30
0.0
  0
LINE
  5
117
330
1F
100
AcDbEntity
  8
0
  6
Continuous
 62
     7
370
    25
100
AcDbLine
 10
102.5235897759
 20
89.5466419582
 30
0.0
 11
105.1519677702
 21
89.5466419582
 31
0.0
  0
SPLINE
  5
118
330
1F
100
AcDbEntity
  8
0
  6
Continuous
 62
     7
370
    25
100
AcDbSpline
210
0.0
220
0.0
230
1.0
 70
     8
 71
     3
 72
     8
 73
     4
 74
     0
 42
0.000000001
 43
0.00000001
 40
0.0
 40
0.0
 40
0.0
 40
0.0
 40
1.0
 40
1.0
 40
1.0
 40
1.0
 10
102.5235897759218
 20
89.54664195816358
 30
0.0
 10
102.495966719828
 20
89.72520019967467
 30
0.0
 10
102.4691548727107
 20
89.90382791481423
 30
0.0
 10
102.4432050181925
 20
90.08252945279757
 30
0.0
  0
SPLINE
  5
119
330
1F
100
AcDbEntity
  8
0
  6
Continuous
 62
     7
370
    25
100
AcDbSpline
210
0.0
220
0.0
230
1.0
 70
     8
 71
     3
 72
     8
 73
     4
 74
     0
 42
0.000000001
 43
0.00000001
 40
0.0
 40
0.0
 40
0.0
 40
0.0
 40
1.0
 40
1.0
 40
1.0
 40
1.0
 10
102.4432050181925
 20
90.08252945279757
 30
0.0
 10
102.417247954548
 20
89.90377826975967
 30
0.0
 10
102.3904358004536
 20
89.72515161481877
 30
0.0
 10
102.3628202604631
 20
89.54664195816358
 30
0.0
  0
LINE
  5
11A
330
1F
100
AcDbEntity
  8
0
  6
Continuous
 62
     7
370
    25
100
AcDbLine
 10
99.7344422662
 20
89.5466419582
 30
0.0
 11
102.3628202605
 21
89.5466419582
 31
0.0
  0
SPLINE
  5
11B
330
1F
100
AcDbEntity
  8
0
  6
Continuous
 62
     7
370
    25
100
AcDbSpline
210
0.0
220
0.0
230
1.0
 70
     8
 71
     3
 72
    16
 73
    12
 74
     0
 42
0.000000001
 43
0.00000001
 40
0.0
 40
0.0
 40
0.0
 40
0.0
 40
0.2499999999999999
 40
0.2499999999999999
 40
0.4999999999999999
 40
0.4999999999999999
 40
0.6249999999999999
 40
0.6249999999999999
 40
0.7499999999999998
 40
0.7499999999999998
 40
1.0
 40
1.0
 40
1.0
 40
1.0
 10
99.73444226616822
 20
103.0466419581636
 30
0.0
 10
99.36705990348221
 20
101.9444948701056
 30
0.0
 10
99.06427034308804
 20
100.8343123948253
 30
0.0
 10
98.64480853478271
 20
98.59079432779527
 30
0.0
 10
98.52951990932812
 20
97.45728661249893
 30
0.0
 10
98.52825351246422
 20
95.73566960855209
 30
0.0
 10
98.55643706955324
 20
95.15909634900926
 30
0.0
 10
98.6663382385952
 20
94.01857374306243
 30
0.0
 10
98.74794430066814
 20
93.45213618560224
 30
0.0
 10
99.06306289555897
 20
91.76290815236253
 30
0.0
 10
99.36660191189515
 20
90.65016302098319
 30
0.0
 10
99.73444226616834
 20
89.54664195816356
 30
0.0
  0
LINE
  5
11C
330
1F
100
AcDbEntity
  8
0
  6
Continuous
 62
     7
370
    25
100
AcDbLine
 10
99.7344422662
 20
103.0466419582
 30
0.0
 11
102.3628202605
 21
103.0466419582
 31
0.0
  0
SPLINE
  5
11D
330
1F
100
AcDbEntity
  8
0
  6
Continuous
 62
     7
370
    25
100
AcDbSpline
210
0.0
220
0.0
230
1.0
 70
     8
 71
     3
 72
     8
 73
     4
 74
     0
 42
0.000000001
 43
0.00000001
 40
0.0
 40
0.0
 40
0.0
 40
0.0
 40
1.0
 40
1.0
 40
1.0
 40
1.0
 10
102.3628202604631
 20
103.0466419581636
 30
0.0
 10
102.3904433165569
 20
102.8680837166525
 30
0.0
 10
102.4172551636743
 20
102.6894560015129
 30
0.0
 10
102.4432050181925
 20
102.5107544635296
 30
0.0
  0
SPLINE
  5
11E
330
1F
100
AcDbEntity
  8
0
  6
Continuous
 62
     7
370
    25
100
AcDbSpline
210
0.0
220
0.0
230
1.0
 70
     8
 71
     3
 72
     8
 73
     4
 74
     0
 42
0.000000001
 43
0.00000001
 40
0.0
 40
0.0
 40
0.0
 40
0.0
 40
1.0
 40
1.0
 40
1.0
 40
1.0
 10
102.4432050181925
 20
102.5107544635296
 30
0.0
 10
102.4691620818369
 20
102.6895056465675
 30
0.0
 10
102.4959742359313
 20
102.8681323015084
 30
0.0
 10
102.5235897759218
 20
103.0466419581636
 30
0.0
  0
LINE
  5
11F
330
1F
100
AcDbEntity
  8
0
  6
Continuous
 62
     7
370
    25
100
AcDbLine
 10
106.5020767035
 20
102.7966419582
 30
0.0
 11
106.5020767035
 21
76.2966419582
 31
0.0
  0
SPLINE
  5
120
330
1F
100
AcDbEntity
  8
0
  6
Continuous
 62
     7
370
    25
100
AcDbSpline
210
0.0
220
0.0
230
1.0
 70
    24
 71
     3
 72
    12
 73
     8
 74
     0
 42
0.000000001
 43
0.00000001
 40
0.0
 40
0.0
 40
0.0
 40
0.0
 40
0.2548952602317417
 40
0.439918559559427
 40
0.6255232731917001
 40
0.8125798341053733
 40
1.0
 40
1.0
 40
1.0
 40
1.0
 10
106.3567969478687
 20
76.04664195816358
 30
0.0
 10
106.3406748136064
 20
76.04664195816358
 30
0.0
 10
106.3128499490905
 20
76.04664195816358
 30
0.0
 10
106.1165040404655
 20
76.04664195816356
 30
0.0
 10
105.8677864834847
 20
76.04664195816358
 30
0.0
 10
105.5479569406292
 20
76.04664195816356
 30
0.0
 10
105.2840495755708
 20
76.04664195816358
 30
0.0
 10
105.1519677702164
 20
76.04664195816358
 30
0.0
  0
SPLINE
  5
121
330
1F
100
AcDbEntity
  8
0
  6
Continuous
 62
     7
370
    25
100
AcDbSpline
210
0.0
220
0.0
230
1.0
 70
     8
 71
     3
 72
    16
 73
    12
 74
     0
 42
0.000000001
 43
0.00000001
 40
0.0
 40
0.0
 40
0.0
 40
0.0
 40
0.25
 40
0.25
 40
0.5
 40
0.5
 40
0.625
 40
0.625
 40
0.75
 40
0.75
 40
1.0
 40
1.0
 40
1.0
 40
1.0
 10
105.1519677702167
 20
76.04664195816355
 30
0.0
 10
105.5193501329027
 20
77.14878904622155
 30
0.0
 10
105.8221396932969
 20
78.25897152150179
 30
0.0
 10
106.2416015016022
 20
80.50248958853189
 30
0.0
 10
106.3568901270568
 20
81.63599730382823
 30
0.0
 10
106.3581565239207
 20
83.35761430777507
 30
0.0
 10
106.3299729668317
 20
83.93418756731789
 30
0.0
 10
106.2200717977897
 20
85.07471017326472
 30
0.0
 10
106.1384657357168
 20
85.6411477307249
 30
0.0
 10
105.8233471408259
 20
87.33037576396461
 30
0.0
 10
105.5198081244898
 20
88.44312089534397
 30
0.0
 10
105.1519677702166
 20
89.5466419581636
 30
0.0
  0
SPLINE
  5
122
330
1F
100
AcDbEntity
  8
0
  6
Continuous
 62
     7
370
    25
100
AcDbSpline
210
0.0
220
0.0
230
1.0
 70
    24
 71
     3
 72
    13
 73
     9
 74
     0
 42
0.000000001
 43
0.00000001
 40
0.0
 40
0.0
 40
0.0
 40
0.0
 40
0.1852917298383032
 40
0.3709014145284597
 40
0.5577472837880131
 40
0.7451514664625281
 40
0.9945824924508236
 40
1.0
 40
1.0
 40
1.0
 40
1.0
 10
105.1519677702164
 20
103.0466419581636
 30
0.0
 10
105.2826723035383
 20
103.0466419581636
 30
0.0
 10
105.5443056551006
 20
103.0466419581636
 30
0.0
 10
105.8626588512137
 20
103.0466419581636
 30
0.0
 10
106.1179731955098
 20
103.0466419581636
 30
0.0
 10
106.2960409187293
 20
103.0466419581636
 30
0.0
 10
106.3842531260552
 20
103.0466419581635
 30
0.0
 10
106.3565573208805
 20
103.0466419581636
 30
0.0
 10
106.3559685702546
 20
103.0466419581636
 30
0.0
  0
LINE
  5
123
330
1F
100
AcDbEntity
  8
0
  6
Continuous
 62
     7
370
    25
100
AcDbLine
 10
98.5020767035
 20
76.0927044582
 30
0.0
 11
98.5020767035
 21
103.0005794582
 31
0.0
  0
SPLINE
  5
124
330
1F
100
AcDbEntity
  8
0
  6
Continuous
 62
     7
370
    25
100
AcDbSpline
210
0.0
220
0.0
230
1.0
 70
    24
 71
     3
 72
    12
 73
     8
 74
     0
 42
0.000000001
 43
0.00000001
 40
0.0
 40
0.0
 40
0.0
 40
0.0
 40
0.2416481335353986
 40
0.4299028472038076
 40
0.6187765127099388
 40
0.8091952269991516
 40
1.0
 40
1.0
 40
1.0
 40
1.0
 10
98.53410840988866
 20
103.0466419581636
 30
0.0
 10
98.54667458481694
 20
103.0466419581636
 30
0.0
 10
98.56903037255297
 20
103.0466419581636
 30
0.0
 10
98.75842264504786
 20
103.0466419581636
 30
0.0
 10
99.00782893243463
 20
103.0466419581636
 30
0.0
 10
99.33160115382239
 20
103.0466419581636
 30
0.0
 10
99.60007127030629
 20
103.0466419581636
 30
0.0
 10
99.73444226616849
 20
103.0466419581636
 30
0.0
  0
SPLINE
  5
125
330
1F
100
AcDbEntity
  8
0
  6
Continuous
 62
     7
370
    25
100
AcDbSpline
210
0.0
220
0.0
230
1.0
 70
     8
 71
     3
 72
    16
 73
    12
 74
     0
 42
0.000000001
 43
0.00000001
 40
0.0
 40
0.0
 40
0.0
 40
0.0
 40
0.25
 40
0.25
 40
0.5
 40
0.5
 40
0.625
 40
0.625
 40
0.75
 40
0.75
 40
1.0
 40
1.0
 40
1.0
 40
1.0
 10
99.73444226616822
 20
89.54664195816362
 30
0.0
 10
99.36705990348221
 20
88.4444948701056
 30
0.0
 10
99.06427034308804
 20
87.33431239482536
 30
0.0
 10
98.64480853478271
 20
85.09079432779528
 30
0.0
 10
98.52951990932812
 20
83.95728661249893
 30
0.0
 10
98.52825351246422
 20
82.2356696085521
 30
0.0
 10
98.55643706955324
 20
81.65909634900925
 30
0.0
 10
98.6663382385952
 20
80.51857374306243
 30
0.0
 10
98.74794430066814
 20
79.95213618560224
 30
0.0
 10
99.06306289555897
 20
78.26290815236253
 30
0.0
 10
99.36660191189515
 20
77.15016302098319
 30
0.0
 10
99.73444226616836
 20
76.04664195816355
 30
0.0
  0
SPLINE
  5
126
330
1F
100
AcDbEntity
  8
0
  6
Continuous
 62
     7
370
    25
100
AcDbSpline
210
0.0
220
0.0
230
1.0
 70
    24
 71
     3
 72
    12
 73
     8
 74
     0
 42
0.000000001
 43
0.00000001
 40
0.0
 40
0.0
 40
0.0
 40
0.0
 40
0.1885294093501802
 40
0.3773953527529332
 40
0.5675745867769598
 40
0.758348914443257
 40
1.0
 40
1.0
 40
1.0
 40
1.0
 10
99.73444226616849
 20
76.04664195816358
 30
0.0
 10
99.601611359474
 20
76.04664195816358
 30
0.0
 10
99.33571243653547
 20
76.04664195816358
 30
0.0
 10
99.01229836696628
 20
76.04664195816358
 30
0.0
 10
98.7603863994576
 20
76.04664195816358
 30
0.0
 10
98.56975364855882
 20
76.04664195816358
 30
0.0
 10
98.5451763880494
 20
76.04664195816358
 30
0.0
 10
98.53144194622313
 20
76.04664195816358
 30
0.0
  0
LINE
  5
127
330
1F
100
AcDbEntity
  8
0
  6
Continuous
 62
     7
370
    25
100
AcDbLine
 10
102.4432050182
 20
89.0107544635
 30
0.0
 11
102.4432050182
 21
90.0825294528
 31
0.0
  0
SPLINE
  5
128
330
1F
100
AcDbEntity
  8
0
  6
Continuous
 62
     7
370
    25
100
AcDbSpline
210
0.0
220
0.0
230
1.0
 70
     8
 71
     3
 72
     8
 73
     4
 74
     0
 42
0.000000001
 43
0.00000001
 40
0.0
 40
0.0
 40
0.0
 40
0.0
 40
1.0
 40
1.0
 40
1.0
 40
1.0
 10
102.3628202604631
 20
89.54664195816358
 30
0.0
 10
102.3904433165569
 20
89.36808371665248
 30
0.0
 10
102.4172551636742
 20
89.18945600151291
 30
0.0
 10
102.4432050181925
 20
89.01075446352958
 30
0.0
  0
SPLINE
  5
129
330
1F
100
AcDbEntity
  8
0
  6
Continuous
 62
     7
370
    25
100
AcDbSpline
210
0.0
220
0.0
230
1.0
 70
     8
 71
     3
 72
     8
 73
     4
 74
     0
 42
0.000000001
 43
0.00000001
 40
0.0
 40
0.0
 40
0.0
 40
0.0
 40
1.0
 40
1.0
 40
1.0
 40
1.0
 10
102.4432050181925
 20
89.01075446352958
 30
0.0
 10
102.4691620818369
 20
89.18950564656747
 30
0.0
 10
102.4959742359313
 20
89.36813230150838
 30
0.0
 10
102.5235897759218
 20
89.54664195816358
 30
0.0
  0
LINE
  5
12A
330
1F
100
AcDbEntity
  8
0
  6
Continuous
 62
     7
370
    25
100
AcDbLine
 10
102.5235897759
 20
76.0466419582
 30
0.0
 11
105.1519677702
 21
76.0466419582
 31
0.0
  0
SPLINE
  5
12B
330
1F
100
AcDbEntity
  8
0
  6
Continuous
 62
     7
370
    25
100
AcDbSpline
210
0.0
220
0.0
230
1.0
 70
     8
 71
     3
 72
     8
 73
     4
 74
     0
 42
0.000000001
 43
0.00000001
 40
0.0
 40
0.0
 40
0.0
 40
0.0
 40
1.0
 40
1.0
 40
1.0
 40
1.0
 10
102.5235897759218
 20
76.04664195816358
 30
0.0
 10
102.495966719828
 20
76.22520019967467
 30
0.0
 10
102.4691548727107
 20
76.40382791481422
 30
0.0
 10
102.4432050181925
 20
76.58252945279756
 30
0.0
  0
SPLINE
  5
12C
330
1F
100
AcDbEntity
  8
0
  6
Continuous
 62
     7
370
    25
100
AcDbSpline
210
0.0
220
0.0
230
1.0
 70
     8
 71
     3
 72
     8
 73
     4
 74
     0
 42
0.000000001
 43
0.00000001
 40
0.0
 40
0.0
 40
0.0
 40
0.0
 40
1.0
 40
1.0
 40
1.0
 40
1.0
 10
102.4432050181925
 20
76.58252945279757
 30
0.0
 10
102.417247954548
 20
76.40377826975968
 30
0.0
 10
102.3904358004536
 20
76.22515161481877
 30
0.0
 10
102.3628202604631
 20
76.04664195816358
 30
0.0
  0
LINE
  5
12D
330
1F
100
AcDbEntity
  8
0
  6
Continuous
 62
     7
370
    25
100
AcDbLine
 10
99.7344422662
 20
76.0466419582
 30
0.0
 11
102.3628202605
 21
76.0466419582
 31
0.0
  0
LINE
  5
12E
330
1F
100
AcDbEntity
  8
0
  6
Continuous
 62
     7
370
    25
100
AcDbLine
 10
84.1072530424
 20
89.5466419582
 30
0.0
 11
84.1072530424
 21
76.5425426976
 31
0.0
  0
LINE
  5
12F
330
1F
100
AcDbEntity
  8
0
  6
Continuous
 62
     7
370
    25
100
AcDbLine
 10
84.1072530424
 20
102.5507412188
 30
0.0
 11
84.1072530424
 21
89.5466419582
 31
0.0
  0
LINE
  5
130
330
1F
100
AcDbEntity
  8
0
  6
Continuous
 62
     7
370
    25
100
AcDbLine
 10
81.5020767035
 20
78.0466419582
 30
0.0
 11
81.5020767035
 21
101.0466419582
 31
0.0
  0
LINE
  5
131
330
1F
100
AcDbEntity
  8
0
  6
Continuous
 62
     7
370
    25
100
AcDbLine
 10
115.5020767035
 20
89.5466419582
 30
0.0
 11
115.5020767035
 21
79.0466419582
 31
0.0
  0
LINE
  5
132
330
1F
100
AcDbEntity
  8
0
  6
Continuous
 62
     7
370
    25
100
AcDbLine
 10
115.5020767035
 20
100.0466419582
 30
0.0
 11
115.5020767035
 21
89.5466419582
 31
0.0
  0
LINE
  5
133
330
1F
100
AcDbEntity
  8
0
  6
Continuous
 62
     7
370
    25
100
AcDbLine
 10
133.5020767035
 20
89.5466419582
 30
0.0
 11
133.5020767035
 21
79.0466419582
 31
0.0
  0
LINE
  5
134
330
1F
100
AcDbEntity
  8
0
  6
Continuous
 62
     7
370
    25
100
AcDbLine
 10
133.5020767035
 20
100.0466419582
 30
0.0
 11
133.5020767035
 21
89.5466419582
 31
0.0
  0
LINE
  5
135
330
1F
100
AcDbEntity
  8
0
  6
Continuous
 62
     7
370
    25
100
AcDbLine
 10
121.5020767035
 20
89.5466419582
 30
0.0
 11
121.5020767035
 21
79.0466419582
 31
0.0
  0
LINE
  5
136
330
1F
100
AcDbEntity
  8
0
  6
Continuous
 62
     7
370
    25
100
AcDbLine
 10
121.5020767035
 20
100.0466419582
 30
0.0
 11
121.5020767035
 21
89.5466419582
 31
0.0
  0
LINE
  5
137
330
1F
100
AcDbEntity
  8
0
  6
Continuous
 62
     7
370
    25
100
AcDbLine
 10
127.5020767035
 20
89.5466419582
 30
0.0
 11
127.5020767035
 21
79.0466419582
 31
0.0
  0
LINE
  5
138
330
1F
100
AcDbEntity
  8
0
  6
Continuous
 62
     7
370
    25
100
AcDbLine
 10
127.5020767035
 20
100.0466419582
 30
0.0
 11
127.5020767035
 21
89.5466419582
 31
0.0
  0
LINE
  5
139
330
1F
100
AcDbEntity
  8
0
  6
Continuous
 62
     7
370
    25
100
AcDbLine
 10
141.5020767035
 20
98.6052508489
 30
0.0
 11
141.5020767035
 21
80.4880330674
 31
0.0
  0
SPLINE
  5
13A
330
1F
100
AcDbEntity
  8
0
  6
Continuous
 62
     7
370
    25
100
AcDbSpline
210
0.0
220
0.0
230
1.0
 70
    24
 71
     3
 72
     8
 73
     4
 74
     0
 42
0.000000001
 43
0.00000001
 40
0.0
 40
0.0
 40
0.0
 40
0.0
 40
1.0
 40
1.0
 40
1.0
 40
1.0
 10
102.4432050181925
 20
103.0466419581636
 30
0.0
 10
102.417248325462
 20
103.0466419581636
 30
0.0
 10
102.39043618696
 20
103.0466419581636
 30
0.0
 10
102.3628202604631
 20
103.0466419581636
 30
0.0
  0
LINE
  5
13B
330
1F
100
AcDbEntity
  8
0
  6
Continuous
 62
     7
370
    25
100
AcDbLine
 10
102.4432050182
 20
102.5107544635
 30
0.0
 11
102.4432050182
 21
103.0466419582
 31
0.0
  0
SPLINE
  5
13C
330
1F
100
AcDbEntity
  8
0
  6
Continuous
 62
     7
370
    25
100
AcDbSpline
210
0.0
220
0.0
230
1.0
 70
    24
 71
     3
 72
     8
 73
     4
 74
     0
 42
0.000000001
 43
0.00000001
 40
0.0
 40
0.0
 40
0.0
 40
0.0
 40
1.0
 40
1.0
 40
1.0
 40
1.0
 10
102.5235897759218
 20
103.0466419581636
 30
0.0
 10
102.4959656171194
 20
103.0466419581636
 30
0.0
 10
102.4691538157063
 20
103.0466419581636
 30
0.0
 10
102.4432050181925
 20
103.0466419581636
 30
0.0
  0
LINE
  5
13D
330
1F
100
AcDbEntity
  8
0
  6
Continuous
 62
     7
370
    25
100
AcDbLine
 10
102.4432050182
 20
76.0466419582
 30
0.0
 11
102.4432050182
 21
76.5825294528
 31
0.0
  0
SPLINE
  5
13E
330
1F
100
AcDbEntity
  8
0
  6
Continuous
 62
     7
370
    25
100
AcDbSpline
210
0.0
220
0.0
230
1.0
 70
    24
 71
     3
 72
     8
 73
     4
 74
     0
 42
0.000000001
 43
0.00000001
 40
0.0
 40
0.0
 40
0.0
 40
0.0
 40
1.0
 40
1.0
 40
1.0
 40
1.0
 10
102.3628202604631
 20
76.04664195816358
 30
0.0
 10
102.3904444192655
 20
76.04664195816358
 30
0.0
 10
102.4172562206787
 20
76.04664195816358
 30
0.0
 10
102.4432050181925
 20
76.04664195816358
 30
0.0
  0
SPLINE
  5
13F
330
1F
100
AcDbEntity
  8
0
  6
Continuous
 62
     7
370
    25
100
AcDbSpline
210
0.0
220
0.0
230
1.0
 70
    24
 71
     3
 72
     8
 73
     4
 74
     0
 42
0.000000001
 43
0.00000001
 40
0.0
 40
0.0
 40
0.0
 40
0.0
 40
1.0
 40
1.0
 40
1.0
 40
1.0
 10
102.4432050181925
 20
76.04664195816358
 30
0.0
 10
102.4691617109229
 20
76.04664195816358
 30
0.0
 10
102.4959738494249
 20
76.04664195816358
 30
0.0
 10
102.5235897759218
 20
76.04664195816358
 30
0.0
  0
LINE
  5
140
330
1F
100
AcDbEntity
  8
0
  6
Continuous
 62
     8
370
    25
100
AcDbLine
 10
141.0640940707
 20
89.5466419582
 30
0.0
 11
141.0640940707
 21
99.1013897873
 31
0.0
  0
LINE
  5
141
330
1F
100
AcDbEntity
  8
0
  6
Continuous
 62
     8
370
    25
100
AcDbLine
 10
141.0640940707
 20
79.9918941291
 30
0.0
 11
141.0640940707
 21
89.5466419582
 31
0.0
  0
LINE
  5
142
330
1F
100
AcDbEntity
  8
0
  6
Continuous
 62
     7
370
    18
100
AcDbLine
 10
82.5247826633
 20
101.6371015194
 30
0.0
 11
98.0020767035
 21
102.1207669582
 31
0.0
  0
LINE
  5
143
330
1F
100
AcDbEntity
  8
0
  6
Continuous
 62
     7
370
    18
100
AcDbLine
 10
82.5247826633
 20
77.4561823969
 30
0.0
 11
98.0020767035
 21
76.9725169582
 31
0.0
  0
LINE
  5
144
330
1F
100
AcDbEntity
  8
0
  6
Continuous
 62
     7
370
    18
100
AcDbLine
 10
98.0020767035
 20
76.1083294582
 30
0.0
 11
98.0020767035
 21
102.9849544582
 31
0.0
  0
LINE
  5
145
330
1F
100
AcDbEntity
  8
0
  6
CENTERX2
 62
     7
370
    18
100
AcDbLine
 10
142.5020767035
 20
89.5466419582
 30
0.0
 11
80.1953498749
 21
89.5466419582
 31
0.0
  0
ENDSEC
  0
SECTION
  2
OBJECTS
  0
DICTIONARY
  5
C
330
0
100
AcDbDictionary
281
     1
  3
ACAD_GROUP
350
D
  3
ACAD_LAYOUT
350
1A
  3
ACAD_MLINESTYLE
350
17
  3
ACAD_PLOTSETTINGS
350
19
  3
ACAD_PLOTSTYLENAME
350
E
  3
ACAD_SCALELIST
350
47
  0
DICTIONARY
  5
D
102
{ACAD_REACTORS
330
C
102
}
330
C
100
AcDbDictionary
281
     1
  0
DICTIONARY
  5
1A
102
{ACAD_REACTORS
330
C
102
}
330
C
100
AcDbDictionary
281
     1
  3
Layout1
350
1E
  3
Layout2
350
26
  3
Model
350
22
  0
DICTIONARY
  5
17
102
{ACAD_REACTORS
330
C
102
}
330
C
100
AcDbDictionary
281
     1
  3
Standard
350
18
  0
DICTIONARY
  5
19
102
{ACAD_REACTORS
330
C
102
}
330
C
100
AcDbDictionary
281
     1
  0
ACDBDICTIONARYWDFLT
  5
E
102
{ACAD_REACTORS
330
C
102
}
330
C
100
AcDbDictionary
281
     1
  3
Normal
350
F
100
AcDbDictionaryWithDefault
340
F
  0
DICTIONARY
  5
47
102
{ACAD_REACTORS
330
C
102
}
330
C
100
AcDbDictionary
281
     1
  3
A0
350
48
  3
A1
350
49
  3
A2
350
4A
  3
A3
350
4B
  3
A4
350
4C
  3
A5
350
4D
  3
A6
350
4E
  3
A7
350
4F
  3
A8
350
50
  3
A9
350
51
  3
B0
350
52
  3
B1
350
53
  3
B2
350
54
  3
B3
350
55
  3
B4
350
56
  3
B5
350
57
  3
B6
350
58
  3
B7
350
59
  3
B8
350
5A
  3
B9
350
5B
  3
C0
350
5C
  3
C1
350
5D
  3
C2
350
5E
  3
C3
350
5F
  3
C4
350
60
  3
C5
350
61
  3
C6
350
62
  3
C7
350
63
  3
C8
350
64
  3
C9
350
65
  3
D0
350
66
  3
D1
350
67
  3
D2
350
68
  0
LAYOUT
  5
1E
102
{ACAD_REACTORS
330
1A
102
}
330
1A
100
AcDbPlotSettings
  1

  2
none_device
  4

  6

 40
0.0
 41
0.0
 42
0.0
 43
0.0
 44
0.0
 45
0.0
 46
0.0
 47
0.0
 48
0.0
 49
0.0
140
0.0
141
0.0
142
1.0
143
1.0
 70
   688
 72
     1
 73
     0
 74
     5
  7

 75
    16
147
1.0
148
0.0
149
0.0
100
AcDbLayout
  1
Layout1
 70
     1
 71
     1
 10
0.0
 20
0.0
 11
420.0
 21
297.0
 12
0.0
 22
0.0
 32
0.0
 14
1.0000000000E+20
 24
1.0000000000E+20
 34
1.0000000000E+20
 15
-1.0000000000E+20
 25
-1.0000000000E+20
 35
-1.0000000000E+20
146
0.0
 13
0.0
 23
0.0
 33
0.0
 16
1.0
 26
0.0
 36
0.0
 17
0.0
 27
1.0
 37
0.0
 76
     0
330
1B
  0
LAYOUT
  5
26
102
{ACAD_REACTORS
330
1A
102
}
330
1A
100
AcDbPlotSettings
  1

  2
none_device
  4

  6

 40
0.0
 41
0.0
 42
0.0
 43
0.0
 44
0.0
 45
0.0
 46
0.0
 47
0.0
 48
0.0
 49
0.0
140
0.0
141
0.0
142
1.0
143
1.0
 70
   688
 72
     1
 73
     0
 74
     5
  7

 75
    16
147
1.0
148
0.0
149
0.0
100
AcDbLayout
  1
Layout2
 70
     1
 71
     2
 10
0.0
 20
0.0
 11
0.0
 21
0.0
 12
0.0
 22
0.0
 32
0.0
 14
0.0
 24
0.0
 34
0.0
 15
0.0
 25
0.0
 35
0.0
146
0.0
 13
0.0
 23
0.0
 33
0.0
 16
1.0
 26
0.0
 36
0.0
 17
0.0
 27
1.0
 37
0.0
 76
     0
330
23
  0
LAYOUT
  5
22
102
{ACAD_REACTORS
330
1A
102
}
330
1A
100
AcDbPlotSettings
  1

  2
none_device
  4
Letter_(8.50_x_11.00_Inches)
  6

 40
6.35
 41
6.35
 42
6.35000508
 43
6.35000508
 44
215.9
 45
279.4
 46
0.0
 47
0.0
 48
0.0
 49
0.0
140
0.0
141
0.0
142
1.0
143
1.0
 70
  1712
 72
     1
 73
     0
 74
     0
  7

 75
     0
147
1.0
148
0.0
149
0.0
100
AcDbLayout
  1
Model
 70
     1
 71
     0
 10
0.0
 20
0.0
 11
215.9
 21
139.7
 12
0.0
 22
0.0
 32
0.0
 14
0.0
 24
0.0
 34
0.0
 15
215.9
 25
139.7
 35
0.0
146
0.0
 13
0.0
 23
0.0
 33
0.0
 16
1.0
 26
0.0
 36
0.0
 17
0.0
 27
1.0
 37
0.0
 76
     0
330
1F
331
29
  0
MLINESTYLE
  5
18
102
{ACAD_REACTORS
330
17
102
}
330
17
100
AcDbMlineStyle
  2
Standard
 70
     0
  3

 62
   256
 51
90.0
 52
90.0
 71
     2
 49
0.5
 62
   256
  6
BYLAYER
 49
-0.5
 62
   256
  6
BYLAYER
  0
ACDBPLACEHOLDER
  5
F
102
{ACAD_REACTORS
330
E
102
}
330
E
  0
SCALE
  5
48
102
{ACAD_REACTORS
330
47
102
}
330
47
100
AcDbScale
 70
     0
300
1:1
140
1.0
141
1.0
290
     1
  0
SCALE
  5
49
102
{ACAD_REACTORS
330
47
102
}
330
47
100
AcDbScale
 70
     0
300
1:2
140
1.0
141
2.0
290
     0
  0
SCALE
  5
4A
102
{ACAD_REACTORS
330
47
102
}
330
47
100
AcDbScale
 70
     0
300
1:4
140
1.0
141
4.0
290
     0
  0
SCALE
  5
4B
102
{ACAD_REACTORS
330
47
102
}
330
47
100
AcDbScale
 70
     0
300
1:5
140
1.0
141
5.0
290
     0
  0
SCALE
  5
4C
102
{ACAD_REACTORS
330
47
102
}
330
47
100
AcDbScale
 70
     0
300
1:8
140
1.0
141
8.0
290
     0
  0
SCALE
  5
4D
102
{ACAD_REACTORS
330
47
102
}
330
47
100
AcDbScale
 70
     0
300
1:10
140
1.0
141
10.0
290
     0
  0
SCALE
  5
4E
102
{ACAD_REACTORS
330
47
102
}
330
47
100
AcDbScale
 70
     0
300
1:16
140
1.0
141
16.0
290
     0
  0
SCALE
  5
4F
102
{ACAD_REACTORS
330
47
102
}
330
47
100
AcDbScale
 70
     0
300
1:20
140
1.0
141
20.0
290
     0
  0
SCALE
  5
50
102
{ACAD_REACTORS
330
47
102
}
330
47
100
AcDbScale
 70
     0
300
1:30
140
1.0
141
30.0
290
     0
  0
SCALE
  5
51
102
{ACAD_REACTORS
330
47
102
}
330
47
100
AcDbScale
 70
     0
300
1:40
140
1.0
141
40.0
290
     0
  0
SCALE
  5
52
102
{ACAD_REACTORS
330
47
102
}
330
47
100
AcDbScale
 70
     0
300
1:50
140
1.0
141
50.0
290
     0
  0
SCALE
  5
53
102
{ACAD_REACTORS
330
47
102
}
330
47
100
AcDbScale
 70
     0
300
1:100
140
1.0
141
100.0
290
     0
  0
SCALE
  5
54
102
{ACAD_REACTORS
330
47
102
}
330
47
100
AcDbScale
 70
     0
300
2:1
140
2.0
141
1.0
290
     0
  0
SCALE
  5
55
102
{ACAD_REACTORS
330
47
102
}
330
47
100
AcDbScale
 70
     0
300
4:1
140
4.0
141
1.0
290
     0
  0
SCALE
  5
56
102
{ACAD_REACTORS
330
47
102
}
330
47
100
AcDbScale
 70
     0
300
8:1
140
8.0
141
1.0
290
     0
  0
SCALE
  5
57
102
{ACAD_REACTORS
330
47
102
}
330
47
100
AcDbScale
 70
     0
300
10:1
140
10.0
141
1.0
290
     0
  0
SCALE
  5
58
102
{ACAD_REACTORS
330
47
102
}
330
47
100
AcDbScale
 70
     0
300
100:1
140
100.0
141
1.0
290
     0
  0
SCALE
  5
59
102
{ACAD_REACTORS
330
47
102
}
330
47
100
AcDbScale
 70
     0
300
1/128" = 1'-0"
140
0.0078125
141
12.0
290
     0
  0
SCALE
  5
5A
102
{ACAD_REACTORS
330
47
102
}
330
47
100
AcDbScale
 70
     0
300
1/64" = 1'-0"
140
0.015625
141
12.0
290
     0
  0
SCALE
  5
5B
102
{ACAD_REACTORS
330
47
102
}
330
47
100
AcDbScale
 70
     0
300
1/32" = 1'-0"
140
0.03125
141
12.0
290
     0
  0
SCALE
  5
5C
102
{ACAD_REACTORS
330
47
102
}
330
47
100
AcDbScale
 70
     0
300
1/16" = 1'-0"
140
0.0625
141
12.0
290
     0
  0
SCALE
  5
5D
102
{ACAD_REACTORS
330
47
102
}
330
47
100
AcDbScale
 70
     0
300
3/32" = 1'-0"
140
0.09375
141
12.0
290
     0
  0
SCALE
  5
5E
102
{ACAD_REACTORS
330
47
102
}
330
47
100
AcDbScale
 70
     0
300
1/8" = 1'-0"
140
0.125
141
12.0
290
     0
  0
SCALE
  5
5F
102
{ACAD_REACTORS
330
47
102
}
330
47
100
AcDbScale
 70
     0
300
3/16" = 1'-0"
140
0.1875
141
12.0
290
     0
  0
SCALE
  5
60
102
{ACAD_REACTORS
330
47
102
}
330
47
100
AcDbScale
 70
     0
300
1/4" = 1'-0"
140
0.25
141
12.0
290
     0
  0
SCALE
  5
61
102
{ACAD_REACTORS
330
47
102
}
330
47
100
AcDbScale
 70
     0
300
3/8" = 1'-0"
140
0.375
141
12.0
290
     0
  0
SCALE
  5
62
102
{ACAD_REACTORS
330
47
102
}
330
47
100
AcDbScale
 70
     0
300
1/2" = 1'-0"
140
0.5
141
12.0
290
     0
  0
SCALE
  5
63
102
{ACAD_REACTORS
330
47
102
}
330
47
100
AcDbScale
 70
     0
300
3/4" = 1'-0"
140
0.75
141
12.0
290
     0
  0
SCALE
  5
64
102
{ACAD_REACTORS
330
47
102
}
330
47
100
AcDbScale
 70
     0
300
1" = 1'-0"
140
1.0
141
12.0
290
     0
  0
SCALE
  5
65
102
{ACAD_REACTORS
330
47
102
}
330
47
100
AcDbScale
 70
     0
300
1-1/2" = 1'-0"
140
1.5
141
12.0
290
     0
  0
SCALE
  5
66
102
{ACAD_REACTORS
330
47
102
}
330
47
100
AcDbScale
 70
     0
300
3" = 1'-0"
140
3.0
141
12.0
290
     0
  0
SCALE
  5
67
102
{ACAD_REACTORS
330
47
102
}
330
47
100
AcDbScale
 70
     0
300
6" = 1'-0"
140
6.0
141
12.0
290
     0
  0
SCALE
  5
68
102
{ACAD_REACTORS
330
47
102
}
330
47
100
AcDbScale
 70
     0
300
1'-0" = 1'-0"
140
12.0
141
12.0
290
     0
  0
ENDSEC
  0
EOF
